0
SECTION
2
HEADER
9
$MEASUREMENT
70
1
0
ENDSEC
0
SECTION
2
TABLES
0
TABLE
2
LTYPE
0
LTYPE
72
65
70
64
2
CONTINUOUS
3
______
73
0
40
0
0
ENDTAB
0
TABLE
2
LAYER
0
LAYER
2
DEFAULT_255_2_778
70
0
62
255
6
CONTINUOUS
0
ENDTAB
0
ENDSEC
0
SECTION
2
ENTITIES
0
LINE
8
DEFAULT_255_2_778
10
47.1261834
20
20.6624599
11
45.6762834
21
21.4791599
0
LINE
8
DEFAULT_255_2_778
10
45.6762834
20
21.4791599
11
44.2263834
21
22.2959599
0
LINE
8
DEFAULT_255_2_778
10
44.2263834
20
22.2959599
11
42.7761834
21
23.1127599
0
LINE
8
DEFAULT_255_2_778
10
42.7761834
20
23.1127599
11
42.6261834
21
23.1127599
0
LINE
8
DEFAULT_255_2_778
10
42.6261834
20
23.1127599
11
42.6261834
21
132.3991599
0
LINE
8
DEFAULT_255_2_778
10
42.6261834
20
132.3991599
11
42.8478834
21
132.3991599
0
LINE
8
DEFAULT_255_2_778
10
42.8478834
20
132.3991599
11
45.9260834
21
134.1763599
0
LINE
8
DEFAULT_255_2_778
10
47.126284
20
134.869225
11
47.126284
21
20.662625
0
LINE
8
DEFAULT_255_2_778
10
47.126284
20
20.662625
11
47.126284
21
7.813425
0
LINE
8
DEFAULT_255_2_778
10
47.126284
20
7.813425
11
47.126284
21
-0.186575
0
LINE
8
DEFAULT_255_2_778
10
47.126284
20
-0.186575
11
12.326184
21
-0.186575
0
LINE
8
DEFAULT_255_2_778
10
12.326184
20
-0.186575
11
12.326184
21
4.813825
0
LINE
8
DEFAULT_255_2_778
10
12.326184
20
4.813825
11
12.326184
21
20.662625
0
LINE
8
DEFAULT_255_2_778
10
12.326184
20
20.662625
11
12.326184
21
35.401025
0
LINE
8
DEFAULT_255_2_778
10
12.326184
20
35.401025
11
0.233884
21
35.401025
0
LINE
8
DEFAULT_255_2_778
10
0.233884
20
35.401025
11
0.233884
21
118.800825
0
LINE
8
DEFAULT_255_2_778
10
0.233884
20
118.800825
11
0.233884
21
126.800725
0
LINE
8
DEFAULT_255_2_778
10
0.233884
20
126.800725
11
2.225384
21
126.800725
0
LINE
8
DEFAULT_255_2_778
10
2.225384
20
126.800725
11
2.225384
21
124.305225
0
LINE
8
DEFAULT_255_2_778
10
2.225384
20
124.305225
11
10.642584
21
124.305225
0
LINE
8
DEFAULT_255_2_778
10
10.642584
20
124.305225
11
10.642584
21
126.800725
0
LINE
8
DEFAULT_255_2_778
10
10.642584
20
126.800725
11
12.326384
21
126.800725
0
LINE
8
DEFAULT_255_2_778
10
12.326384
20
126.800725
11
12.326384
21
134.869225
0
LINE
8
DEFAULT_255_2_778
10
12.326384
20
134.869225
11
12.326384
21
146.813325
0
LINE
8
DEFAULT_255_2_778
10
12.326384
20
146.813325
11
47.126484
21
146.813325
0
LINE
8
DEFAULT_255_2_778
10
47.126484
20
146.813325
11
47.126284
21
134.869225
0
LINE
8
DEFAULT_255_2_778
10
12.3261157
20
20.6624599
11
13.7760157
21
21.4791599
0
LINE
8
DEFAULT_255_2_778
10
13.7760157
20
21.4791599
11
15.2259157
21
22.2959599
0
LINE
8
DEFAULT_255_2_778
10
15.2259157
20
22.2959599
11
16.6758157
21
23.1127599
0
LINE
8
DEFAULT_255_2_778
10
16.6758157
20
23.1127599
11
16.8259157
21
23.1127599
0
LINE
8
DEFAULT_255_2_778
10
16.8259157
20
23.1127599
11
16.8259157
21
132.3991599
0
LINE
8
DEFAULT_255_2_778
10
16.8259157
20
132.3991599
11
16.6041157
21
132.3991599
0
LINE
8
DEFAULT_255_2_778
10
16.6041157
20
132.3991599
11
13.5260157
21
134.1763599
0
LINE
8
DEFAULT_255_2_778
10
14.0292354
20
130.7079479
11
14.0197354
21
130.7386479
0
LINE
8
DEFAULT_255_2_778
10
14.0197354
20
130.7386479
11
14.0128354
21
130.7598479
0
LINE
8
DEFAULT_255_2_778
10
14.0128354
20
130.7598479
11
14.0057354
21
130.7815479
0
LINE
8
DEFAULT_255_2_778
10
14.0057354
20
130.7815479
11
13.9983354
21
130.8037479
0
LINE
8
DEFAULT_255_2_778
10
13.9983354
20
130.8037479
11
13.9903354
21
130.8264479
0
LINE
8
DEFAULT_255_2_778
10
13.9903354
20
130.8264479
11
13.9821354
21
130.8497479
0
LINE
8
DEFAULT_255_2_778
10
13.9821354
20
130.8497479
11
13.9692354
21
130.8862479
0
LINE
8
DEFAULT_255_2_778
10
13.9692354
20
130.8862479
11
13.9602354
21
130.9122479
0
LINE
8
DEFAULT_255_2_778
10
13.9602354
20
130.9122479
11
13.9509354
21
130.9397479
0
LINE
8
DEFAULT_255_2_778
10
13.9509354
20
130.9397479
11
13.9361354
21
130.9836479
0
LINE
8
DEFAULT_255_2_778
10
13.9361354
20
130.9836479
11
13.9149354
21
131.0474479
0
LINE
8
DEFAULT_255_2_778
10
13.9149354
20
131.0474479
11
13.8983354
21
131.0984479
0
LINE
8
DEFAULT_255_2_778
10
13.8983354
20
131.0984479
11
13.8866354
21
131.1339479
0
LINE
8
DEFAULT_255_2_778
10
13.8866354
20
131.1339479
11
13.8750354
21
131.1704479
0
LINE
8
DEFAULT_255_2_778
10
13.8750354
20
131.1704479
11
13.8631354
21
131.2082479
0
LINE
8
DEFAULT_255_2_778
10
13.8631354
20
131.2082479
11
13.8509354
21
131.2471479
0
LINE
8
DEFAULT_255_2_778
10
13.8509354
20
131.2471479
11
13.8509354
21
131.2630479
0
LINE
8
DEFAULT_255_2_778
10
13.8509354
20
131.2630479
11
13.8631354
21
131.2241479
0
LINE
8
DEFAULT_255_2_778
10
13.8631354
20
131.2241479
11
13.8750354
21
131.1863479
0
LINE
8
DEFAULT_255_2_778
10
13.8750354
20
131.1863479
11
13.8866354
21
131.1498479
0
LINE
8
DEFAULT_255_2_778
10
13.8866354
20
131.1498479
11
13.8983354
21
131.1143479
0
LINE
8
DEFAULT_255_2_778
10
13.8983354
20
131.1143479
11
13.9149354
21
131.0632479
0
LINE
8
DEFAULT_255_2_778
10
13.9149354
20
131.0632479
11
13.9361354
21
130.9995479
0
LINE
8
DEFAULT_255_2_778
10
13.9361354
20
130.9995479
11
13.9509354
21
130.9556479
0
LINE
8
DEFAULT_255_2_778
10
13.9509354
20
130.9556479
11
13.9602354
21
130.9280479
0
LINE
8
DEFAULT_255_2_778
10
13.9602354
20
130.9280479
11
13.9692354
21
130.9021479
0
LINE
8
DEFAULT_255_2_778
10
13.9692354
20
130.9021479
11
13.9821354
21
130.8656479
0
LINE
8
DEFAULT_255_2_778
10
13.9821354
20
130.8656479
11
13.9903354
21
130.8420479
0
LINE
8
DEFAULT_255_2_778
10
13.9903354
20
130.8420479
11
13.9983354
21
130.8193479
0
LINE
8
DEFAULT_255_2_778
10
13.9983354
20
130.8193479
11
14.0057354
21
130.7971479
0
LINE
8
DEFAULT_255_2_778
10
14.0057354
20
130.7971479
11
14.0128354
21
130.7754479
0
LINE
8
DEFAULT_255_2_778
10
14.0128354
20
130.7754479
11
14.0197354
21
130.7542479
0
LINE
8
DEFAULT_255_2_778
10
14.0197354
20
130.7542479
11
14.0292354
21
130.7235479
0
LINE
8
DEFAULT_255_2_778
10
13.8509076
20
131.2633143
11
12.9881076
21
131.2633143
0
LINE
8
DEFAULT_255_2_778
10
12.8040076
20
130.7238143
11
12.6701076
21
130.7680143
0
LINE
8
DEFAULT_255_2_778
10
13.7980076
20
131.4048143
11
13.7798076
21
131.4620143
0
LINE
8
DEFAULT_255_2_778
10
13.7798076
20
131.4620143
11
13.7610076
21
131.5194143
0
LINE
8
DEFAULT_255_2_778
10
13.7610076
20
131.5194143
11
13.7422076
21
131.5774143
0
LINE
8
DEFAULT_255_2_778
10
13.7422076
20
131.5774143
11
13.7232076
21
131.6356143
0
LINE
8
DEFAULT_255_2_778
10
13.7232076
20
131.6356143
11
13.7038076
21
131.6940143
0
LINE
8
DEFAULT_255_2_778
10
13.7038076
20
131.6940143
11
13.6649076
21
131.8115143
0
LINE
8
DEFAULT_255_2_778
10
13.6649076
20
131.8115143
11
13.6369076
21
131.8967143
0
LINE
8
DEFAULT_255_2_778
10
13.6369076
20
131.8967143
11
13.6012076
21
132.0057143
0
LINE
8
DEFAULT_255_2_778
10
13.6012076
20
132.0057143
11
13.5755076
21
132.0840143
0
LINE
8
DEFAULT_255_2_778
10
13.5755076
20
132.0840143
11
13.5139076
21
132.2732143
0
LINE
8
DEFAULT_255_2_778
10
13.5139076
20
132.2732143
11
13.4938076
21
132.3354143
0
LINE
8
DEFAULT_255_2_778
10
13.4938076
20
132.3354143
11
13.4395076
21
132.5039143
0
LINE
8
DEFAULT_255_2_778
10
13.4395076
20
132.5039143
11
13.4268076
21
132.5433143
0
LINE
8
DEFAULT_255_2_778
10
13.4755076
20
132.3928143
11
13.4755076
21
132.4087143
0
LINE
8
DEFAULT_255_2_778
10
14.1666076
20
130.7521143
11
14.1666076
21
130.7680143
0
LINE
8
DEFAULT_255_2_778
10
14.1666076
20
130.7680143
11
14.0295076
21
130.7238143
0
LINE
8
DEFAULT_255_2_778
10
14.0295076
20
130.7238143
11
14.0295076
21
130.7079143
0
LINE
8
DEFAULT_255_2_778
10
14.0295076
20
130.7079143
11
14.1666076
21
130.7521143
0
LINE
8
DEFAULT_255_2_778
10
13.8512076
20
131.2474143
11
12.9884076
21
131.2474143
0
LINE
8
DEFAULT_255_2_778
10
12.9884076
20
131.2474143
11
12.9884076
21
131.2633143
0
LINE
8
DEFAULT_255_2_778
10
12.9884076
20
131.2633143
11
12.8043076
21
130.7238143
0
LINE
8
DEFAULT_255_2_778
10
12.8043076
20
130.7238143
11
12.8043076
21
130.7079143
0
LINE
8
DEFAULT_255_2_778
10
12.8043076
20
130.7079143
11
12.9884076
21
131.2474143
0
LINE
8
DEFAULT_255_2_778
10
12.8043076
20
130.7079143
11
12.6704076
21
130.7521143
0
LINE
8
DEFAULT_255_2_778
10
12.6704076
20
130.7521143
11
12.6704076
21
130.7680143
0
LINE
8
DEFAULT_255_2_778
10
12.6704076
20
130.7680143
11
13.3374076
21
132.7365143
0
LINE
8
DEFAULT_255_2_778
10
13.3374076
20
132.7365143
11
13.5162076
21
132.7365143
0
LINE
8
DEFAULT_255_2_778
10
13.5162076
20
132.7365143
11
14.1663076
21
130.7680143
0
LINE
8
DEFAULT_255_2_778
10
13.0411076
20
131.4048143
11
13.0958076
21
131.5673143
0
LINE
8
DEFAULT_255_2_778
10
13.0958076
20
131.5673143
11
13.2247076
21
131.9472143
0
LINE
8
DEFAULT_255_2_778
10
13.2247076
20
131.9472143
11
13.2757076
21
132.0959143
0
LINE
8
DEFAULT_255_2_778
10
13.2757076
20
132.0959143
11
13.2919076
21
132.1430143
0
LINE
8
DEFAULT_255_2_778
10
13.2919076
20
132.1430143
11
13.3072076
21
132.1883143
0
LINE
8
DEFAULT_255_2_778
10
13.3072076
20
132.1883143
11
13.3220076
21
132.2317143
0
LINE
8
DEFAULT_255_2_778
10
13.3220076
20
132.2317143
11
13.3427076
21
132.2931143
0
LINE
8
DEFAULT_255_2_778
10
13.3427076
20
132.2931143
11
13.3847076
21
132.4193143
0
LINE
8
DEFAULT_255_2_778
10
13.3847076
20
132.4193143
11
13.4173076
21
132.5164143
0
LINE
8
DEFAULT_255_2_778
10
13.4173076
20
132.5164143
11
13.4236076
21
132.5346143
0
LINE
8
DEFAULT_255_2_778
10
13.4236076
20
132.5346143
11
13.4266076
21
132.5428143
0
LINE
8
DEFAULT_255_2_778
10
13.4266076
20
132.5428143
11
13.4266076
21
132.5587143
0
LINE
8
DEFAULT_255_2_778
10
13.4266076
20
132.5587143
11
13.4236076
21
132.5502143
0
LINE
8
DEFAULT_255_2_778
10
13.4236076
20
132.5502143
11
13.4186076
21
132.5357143
0
LINE
8
DEFAULT_255_2_778
10
13.4186076
20
132.5357143
11
13.3840076
21
132.4325143
0
LINE
8
DEFAULT_255_2_778
10
13.3840076
20
132.4325143
11
13.3411076
21
132.3042143
0
LINE
8
DEFAULT_255_2_778
10
13.3411076
20
132.3042143
11
13.3199076
21
132.2417143
0
LINE
8
DEFAULT_255_2_778
10
13.3199076
20
132.2417143
11
13.3051076
21
132.1975143
0
LINE
8
DEFAULT_255_2_778
10
13.3051076
20
132.1975143
11
13.2892076
21
132.1515143
0
LINE
8
DEFAULT_255_2_778
10
13.2892076
20
132.1515143
11
13.2728076
21
132.1036143
0
LINE
8
DEFAULT_255_2_778
10
13.2728076
20
132.1036143
11
13.2210076
21
131.9525143
0
LINE
8
DEFAULT_255_2_778
10
13.2210076
20
131.9525143
11
13.0905076
21
131.5676143
0
LINE
8
DEFAULT_255_2_778
10
13.0905076
20
131.5676143
11
13.0352076
21
131.4035143
0
LINE
8
DEFAULT_255_2_778
10
13.0352076
20
131.4035143
11
13.8031076
21
131.4035143
0
LINE
8
DEFAULT_255_2_778
10
13.8031076
20
131.4035143
11
13.7845076
21
131.4615143
0
LINE
8
DEFAULT_255_2_778
10
13.7845076
20
131.4615143
11
13.7657076
21
131.5197143
0
LINE
8
DEFAULT_255_2_778
10
13.7657076
20
131.5197143
11
13.7467076
21
131.5784143
0
LINE
8
DEFAULT_255_2_778
10
13.7467076
20
131.5784143
11
13.7274076
21
131.6374143
0
LINE
8
DEFAULT_255_2_778
10
13.7274076
20
131.6374143
11
13.7078076
21
131.6967143
0
LINE
8
DEFAULT_255_2_778
10
13.7078076
20
131.6967143
11
13.6684076
21
131.8157143
0
LINE
8
DEFAULT_255_2_778
10
13.6684076
20
131.8157143
11
13.6398076
21
131.9025143
0
LINE
8
DEFAULT_255_2_778
10
13.6398076
20
131.9025143
11
13.6036076
21
132.0134143
0
LINE
8
DEFAULT_255_2_778
10
13.6036076
20
132.0134143
11
13.5075076
21
132.3071143
0
LINE
8
DEFAULT_255_2_778
10
13.5075076
20
132.3071143
11
13.4877076
21
132.3687143
0
LINE
8
DEFAULT_255_2_778
10
13.4877076
20
132.3687143
11
13.4268076
21
132.5576143
0
LINE
8
DEFAULT_255_2_778
10
19.7091076
20
136.6174143
11
19.6564076
21
136.6169143
0
LINE
8
DEFAULT_255_2_778
10
19.6564076
20
136.6169143
11
19.6038076
21
136.6155143
0
LINE
8
DEFAULT_255_2_778
10
19.6038076
20
136.6155143
11
19.5511076
21
136.6132143
0
LINE
8
DEFAULT_255_2_778
10
19.5511076
20
136.6132143
11
19.4987076
21
136.6100143
0
LINE
8
DEFAULT_255_2_778
10
19.4987076
20
136.6100143
11
19.4464076
21
136.6058143
0
LINE
8
DEFAULT_255_2_778
10
19.4464076
20
136.6058143
11
19.3940076
21
136.6005143
0
LINE
8
DEFAULT_255_2_778
10
19.3940076
20
136.6005143
11
19.3418076
21
136.5944143
0
LINE
8
DEFAULT_255_2_778
10
19.3418076
20
136.5944143
11
19.2897076
21
136.5875143
0
LINE
8
DEFAULT_255_2_778
10
19.2897076
20
136.5875143
11
19.2379076
21
136.5796143
0
LINE
8
DEFAULT_255_2_778
10
19.2379076
20
136.5796143
11
19.1860076
21
136.5708143
0
LINE
8
DEFAULT_255_2_778
10
19.1860076
20
136.5708143
11
19.1344076
21
136.5610143
0
LINE
8
DEFAULT_255_2_778
10
19.1344076
20
136.5610143
11
19.0828076
21
136.5505143
0
LINE
8
DEFAULT_255_2_778
10
19.0828076
20
136.5505143
11
19.0315076
21
136.5388143
0
LINE
8
DEFAULT_255_2_778
10
19.0315076
20
136.5388143
11
18.9804076
21
136.5264143
0
LINE
8
DEFAULT_255_2_778
10
18.9804076
20
136.5264143
11
18.9296076
21
136.5132143
0
LINE
8
DEFAULT_255_2_778
10
18.9296076
20
136.5132143
11
18.8791076
21
136.4989143
0
LINE
8
DEFAULT_255_2_778
10
18.8791076
20
136.4989143
11
18.8288076
21
136.4838143
0
LINE
8
DEFAULT_255_2_778
10
18.8288076
20
136.4838143
11
18.7788076
21
136.4679143
0
LINE
8
DEFAULT_255_2_778
10
18.7788076
20
136.4679143
11
18.7291076
21
136.4512143
0
LINE
8
DEFAULT_255_2_778
10
18.7291076
20
136.4512143
11
18.6796076
21
136.4335143
0
LINE
8
DEFAULT_255_2_778
10
18.6796076
20
136.4335143
11
18.6304076
21
136.4150143
0
LINE
8
DEFAULT_255_2_778
10
18.6304076
20
136.4150143
11
18.5814076
21
136.3957143
0
LINE
8
DEFAULT_255_2_778
10
18.5814076
20
136.3957143
11
18.5330076
21
136.3756143
0
LINE
8
DEFAULT_255_2_778
10
18.5330076
20
136.3756143
11
18.4849076
21
136.3547143
0
LINE
8
DEFAULT_255_2_778
10
18.4849076
20
136.3547143
11
18.4370076
21
136.3330143
0
LINE
8
DEFAULT_255_2_778
10
18.4370076
20
136.3330143
11
18.3896076
21
136.3102143
0
LINE
8
DEFAULT_255_2_778
10
18.3896076
20
136.3102143
11
18.3425076
21
136.2869143
0
LINE
8
DEFAULT_255_2_778
10
18.3425076
20
136.2869143
11
18.2959076
21
136.2626143
0
LINE
8
DEFAULT_255_2_778
10
3.4340076
20
70.0260143
11
3.4340076
21
40.0760143
0
LINE
8
DEFAULT_255_2_778
10
3.4340076
20
40.0760143
11
7.7840076
21
40.0760143
0
LINE
8
DEFAULT_255_2_778
10
7.7840076
20
40.0760143
11
7.7840076
21
70.0260143
0
LINE
8
DEFAULT_255_2_778
10
0.2339076
20
117.8928143
11
3.5838076
21
117.8928143
0
LINE
8
DEFAULT_255_2_778
10
3.5838076
20
117.8928143
11
3.5838076
21
93.7089143
0
LINE
8
DEFAULT_255_2_778
10
3.5838076
20
93.7089143
11
0.2339076
21
93.7089143
0
LINE
8
DEFAULT_255_2_778
10
6.1589761
20
60.188328
11
6.8589761
21
60.188328
0
LINE
8
DEFAULT_255_2_778
10
6.8589761
20
60.188328
11
6.8589761
21
59.213328
0
LINE
8
DEFAULT_255_2_778
10
6.8589761
20
59.213328
11
6.1589761
21
59.213328
0
LINE
8
DEFAULT_255_2_778
10
6.1589761
20
59.213328
11
6.1589761
21
60.188328
0
LINE
8
DEFAULT_255_2_778
10
6.1589761
20
61.688228
11
6.8589761
21
61.688228
0
LINE
8
DEFAULT_255_2_778
10
6.8589761
20
61.688228
11
6.8589761
21
60.713228
0
LINE
8
DEFAULT_255_2_778
10
6.8589761
20
60.713228
11
6.1589761
21
60.713228
0
LINE
8
DEFAULT_255_2_778
10
6.1589761
20
60.713228
11
6.1589761
21
61.688228
0
LINE
8
DEFAULT_255_2_778
10
6.1589761
20
63.188128
11
6.8589761
21
63.188128
0
LINE
8
DEFAULT_255_2_778
10
6.8589761
20
63.188128
11
6.8589761
21
62.213128
0
LINE
8
DEFAULT_255_2_778
10
6.8589761
20
62.213128
11
6.1589761
21
62.213128
0
LINE
8
DEFAULT_255_2_778
10
6.1589761
20
62.213128
11
6.1589761
21
63.188128
0
LINE
8
DEFAULT_255_2_778
10
6.1589761
20
64.688028
11
6.8589761
21
64.688028
0
LINE
8
DEFAULT_255_2_778
10
6.8589761
20
64.688028
11
6.8589761
21
63.713028
0
LINE
8
DEFAULT_255_2_778
10
6.8589761
20
63.713028
11
6.1589761
21
63.713028
0
LINE
8
DEFAULT_255_2_778
10
6.1589761
20
63.713028
11
6.1589761
21
64.688028
0
LINE
8
DEFAULT_255_2_778
10
6.1589761
20
66.188028
11
6.8589761
21
66.188028
0
LINE
8
DEFAULT_255_2_778
10
6.8589761
20
66.188028
11
6.8589761
21
65.213028
0
LINE
8
DEFAULT_255_2_778
10
6.8589761
20
65.213028
11
6.1589761
21
65.213028
0
LINE
8
DEFAULT_255_2_778
10
6.1589761
20
65.213028
11
6.1589761
21
66.188028
0
LINE
8
DEFAULT_255_2_778
10
6.1589761
20
67.687928
11
6.8589761
21
67.687928
0
LINE
8
DEFAULT_255_2_778
10
6.8589761
20
67.687928
11
6.8589761
21
66.712928
0
LINE
8
DEFAULT_255_2_778
10
6.8589761
20
66.712928
11
6.1589761
21
66.712928
0
LINE
8
DEFAULT_255_2_778
10
6.1589761
20
66.712928
11
6.1589761
21
67.687928
0
LINE
8
DEFAULT_255_2_778
10
6.1589761
20
69.187828
11
6.8589761
21
69.187828
0
LINE
8
DEFAULT_255_2_778
10
6.8589761
20
69.187828
11
6.8589761
21
68.212828
0
LINE
8
DEFAULT_255_2_778
10
6.8589761
20
68.212828
11
6.1589761
21
68.212828
0
LINE
8
DEFAULT_255_2_778
10
6.1589761
20
68.212828
11
6.1589761
21
69.187828
0
LINE
8
DEFAULT_255_2_778
10
4.3589761
20
60.187728
11
5.0590761
21
60.187728
0
LINE
8
DEFAULT_255_2_778
10
5.0590761
20
60.187728
11
5.0590761
21
59.212728
0
LINE
8
DEFAULT_255_2_778
10
5.0590761
20
59.212728
11
4.3589761
21
59.212728
0
LINE
8
DEFAULT_255_2_778
10
4.3589761
20
59.212728
11
4.3589761
21
60.187728
0
LINE
8
DEFAULT_255_2_778
10
4.3589761
20
61.687728
11
5.0590761
21
61.687728
0
LINE
8
DEFAULT_255_2_778
10
5.0590761
20
61.687728
11
5.0590761
21
60.712728
0
LINE
8
DEFAULT_255_2_778
10
5.0590761
20
60.712728
11
4.3589761
21
60.712728
0
LINE
8
DEFAULT_255_2_778
10
4.3589761
20
60.712728
11
4.3589761
21
61.687728
0
LINE
8
DEFAULT_255_2_778
10
4.3589761
20
63.187628
11
5.0590761
21
63.187628
0
LINE
8
DEFAULT_255_2_778
10
5.0590761
20
63.187628
11
5.0590761
21
62.212628
0
LINE
8
DEFAULT_255_2_778
10
5.0590761
20
62.212628
11
4.3589761
21
62.212628
0
LINE
8
DEFAULT_255_2_778
10
4.3589761
20
62.212628
11
4.3589761
21
63.187628
0
LINE
8
DEFAULT_255_2_778
10
4.3589761
20
64.687528
11
5.0590761
21
64.687528
0
LINE
8
DEFAULT_255_2_778
10
5.0590761
20
64.687528
11
5.0590761
21
63.712528
0
LINE
8
DEFAULT_255_2_778
10
5.0590761
20
63.712528
11
4.3589761
21
63.712528
0
LINE
8
DEFAULT_255_2_778
10
4.3589761
20
63.712528
11
4.3589761
21
64.687528
0
LINE
8
DEFAULT_255_2_778
10
4.3589761
20
66.187428
11
5.0590761
21
66.187428
0
LINE
8
DEFAULT_255_2_778
10
5.0590761
20
66.187428
11
5.0590761
21
65.212428
0
LINE
8
DEFAULT_255_2_778
10
5.0590761
20
65.212428
11
4.3589761
21
65.212428
0
LINE
8
DEFAULT_255_2_778
10
4.3589761
20
65.212428
11
4.3589761
21
66.187428
0
LINE
8
DEFAULT_255_2_778
10
4.3589761
20
67.687328
11
5.0590761
21
67.687328
0
LINE
8
DEFAULT_255_2_778
10
5.0590761
20
67.687328
11
5.0590761
21
66.712428
0
LINE
8
DEFAULT_255_2_778
10
5.0590761
20
66.712428
11
4.3589761
21
66.712428
0
LINE
8
DEFAULT_255_2_778
10
4.3589761
20
66.712428
11
4.3589761
21
67.687328
0
LINE
8
DEFAULT_255_2_778
10
4.3589761
20
69.187328
11
5.0590761
21
69.187328
0
LINE
8
DEFAULT_255_2_778
10
5.0590761
20
69.187328
11
5.0590761
21
68.212328
0
LINE
8
DEFAULT_255_2_778
10
5.0590761
20
68.212328
11
4.3589761
21
68.212328
0
LINE
8
DEFAULT_255_2_778
10
4.3589761
20
68.212328
11
4.3589761
21
69.187328
0
LINE
8
DEFAULT_255_2_778
10
6.1589761
20
49.688328
11
6.8589761
21
49.688328
0
LINE
8
DEFAULT_255_2_778
10
6.8589761
20
49.688328
11
6.8589761
21
48.713328
0
LINE
8
DEFAULT_255_2_778
10
6.8589761
20
48.713328
11
6.1589761
21
48.713328
0
LINE
8
DEFAULT_255_2_778
10
6.1589761
20
48.713328
11
6.1589761
21
49.688328
0
LINE
8
DEFAULT_255_2_778
10
6.1589761
20
51.188228
11
6.8589761
21
51.188228
0
LINE
8
DEFAULT_255_2_778
10
6.8589761
20
51.188228
11
6.8589761
21
50.213228
0
LINE
8
DEFAULT_255_2_778
10
6.8589761
20
50.213228
11
6.1589761
21
50.213228
0
LINE
8
DEFAULT_255_2_778
10
6.1589761
20
50.213228
11
6.1589761
21
51.188228
0
LINE
8
DEFAULT_255_2_778
10
6.1589761
20
52.688128
11
6.8589761
21
52.688128
0
LINE
8
DEFAULT_255_2_778
10
6.8589761
20
52.688128
11
6.8589761
21
51.713128
0
LINE
8
DEFAULT_255_2_778
10
6.8589761
20
51.713128
11
6.1589761
21
51.713128
0
LINE
8
DEFAULT_255_2_778
10
6.1589761
20
51.713128
11
6.1589761
21
52.688128
0
LINE
8
DEFAULT_255_2_778
10
6.1589761
20
54.188028
11
6.8589761
21
54.188028
0
LINE
8
DEFAULT_255_2_778
10
6.8589761
20
54.188028
11
6.8589761
21
53.213028
0
LINE
8
DEFAULT_255_2_778
10
6.8589761
20
53.213028
11
6.1589761
21
53.213028
0
LINE
8
DEFAULT_255_2_778
10
6.1589761
20
53.213028
11
6.1589761
21
54.188028
0
LINE
8
DEFAULT_255_2_778
10
6.1589761
20
55.688028
11
6.8589761
21
55.688028
0
LINE
8
DEFAULT_255_2_778
10
6.8589761
20
55.688028
11
6.8589761
21
54.713028
0
LINE
8
DEFAULT_255_2_778
10
6.8589761
20
54.713028
11
6.1589761
21
54.713028
0
LINE
8
DEFAULT_255_2_778
10
6.1589761
20
54.713028
11
6.1589761
21
55.688028
0
LINE
8
DEFAULT_255_2_778
10
6.1589761
20
57.187928
11
6.8589761
21
57.187928
0
LINE
8
DEFAULT_255_2_778
10
6.8589761
20
57.187928
11
6.8589761
21
56.212928
0
LINE
8
DEFAULT_255_2_778
10
6.8589761
20
56.212928
11
6.1589761
21
56.212928
0
LINE
8
DEFAULT_255_2_778
10
6.1589761
20
56.212928
11
6.1589761
21
57.187928
0
LINE
8
DEFAULT_255_2_778
10
6.1589761
20
58.687828
11
6.8589761
21
58.687828
0
LINE
8
DEFAULT_255_2_778
10
6.8589761
20
58.687828
11
6.8589761
21
57.712828
0
LINE
8
DEFAULT_255_2_778
10
6.8589761
20
57.712828
11
6.1589761
21
57.712828
0
LINE
8
DEFAULT_255_2_778
10
6.1589761
20
57.712828
11
6.1589761
21
58.687828
0
LINE
8
DEFAULT_255_2_778
10
4.3589761
20
49.687728
11
5.0590761
21
49.687728
0
LINE
8
DEFAULT_255_2_778
10
5.0590761
20
49.687728
11
5.0590761
21
48.712728
0
LINE
8
DEFAULT_255_2_778
10
5.0590761
20
48.712728
11
4.3589761
21
48.712728
0
LINE
8
DEFAULT_255_2_778
10
4.3589761
20
48.712728
11
4.3589761
21
49.687728
0
LINE
8
DEFAULT_255_2_778
10
4.3589761
20
51.187728
11
5.0590761
21
51.187728
0
LINE
8
DEFAULT_255_2_778
10
5.0590761
20
51.187728
11
5.0590761
21
50.212728
0
LINE
8
DEFAULT_255_2_778
10
5.0590761
20
50.212728
11
4.3589761
21
50.212728
0
LINE
8
DEFAULT_255_2_778
10
4.3589761
20
50.212728
11
4.3589761
21
51.187728
0
LINE
8
DEFAULT_255_2_778
10
4.3589761
20
52.687628
11
5.0590761
21
52.687628
0
LINE
8
DEFAULT_255_2_778
10
5.0590761
20
52.687628
11
5.0590761
21
51.712628
0
LINE
8
DEFAULT_255_2_778
10
5.0590761
20
51.712628
11
4.3589761
21
51.712628
0
LINE
8
DEFAULT_255_2_778
10
4.3589761
20
51.712628
11
4.3589761
21
52.687628
0
LINE
8
DEFAULT_255_2_778
10
4.3589761
20
54.187528
11
5.0590761
21
54.187528
0
LINE
8
DEFAULT_255_2_778
10
5.0590761
20
54.187528
11
5.0590761
21
53.212528
0
LINE
8
DEFAULT_255_2_778
10
5.0590761
20
53.212528
11
4.3589761
21
53.212528
0
LINE
8
DEFAULT_255_2_778
10
4.3589761
20
53.212528
11
4.3589761
21
54.187528
0
LINE
8
DEFAULT_255_2_778
10
4.3589761
20
55.687428
11
5.0590761
21
55.687428
0
LINE
8
DEFAULT_255_2_778
10
5.0590761
20
55.687428
11
5.0590761
21
54.712428
0
LINE
8
DEFAULT_255_2_778
10
5.0590761
20
54.712428
11
4.3589761
21
54.712428
0
LINE
8
DEFAULT_255_2_778
10
4.3589761
20
54.712428
11
4.3589761
21
55.687428
0
LINE
8
DEFAULT_255_2_778
10
4.3589761
20
57.187328
11
5.0590761
21
57.187328
0
LINE
8
DEFAULT_255_2_778
10
5.0590761
20
57.187328
11
5.0590761
21
56.212428
0
LINE
8
DEFAULT_255_2_778
10
5.0590761
20
56.212428
11
4.3589761
21
56.212428
0
LINE
8
DEFAULT_255_2_778
10
4.3589761
20
56.212428
11
4.3589761
21
57.187328
0
LINE
8
DEFAULT_255_2_778
10
4.3589761
20
58.687328
11
5.0590761
21
58.687328
0
LINE
8
DEFAULT_255_2_778
10
5.0590761
20
58.687328
11
5.0590761
21
57.712328
0
LINE
8
DEFAULT_255_2_778
10
5.0590761
20
57.712328
11
4.3589761
21
57.712328
0
LINE
8
DEFAULT_255_2_778
10
4.3589761
20
57.712328
11
4.3589761
21
58.687328
0
ARC
8
DEFAULT_255_2_778
10
12.4334384
20
114.8519287
40
1.0280011
50
95.9753402
51
143.65969
0
ARC
8
DEFAULT_255_2_778
10
12.4304583
20
114.8520403
40
1.0255358
50
143.566049
51
180.0612218
0
ARC
8
DEFAULT_255_2_778
10
12.4324632
20
109.3503569
40
1.0275403
50
179.9616588
51
227.8272466
0
ARC
8
DEFAULT_255_2_778
10
12.4328532
20
109.348261
40
1.0262503
50
227.7325531
51
264.0472827
0
LINE
8
DEFAULT_255_2_778
10
6.1590231
20
42.1883445
11
6.8590231
21
42.1883445
0
LINE
8
DEFAULT_255_2_778
10
6.8590231
20
42.1883445
11
6.8590231
21
41.2133445
0
LINE
8
DEFAULT_255_2_778
10
6.8590231
20
41.2133445
11
6.1590231
21
41.2133445
0
LINE
8
DEFAULT_255_2_778
10
6.1590231
20
41.2133445
11
6.1590231
21
42.1883445
0
LINE
8
DEFAULT_255_2_778
10
6.1590231
20
43.6883445
11
6.8590231
21
43.6883445
0
LINE
8
DEFAULT_255_2_778
10
6.8590231
20
43.6883445
11
6.8590231
21
42.7133445
0
LINE
8
DEFAULT_255_2_778
10
6.8590231
20
42.7133445
11
6.1590231
21
42.7133445
0
LINE
8
DEFAULT_255_2_778
10
6.1590231
20
42.7133445
11
6.1590231
21
43.6883445
0
LINE
8
DEFAULT_255_2_778
10
6.1590231
20
45.1882445
11
6.8590231
21
45.1882445
0
LINE
8
DEFAULT_255_2_778
10
6.8590231
20
45.1882445
11
6.8590231
21
44.2132445
0
LINE
8
DEFAULT_255_2_778
10
6.8590231
20
44.2132445
11
6.1590231
21
44.2132445
0
LINE
8
DEFAULT_255_2_778
10
6.1590231
20
44.2132445
11
6.1590231
21
45.1882445
0
LINE
8
DEFAULT_255_2_778
10
6.1590231
20
46.6881445
11
6.8590231
21
46.6881445
0
LINE
8
DEFAULT_255_2_778
10
6.8590231
20
46.6881445
11
6.8590231
21
45.7131445
0
LINE
8
DEFAULT_255_2_778
10
6.8590231
20
45.7131445
11
6.1590231
21
45.7131445
0
LINE
8
DEFAULT_255_2_778
10
6.1590231
20
45.7131445
11
6.1590231
21
46.6881445
0
LINE
8
DEFAULT_255_2_778
10
6.1590231
20
48.1880445
11
6.8590231
21
48.1880445
0
LINE
8
DEFAULT_255_2_778
10
6.8590231
20
48.1880445
11
6.8590231
21
47.2130445
0
LINE
8
DEFAULT_255_2_778
10
6.8590231
20
47.2130445
11
6.1590231
21
47.2130445
0
LINE
8
DEFAULT_255_2_778
10
6.1590231
20
47.2130445
11
6.1590231
21
48.1880445
0
LINE
8
DEFAULT_255_2_778
10
4.3590231
20
42.1881445
11
5.0591231
21
42.1881445
0
LINE
8
DEFAULT_255_2_778
10
5.0591231
20
42.1881445
11
5.0591231
21
41.2131445
0
LINE
8
DEFAULT_255_2_778
10
5.0591231
20
41.2131445
11
4.3590231
21
41.2131445
0
LINE
8
DEFAULT_255_2_778
10
4.3590231
20
41.2131445
11
4.3590231
21
42.1881445
0
LINE
8
DEFAULT_255_2_778
10
4.3590231
20
43.6880445
11
5.0591231
21
43.6880445
0
LINE
8
DEFAULT_255_2_778
10
5.0591231
20
43.6880445
11
5.0591231
21
42.7130445
0
LINE
8
DEFAULT_255_2_778
10
5.0591231
20
42.7130445
11
4.3590231
21
42.7130445
0
LINE
8
DEFAULT_255_2_778
10
4.3590231
20
42.7130445
11
4.3590231
21
43.6880445
0
LINE
8
DEFAULT_255_2_778
10
4.3590231
20
45.1879445
11
5.0591231
21
45.1879445
0
LINE
8
DEFAULT_255_2_778
10
5.0591231
20
45.1879445
11
5.0591231
21
44.2129445
0
LINE
8
DEFAULT_255_2_778
10
5.0591231
20
44.2129445
11
4.3590231
21
44.2129445
0
LINE
8
DEFAULT_255_2_778
10
4.3590231
20
44.2129445
11
4.3590231
21
45.1879445
0
LINE
8
DEFAULT_255_2_778
10
4.3590231
20
46.6878445
11
5.0591231
21
46.6878445
0
LINE
8
DEFAULT_255_2_778
10
5.0591231
20
46.6878445
11
5.0591231
21
45.7128445
0
LINE
8
DEFAULT_255_2_778
10
5.0591231
20
45.7128445
11
4.3590231
21
45.7128445
0
LINE
8
DEFAULT_255_2_778
10
4.3590231
20
45.7128445
11
4.3590231
21
46.6878445
0
LINE
8
DEFAULT_255_2_778
10
4.3590231
20
48.1878445
11
5.0591231
21
48.1878445
0
LINE
8
DEFAULT_255_2_778
10
5.0591231
20
48.1878445
11
5.0591231
21
47.2128445
0
LINE
8
DEFAULT_255_2_778
10
5.0591231
20
47.2128445
11
4.3590231
21
47.2128445
0
LINE
8
DEFAULT_255_2_778
10
4.3590231
20
47.2128445
11
4.3590231
21
48.1878445
0
LINE
8
DEFAULT_255_2_778
10
6.3839231
20
106.3985445
11
7.5837231
21
106.3985445
0
LINE
8
DEFAULT_255_2_778
10
7.5837231
20
106.3985445
11
7.5837231
21
96.4533445
0
LINE
8
DEFAULT_255_2_778
10
7.5837231
20
96.4533445
11
6.3839231
21
96.4533445
0
LINE
8
DEFAULT_255_2_778
10
6.3839231
20
96.4533445
11
6.3839231
21
106.3985445
0
LINE
8
DEFAULT_255_2_778
10
12.7661231
20
20.9100445
11
12.7661231
21
21.0756445
0
LINE
8
DEFAULT_255_2_778
10
12.7661231
20
21.0756445
11
14.0864231
21
21.8493445
0
LINE
8
DEFAULT_255_2_778
10
14.0864231
20
21.8493445
11
15.4064231
21
22.6235445
0
LINE
8
DEFAULT_255_2_778
10
15.4064231
20
22.6235445
11
16.7262231
21
23.3982445
0
LINE
8
DEFAULT_255_2_778
10
11.8337231
20
93.7088445
11
9.8338231
21
93.7088445
0
LINE
8
DEFAULT_255_2_778
10
9.8338231
20
93.7088445
11
9.8338231
21
96.4507445
0
LINE
8
DEFAULT_255_2_778
10
9.8338231
20
96.4507445
11
10.2838231
21
96.4507445
0
LINE
8
DEFAULT_255_2_778
10
10.2838231
20
96.4507445
11
10.2838231
21
115.1506445
0
LINE
8
DEFAULT_255_2_778
10
10.2838231
20
115.1506445
11
9.8338231
21
115.1506445
0
LINE
8
DEFAULT_255_2_778
10
9.8338231
20
115.1506445
11
9.8338231
21
117.8925445
0
LINE
8
DEFAULT_255_2_778
10
9.8338231
20
117.8925445
11
12.3261231
21
117.8925445
0
LINE
8
DEFAULT_255_2_778
10
6.3836231
20
115.1506445
11
7.5835231
21
115.1506445
0
LINE
8
DEFAULT_255_2_778
10
7.5835231
20
115.1506445
11
7.5835231
21
107.3031445
0
LINE
8
DEFAULT_255_2_778
10
7.5835231
20
107.3031445
11
6.3836231
21
107.3031445
0
LINE
8
DEFAULT_255_2_778
10
6.3836231
20
107.3031445
11
6.3836231
21
115.1506445
0
LINE
8
DEFAULT_255_2_778
10
14.6264231
20
114.6942445
11
16.6264231
21
114.6942445
0
LINE
8
DEFAULT_255_2_778
10
16.6264231
20
114.6942445
11
16.6264231
21
111.9621445
0
LINE
8
DEFAULT_255_2_778
10
16.6264231
20
111.9621445
11
14.6264231
21
111.9621445
0
LINE
8
DEFAULT_255_2_778
10
14.6264231
20
111.9621445
11
14.6264231
21
114.6942445
0
LINE
8
DEFAULT_255_2_778
10
11.4049231
20
114.8509445
11
11.4049231
21
109.3510445
0
LINE
8
DEFAULT_255_2_778
10
16.7261994
20
132.399125
11
16.7261994
21
23.112725
0
LINE
8
DEFAULT_255_2_778
10
17.2262994
20
146.813325
11
17.2262994
21
135.413225
0
LINE
8
DEFAULT_255_2_778
10
14.2676994
20
-0.174875
11
14.2676994
21
-0.186575
0
LINE
8
DEFAULT_255_2_778
10
14.5261994
20
-0.110875
11
16.7261994
21
-0.110875
0
LINE
8
DEFAULT_255_2_778
10
16.7261994
20
-0.110875
11
16.7261994
21
4.484925
0
LINE
8
DEFAULT_255_2_778
10
16.7261994
20
4.484925
11
14.5261994
21
4.484925
0
LINE
8
DEFAULT_255_2_778
10
45.5271994
20
-0.186575
11
45.5271994
21
-0.174875
0
LINE
8
DEFAULT_255_2_778
10
42.7262994
20
23.112725
11
42.7262994
21
132.399125
0
LINE
8
DEFAULT_255_2_778
10
42.7262994
20
23.398125
11
44.0459994
21
22.623725
0
LINE
8
DEFAULT_255_2_778
10
44.0459994
20
22.623725
11
45.3659994
21
21.849525
0
LINE
8
DEFAULT_255_2_778
10
45.3659994
20
21.849525
11
46.6862994
21
21.075925
0
LINE
8
DEFAULT_255_2_778
10
46.6862994
20
21.075925
11
46.6862994
21
20.910025
0
LINE
8
DEFAULT_255_2_778
10
44.9262796
20
67.5634573
11
44.9262796
21
-0.1746427
0
LINE
8
DEFAULT_255_2_778
10
44.9262796
20
-0.1746427
11
46.8261796
21
-0.1746427
0
LINE
8
DEFAULT_255_2_778
10
46.8261796
20
-0.1746427
11
46.8261796
21
67.5634573
0
LINE
8
DEFAULT_255_2_778
10
44.8262796
20
66.0791573
11
42.8262796
21
66.0791573
0
LINE
8
DEFAULT_255_2_778
10
42.8262796
20
66.0791573
11
42.8262796
21
63.3629573
0
LINE
8
DEFAULT_255_2_778
10
42.8262796
20
63.3629573
11
44.8262796
21
63.3629573
0
LINE
8
DEFAULT_255_2_778
10
44.8262796
20
63.3629573
11
44.8262796
21
66.0791573
0
LINE
8
DEFAULT_255_2_778
10
44.8262796
20
71.4806573
11
42.8262796
21
71.4806573
0
LINE
8
DEFAULT_255_2_778
10
42.8262796
20
71.4806573
11
42.8262796
21
68.7631573
0
LINE
8
DEFAULT_255_2_778
10
42.8262796
20
68.7631573
11
44.8262796
21
68.7631573
0
LINE
8
DEFAULT_255_2_778
10
44.8262796
20
68.7631573
11
44.8262796
21
71.4806573
0
LINE
8
DEFAULT_255_2_778
10
14.5261796
20
3.6084573
11
12.6261796
21
3.6084573
0
LINE
8
DEFAULT_255_2_778
10
14.5261796
20
3.0220573
11
12.6261796
21
3.0220573
0
LINE
8
DEFAULT_255_2_778
10
12.6261796
20
-0.1748427
11
14.5261796
21
-0.1748427
0
LINE
8
DEFAULT_255_2_778
10
14.5261796
20
4.8366573
11
14.5261796
21
-0.1746427
0
LINE
8
DEFAULT_255_2_778
10
14.5261796
20
-0.1746427
11
12.6261796
21
-0.1746427
0
LINE
8
DEFAULT_255_2_778
10
12.6261796
20
-0.1746427
11
12.6261796
21
4.8138573
0
LINE
8
DEFAULT_255_2_778
10
16.7262163
20
4.4778239
11
14.5262163
21
4.4778239
0
LINE
8
DEFAULT_255_2_778
10
16.7262163
20
4.4133239
11
14.5262163
21
4.4133239
0
LINE
8
DEFAULT_255_2_778
10
16.7262163
20
4.2762239
11
14.5262163
21
4.2762239
0
LINE
8
DEFAULT_255_2_778
10
16.7262163
20
3.4518239
11
14.5262163
21
3.4518239
0
LINE
8
DEFAULT_255_2_778
10
16.7262163
20
0.7869239
11
14.5262163
21
0.7869239
0
LINE
8
DEFAULT_255_2_778
10
16.7262163
20
0.4199239
11
14.5262163
21
0.4199239
0
LINE
8
DEFAULT_255_2_778
10
16.7262163
20
-0.1105761
11
14.5262163
21
-0.1105761
0
LINE
8
DEFAULT_255_2_778
10
14.5262163
20
4.5144239
11
16.7262163
21
4.5144239
0
LINE
8
DEFAULT_255_2_778
10
16.7262163
20
4.5144239
11
16.7262163
21
4.9057239
0
LINE
8
DEFAULT_255_2_778
10
38.9763163
20
5.8637239
11
40.6262163
21
5.8637239
0
LINE
8
DEFAULT_255_2_778
10
38.9763163
20
7.8140239
11
38.9763163
21
5.6465239
0
LINE
8
DEFAULT_255_2_778
10
38.9763163
20
5.6465239
11
40.6262163
21
5.6465239
0
LINE
8
DEFAULT_255_2_778
10
40.6262163
20
5.6465239
11
40.6262163
21
7.8140239
0
LINE
8
DEFAULT_255_2_778
10
44.9263163
20
6.6120239
11
46.8262163
21
6.6120239
0
LINE
8
DEFAULT_255_2_778
10
44.9263163
20
5.7957239
11
46.8262163
21
5.7957239
0
LINE
8
DEFAULT_255_2_778
10
44.9263163
20
3.6084239
11
46.8262163
21
3.6084239
0
LINE
8
DEFAULT_255_2_778
10
44.9263163
20
3.0221239
11
46.8262163
21
3.0221239
0
LINE
8
DEFAULT_255_2_778
10
44.9263163
20
-0.1747761
11
46.8262163
21
-0.1747761
0
LINE
8
DEFAULT_255_2_778
10
42.7262163
20
7.6134239
11
44.9263163
21
7.6134239
0
LINE
8
DEFAULT_255_2_778
10
42.7262163
20
6.7152239
11
44.9263163
21
6.7152239
0
LINE
8
DEFAULT_255_2_778
10
42.7262163
20
4.4781239
11
44.9263163
21
4.4781239
0
LINE
8
DEFAULT_255_2_778
10
42.7262163
20
4.4136239
11
44.9263163
21
4.4136239
0
LINE
8
DEFAULT_255_2_778
10
42.7262163
20
4.2765239
11
44.9263163
21
4.2765239
0
LINE
8
DEFAULT_255_2_778
10
42.7262163
20
3.4521239
11
44.9263163
21
3.4521239
0
LINE
8
DEFAULT_255_2_778
10
42.7262163
20
0.7869239
11
44.9263163
21
0.7869239
0
LINE
8
DEFAULT_255_2_778
10
42.7262163
20
0.4199239
11
44.9263163
21
0.4199239
0
LINE
8
DEFAULT_255_2_778
10
42.7262163
20
-0.1105761
11
44.9263163
21
-0.1105761
0
LINE
8
DEFAULT_255_2_778
10
44.9263163
20
4.5144239
11
42.7262163
21
4.5144239
0
LINE
8
DEFAULT_255_2_778
10
42.7262163
20
4.5144239
11
42.7262163
21
7.8135239
0
LINE
8
DEFAULT_255_2_778
10
44.9263163
20
-0.1107761
11
42.7262163
21
-0.1107761
0
LINE
8
DEFAULT_255_2_778
10
42.7262163
20
-0.1107761
11
42.7262163
21
4.4850239
0
LINE
8
DEFAULT_255_2_778
10
42.7262163
20
4.4850239
11
44.9263163
21
4.4850239
0
LINE
8
DEFAULT_255_2_778
10
47.1263163
20
21.0757239
11
46.6863163
21
21.0757239
0
LINE
8
DEFAULT_255_2_778
10
12.7662163
20
21.0757239
11
12.3262163
21
21.0757239
0
LINE
8
DEFAULT_255_2_778
10
40.2262163
20
23.1093239
11
19.2262163
21
23.1093239
0
LINE
8
DEFAULT_255_2_778
10
16.8262163
20
23.5276239
11
16.7262163
21
23.5276239
0
LINE
8
DEFAULT_255_2_778
10
42.6262163
20
23.5276239
11
42.7262163
21
23.5276239
0
LINE
8
DEFAULT_255_2_778
10
42.8263163
20
24.5663239
11
44.8262163
21
24.5663239
0
LINE
8
DEFAULT_255_2_778
10
44.8262163
20
27.2672239
11
42.8263163
21
27.2672239
0
LINE
8
DEFAULT_255_2_778
10
42.8263163
20
27.2672239
11
42.8263163
21
24.5634239
0
LINE
8
DEFAULT_255_2_778
10
42.8263163
20
24.5634239
11
44.8262163
21
24.5634239
0
LINE
8
DEFAULT_255_2_778
10
44.8262163
20
24.5634239
11
44.8262163
21
27.2672239
0
LINE
8
DEFAULT_255_2_778
10
16.6262163
20
30.4681239
11
14.6262163
21
30.4681239
0
LINE
8
DEFAULT_255_2_778
10
16.6262163
20
24.5663239
11
14.6262163
21
24.5663239
0
LINE
8
DEFAULT_255_2_778
10
14.6262163
20
27.2672239
11
16.6262163
21
27.2672239
0
LINE
8
DEFAULT_255_2_778
10
16.6262163
20
27.2672239
11
16.6262163
21
24.5634239
0
LINE
8
DEFAULT_255_2_778
10
16.6262163
20
24.5634239
11
14.6262163
21
24.5634239
0
LINE
8
DEFAULT_255_2_778
10
14.6262163
20
24.5634239
11
14.6262163
21
27.2672239
0
LINE
8
DEFAULT_255_2_778
10
42.8263163
20
30.4681239
11
44.8262163
21
30.4681239
0
LINE
8
DEFAULT_255_2_778
10
44.8262163
20
33.1690239
11
42.8263163
21
33.1690239
0
LINE
8
DEFAULT_255_2_778
10
42.8263163
20
33.1690239
11
42.8263163
21
30.4634239
0
LINE
8
DEFAULT_255_2_778
10
42.8263163
20
30.4634239
11
44.8262163
21
30.4634239
0
LINE
8
DEFAULT_255_2_778
10
44.8262163
20
30.4634239
11
44.8262163
21
33.1690239
0
LINE
8
DEFAULT_255_2_778
10
16.6262163
20
36.3699239
11
14.6262163
21
36.3699239
0
LINE
8
DEFAULT_255_2_778
10
14.6262163
20
39.0708239
11
16.6262163
21
39.0708239
0
LINE
8
DEFAULT_255_2_778
10
16.6262163
20
39.0708239
11
16.6262163
21
36.3633239
0
LINE
8
DEFAULT_255_2_778
10
16.6262163
20
36.3633239
11
14.6262163
21
36.3633239
0
LINE
8
DEFAULT_255_2_778
10
14.6262163
20
36.3633239
11
14.6262163
21
39.0708239
0
LINE
8
DEFAULT_255_2_778
10
42.8263163
20
36.3699239
11
44.8262163
21
36.3699239
0
LINE
8
DEFAULT_255_2_778
10
44.8262163
20
39.0708239
11
42.8263163
21
39.0708239
0
LINE
8
DEFAULT_255_2_778
10
42.8263163
20
39.0708239
11
42.8263163
21
36.3633239
0
LINE
8
DEFAULT_255_2_778
10
42.8263163
20
36.3633239
11
44.8262163
21
36.3633239
0
LINE
8
DEFAULT_255_2_778
10
44.8262163
20
36.3633239
11
44.8262163
21
39.0708239
0
LINE
8
DEFAULT_255_2_778
10
9.1845163
20
36.8009239
11
0.2339163
21
36.8009239
0
LINE
8
DEFAULT_255_2_778
10
12.3264163
20
36.7417239
11
0.2339163
21
36.7417239
0
LINE
8
DEFAULT_255_2_778
10
9.1845163
20
38.2008239
11
11.8340163
21
38.2008239
0
LINE
8
DEFAULT_255_2_778
10
11.8340163
20
36.7949239
11
9.1845163
21
36.7949239
0
LINE
8
DEFAULT_255_2_778
10
9.1845163
20
36.7949239
11
9.1845163
21
39.7865239
0
LINE
8
DEFAULT_255_2_778
10
9.1845163
20
39.7865239
11
11.8338163
21
39.7865239
0
LINE
8
DEFAULT_255_2_778
10
16.6262163
20
41.7711239
11
14.6262163
21
41.7711239
0
LINE
8
DEFAULT_255_2_778
10
14.6262163
20
44.4723239
11
16.6262163
21
44.4723239
0
LINE
8
DEFAULT_255_2_778
10
16.6262163
20
44.4723239
11
16.6262163
21
41.7632239
0
LINE
8
DEFAULT_255_2_778
10
16.6262163
20
41.7632239
11
14.6262163
21
41.7632239
0
LINE
8
DEFAULT_255_2_778
10
14.6262163
20
41.7632239
11
14.6262163
21
44.4723239
0
LINE
8
DEFAULT_255_2_778
10
42.8263163
20
41.7711239
11
44.8262163
21
41.7711239
0
LINE
8
DEFAULT_255_2_778
10
44.8262163
20
44.4723239
11
42.8263163
21
44.4723239
0
LINE
8
DEFAULT_255_2_778
10
42.8263163
20
44.4723239
11
42.8263163
21
41.7632239
0
LINE
8
DEFAULT_255_2_778
10
42.8263163
20
41.7632239
11
44.8262163
21
41.7632239
0
LINE
8
DEFAULT_255_2_778
10
44.8262163
20
41.7632239
11
44.8262163
21
44.4723239
0
LINE
8
DEFAULT_255_2_778
10
16.6262163
20
47.1729239
11
14.6262163
21
47.1729239
0
LINE
8
DEFAULT_255_2_778
10
14.6262163
20
49.8740239
11
16.6262163
21
49.8740239
0
LINE
8
DEFAULT_255_2_778
10
16.6262163
20
49.8740239
11
16.6262163
21
47.1631239
0
LINE
8
DEFAULT_255_2_778
10
16.6262163
20
47.1631239
11
14.6262163
21
47.1631239
0
LINE
8
DEFAULT_255_2_778
10
14.6262163
20
47.1631239
11
14.6262163
21
49.8740239
0
LINE
8
DEFAULT_255_2_778
10
42.8263163
20
47.1729239
11
44.8262163
21
47.1729239
0
LINE
8
DEFAULT_255_2_778
10
44.8262163
20
49.8740239
11
42.8263163
21
49.8740239
0
LINE
8
DEFAULT_255_2_778
10
42.8263163
20
49.8740239
11
42.8263163
21
47.1631239
0
LINE
8
DEFAULT_255_2_778
10
42.8263163
20
47.1631239
11
44.8262163
21
47.1631239
0
LINE
8
DEFAULT_255_2_778
10
44.8262163
20
47.1631239
11
44.8262163
21
49.8740239
0
LINE
8
DEFAULT_255_2_778
10
16.6262163
20
52.5743239
11
14.6262163
21
52.5743239
0
LINE
8
DEFAULT_255_2_778
10
14.6262163
20
55.2755239
11
16.6262163
21
55.2755239
0
LINE
8
DEFAULT_255_2_778
10
16.6262163
20
55.2755239
11
16.6262163
21
52.5630239
0
LINE
8
DEFAULT_255_2_778
10
16.6262163
20
52.5630239
11
14.6262163
21
52.5630239
0
LINE
8
DEFAULT_255_2_778
10
14.6262163
20
52.5630239
11
14.6262163
21
55.2755239
0
LINE
8
DEFAULT_255_2_778
10
42.8263163
20
52.5743239
11
44.8262163
21
52.5743239
0
LINE
8
DEFAULT_255_2_778
10
44.8262163
20
55.2755239
11
42.8263163
21
55.2755239
0
LINE
8
DEFAULT_255_2_778
10
42.8263163
20
55.2755239
11
42.8263163
21
52.5630239
0
LINE
8
DEFAULT_255_2_778
10
42.8263163
20
52.5630239
11
44.8262163
21
52.5630239
0
LINE
8
DEFAULT_255_2_778
10
44.8262163
20
52.5630239
11
44.8262163
21
55.2755239
0
LINE
8
DEFAULT_255_2_778
10
16.6262163
20
63.3775239
11
14.6262163
21
63.3775239
0
LINE
8
DEFAULT_255_2_778
10
16.6262163
20
57.9761239
11
14.6262163
21
57.9761239
0
LINE
8
DEFAULT_255_2_778
10
14.6262163
20
60.6775239
11
16.6262163
21
60.6775239
0
LINE
8
DEFAULT_255_2_778
10
16.6262163
20
60.6775239
11
16.6262163
21
57.9631239
0
LINE
8
DEFAULT_255_2_778
10
16.6262163
20
57.9631239
11
14.6262163
21
57.9631239
0
LINE
8
DEFAULT_255_2_778
10
14.6262163
20
57.9631239
11
14.6262163
21
60.6775239
0
LINE
8
DEFAULT_255_2_778
10
42.8263163
20
63.3775239
11
44.8262163
21
63.3775239
0
LINE
8
DEFAULT_255_2_778
10
42.8263163
20
57.9761239
11
44.8262163
21
57.9761239
0
LINE
8
DEFAULT_255_2_778
10
44.8262163
20
60.6775239
11
42.8263163
21
60.6775239
0
LINE
8
DEFAULT_255_2_778
10
42.8263163
20
60.6775239
11
42.8263163
21
57.9631239
0
LINE
8
DEFAULT_255_2_778
10
42.8263163
20
57.9631239
11
44.8262163
21
57.9631239
0
LINE
8
DEFAULT_255_2_778
10
44.8262163
20
57.9631239
11
44.8262163
21
60.6775239
0
LINE
8
DEFAULT_255_2_778
10
16.6262163
20
68.7793239
11
14.6262163
21
68.7793239
0
LINE
8
DEFAULT_255_2_778
10
14.6262163
20
71.4807239
11
16.6262163
21
71.4807239
0
LINE
8
DEFAULT_255_2_778
10
16.6262163
20
71.4807239
11
16.6262163
21
68.7631239
0
LINE
8
DEFAULT_255_2_778
10
16.6262163
20
68.7631239
11
14.6262163
21
68.7631239
0
LINE
8
DEFAULT_255_2_778
10
14.6262163
20
68.7631239
11
14.6262163
21
71.4807239
0
LINE
8
DEFAULT_255_2_778
10
42.8263163
20
68.7793239
11
44.8262163
21
68.7793239
0
LINE
8
DEFAULT_255_2_778
10
4.6987163
20
73.9297239
11
6.5688163
21
73.9297239
0
LINE
8
DEFAULT_255_2_778
10
4.6987163
20
73.2528239
11
6.5691163
21
73.2528239
0
LINE
8
DEFAULT_255_2_778
10
16.6262163
20
74.1807239
11
14.6262163
21
74.1807239
0
LINE
8
DEFAULT_255_2_778
10
14.6262163
20
76.8824239
11
16.6262163
21
76.8824239
0
LINE
8
DEFAULT_255_2_778
10
16.6262163
20
76.8824239
11
16.6262163
21
74.1630239
0
LINE
8
DEFAULT_255_2_778
10
16.6262163
20
74.1630239
11
14.6262163
21
74.1630239
0
LINE
8
DEFAULT_255_2_778
10
14.6262163
20
74.1630239
11
14.6262163
21
76.8824239
0
LINE
8
DEFAULT_255_2_778
10
42.8263163
20
74.1807239
11
44.8262163
21
74.1807239
0
LINE
8
DEFAULT_255_2_778
10
44.8262163
20
76.8824239
11
42.8263163
21
76.8824239
0
LINE
8
DEFAULT_255_2_778
10
42.8263163
20
76.8824239
11
42.8263163
21
74.1630239
0
LINE
8
DEFAULT_255_2_778
10
42.8263163
20
74.1630239
11
44.8262163
21
74.1630239
0
LINE
8
DEFAULT_255_2_778
10
44.8262163
20
74.1630239
11
44.8262163
21
76.8824239
0
LINE
8
DEFAULT_255_2_778
10
11.8340163
20
75.9466239
11
6.5691163
21
75.9466239
0
LINE
8
DEFAULT_255_2_778
10
11.8340163
20
72.2154239
11
9.1845163
21
72.2154239
0
LINE
8
DEFAULT_255_2_778
10
9.1845163
20
72.2154239
11
9.1845163
21
75.1010239
0
LINE
8
DEFAULT_255_2_778
10
6.5691163
20
75.5232239
11
11.8340163
21
75.5232239
0
LINE
8
DEFAULT_255_2_778
10
6.5691163
20
75.1010239
11
11.8340163
21
75.1010239
0
LINE
8
DEFAULT_255_2_778
10
4.6987277
20
75.946633
11
0.2339277
21
75.946633
0
LINE
8
DEFAULT_255_2_778
10
1.7063277
20
75.101033
11
4.6987277
21
75.101033
0
LINE
8
DEFAULT_255_2_778
10
11.8338277
20
78.765733
11
6.5691277
21
78.765733
0
LINE
8
DEFAULT_255_2_778
10
6.5691277
20
78.765733
11
6.5691277
21
73.101033
0
LINE
8
DEFAULT_255_2_778
10
6.5691277
20
73.101033
11
4.6990277
21
73.101033
0
LINE
8
DEFAULT_255_2_778
10
4.6990277
20
73.101033
11
4.6990277
21
78.765733
0
LINE
8
DEFAULT_255_2_778
10
4.6990277
20
78.765733
11
0.2339277
21
78.765733
0
LINE
8
DEFAULT_255_2_778
10
8.5339277
20
71.225933
11
2.6839277
21
71.225933
0
LINE
8
DEFAULT_255_2_778
10
2.6839277
20
71.225933
11
2.6839277
21
70.025733
0
LINE
8
DEFAULT_255_2_778
10
2.6839277
20
70.025733
11
8.5339277
21
70.025733
0
LINE
8
DEFAULT_255_2_778
10
8.5339277
20
70.025733
11
8.5339277
21
71.225933
0
LINE
8
DEFAULT_255_2_778
10
0.2339277
20
74.153533
11
1.7063277
21
74.153533
0
LINE
8
DEFAULT_255_2_778
10
1.7063277
20
74.153533
11
1.7063277
21
75.523033
0
LINE
8
DEFAULT_255_2_778
10
1.7063277
20
75.523033
11
4.6987277
21
75.523033
0
LINE
8
DEFAULT_255_2_778
10
42.8263277
20
79.582533
11
44.8262277
21
79.582533
0
LINE
8
DEFAULT_255_2_778
10
44.8262277
20
82.284133
11
42.8263277
21
82.284133
0
LINE
8
DEFAULT_255_2_778
10
42.8263277
20
82.284133
11
42.8263277
21
79.562933
0
LINE
8
DEFAULT_255_2_778
10
42.8263277
20
79.562933
11
44.8262277
21
79.562933
0
LINE
8
DEFAULT_255_2_778
10
44.8262277
20
79.562933
11
44.8262277
21
82.284133
0
LINE
8
DEFAULT_255_2_778
10
16.6262277
20
84.984033
11
14.6262277
21
84.984033
0
LINE
8
DEFAULT_255_2_778
10
16.6262277
20
79.582533
11
14.6262277
21
79.582533
0
LINE
8
DEFAULT_255_2_778
10
14.6262277
20
82.284133
11
16.6262277
21
82.284133
0
LINE
8
DEFAULT_255_2_778
10
16.6262277
20
82.284133
11
16.6262277
21
79.562933
0
LINE
8
DEFAULT_255_2_778
10
16.6262277
20
79.562933
11
14.6262277
21
79.562933
0
LINE
8
DEFAULT_255_2_778
10
14.6262277
20
79.562933
11
14.6262277
21
82.284133
0
LINE
8
DEFAULT_255_2_778
10
42.8263277
20
84.983733
11
44.8262277
21
84.983733
0
LINE
8
DEFAULT_255_2_778
10
44.8262277
20
87.685633
11
42.8263277
21
87.685633
0
LINE
8
DEFAULT_255_2_778
10
42.8263277
20
87.685633
11
42.8263277
21
84.962833
0
LINE
8
DEFAULT_255_2_778
10
42.8263277
20
84.962833
11
44.8262277
21
84.962833
0
LINE
8
DEFAULT_255_2_778
10
44.8262277
20
84.962833
11
44.8262277
21
87.685633
0
LINE
8
DEFAULT_255_2_778
10
16.6262277
20
90.385433
11
14.6262277
21
90.385433
0
LINE
8
DEFAULT_255_2_778
10
42.8263277
20
90.385233
11
44.8262277
21
90.385233
0
LINE
8
DEFAULT_255_2_778
10
44.8262277
20
93.087333
11
42.8263277
21
93.087333
0
LINE
8
DEFAULT_255_2_778
10
42.8263277
20
93.087333
11
42.8263277
21
90.362733
0
LINE
8
DEFAULT_255_2_778
10
42.8263277
20
90.362733
11
44.8262277
21
90.362733
0
LINE
8
DEFAULT_255_2_778
10
44.8262277
20
90.362733
11
44.8262277
21
93.087333
0
LINE
8
DEFAULT_255_2_778
10
11.8338277
20
94.318533
11
9.8338277
21
94.318533
0
LINE
8
DEFAULT_255_2_778
10
12.3264277
20
94.672233
11
11.8340277
21
94.672233
0
LINE
8
DEFAULT_255_2_778
10
12.3264277
20
94.201033
11
11.8340277
21
94.201033
0
LINE
8
DEFAULT_255_2_778
10
12.32617
20
94.800795
11
9.83377
21
94.800795
0
LINE
8
DEFAULT_255_2_778
10
14.62617
20
98.489095
11
16.62617
21
98.489095
0
LINE
8
DEFAULT_255_2_778
10
16.62617
20
98.489095
11
16.62617
21
95.762595
0
LINE
8
DEFAULT_255_2_778
10
16.62617
20
95.762595
11
14.62617
21
95.762595
0
LINE
8
DEFAULT_255_2_778
10
14.62617
20
95.762595
11
14.62617
21
98.489095
0
LINE
8
DEFAULT_255_2_778
10
14.62617
20
93.087395
11
16.62617
21
93.087395
0
LINE
8
DEFAULT_255_2_778
10
16.62617
20
93.087395
11
16.62617
21
90.362695
0
LINE
8
DEFAULT_255_2_778
10
16.62617
20
90.362695
11
14.62617
21
90.362695
0
LINE
8
DEFAULT_255_2_778
10
14.62617
20
90.362695
11
14.62617
21
93.087395
0
LINE
8
DEFAULT_255_2_778
10
11.83377
20
94.800795
11
11.83377
21
36.774495
0
LINE
8
DEFAULT_255_2_778
10
11.83377
20
36.774495
11
12.32617
21
36.774495
0
LINE
8
DEFAULT_255_2_778
10
3.58377
20
94.800795
11
0.23387
21
94.800795
0
LINE
8
DEFAULT_255_2_778
10
3.58377
20
94.318495
11
0.23387
21
94.318495
0
LINE
8
DEFAULT_255_2_778
10
16.6261536
20
95.7868474
11
14.6261536
21
95.7868474
0
LINE
8
DEFAULT_255_2_778
10
42.8262536
20
95.7868474
11
44.8262536
21
95.7868474
0
LINE
8
DEFAULT_255_2_778
10
44.8262536
20
98.4890474
11
42.8262536
21
98.4890474
0
LINE
8
DEFAULT_255_2_778
10
42.8262536
20
98.4890474
11
42.8262536
21
95.7625474
0
LINE
8
DEFAULT_255_2_778
10
42.8262536
20
95.7625474
11
44.8262536
21
95.7625474
0
LINE
8
DEFAULT_255_2_778
10
44.8262536
20
95.7625474
11
44.8262536
21
98.4890474
0
LINE
8
DEFAULT_255_2_778
10
12.3261536
20
134.4938474
11
12.7762536
21
134.4938474
0
LINE
8
DEFAULT_255_2_778
10
12.7762536
20
134.4938474
11
16.7261536
21
132.2134474
0
LINE
8
DEFAULT_255_2_778
10
14.6261536
20
130.8994474
11
16.6261536
21
130.8994474
0
LINE
8
DEFAULT_255_2_778
10
16.6261536
20
130.8994474
11
16.6261536
21
128.1618474
0
LINE
8
DEFAULT_255_2_778
10
16.6261536
20
128.1618474
11
14.6261536
21
128.1618474
0
LINE
8
DEFAULT_255_2_778
10
14.6261536
20
128.1618474
11
14.6261536
21
130.8994474
0
LINE
8
DEFAULT_255_2_778
10
14.4351536
20
130.7412474
11
14.4351536
21
132.7349474
0
LINE
8
DEFAULT_255_2_778
10
14.4351536
20
132.7349474
11
14.5737536
21
132.7349474
0
LINE
8
DEFAULT_255_2_778
10
14.5737536
20
132.7349474
11
14.5737536
21
130.7412474
0
LINE
8
DEFAULT_255_2_778
10
12.9328536
20
129.4321474
11
12.9328536
21
129.4059474
0
LINE
8
DEFAULT_255_2_778
10
16.6262277
20
106.5897797
11
14.6262277
21
106.5897797
0
LINE
8
DEFAULT_255_2_778
10
16.6262277
20
101.1883797
11
14.6262277
21
101.1883797
0
LINE
8
DEFAULT_255_2_778
10
14.6262277
20
103.8907797
11
16.6262277
21
103.8907797
0
LINE
8
DEFAULT_255_2_778
10
16.6262277
20
103.8907797
11
16.6262277
21
101.1623797
0
LINE
8
DEFAULT_255_2_778
10
16.6262277
20
101.1623797
11
14.6262277
21
101.1623797
0
LINE
8
DEFAULT_255_2_778
10
14.6262277
20
101.1623797
11
14.6262277
21
103.8907797
0
LINE
8
DEFAULT_255_2_778
10
42.8263277
20
106.5897797
11
44.8262277
21
106.5897797
0
LINE
8
DEFAULT_255_2_778
10
42.8263277
20
101.1883797
11
44.8262277
21
101.1883797
0
LINE
8
DEFAULT_255_2_778
10
44.8262277
20
103.8907797
11
42.8263277
21
103.8907797
0
LINE
8
DEFAULT_255_2_778
10
42.8263277
20
103.8907797
11
42.8263277
21
101.1623797
0
LINE
8
DEFAULT_255_2_778
10
42.8263277
20
101.1623797
11
44.8262277
21
101.1623797
0
LINE
8
DEFAULT_255_2_778
10
44.8262277
20
101.1623797
11
44.8262277
21
103.8907797
0
LINE
8
DEFAULT_255_2_778
10
16.6262277
20
111.9915797
11
14.6262277
21
111.9915797
0
LINE
8
DEFAULT_255_2_778
10
42.8263277
20
111.9912797
11
44.8262277
21
111.9912797
0
LINE
8
DEFAULT_255_2_778
10
44.8262277
20
114.6942797
11
42.8263277
21
114.6942797
0
LINE
8
DEFAULT_255_2_778
10
42.8263277
20
114.6942797
11
42.8263277
21
111.9621797
0
LINE
8
DEFAULT_255_2_778
10
42.8263277
20
111.9621797
11
44.8262277
21
111.9621797
0
LINE
8
DEFAULT_255_2_778
10
44.8262277
20
111.9621797
11
44.8262277
21
114.6942797
0
LINE
8
DEFAULT_255_2_778
10
12.3262277
20
117.2831797
11
9.8338277
21
117.2831797
0
LINE
8
DEFAULT_255_2_778
10
12.3262277
20
116.8008797
11
9.8338277
21
116.8008797
0
LINE
8
DEFAULT_255_2_778
10
3.5838277
20
117.2831797
11
0.2339277
21
117.2831797
0
LINE
8
DEFAULT_255_2_778
10
3.5838277
20
116.8008797
11
0.2339277
21
116.8008797
0
LINE
8
DEFAULT_255_2_778
10
16.6262277
20
117.3927797
11
14.6262277
21
117.3927797
0
LINE
8
DEFAULT_255_2_778
10
14.6262277
20
120.0959797
11
16.6262277
21
120.0959797
0
LINE
8
DEFAULT_255_2_778
10
16.6262277
20
120.0959797
11
16.6262277
21
117.3620797
0
LINE
8
DEFAULT_255_2_778
10
16.6262277
20
117.3620797
11
14.6262277
21
117.3620797
0
LINE
8
DEFAULT_255_2_778
10
14.6262277
20
117.3620797
11
14.6262277
21
120.0959797
0
LINE
8
DEFAULT_255_2_778
10
42.8263277
20
117.3927797
11
44.8262277
21
117.3927797
0
LINE
8
DEFAULT_255_2_778
10
44.8262277
20
120.0959797
11
42.8263277
21
120.0959797
0
LINE
8
DEFAULT_255_2_778
10
42.8263277
20
120.0959797
11
42.8263277
21
117.3620797
0
LINE
8
DEFAULT_255_2_778
10
42.8263277
20
117.3620797
11
44.8262277
21
117.3620797
0
LINE
8
DEFAULT_255_2_778
10
44.8262277
20
117.3620797
11
44.8262277
21
120.0959797
0
LINE
8
DEFAULT_255_2_778
10
41.1552277
20
136.2630797
11
41.1086277
21
136.2871797
0
LINE
8
DEFAULT_255_2_778
10
41.1086277
20
136.2871797
11
41.0615277
21
136.3104797
0
LINE
8
DEFAULT_255_2_778
10
41.0615277
20
136.3104797
11
41.0141277
21
136.3329797
0
LINE
8
DEFAULT_255_2_778
10
41.0141277
20
136.3329797
11
40.9665277
21
136.3546797
0
LINE
8
DEFAULT_255_2_778
10
40.9665277
20
136.3546797
11
40.9183277
21
136.3755797
0
LINE
8
DEFAULT_255_2_778
10
40.9183277
20
136.3755797
11
40.8699277
21
136.3956797
0
LINE
8
DEFAULT_255_2_778
10
40.8699277
20
136.3956797
11
40.8210277
21
136.4149797
0
LINE
8
DEFAULT_255_2_778
10
40.8210277
20
136.4149797
11
40.7718277
21
136.4334797
0
LINE
8
DEFAULT_255_2_778
10
40.7718277
20
136.4334797
11
40.7223277
21
136.4511797
0
LINE
8
DEFAULT_255_2_778
10
40.7223277
20
136.4511797
11
40.6726277
21
136.4678797
0
LINE
8
DEFAULT_255_2_778
10
40.6726277
20
136.4678797
11
40.6225277
21
136.4837797
0
LINE
8
DEFAULT_255_2_778
10
40.6225277
20
136.4837797
11
40.5723277
21
136.4988797
0
LINE
8
DEFAULT_255_2_778
10
40.5723277
20
136.4988797
11
40.5217277
21
136.5128797
0
LINE
8
DEFAULT_255_2_778
10
40.5217277
20
136.5128797
11
40.4709277
21
136.5260797
0
LINE
8
DEFAULT_255_2_778
10
40.4709277
20
136.5260797
11
40.4199277
21
136.5385797
0
LINE
8
DEFAULT_255_2_778
10
40.4199277
20
136.5385797
11
40.3685277
21
136.5501797
0
LINE
8
DEFAULT_255_2_778
10
40.3685277
20
136.5501797
11
40.3172277
21
136.5607797
0
LINE
8
DEFAULT_255_2_778
10
40.3172277
20
136.5607797
11
40.2656277
21
136.5705797
0
LINE
8
DEFAULT_255_2_778
10
40.2656277
20
136.5705797
11
40.2138277
21
136.5792797
0
LINE
8
DEFAULT_255_2_778
10
40.2138277
20
136.5792797
11
40.1619277
21
136.5871797
0
LINE
8
DEFAULT_255_2_778
10
40.1619277
20
136.5871797
11
40.1100277
21
136.5940797
0
LINE
8
DEFAULT_255_2_778
10
40.1100277
20
136.5940797
11
40.0579277
21
136.6001797
0
LINE
8
DEFAULT_255_2_778
10
40.0579277
20
136.6001797
11
40.0058277
21
136.6054797
0
LINE
8
DEFAULT_255_2_778
10
40.0058277
20
136.6054797
11
39.9534277
21
136.6096797
0
LINE
8
DEFAULT_255_2_778
10
39.9534277
20
136.6096797
11
39.9010277
21
136.6131797
0
LINE
8
DEFAULT_255_2_778
10
39.9010277
20
136.6131797
11
39.8486277
21
136.6154797
0
LINE
8
DEFAULT_255_2_778
10
39.8486277
20
136.6154797
11
39.7963277
21
136.6168797
0
LINE
8
DEFAULT_255_2_778
10
39.7963277
20
136.6168797
11
39.7439277
21
136.6173797
0
LINE
8
DEFAULT_255_2_778
10
16.6262277
20
128.1959797
11
14.6262277
21
128.1959797
0
LINE
8
DEFAULT_255_2_778
10
16.6262277
20
122.7944797
11
14.6262277
21
122.7944797
0
LINE
8
DEFAULT_255_2_778
10
14.6262277
20
125.4979797
11
16.6262277
21
125.4979797
0
LINE
8
DEFAULT_255_2_778
10
16.6262277
20
125.4979797
11
16.6262277
21
122.7621797
0
LINE
8
DEFAULT_255_2_778
10
16.6262277
20
122.7621797
11
14.6262277
21
122.7621797
0
LINE
8
DEFAULT_255_2_778
10
14.6262277
20
122.7621797
11
14.6262277
21
125.4979797
0
LINE
8
DEFAULT_255_2_778
10
42.8263277
20
128.1959797
11
44.8262277
21
128.1959797
0
LINE
8
DEFAULT_255_2_778
10
42.8263277
20
122.7944797
11
44.8262277
21
122.7944797
0
LINE
8
DEFAULT_255_2_778
10
44.8262277
20
125.4979797
11
42.8263277
21
125.4979797
0
LINE
8
DEFAULT_255_2_778
10
42.8263277
20
125.4979797
11
42.8263277
21
122.7621797
0
LINE
8
DEFAULT_255_2_778
10
42.8263277
20
122.7621797
11
44.8262277
21
122.7621797
0
LINE
8
DEFAULT_255_2_778
10
44.8262277
20
122.7621797
11
44.8262277
21
125.4979797
0
LINE
8
DEFAULT_255_2_778
10
14.4351277
20
130.7539797
11
14.5738277
21
130.7539797
0
LINE
8
DEFAULT_255_2_778
10
41.3761277
20
132.2075797
11
33.2261277
21
132.2075797
0
LINE
8
DEFAULT_255_2_778
10
26.2263277
20
132.2075797
11
18.0763277
21
132.2075797
0
LINE
8
DEFAULT_255_2_778
10
42.2261253
20
136.2625145
11
17.2262253
21
136.2625145
0
LINE
8
DEFAULT_255_2_778
10
33.2261253
20
133.7913145
11
26.2263253
21
133.7913145
0
LINE
8
DEFAULT_255_2_778
10
33.2263253
20
133.7971145
11
33.2263253
21
131.6641145
0
LINE
8
DEFAULT_255_2_778
10
33.2263253
20
131.6641145
11
26.2263253
21
131.6641145
0
LINE
8
DEFAULT_255_2_778
10
26.2263253
20
131.6641145
11
26.2263253
21
133.7971145
0
LINE
8
DEFAULT_255_2_778
10
17.2262253
20
140.3133145
11
17.3262253
21
140.3133145
0
LINE
8
DEFAULT_255_2_778
10
17.3262253
20
140.0633145
11
17.2262253
21
140.0633145
0
LINE
8
DEFAULT_255_2_778
10
17.3262253
20
138.8081145
11
17.2262253
21
138.8081145
0
ARC
8
DEFAULT_255_2_778
10
33.7267461
20
133.8143345
40
2.8990019
50
57.6204368
51
76.2532989
0
ARC
8
DEFAULT_255_2_778
10
33.725962
20
133.81331
40
2.9001007
50
103.7502673
51
122.3760064
0
ARC
8
DEFAULT_255_2_778
10
25.7264102
20
133.813311
40
2.9000997
50
57.6239919
51
76.2497379
0
ARC
8
DEFAULT_255_2_778
10
25.7256255
20
133.8143345
40
2.8990019
50
103.7467011
51
122.3795632
0
LINE
8
DEFAULT_255_2_778
10
42.1261358
20
140.3132967
11
42.2261358
21
140.3132967
0
LINE
8
DEFAULT_255_2_778
10
42.1261358
20
140.0632967
11
42.2261358
21
140.0632967
0
LINE
8
DEFAULT_255_2_778
10
42.1261358
20
138.8080967
11
42.2261358
21
138.8080967
0
LINE
8
DEFAULT_255_2_778
10
42.2261358
20
146.3132967
11
42.1261358
21
146.3132967
0
LINE
8
DEFAULT_255_2_778
10
17.3262358
20
146.3132967
11
17.2262358
21
146.3132967
0
LINE
8
DEFAULT_255_2_778
10
31.2261358
20
136.6302967
11
31.2261358
21
136.2625967
0
LINE
8
DEFAULT_255_2_778
10
28.2260358
20
136.6302967
11
28.2260358
21
136.2625967
0
LINE
8
DEFAULT_255_2_778
10
13.2188358
20
130.1834967
11
13.2188358
21
130.1961967
0
LINE
8
DEFAULT_255_2_778
10
13.673738
20
130.1835213
11
13.673738
21
130.1962213
0
LINE
8
DEFAULT_255_2_778
10
13.673738
20
130.1962213
11
13.682938
21
130.1859213
0
LINE
8
DEFAULT_255_2_778
10
13.682938
20
130.1859213
11
13.691938
21
130.1753213
0
LINE
8
DEFAULT_255_2_778
10
13.691938
20
130.1753213
11
13.700438
21
130.1644213
0
LINE
8
DEFAULT_255_2_778
10
13.700438
20
130.1644213
11
13.708638
21
130.1533213
0
LINE
8
DEFAULT_255_2_778
10
13.708638
20
130.1533213
11
13.716338
21
130.1420213
0
LINE
8
DEFAULT_255_2_778
10
13.716338
20
130.1420213
11
13.723438
21
130.1303213
0
LINE
8
DEFAULT_255_2_778
10
13.723438
20
130.1303213
11
13.730338
21
130.1184213
0
LINE
8
DEFAULT_255_2_778
10
13.730338
20
130.1184213
11
13.736938
21
130.1065213
0
LINE
8
DEFAULT_255_2_778
10
13.736938
20
130.1065213
11
13.743038
21
130.0943213
0
LINE
8
DEFAULT_255_2_778
10
13.743038
20
130.0943213
11
13.748838
21
130.0819213
0
LINE
8
DEFAULT_255_2_778
10
13.748838
20
130.0819213
11
13.754438
21
130.0695213
0
LINE
8
DEFAULT_255_2_778
10
13.754438
20
130.0695213
11
13.759438
21
130.0568213
0
LINE
8
DEFAULT_255_2_778
10
13.759438
20
130.0568213
11
13.768638
21
130.0311213
0
LINE
8
DEFAULT_255_2_778
10
13.768638
20
130.0311213
11
13.776838
21
130.0049213
0
LINE
8
DEFAULT_255_2_778
10
13.776838
20
130.0049213
11
13.783738
21
129.9784213
0
LINE
8
DEFAULT_255_2_778
10
13.783738
20
129.9784213
11
13.789538
21
129.9517213
0
LINE
8
DEFAULT_255_2_778
10
13.789538
20
129.9517213
11
13.794638
21
129.9247213
0
LINE
8
DEFAULT_255_2_778
10
13.794638
20
129.9247213
11
13.798838
21
129.8977213
0
LINE
8
DEFAULT_255_2_778
10
13.798838
20
129.8977213
11
13.802538
21
129.8705213
0
LINE
8
DEFAULT_255_2_778
10
13.802538
20
129.8705213
11
13.805738
21
129.8432213
0
LINE
8
DEFAULT_255_2_778
10
13.805738
20
129.8432213
11
13.808338
21
129.8160213
0
LINE
8
DEFAULT_255_2_778
10
13.808338
20
129.8160213
11
13.810438
21
129.7885213
0
LINE
8
DEFAULT_255_2_778
10
13.810438
20
129.7885213
11
13.812038
21
129.7610213
0
LINE
8
DEFAULT_255_2_778
10
13.812038
20
129.7610213
11
13.813438
21
129.7334213
0
LINE
8
DEFAULT_255_2_778
10
13.813438
20
129.7334213
11
13.814438
21
129.7059213
0
LINE
8
DEFAULT_255_2_778
10
13.814438
20
129.7059213
11
13.815238
21
129.6784213
0
LINE
8
DEFAULT_255_2_778
10
13.815238
20
129.6784213
11
13.815738
21
129.6509213
0
LINE
8
DEFAULT_255_2_778
10
13.815738
20
129.6509213
11
13.816338
21
129.6234213
0
LINE
8
DEFAULT_255_2_778
10
13.816338
20
129.6234213
11
13.816838
21
129.5959213
0
LINE
8
DEFAULT_255_2_778
10
13.816838
20
129.5959213
11
13.817338
21
129.5411213
0
LINE
8
DEFAULT_255_2_778
10
13.817338
20
129.5411213
11
13.817938
21
129.4863213
0
LINE
8
DEFAULT_255_2_778
10
13.817938
20
129.4863213
11
13.818138
21
129.4315213
0
LINE
8
DEFAULT_255_2_778
10
13.818138
20
129.4315213
11
13.818138
21
129.3768213
0
LINE
8
DEFAULT_255_2_778
10
13.818138
20
129.3768213
11
13.818138
21
129.2945213
0
LINE
8
DEFAULT_255_2_778
10
13.818138
20
129.2945213
11
13.817938
21
129.2670213
0
LINE
8
DEFAULT_255_2_778
10
13.817938
20
129.2670213
11
13.817638
21
129.2395213
0
LINE
8
DEFAULT_255_2_778
10
13.817638
20
129.2395213
11
13.817338
21
129.2119213
0
LINE
8
DEFAULT_255_2_778
10
13.817338
20
129.2119213
11
13.816838
21
129.1844213
0
LINE
8
DEFAULT_255_2_778
10
13.816838
20
129.1844213
11
13.816038
21
129.1569213
0
LINE
8
DEFAULT_255_2_778
10
13.816038
20
129.1569213
11
13.814938
21
129.1294213
0
LINE
8
DEFAULT_255_2_778
10
13.814938
20
129.1294213
11
13.813638
21
129.1019213
0
LINE
8
DEFAULT_255_2_778
10
13.813638
20
129.1019213
11
13.812038
21
129.0746213
0
LINE
8
DEFAULT_255_2_778
10
13.812038
20
129.0746213
11
13.810238
21
129.0471213
0
LINE
8
DEFAULT_255_2_778
10
13.810238
20
129.0471213
11
13.808138
21
129.0199213
0
LINE
8
DEFAULT_255_2_778
10
13.808138
20
129.0199213
11
13.805438
21
128.9926213
0
LINE
8
DEFAULT_255_2_778
10
13.805438
20
128.9926213
11
13.802538
21
128.9654213
0
LINE
8
DEFAULT_255_2_778
10
13.802538
20
128.9654213
11
13.798838
21
128.9381213
0
LINE
8
DEFAULT_255_2_778
10
13.798838
20
128.9381213
11
13.794638
21
128.9111213
0
LINE
8
DEFAULT_255_2_778
10
13.794638
20
128.9111213
11
13.789538
21
128.8841213
0
LINE
8
DEFAULT_255_2_778
10
13.789538
20
128.8841213
11
13.783738
21
128.8574213
0
LINE
8
DEFAULT_255_2_778
10
13.783738
20
128.8574213
11
13.777138
21
128.8307213
0
LINE
8
DEFAULT_255_2_778
10
13.777138
20
128.8307213
11
13.769438
21
128.8042213
0
LINE
8
DEFAULT_255_2_778
10
13.769438
20
128.8042213
11
13.761038
21
128.7780213
0
LINE
8
DEFAULT_255_2_778
10
13.761038
20
128.7780213
11
13.751438
21
128.7524213
0
LINE
8
DEFAULT_255_2_778
10
13.751438
20
128.7524213
11
13.746238
21
128.7397213
0
LINE
8
DEFAULT_255_2_778
10
13.746238
20
128.7397213
11
13.740638
21
128.7272213
0
LINE
8
DEFAULT_255_2_778
10
13.740638
20
128.7272213
11
13.734538
21
128.7148213
0
LINE
8
DEFAULT_255_2_778
10
13.734538
20
128.7148213
11
13.728238
21
128.7026213
0
LINE
8
DEFAULT_255_2_778
10
13.728238
20
128.7026213
11
13.721338
21
128.6907213
0
LINE
8
DEFAULT_255_2_778
10
13.721338
20
128.6907213
11
13.713938
21
128.6791213
0
LINE
8
DEFAULT_255_2_778
10
13.713938
20
128.6791213
11
13.705938
21
128.6677213
0
LINE
8
DEFAULT_255_2_778
10
13.705938
20
128.6677213
11
13.697738
21
128.6566213
0
LINE
8
DEFAULT_255_2_778
10
13.697738
20
128.6566213
11
13.689038
21
128.6457213
0
LINE
8
DEFAULT_255_2_778
10
13.689038
20
128.6457213
11
13.679738
21
128.6354213
0
LINE
8
DEFAULT_255_2_778
10
13.679738
20
128.6354213
11
13.670238
21
128.6254213
0
LINE
8
DEFAULT_255_2_778
10
13.670238
20
128.6254213
11
13.660238
21
128.6158213
0
LINE
8
DEFAULT_255_2_778
10
13.660238
20
128.6158213
11
13.649638
21
128.6068213
0
LINE
8
DEFAULT_255_2_778
10
13.649638
20
128.6068213
11
13.638738
21
128.5984213
0
LINE
8
DEFAULT_255_2_778
10
13.638738
20
128.5984213
11
13.627438
21
128.5907213
0
LINE
8
DEFAULT_255_2_778
10
13.627438
20
128.5907213
11
13.615738
21
128.5836213
0
LINE
8
DEFAULT_255_2_778
10
13.615738
20
128.5836213
11
13.603538
21
128.5772213
0
LINE
8
DEFAULT_255_2_778
10
13.603538
20
128.5772213
11
13.591138
21
128.5714213
0
LINE
8
DEFAULT_255_2_778
10
13.591138
20
128.5714213
11
13.578438
21
128.5664213
0
LINE
8
DEFAULT_255_2_778
10
13.578438
20
128.5664213
11
13.565438
21
128.5619213
0
LINE
8
DEFAULT_255_2_778
10
13.565438
20
128.5619213
11
13.552238
21
128.5579213
0
LINE
8
DEFAULT_255_2_778
10
13.552238
20
128.5579213
11
13.538738
21
128.5545213
0
LINE
8
DEFAULT_255_2_778
10
13.538738
20
128.5545213
11
13.525238
21
128.5518213
0
LINE
8
DEFAULT_255_2_778
10
13.525238
20
128.5518213
11
13.511538
21
128.5494213
0
LINE
8
DEFAULT_255_2_778
10
13.511538
20
128.5494213
11
13.497738
21
128.5476213
0
LINE
8
DEFAULT_255_2_778
10
13.497738
20
128.5476213
11
13.483938
21
128.5463213
0
LINE
8
DEFAULT_255_2_778
10
13.483938
20
128.5463213
11
13.470238
21
128.5455213
0
LINE
8
DEFAULT_255_2_778
10
13.470238
20
128.5455213
11
13.456438
21
128.5449213
0
LINE
8
DEFAULT_255_2_778
10
13.456438
20
128.5449213
11
13.442738
21
128.5449213
0
LINE
8
DEFAULT_255_2_778
10
13.442738
20
128.5449213
11
13.428938
21
128.5452213
0
LINE
8
DEFAULT_255_2_778
10
13.428938
20
128.5452213
11
13.415238
21
128.5457213
0
LINE
8
DEFAULT_255_2_778
10
13.415238
20
128.5457213
11
13.401438
21
128.5468213
0
LINE
8
DEFAULT_255_2_778
10
13.401438
20
128.5468213
11
13.387638
21
128.5481213
0
LINE
8
DEFAULT_255_2_778
10
13.387638
20
128.5481213
11
13.373938
21
128.5500213
0
LINE
8
DEFAULT_255_2_778
10
13.373938
20
128.5500213
11
13.360438
21
128.5523213
0
LINE
8
DEFAULT_255_2_778
10
13.360438
20
128.5523213
11
13.346938
21
128.5552213
0
LINE
8
DEFAULT_255_2_778
10
13.346938
20
128.5552213
11
13.333738
21
128.5587213
0
LINE
8
DEFAULT_255_2_778
10
13.333738
20
128.5587213
11
13.320438
21
128.5627213
0
LINE
8
DEFAULT_255_2_778
10
13.320438
20
128.5627213
11
13.307538
21
128.5674213
0
LINE
8
DEFAULT_255_2_778
10
13.307538
20
128.5674213
11
13.294838
21
128.5727213
0
LINE
8
DEFAULT_255_2_778
10
13.294838
20
128.5727213
11
13.282338
21
128.5788213
0
LINE
8
DEFAULT_255_2_778
10
13.282338
20
128.5788213
11
13.270238
21
128.5854213
0
LINE
8
DEFAULT_255_2_778
10
13.270238
20
128.5854213
11
13.258538
21
128.5926213
0
LINE
8
DEFAULT_255_2_778
10
13.258538
20
128.5926213
11
13.247138
21
128.6005213
0
LINE
8
DEFAULT_255_2_778
10
13.247138
20
128.6005213
11
13.236338
21
128.6090213
0
LINE
8
DEFAULT_255_2_778
10
13.236338
20
128.6090213
11
13.225738
21
128.6180213
0
LINE
8
DEFAULT_255_2_778
10
13.225738
20
128.6180213
11
13.215738
21
128.6277213
0
LINE
8
DEFAULT_255_2_778
10
13.215738
20
128.6277213
11
13.206138
21
128.6381213
0
LINE
8
DEFAULT_255_2_778
10
13.206138
20
128.6381213
11
13.197138
21
128.6486213
0
LINE
8
DEFAULT_255_2_778
10
13.197138
20
128.6486213
11
13.188738
21
128.6595213
0
LINE
8
DEFAULT_255_2_778
10
13.188738
20
128.6595213
11
13.180738
21
128.6709213
0
LINE
8
DEFAULT_255_2_778
10
13.180738
20
128.6709213
11
13.173138
21
128.6825213
0
LINE
8
DEFAULT_255_2_778
10
13.173138
20
128.6825213
11
13.165938
21
128.6944213
0
LINE
8
DEFAULT_255_2_778
10
13.165938
20
128.6944213
11
13.159338
21
128.7066213
0
LINE
8
DEFAULT_255_2_778
10
13.159338
20
128.7066213
11
13.153038
21
128.7190213
0
LINE
8
DEFAULT_255_2_778
10
13.153038
20
128.7190213
11
13.147138
21
128.7315213
0
LINE
8
DEFAULT_255_2_778
10
13.147138
20
128.7315213
11
13.141838
21
128.7442213
0
LINE
8
DEFAULT_255_2_778
10
13.141838
20
128.7442213
11
13.136838
21
128.7571213
0
LINE
8
DEFAULT_255_2_778
10
13.136838
20
128.7571213
11
13.128938
21
128.7804213
0
LINE
8
DEFAULT_255_2_778
10
13.128938
20
128.7804213
11
13.121738
21
128.8040213
0
LINE
8
DEFAULT_255_2_778
10
13.121738
20
128.8040213
11
13.115138
21
128.8275213
0
LINE
8
DEFAULT_255_2_778
10
13.115138
20
128.8275213
11
13.109338
21
128.8511213
0
LINE
8
DEFAULT_255_2_778
10
13.109338
20
128.8511213
11
13.104038
21
128.8749213
0
LINE
8
DEFAULT_255_2_778
10
13.104038
20
128.8749213
11
13.099538
21
128.8987213
0
LINE
8
DEFAULT_255_2_778
10
13.099538
20
128.8987213
11
13.095538
21
128.9225213
0
LINE
8
DEFAULT_255_2_778
10
13.095538
20
128.9225213
11
13.092138
21
128.9466213
0
LINE
8
DEFAULT_255_2_778
10
13.092138
20
128.9466213
11
13.088938
21
128.9706213
0
LINE
8
DEFAULT_255_2_778
10
13.088938
20
128.9706213
11
13.086338
21
128.9947213
0
LINE
8
DEFAULT_255_2_778
10
13.086338
20
128.9947213
11
13.083938
21
129.0188213
0
LINE
8
DEFAULT_255_2_778
10
13.083938
20
129.0188213
11
13.082038
21
129.0431213
0
LINE
8
DEFAULT_255_2_778
10
13.082038
20
129.0431213
11
13.078938
21
129.0918213
0
LINE
8
DEFAULT_255_2_778
10
13.078938
20
129.0918213
11
13.076838
21
129.1405213
0
LINE
8
DEFAULT_255_2_778
10
13.076838
20
129.1405213
11
13.075438
21
129.1892213
0
LINE
8
DEFAULT_255_2_778
10
13.075438
20
129.1892213
11
13.074638
21
129.2381213
0
LINE
8
DEFAULT_255_2_778
10
13.074638
20
129.2381213
11
13.074438
21
129.2871213
0
LINE
8
DEFAULT_255_2_778
10
13.074438
20
129.2871213
11
13.074438
21
129.3360213
0
LINE
8
DEFAULT_255_2_778
10
13.074438
20
129.3360213
11
13.074438
21
129.4829213
0
LINE
8
DEFAULT_255_2_778
10
13.074438
20
129.4829213
11
13.074638
21
129.5318213
0
LINE
8
DEFAULT_255_2_778
10
13.074638
20
129.5318213
11
13.075238
21
129.5808213
0
LINE
8
DEFAULT_255_2_778
10
13.075238
20
129.5808213
11
13.076038
21
129.6297213
0
LINE
8
DEFAULT_255_2_778
10
13.076038
20
129.6297213
11
13.077338
21
129.6784213
0
LINE
8
DEFAULT_255_2_778
10
13.077338
20
129.6784213
11
13.079138
21
129.7271213
0
LINE
8
DEFAULT_255_2_778
10
13.079138
20
129.7271213
11
13.081838
21
129.7758213
0
LINE
8
DEFAULT_255_2_778
10
13.081838
20
129.7758213
11
13.083438
21
129.8001213
0
LINE
8
DEFAULT_255_2_778
10
13.083438
20
129.8001213
11
13.085238
21
129.8245213
0
LINE
8
DEFAULT_255_2_778
10
13.085238
20
129.8245213
11
13.087638
21
129.8485213
0
LINE
8
DEFAULT_255_2_778
10
13.087638
20
129.8485213
11
13.090238
21
129.8726213
0
LINE
8
DEFAULT_255_2_778
10
13.090238
20
129.8726213
11
13.093438
21
129.8967213
0
LINE
8
DEFAULT_255_2_778
10
13.093438
20
129.8967213
11
13.097138
21
129.9208213
0
LINE
8
DEFAULT_255_2_778
10
13.097138
20
129.9208213
11
13.101438
21
129.9446213
0
LINE
8
DEFAULT_255_2_778
10
13.101438
20
129.9446213
11
13.106438
21
129.9684213
0
LINE
8
DEFAULT_255_2_778
10
13.106438
20
129.9684213
11
13.112238
21
129.9922213
0
LINE
8
DEFAULT_255_2_778
10
13.112238
20
129.9922213
11
13.118838
21
130.0160213
0
LINE
8
DEFAULT_255_2_778
10
13.118838
20
130.0160213
11
13.126238
21
130.0396213
0
LINE
8
DEFAULT_255_2_778
10
13.126238
20
130.0396213
11
13.134438
21
130.0631213
0
LINE
8
DEFAULT_255_2_778
10
13.134438
20
130.0631213
11
13.137138
21
130.0697213
0
LINE
8
DEFAULT_255_2_778
10
13.137138
20
130.0697213
11
13.140038
21
130.0763213
0
LINE
8
DEFAULT_255_2_778
10
13.140038
20
130.0763213
11
13.142938
21
130.0830213
0
LINE
8
DEFAULT_255_2_778
10
13.142938
20
130.0830213
11
13.145838
21
130.0896213
0
LINE
8
DEFAULT_255_2_778
10
13.145838
20
130.0896213
11
13.149038
21
130.0962213
0
LINE
8
DEFAULT_255_2_778
10
13.149038
20
130.0962213
11
13.150638
21
130.0994213
0
LINE
8
DEFAULT_255_2_778
10
13.150638
20
130.0994213
11
13.152238
21
130.1025213
0
LINE
8
DEFAULT_255_2_778
10
13.152238
20
130.1025213
11
13.153738
21
130.1057213
0
LINE
8
DEFAULT_255_2_778
10
13.153738
20
130.1057213
11
13.155338
21
130.1089213
0
LINE
8
DEFAULT_255_2_778
10
13.155338
20
130.1089213
11
13.156938
21
130.1121213
0
LINE
8
DEFAULT_255_2_778
10
13.156938
20
130.1121213
11
13.158838
21
130.1152213
0
LINE
8
DEFAULT_255_2_778
10
13.158838
20
130.1152213
11
13.160638
21
130.1184213
0
LINE
8
DEFAULT_255_2_778
10
13.160638
20
130.1184213
11
13.162538
21
130.1216213
0
LINE
8
DEFAULT_255_2_778
10
13.162538
20
130.1216213
11
13.164338
21
130.1248213
0
LINE
8
DEFAULT_255_2_778
10
13.164338
20
130.1248213
11
13.166238
21
130.1279213
0
LINE
8
DEFAULT_255_2_778
10
13.166238
20
130.1279213
11
13.168038
21
130.1311213
0
LINE
8
DEFAULT_255_2_778
10
13.168038
20
130.1311213
11
13.169938
21
130.1340213
0
LINE
8
DEFAULT_255_2_778
10
13.169938
20
130.1340213
11
13.171738
21
130.1369213
0
LINE
8
DEFAULT_255_2_778
10
13.171738
20
130.1369213
11
13.173938
21
130.1398213
0
LINE
8
DEFAULT_255_2_778
10
13.173938
20
130.1398213
11
13.176038
21
130.1427213
0
LINE
8
DEFAULT_255_2_778
10
13.176038
20
130.1427213
11
13.178138
21
130.1457213
0
LINE
8
DEFAULT_255_2_778
10
13.178138
20
130.1457213
11
13.180238
21
130.1486213
0
LINE
8
DEFAULT_255_2_778
10
13.180238
20
130.1486213
11
13.182338
21
130.1515213
0
LINE
8
DEFAULT_255_2_778
10
13.182338
20
130.1515213
11
13.184438
21
130.1544213
0
LINE
8
DEFAULT_255_2_778
10
13.184438
20
130.1544213
11
13.186638
21
130.1573213
0
LINE
8
DEFAULT_255_2_778
10
13.186638
20
130.1573213
11
13.188738
21
130.1602213
0
LINE
8
DEFAULT_255_2_778
10
13.188738
20
130.1602213
11
13.190838
21
130.1631213
0
LINE
8
DEFAULT_255_2_778
10
13.190838
20
130.1631213
11
13.192938
21
130.1660213
0
LINE
8
DEFAULT_255_2_778
10
13.192938
20
130.1660213
11
13.195338
21
130.1689213
0
LINE
8
DEFAULT_255_2_778
10
13.195338
20
130.1689213
11
13.197738
21
130.1716213
0
LINE
8
DEFAULT_255_2_778
10
13.197738
20
130.1716213
11
13.200138
21
130.1742213
0
LINE
8
DEFAULT_255_2_778
10
13.200138
20
130.1742213
11
13.202438
21
130.1769213
0
LINE
8
DEFAULT_255_2_778
10
13.202438
20
130.1769213
11
13.204838
21
130.1795213
0
LINE
8
DEFAULT_255_2_778
10
13.204838
20
130.1795213
11
13.207238
21
130.1822213
0
LINE
8
DEFAULT_255_2_778
10
13.207238
20
130.1822213
11
13.209638
21
130.1848213
0
LINE
8
DEFAULT_255_2_778
10
13.209638
20
130.1848213
11
13.212038
21
130.1875213
0
LINE
8
DEFAULT_255_2_778
10
13.212038
20
130.1875213
11
13.214338
21
130.1901213
0
LINE
8
DEFAULT_255_2_778
10
13.214338
20
130.1901213
11
13.217038
21
130.1928213
0
LINE
8
DEFAULT_255_2_778
10
13.217038
20
130.1928213
11
13.224138
21
130.1996213
0
LINE
8
DEFAULT_255_2_778
10
13.224138
20
130.1996213
11
13.228638
21
130.2039213
0
LINE
8
DEFAULT_255_2_778
10
13.228638
20
130.2039213
11
13.233438
21
130.2081213
0
LINE
8
DEFAULT_255_2_778
10
13.233438
20
130.2081213
11
13.238238
21
130.2121213
0
LINE
8
DEFAULT_255_2_778
10
13.238238
20
130.2121213
11
13.242938
21
130.2160213
0
LINE
8
DEFAULT_255_2_778
10
13.242938
20
130.2160213
11
13.247938
21
130.2197213
0
LINE
8
DEFAULT_255_2_778
10
13.247938
20
130.2197213
11
13.253038
21
130.2234213
0
LINE
8
DEFAULT_255_2_778
10
13.253038
20
130.2234213
11
13.258038
21
130.2269213
0
LINE
8
DEFAULT_255_2_778
10
13.258038
20
130.2269213
11
13.263338
21
130.2303213
0
LINE
8
DEFAULT_255_2_778
10
13.263338
20
130.2303213
11
13.268638
21
130.2335213
0
LINE
8
DEFAULT_255_2_778
10
13.268638
20
130.2335213
11
13.274138
21
130.2367213
0
LINE
8
DEFAULT_255_2_778
10
13.274138
20
130.2367213
11
13.279738
21
130.2396213
0
LINE
8
DEFAULT_255_2_778
10
13.279738
20
130.2396213
11
13.285238
21
130.2425213
0
LINE
8
DEFAULT_255_2_778
10
13.285238
20
130.2425213
11
13.291138
21
130.2451213
0
LINE
8
DEFAULT_255_2_778
10
13.291138
20
130.2451213
11
13.296938
21
130.2478213
0
LINE
8
DEFAULT_255_2_778
10
13.296938
20
130.2478213
11
13.302738
21
130.2502213
0
LINE
8
DEFAULT_255_2_778
10
13.302738
20
130.2502213
11
13.308538
21
130.2526213
0
LINE
8
DEFAULT_255_2_778
10
13.308538
20
130.2526213
11
13.314438
21
130.2547213
0
LINE
8
DEFAULT_255_2_778
10
13.314438
20
130.2547213
11
13.320238
21
130.2568213
0
LINE
8
DEFAULT_255_2_778
10
13.320238
20
130.2568213
11
13.326338
21
130.2586213
0
LINE
8
DEFAULT_255_2_778
10
13.326338
20
130.2586213
11
13.332338
21
130.2605213
0
LINE
8
DEFAULT_255_2_778
10
13.332338
20
130.2605213
11
13.338438
21
130.2621213
0
LINE
8
DEFAULT_255_2_778
10
13.338438
20
130.2621213
11
13.344538
21
130.2637213
0
LINE
8
DEFAULT_255_2_778
10
13.344538
20
130.2637213
11
13.350638
21
130.2650213
0
LINE
8
DEFAULT_255_2_778
10
13.350638
20
130.2650213
11
13.356738
21
130.2663213
0
LINE
8
DEFAULT_255_2_778
10
13.356738
20
130.2663213
11
13.362838
21
130.2676213
0
LINE
8
DEFAULT_255_2_778
10
13.362838
20
130.2676213
11
13.368938
21
130.2687213
0
LINE
8
DEFAULT_255_2_778
10
13.368938
20
130.2687213
11
13.374938
21
130.2697213
0
LINE
8
DEFAULT_255_2_778
10
13.374938
20
130.2697213
11
13.381338
21
130.2705213
0
LINE
8
DEFAULT_255_2_778
10
13.381338
20
130.2705213
11
13.387638
21
130.2713213
0
LINE
8
DEFAULT_255_2_778
10
13.387638
20
130.2713213
11
13.393738
21
130.2721213
0
LINE
8
DEFAULT_255_2_778
10
13.393738
20
130.2721213
11
13.400138
21
130.2727213
0
LINE
8
DEFAULT_255_2_778
10
13.400138
20
130.2727213
11
13.406438
21
130.2732213
0
LINE
8
DEFAULT_255_2_778
10
13.406438
20
130.2732213
11
13.412838
21
130.2737213
0
LINE
8
DEFAULT_255_2_778
10
13.412838
20
130.2737213
11
13.419138
21
130.2740213
0
LINE
8
DEFAULT_255_2_778
10
13.419138
20
130.2740213
11
13.425538
21
130.2742213
0
LINE
8
DEFAULT_255_2_778
10
13.425538
20
130.2742213
11
13.431638
21
130.2742213
0
LINE
8
DEFAULT_255_2_778
10
13.431638
20
130.2742213
11
13.437638
21
130.2742213
0
LINE
8
DEFAULT_255_2_778
10
13.437638
20
130.2742213
11
13.444038
21
130.2742213
0
LINE
8
DEFAULT_255_2_778
10
13.444038
20
130.2742213
11
13.450138
21
130.2742213
0
LINE
8
DEFAULT_255_2_778
10
13.450138
20
130.2742213
11
13.456238
21
130.2742213
0
LINE
8
DEFAULT_255_2_778
10
13.456238
20
130.2742213
11
13.462338
21
130.2742213
0
LINE
8
DEFAULT_255_2_778
10
13.462338
20
130.2742213
11
13.468338
21
130.2740213
0
LINE
8
DEFAULT_255_2_778
10
13.468338
20
130.2740213
11
13.474738
21
130.2737213
0
LINE
8
DEFAULT_255_2_778
10
13.474738
20
130.2737213
11
13.480838
21
130.2735213
0
LINE
8
DEFAULT_255_2_778
10
13.480838
20
130.2735213
11
13.487138
21
130.2729213
0
LINE
8
DEFAULT_255_2_778
10
13.487138
20
130.2729213
11
13.493238
21
130.2724213
0
LINE
8
DEFAULT_255_2_778
10
13.493238
20
130.2724213
11
13.499338
21
130.2719213
0
LINE
8
DEFAULT_255_2_778
10
13.499338
20
130.2719213
11
13.505638
21
130.2711213
0
LINE
8
DEFAULT_255_2_778
10
13.505638
20
130.2711213
11
13.511738
21
130.2703213
0
LINE
8
DEFAULT_255_2_778
10
13.511738
20
130.2703213
11
13.518138
21
130.2692213
0
LINE
8
DEFAULT_255_2_778
10
13.518138
20
130.2692213
11
13.524238
21
130.2682213
0
LINE
8
DEFAULT_255_2_778
10
13.524238
20
130.2682213
11
13.530338
21
130.2671213
0
LINE
8
DEFAULT_255_2_778
10
13.530338
20
130.2671213
11
13.536338
21
130.2658213
0
LINE
8
DEFAULT_255_2_778
10
13.536338
20
130.2658213
11
13.542438
21
130.2645213
0
LINE
8
DEFAULT_255_2_778
10
13.542438
20
130.2645213
11
13.548538
21
130.2629213
0
LINE
8
DEFAULT_255_2_778
10
13.548538
20
130.2629213
11
13.554638
21
130.2613213
0
LINE
8
DEFAULT_255_2_778
10
13.554638
20
130.2613213
11
13.560738
21
130.2597213
0
LINE
8
DEFAULT_255_2_778
10
13.560738
20
130.2597213
11
13.566838
21
130.2578213
0
LINE
8
DEFAULT_255_2_778
10
13.566838
20
130.2578213
11
13.572838
21
130.2560213
0
LINE
8
DEFAULT_255_2_778
10
13.572838
20
130.2560213
11
13.578738
21
130.2539213
0
LINE
8
DEFAULT_255_2_778
10
13.578738
20
130.2539213
11
13.584538
21
130.2518213
0
LINE
8
DEFAULT_255_2_778
10
13.584538
20
130.2518213
11
13.590338
21
130.2494213
0
LINE
8
DEFAULT_255_2_778
10
13.590338
20
130.2494213
11
13.596138
21
130.2470213
0
LINE
8
DEFAULT_255_2_778
10
13.596138
20
130.2470213
11
13.602038
21
130.2443213
0
LINE
8
DEFAULT_255_2_778
10
13.602038
20
130.2443213
11
13.607538
21
130.2417213
0
LINE
8
DEFAULT_255_2_778
10
13.607538
20
130.2417213
11
13.613138
21
130.2388213
0
LINE
8
DEFAULT_255_2_778
10
13.613138
20
130.2388213
11
13.618638
21
130.2359213
0
LINE
8
DEFAULT_255_2_778
10
13.618638
20
130.2359213
11
13.624238
21
130.2327213
0
LINE
8
DEFAULT_255_2_778
10
13.624238
20
130.2327213
11
13.629538
21
130.2295213
0
LINE
8
DEFAULT_255_2_778
10
13.629538
20
130.2295213
11
13.634838
21
130.2261213
0
LINE
8
DEFAULT_255_2_778
10
13.634838
20
130.2261213
11
13.640138
21
130.2227213
0
LINE
8
DEFAULT_255_2_778
10
13.640138
20
130.2227213
11
13.645138
21
130.2189213
0
LINE
8
DEFAULT_255_2_778
10
13.645138
20
130.2189213
11
13.650138
21
130.2152213
0
LINE
8
DEFAULT_255_2_778
10
13.650138
20
130.2152213
11
13.655138
21
130.2113213
0
LINE
8
DEFAULT_255_2_778
10
13.655138
20
130.2113213
11
13.659938
21
130.2073213
0
LINE
8
DEFAULT_255_2_778
10
13.659938
20
130.2073213
11
13.664738
21
130.2031213
0
LINE
8
DEFAULT_255_2_778
10
13.664738
20
130.2031213
11
13.669438
21
130.1988213
0
LINE
8
DEFAULT_255_2_778
10
13.669438
20
130.1988213
11
13.673938
21
130.1943213
0
LINE
8
DEFAULT_255_2_778
10
13.121738
20
128.5116213
11
13.121738
21
128.5243213
0
LINE
8
DEFAULT_255_2_778
10
13.121738
20
128.5243213
11
13.128638
21
128.5177213
0
LINE
8
DEFAULT_255_2_778
10
13.128638
20
128.5177213
11
13.135538
21
128.5111213
0
LINE
8
DEFAULT_255_2_778
10
13.135538
20
128.5111213
11
13.142638
21
128.5047213
0
LINE
8
DEFAULT_255_2_778
10
13.142638
20
128.5047213
11
13.149838
21
128.4986213
0
LINE
8
DEFAULT_255_2_778
10
13.149838
20
128.4986213
11
13.157238
21
128.4928213
0
LINE
8
DEFAULT_255_2_778
10
13.157238
20
128.4928213
11
13.164638
21
128.4870213
0
LINE
8
DEFAULT_255_2_778
10
13.164638
20
128.4870213
11
13.172338
21
128.4814213
0
LINE
8
DEFAULT_255_2_778
10
13.172338
20
128.4814213
11
13.179938
21
128.4761213
0
LINE
8
DEFAULT_255_2_778
10
13.179938
20
128.4761213
11
13.187938
21
128.4708213
0
LINE
8
DEFAULT_255_2_778
10
13.187938
20
128.4708213
11
13.195838
21
128.4658213
0
LINE
8
DEFAULT_255_2_778
10
13.195838
20
128.4658213
11
13.204038
21
128.4611213
0
LINE
8
DEFAULT_255_2_778
10
13.204038
20
128.4611213
11
13.212238
21
128.4566213
0
LINE
8
DEFAULT_255_2_778
10
13.212238
20
128.4566213
11
13.220738
21
128.4521213
0
LINE
8
DEFAULT_255_2_778
10
13.220738
20
128.4521213
11
13.229238
21
128.4478213
0
LINE
8
DEFAULT_255_2_778
10
13.229238
20
128.4478213
11
13.237938
21
128.4439213
0
LINE
8
DEFAULT_255_2_778
10
13.237938
20
128.4439213
11
13.246638
21
128.4402213
0
LINE
8
DEFAULT_255_2_778
10
13.246638
20
128.4402213
11
13.255338
21
128.4365213
0
LINE
8
DEFAULT_255_2_778
10
13.255338
20
128.4365213
11
13.264138
21
128.4330213
0
LINE
8
DEFAULT_255_2_778
10
13.264138
20
128.4330213
11
13.273138
21
128.4298213
0
LINE
8
DEFAULT_255_2_778
10
13.273138
20
128.4298213
11
13.282138
21
128.4269213
0
LINE
8
DEFAULT_255_2_778
10
13.282138
20
128.4269213
11
13.291138
21
128.4243213
0
LINE
8
DEFAULT_255_2_778
10
13.291138
20
128.4243213
11
13.300138
21
128.4216213
0
LINE
8
DEFAULT_255_2_778
10
13.300138
20
128.4216213
11
13.309338
21
128.4193213
0
LINE
8
DEFAULT_255_2_778
10
13.309338
20
128.4193213
11
13.318638
21
128.4171213
0
LINE
8
DEFAULT_255_2_778
10
13.318638
20
128.4171213
11
13.327838
21
128.4150213
0
LINE
8
DEFAULT_255_2_778
10
13.327838
20
128.4150213
11
13.337138
21
128.4132213
0
LINE
8
DEFAULT_255_2_778
10
13.337138
20
128.4132213
11
13.346438
21
128.4116213
0
LINE
8
DEFAULT_255_2_778
10
13.346438
20
128.4116213
11
13.355938
21
128.4100213
0
LINE
8
DEFAULT_255_2_778
10
13.355938
20
128.4100213
11
13.365438
21
128.4087213
0
LINE
8
DEFAULT_255_2_778
10
13.365438
20
128.4087213
11
13.374938
21
128.4076213
0
LINE
8
DEFAULT_255_2_778
10
13.374938
20
128.4076213
11
13.384538
21
128.4066213
0
LINE
8
DEFAULT_255_2_778
10
13.384538
20
128.4066213
11
13.394038
21
128.4058213
0
LINE
8
DEFAULT_255_2_778
10
13.394038
20
128.4058213
11
13.403538
21
128.4050213
0
LINE
8
DEFAULT_255_2_778
10
13.403538
20
128.4050213
11
13.413038
21
128.4044213
0
LINE
8
DEFAULT_255_2_778
10
13.413038
20
128.4044213
11
13.422638
21
128.4039213
0
LINE
8
DEFAULT_255_2_778
10
13.422638
20
128.4039213
11
13.432138
21
128.4036213
0
LINE
8
DEFAULT_255_2_778
10
13.432138
20
128.4036213
11
13.441438
21
128.4036213
0
LINE
8
DEFAULT_255_2_778
10
13.441438
20
128.4036213
11
13.450938
21
128.4036213
0
LINE
8
DEFAULT_255_2_778
10
13.450938
20
128.4036213
11
13.460138
21
128.4036213
0
LINE
8
DEFAULT_255_2_778
10
13.460138
20
128.4036213
11
13.469738
21
128.4039213
0
LINE
8
DEFAULT_255_2_778
10
13.469738
20
128.4039213
11
13.478938
21
128.4042213
0
LINE
8
DEFAULT_255_2_778
10
13.478938
20
128.4042213
11
13.488238
21
128.4047213
0
LINE
8
DEFAULT_255_2_778
10
13.488238
20
128.4047213
11
13.497438
21
128.4055213
0
LINE
8
DEFAULT_255_2_778
10
13.497438
20
128.4055213
11
13.506738
21
128.4063213
0
LINE
8
DEFAULT_255_2_778
10
13.506738
20
128.4063213
11
13.516038
21
128.4073213
0
LINE
8
DEFAULT_255_2_778
10
13.516038
20
128.4073213
11
13.525238
21
128.4084213
0
LINE
8
DEFAULT_255_2_778
10
13.525238
20
128.4084213
11
13.534538
21
128.4097213
0
LINE
8
DEFAULT_255_2_778
10
13.534538
20
128.4097213
11
13.543738
21
128.4113213
0
LINE
8
DEFAULT_255_2_778
10
13.543738
20
128.4113213
11
13.553038
21
128.4129213
0
LINE
8
DEFAULT_255_2_778
10
13.553038
20
128.4129213
11
13.562338
21
128.4148213
0
LINE
8
DEFAULT_255_2_778
10
13.562338
20
128.4148213
11
13.571538
21
128.4169213
0
LINE
8
DEFAULT_255_2_778
10
13.571538
20
128.4169213
11
13.580838
21
128.4190213
0
LINE
8
DEFAULT_255_2_778
10
13.580838
20
128.4190213
11
13.590038
21
128.4214213
0
LINE
8
DEFAULT_255_2_778
10
13.590038
20
128.4214213
11
13.599038
21
128.4240213
0
LINE
8
DEFAULT_255_2_778
10
13.599038
20
128.4240213
11
13.608038
21
128.4269213
0
LINE
8
DEFAULT_255_2_778
10
13.608038
20
128.4269213
11
13.617038
21
128.4298213
0
LINE
8
DEFAULT_255_2_778
10
13.617038
20
128.4298213
11
13.626038
21
128.4330213
0
LINE
8
DEFAULT_255_2_778
10
13.626038
20
128.4330213
11
13.634838
21
128.4365213
0
LINE
8
DEFAULT_255_2_778
10
13.634838
20
128.4365213
11
13.643538
21
128.4399213
0
LINE
8
DEFAULT_255_2_778
10
13.643538
20
128.4399213
11
13.652238
21
128.4436213
0
LINE
8
DEFAULT_255_2_778
10
13.652238
20
128.4436213
11
13.660738
21
128.4476213
0
LINE
8
DEFAULT_255_2_778
10
13.660738
20
128.4476213
11
13.669238
21
128.4518213
0
LINE
8
DEFAULT_255_2_778
10
13.669238
20
128.4518213
11
13.677638
21
128.4563213
0
LINE
8
DEFAULT_255_2_778
10
13.677638
20
128.4563213
11
13.685838
21
128.4608213
0
LINE
8
DEFAULT_255_2_778
10
13.685838
20
128.4608213
11
13.694038
21
128.4656213
0
LINE
8
DEFAULT_255_2_778
10
13.694038
20
128.4656213
11
13.702038
21
128.4706213
0
LINE
8
DEFAULT_255_2_778
10
13.702038
20
128.4706213
11
13.709938
21
128.4759213
0
LINE
8
DEFAULT_255_2_778
10
13.709938
20
128.4759213
11
13.717638
21
128.4812213
0
LINE
8
DEFAULT_255_2_778
10
13.717638
20
128.4812213
11
13.725238
21
128.4867213
0
LINE
8
DEFAULT_255_2_778
10
13.725238
20
128.4867213
11
13.732738
21
128.4925213
0
LINE
8
DEFAULT_255_2_778
10
13.732738
20
128.4925213
11
13.740138
21
128.4986213
0
LINE
8
DEFAULT_255_2_778
10
13.740138
20
128.4986213
11
13.747238
21
128.5047213
0
LINE
8
DEFAULT_255_2_778
10
13.747238
20
128.5047213
11
13.754438
21
128.5111213
0
LINE
8
DEFAULT_255_2_778
10
13.754438
20
128.5111213
11
13.761238
21
128.5177213
0
LINE
8
DEFAULT_255_2_778
10
13.761238
20
128.5177213
11
13.768138
21
128.5243213
0
LINE
8
DEFAULT_255_2_778
10
13.768138
20
128.5243213
11
13.779838
21
128.5365213
0
LINE
8
DEFAULT_255_2_778
10
13.779838
20
128.5365213
11
13.790938
21
128.5489213
0
LINE
8
DEFAULT_255_2_778
10
13.790938
20
128.5489213
11
13.801738
21
128.5616213
0
LINE
8
DEFAULT_255_2_778
10
13.801738
20
128.5616213
11
13.812038
21
128.5748213
0
LINE
8
DEFAULT_255_2_778
10
13.812038
20
128.5748213
11
13.821838
21
128.5883213
0
LINE
8
DEFAULT_255_2_778
10
13.821838
20
128.5883213
11
13.831138
21
128.6021213
0
LINE
8
DEFAULT_255_2_778
10
13.831138
20
128.6021213
11
13.840138
21
128.6161213
0
LINE
8
DEFAULT_255_2_778
10
13.840138
20
128.6161213
11
13.848538
21
128.6304213
0
LINE
8
DEFAULT_255_2_778
10
13.848538
20
128.6304213
11
13.856538
21
128.6449213
0
LINE
8
DEFAULT_255_2_778
10
13.856538
20
128.6449213
11
13.864238
21
128.6598213
0
LINE
8
DEFAULT_255_2_778
10
13.864238
20
128.6598213
11
13.871338
21
128.6748213
0
LINE
8
DEFAULT_255_2_778
10
13.871338
20
128.6748213
11
13.878238
21
128.6899213
0
LINE
8
DEFAULT_255_2_778
10
13.878238
20
128.6899213
11
13.890638
21
128.7209213
0
LINE
8
DEFAULT_255_2_778
10
13.890638
20
128.7209213
11
13.901738
21
128.7524213
0
LINE
8
DEFAULT_255_2_778
10
13.901738
20
128.7524213
11
13.911338
21
128.7841213
0
LINE
8
DEFAULT_255_2_778
10
13.911338
20
128.7841213
11
13.919738
21
128.8164213
0
LINE
8
DEFAULT_255_2_778
10
13.919738
20
128.8164213
11
13.926938
21
128.8489213
0
LINE
8
DEFAULT_255_2_778
10
13.926938
20
128.8489213
11
13.932938
21
128.8815213
0
LINE
8
DEFAULT_255_2_778
10
13.932938
20
128.8815213
11
13.938038
21
128.9143213
0
LINE
8
DEFAULT_255_2_778
10
13.938038
20
128.9143213
11
13.942238
21
128.9474213
0
LINE
8
DEFAULT_255_2_778
10
13.942238
20
128.9474213
11
13.945638
21
128.9804213
0
LINE
8
DEFAULT_255_2_778
10
13.945638
20
128.9804213
11
13.948638
21
129.0135213
0
LINE
8
DEFAULT_255_2_778
10
13.948638
20
129.0135213
11
13.950738
21
129.0468213
0
LINE
8
DEFAULT_255_2_778
10
13.950738
20
129.0468213
11
13.952338
21
129.0802213
0
LINE
8
DEFAULT_255_2_778
10
13.952338
20
129.0802213
11
13.953638
21
129.1135213
0
LINE
8
DEFAULT_255_2_778
10
13.953638
20
129.1135213
11
13.954438
21
129.1469213
0
LINE
8
DEFAULT_255_2_778
10
13.954438
20
129.1469213
11
13.954938
21
129.1799213
0
LINE
8
DEFAULT_255_2_778
10
13.954938
20
129.1799213
11
13.955438
21
129.2130213
0
LINE
8
DEFAULT_255_2_778
10
13.955438
20
129.2130213
11
13.955738
21
129.2463213
0
LINE
8
DEFAULT_255_2_778
10
13.955738
20
129.2463213
11
13.956038
21
129.2794213
0
LINE
8
DEFAULT_255_2_778
10
13.956038
20
129.2794213
11
13.956238
21
129.3125213
0
LINE
8
DEFAULT_255_2_778
10
13.956238
20
129.3125213
11
13.956538
21
129.3456213
0
LINE
8
DEFAULT_255_2_778
10
13.956538
20
129.3456213
11
13.956538
21
129.3786213
0
LINE
8
DEFAULT_255_2_778
10
13.956538
20
129.3786213
11
13.956538
21
129.4450213
0
LINE
8
DEFAULT_255_2_778
10
13.956538
20
129.4450213
11
13.956538
21
129.5115213
0
LINE
8
DEFAULT_255_2_778
10
13.956538
20
129.5115213
11
13.956238
21
129.5779213
0
LINE
8
DEFAULT_255_2_778
10
13.956238
20
129.5779213
11
13.956038
21
129.6112213
0
LINE
8
DEFAULT_255_2_778
10
13.956038
20
129.6112213
11
13.955438
21
129.6445213
0
LINE
8
DEFAULT_255_2_778
10
13.955438
20
129.6445213
11
13.954638
21
129.6779213
0
LINE
8
DEFAULT_255_2_778
10
13.954638
20
129.6779213
11
13.953638
21
129.7112213
0
LINE
8
DEFAULT_255_2_778
10
13.953638
20
129.7112213
11
13.952338
21
129.7443213
0
LINE
8
DEFAULT_255_2_778
10
13.952338
20
129.7443213
11
13.950438
21
129.7774213
0
LINE
8
DEFAULT_255_2_778
10
13.950438
20
129.7774213
11
13.948038
21
129.8104213
0
LINE
8
DEFAULT_255_2_778
10
13.948038
20
129.8104213
11
13.945138
21
129.8435213
0
LINE
8
DEFAULT_255_2_778
10
13.945138
20
129.8435213
11
13.941738
21
129.8763213
0
LINE
8
DEFAULT_255_2_778
10
13.941738
20
129.8763213
11
13.937438
21
129.9091213
0
LINE
8
DEFAULT_255_2_778
10
13.937438
20
129.9091213
11
13.932738
21
129.9419213
0
LINE
8
DEFAULT_255_2_778
10
13.932738
20
129.9419213
11
13.926938
21
129.9745213
0
LINE
8
DEFAULT_255_2_778
10
13.926938
20
129.9745213
11
13.920038
21
130.0068213
0
LINE
8
DEFAULT_255_2_778
10
13.920038
20
130.0068213
11
13.912038
21
130.0390213
0
LINE
8
DEFAULT_255_2_778
10
13.912038
20
130.0390213
11
13.902838
21
130.0710213
0
LINE
8
DEFAULT_255_2_778
10
13.902838
20
130.0710213
11
13.892238
21
130.1028213
0
LINE
8
DEFAULT_255_2_778
10
13.892238
20
130.1028213
11
13.886438
21
130.1184213
0
LINE
8
DEFAULT_255_2_778
10
13.886438
20
130.1184213
11
13.880338
21
130.1340213
0
LINE
8
DEFAULT_255_2_778
10
13.880338
20
130.1340213
11
13.873738
21
130.1494213
0
LINE
8
DEFAULT_255_2_778
10
13.873738
20
130.1494213
11
13.866538
21
130.1644213
0
LINE
8
DEFAULT_255_2_778
10
13.866538
20
130.1644213
11
13.859138
21
130.1793213
0
LINE
8
DEFAULT_255_2_778
10
13.859138
20
130.1793213
11
13.851238
21
130.1938213
0
LINE
8
DEFAULT_255_2_778
10
13.851238
20
130.1938213
11
13.842738
21
130.2081213
0
LINE
8
DEFAULT_255_2_778
10
13.842738
20
130.2081213
11
13.833738
21
130.2221213
0
LINE
8
DEFAULT_255_2_778
10
13.833738
20
130.2221213
11
13.824238
21
130.2359213
0
LINE
8
DEFAULT_255_2_778
10
13.824238
20
130.2359213
11
13.814138
21
130.2491213
0
LINE
8
DEFAULT_255_2_778
10
13.814138
20
130.2491213
11
13.803638
21
130.2621213
0
LINE
8
DEFAULT_255_2_778
10
13.803638
20
130.2621213
11
13.792738
21
130.2748213
0
LINE
8
DEFAULT_255_2_778
10
13.792738
20
130.2748213
11
13.781338
21
130.2869213
0
LINE
8
DEFAULT_255_2_778
10
13.781338
20
130.2869213
11
13.769438
21
130.2986213
0
LINE
8
DEFAULT_255_2_778
10
13.769438
20
130.2986213
11
13.757038
21
130.3100213
0
LINE
8
DEFAULT_255_2_778
10
13.757038
20
130.3100213
11
13.744338
21
130.3208213
0
LINE
8
DEFAULT_255_2_778
10
13.744338
20
130.3208213
11
13.731138
21
130.3311213
0
LINE
8
DEFAULT_255_2_778
10
13.731138
20
130.3311213
11
13.717638
21
130.3407213
0
LINE
8
DEFAULT_255_2_778
10
13.717638
20
130.3407213
11
13.703638
21
130.3497213
0
LINE
8
DEFAULT_255_2_778
10
13.703638
20
130.3497213
11
13.689338
21
130.3581213
0
LINE
8
DEFAULT_255_2_778
10
13.689338
20
130.3581213
11
13.674438
21
130.3661213
0
LINE
8
DEFAULT_255_2_778
10
13.674438
20
130.3661213
11
13.659438
21
130.3735213
0
LINE
8
DEFAULT_255_2_778
10
13.659438
20
130.3735213
11
13.644038
21
130.3801213
0
LINE
8
DEFAULT_255_2_778
10
13.644038
20
130.3801213
11
13.628438
21
130.3862213
0
LINE
8
DEFAULT_255_2_778
10
13.628438
20
130.3862213
11
13.612538
21
130.3917213
0
LINE
8
DEFAULT_255_2_778
10
13.612538
20
130.3917213
11
13.596438
21
130.3965213
0
LINE
8
DEFAULT_255_2_778
10
13.596438
20
130.3965213
11
13.580038
21
130.4007213
0
LINE
8
DEFAULT_255_2_778
10
13.580038
20
130.4007213
11
13.563638
21
130.4044213
0
LINE
8
DEFAULT_255_2_778
10
13.563638
20
130.4044213
11
13.547238
21
130.4076213
0
LINE
8
DEFAULT_255_2_778
10
13.547238
20
130.4076213
11
13.530838
21
130.4102213
0
LINE
8
DEFAULT_255_2_778
10
13.530838
20
130.4102213
11
13.514138
21
130.4124213
0
LINE
8
DEFAULT_255_2_778
10
13.514138
20
130.4124213
11
13.497438
21
130.4139213
0
LINE
8
DEFAULT_255_2_778
10
13.497438
20
130.4139213
11
13.480838
21
130.4150213
0
LINE
8
DEFAULT_255_2_778
10
13.480838
20
130.4150213
11
13.464138
21
130.4155213
0
LINE
8
DEFAULT_255_2_778
10
13.464138
20
130.4155213
11
13.430538
21
130.4155213
0
LINE
8
DEFAULT_255_2_778
10
13.430538
20
130.4155213
11
13.413838
21
130.4150213
0
LINE
8
DEFAULT_255_2_778
10
13.413838
20
130.4150213
11
13.397238
21
130.4139213
0
LINE
8
DEFAULT_255_2_778
10
13.397238
20
130.4139213
11
13.380538
21
130.4124213
0
LINE
8
DEFAULT_255_2_778
10
13.380538
20
130.4124213
11
13.363838
21
130.4102213
0
LINE
8
DEFAULT_255_2_778
10
13.363838
20
130.4102213
11
13.347238
21
130.4076213
0
LINE
8
DEFAULT_255_2_778
10
13.347238
20
130.4076213
11
13.330838
21
130.4047213
0
LINE
8
DEFAULT_255_2_778
10
13.330838
20
130.4047213
11
13.314438
21
130.4010213
0
LINE
8
DEFAULT_255_2_778
10
13.314438
20
130.4010213
11
13.298238
21
130.3967213
0
LINE
8
DEFAULT_255_2_778
10
13.298238
20
130.3967213
11
13.282138
21
130.3920213
0
LINE
8
DEFAULT_255_2_778
10
13.282138
20
130.3920213
11
13.266238
21
130.3867213
0
LINE
8
DEFAULT_255_2_778
10
13.266238
20
130.3867213
11
13.250638
21
130.3806213
0
LINE
8
DEFAULT_255_2_778
10
13.250638
20
130.3806213
11
13.235238
21
130.3740213
0
LINE
8
DEFAULT_255_2_778
10
13.235238
20
130.3740213
11
13.220238
21
130.3666213
0
LINE
8
DEFAULT_255_2_778
10
13.220238
20
130.3666213
11
13.205338
21
130.3586213
0
LINE
8
DEFAULT_255_2_778
10
13.205338
20
130.3586213
11
13.191138
21
130.3502213
0
LINE
8
DEFAULT_255_2_778
10
13.191138
20
130.3502213
11
13.177038
21
130.3412213
0
LINE
8
DEFAULT_255_2_778
10
13.177038
20
130.3412213
11
13.163538
21
130.3317213
0
LINE
8
DEFAULT_255_2_778
10
13.163538
20
130.3317213
11
13.150338
21
130.3216213
0
LINE
8
DEFAULT_255_2_778
10
13.150338
20
130.3216213
11
13.137638
21
130.3108213
0
LINE
8
DEFAULT_255_2_778
10
13.137638
20
130.3108213
11
13.125238
21
130.2996213
0
LINE
8
DEFAULT_255_2_778
10
13.125238
20
130.2996213
11
13.113338
21
130.2880213
0
LINE
8
DEFAULT_255_2_778
10
13.113338
20
130.2880213
11
13.101938
21
130.2758213
0
LINE
8
DEFAULT_255_2_778
10
13.101938
20
130.2758213
11
13.090838
21
130.2634213
0
LINE
8
DEFAULT_255_2_778
10
13.090838
20
130.2634213
11
13.080238
21
130.2504213
0
LINE
8
DEFAULT_255_2_778
10
13.080238
20
130.2504213
11
13.070138
21
130.2372213
0
LINE
8
DEFAULT_255_2_778
10
13.070138
20
130.2372213
11
13.060438
21
130.2234213
0
LINE
8
DEFAULT_255_2_778
10
13.060438
20
130.2234213
11
13.051138
21
130.2094213
0
LINE
8
DEFAULT_255_2_778
10
13.051138
20
130.2094213
11
13.042438
21
130.1951213
0
LINE
8
DEFAULT_255_2_778
10
13.042438
20
130.1951213
11
13.034238
21
130.1803213
0
LINE
8
DEFAULT_255_2_778
10
13.034238
20
130.1803213
11
13.026538
21
130.1652213
0
LINE
8
DEFAULT_255_2_778
10
13.026538
20
130.1652213
11
13.019338
21
130.1502213
0
LINE
8
DEFAULT_255_2_778
10
13.019338
20
130.1502213
11
13.012738
21
130.1345213
0
LINE
8
DEFAULT_255_2_778
10
13.012738
20
130.1345213
11
13.004038
21
130.1123213
0
LINE
8
DEFAULT_255_2_778
10
13.004038
20
130.1123213
11
12.995838
21
130.0898213
0
LINE
8
DEFAULT_255_2_778
10
12.995838
20
130.0898213
11
12.988438
21
130.0673213
0
LINE
8
DEFAULT_255_2_778
10
12.988438
20
130.0673213
11
12.981538
21
130.0446213
0
LINE
8
DEFAULT_255_2_778
10
12.981538
20
130.0446213
11
12.975238
21
130.0216213
0
LINE
8
DEFAULT_255_2_778
10
12.975238
20
130.0216213
11
12.969638
21
129.9986213
0
LINE
8
DEFAULT_255_2_778
10
12.969638
20
129.9986213
11
12.964638
21
129.9755213
0
LINE
8
DEFAULT_255_2_778
10
12.964638
20
129.9755213
11
12.960138
21
129.9522213
0
LINE
8
DEFAULT_255_2_778
10
12.960138
20
129.9522213
11
12.955838
21
129.9290213
0
LINE
8
DEFAULT_255_2_778
10
12.955838
20
129.9290213
11
12.952138
21
129.9054213
0
LINE
8
DEFAULT_255_2_778
10
12.952138
20
129.9054213
11
12.949038
21
129.8819213
0
LINE
8
DEFAULT_255_2_778
10
12.949038
20
129.8819213
11
12.946138
21
129.8583213
0
LINE
8
DEFAULT_255_2_778
10
12.946138
20
129.8583213
11
12.943738
21
129.8348213
0
LINE
8
DEFAULT_255_2_778
10
12.943738
20
129.8348213
11
12.941638
21
129.8112213
0
LINE
8
DEFAULT_255_2_778
10
12.941638
20
129.8112213
11
12.938438
21
129.7639213
0
LINE
8
DEFAULT_255_2_778
10
12.938438
20
129.7639213
11
12.936338
21
129.7162213
0
LINE
8
DEFAULT_255_2_778
10
12.936338
20
129.7162213
11
12.934938
21
129.6686213
0
LINE
8
DEFAULT_255_2_778
10
12.934938
20
129.6686213
11
12.933938
21
129.6210213
0
LINE
8
DEFAULT_255_2_778
10
12.933938
20
129.6210213
11
12.933438
21
129.5734213
0
LINE
8
DEFAULT_255_2_778
10
12.933438
20
129.5734213
11
12.933138
21
129.5257213
0
LINE
8
DEFAULT_255_2_778
10
12.933138
20
129.5257213
11
12.933138
21
129.4781213
0
LINE
8
DEFAULT_255_2_778
10
12.933138
20
129.4781213
11
12.933138
21
129.4305213
0
LINE
8
DEFAULT_255_2_778
10
12.933138
20
129.4305213
11
12.933938
21
129.2403213
0
LINE
8
DEFAULT_255_2_778
10
12.933938
20
129.2403213
11
12.934438
21
129.1926213
0
LINE
8
DEFAULT_255_2_778
10
12.934438
20
129.1926213
11
12.935238
21
129.1450213
0
LINE
8
DEFAULT_255_2_778
10
12.935238
20
129.1450213
11
12.936838
21
129.0976213
0
LINE
8
DEFAULT_255_2_778
10
12.936838
20
129.0976213
11
12.939238
21
129.0503213
0
LINE
8
DEFAULT_255_2_778
10
12.939238
20
129.0503213
11
12.942638
21
129.0029213
0
LINE
8
DEFAULT_255_2_778
10
12.942638
20
129.0029213
11
12.944738
21
128.9794213
0
LINE
8
DEFAULT_255_2_778
10
12.944738
20
128.9794213
11
12.947138
21
128.9558213
0
LINE
8
DEFAULT_255_2_778
10
12.947138
20
128.9558213
11
12.950038
21
128.9323213
0
LINE
8
DEFAULT_255_2_778
10
12.950038
20
128.9323213
11
12.953238
21
128.9087213
0
LINE
8
DEFAULT_255_2_778
10
12.953238
20
128.9087213
11
12.956938
21
128.8852213
0
LINE
8
DEFAULT_255_2_778
10
12.956938
20
128.8852213
11
12.961138
21
128.8619213
0
LINE
8
DEFAULT_255_2_778
10
12.961138
20
128.8619213
11
12.965938
21
128.8386213
0
LINE
8
DEFAULT_255_2_778
10
12.965938
20
128.8386213
11
12.971238
21
128.8156213
0
LINE
8
DEFAULT_255_2_778
10
12.971238
20
128.8156213
11
12.977038
21
128.7926213
0
LINE
8
DEFAULT_255_2_778
10
12.977038
20
128.7926213
11
12.983438
21
128.7698213
0
LINE
8
DEFAULT_255_2_778
10
12.983438
20
128.7698213
11
12.990238
21
128.7471213
0
LINE
8
DEFAULT_255_2_778
10
12.990238
20
128.7471213
11
12.997638
21
128.7246213
0
LINE
8
DEFAULT_255_2_778
10
12.997638
20
128.7246213
11
13.005838
21
128.7024213
0
LINE
8
DEFAULT_255_2_778
10
13.005838
20
128.7024213
11
13.014838
21
128.6804213
0
LINE
8
DEFAULT_255_2_778
10
13.014838
20
128.6804213
11
13.024938
21
128.6590213
0
LINE
8
DEFAULT_255_2_778
10
13.024938
20
128.6590213
11
13.035738
21
128.6381213
0
LINE
8
DEFAULT_255_2_778
10
13.035738
20
128.6381213
11
13.047738
21
128.6177213
0
LINE
8
DEFAULT_255_2_778
10
13.047738
20
128.6177213
11
13.060638
21
128.5978213
0
LINE
8
DEFAULT_255_2_778
10
13.060638
20
128.5978213
11
13.074638
21
128.5785213
0
LINE
8
DEFAULT_255_2_778
10
13.074638
20
128.5785213
11
13.089538
21
128.5600213
0
LINE
8
DEFAULT_255_2_778
10
13.089538
20
128.5600213
11
13.105338
21
128.5423213
0
LINE
8
DEFAULT_255_2_778
10
13.105338
20
128.5423213
11
13.122338
21
128.5254213
0
LINE
8
DEFAULT_255_2_778
10
13.768138
20
128.5134213
11
13.768138
21
128.5261213
0
LINE
8
DEFAULT_255_2_778
10
13.526038
20
134.1763213
11
12.326138
21
134.8690213
0
LINE
8
DEFAULT_255_2_778
10
13.526338
20
134.0610213
11
13.526338
21
134.1766213
0
LINE
8
DEFAULT_255_2_778
10
26.226338
20
132.3134213
11
18.076338
21
132.3134213
0
LINE
8
DEFAULT_255_2_778
10
18.076338
20
132.3134213
11
18.076338
21
129.3337213
0
LINE
8
DEFAULT_255_2_778
10
18.076338
20
129.3337213
11
19.226238
21
129.3337213
0
LINE
8
DEFAULT_255_2_778
10
19.226238
20
129.3337213
11
19.226238
21
20.3632213
0
LINE
8
DEFAULT_255_2_778
10
19.226238
20
20.3632213
11
40.226238
21
20.3632213
0
LINE
8
DEFAULT_255_2_778
10
40.226238
20
20.3632213
11
40.226238
21
129.3337213
0
LINE
8
DEFAULT_255_2_778
10
40.226238
20
129.3337213
11
41.376338
21
129.3337213
0
LINE
8
DEFAULT_255_2_778
10
41.376338
20
129.3337213
11
41.376338
21
132.3134213
0
LINE
8
DEFAULT_255_2_778
10
41.376338
20
132.3134213
11
33.226438
21
132.3134213
0
LINE
8
DEFAULT_255_2_778
10
2.225438
20
118.8009213
11
10.642638
21
118.8009213
0
LINE
8
DEFAULT_255_2_778
10
10.642638
20
118.8009213
11
10.642638
21
124.3052213
0
LINE
8
DEFAULT_255_2_778
10
2.2254163
20
118.8009024
11
2.2254163
21
124.3052024
0
LINE
8
DEFAULT_255_2_778
10
12.3262163
20
35.4008024
11
12.3262163
21
126.8008024
0
LINE
8
DEFAULT_255_2_778
10
2.2254163
20
118.8009024
11
0.2339163
21
118.8009024
0
LINE
8
DEFAULT_255_2_778
10
12.3262163
20
4.8136024
11
12.6270163
21
4.8136024
0
LINE
8
DEFAULT_255_2_778
10
12.6270163
20
4.8136024
11
13.5543163
21
4.8202024
0
LINE
8
DEFAULT_255_2_778
10
13.5543163
20
4.8202024
11
14.4809163
21
4.8350024
0
LINE
8
DEFAULT_255_2_778
10
14.4809163
20
4.8350024
11
15.4064163
21
4.8580024
0
LINE
8
DEFAULT_255_2_778
10
15.4064163
20
4.8580024
11
16.3309163
21
4.8890024
0
LINE
8
DEFAULT_255_2_778
10
16.3309163
20
4.8890024
11
17.2543163
21
4.9282024
0
LINE
8
DEFAULT_255_2_778
10
17.2543163
20
4.9282024
11
18.1769163
21
4.9753024
0
LINE
8
DEFAULT_255_2_778
10
18.1769163
20
4.9753024
11
19.0984163
21
5.0303024
0
LINE
8
DEFAULT_255_2_778
10
19.0984163
20
5.0303024
11
20.0189163
21
5.0935024
0
LINE
8
DEFAULT_255_2_778
10
20.0189163
20
5.0935024
11
20.6259163
21
5.1406024
0
LINE
8
DEFAULT_255_2_778
10
47.1263163
20
7.8134024
11
38.8263163
21
7.8134024
0
LINE
8
DEFAULT_255_2_778
10
45.9264163
20
134.1763024
11
47.1263163
21
134.8690024
0
LINE
8
DEFAULT_255_2_778
10
45.9263743
20
134.0609575
11
45.9263743
21
134.1765575
0
LINE
8
DEFAULT_255_2_778
10
20.6260743
20
5.1405575
11
20.6260743
21
2.2132575
0
LINE
8
DEFAULT_255_2_778
10
20.6260743
20
2.2132575
11
38.8259743
21
2.2132575
0
LINE
8
DEFAULT_255_2_778
10
38.8259743
20
2.2132575
11
38.8259743
21
3.8131575
0
LINE
8
DEFAULT_255_2_778
10
21.9287054
20
5.2504219
11
22.6238054
21
4.9247219
0
LINE
8
DEFAULT_255_2_778
10
22.6238054
20
4.9247219
11
23.3384054
21
4.6437219
0
LINE
8
DEFAULT_255_2_778
10
23.3384054
20
4.6437219
11
24.0697054
21
4.4088219
0
LINE
8
DEFAULT_255_2_778
10
24.0697054
20
4.4088219
11
24.8148054
21
4.2209219
0
LINE
8
DEFAULT_255_2_778
10
24.8148054
20
4.2209219
11
25.5704054
21
4.0810219
0
LINE
8
DEFAULT_255_2_778
10
25.5704054
20
4.0810219
11
33.9254054
21
4.0810219
0
LINE
8
DEFAULT_255_2_778
10
33.9254054
20
4.0810219
11
34.9084054
21
4.2802219
0
LINE
8
DEFAULT_255_2_778
10
34.9084054
20
4.2802219
11
35.8712054
21
4.5593219
0
LINE
8
DEFAULT_255_2_778
10
35.8712054
20
4.5593219
11
36.8075054
21
4.9162219
0
LINE
8
DEFAULT_255_2_778
10
36.8075054
20
4.9162219
11
37.7111054
21
5.3486219
0
LINE
8
DEFAULT_255_2_778
10
37.7111054
20
5.3486219
11
38.5755054
21
5.8534219
0
LINE
8
DEFAULT_255_2_778
10
37.8262211
20
5.853627
11
38.8263211
21
5.853627
0
LINE
8
DEFAULT_255_2_778
10
37.8264211
20
7.813427
11
37.8264211
21
5.853127
0
LINE
8
DEFAULT_255_2_778
10
37.8264211
20
5.853127
11
38.8266211
21
5.853127
0
LINE
8
DEFAULT_255_2_778
10
38.8263211
20
7.813427
11
38.8263211
21
3.813427
0
LINE
8
DEFAULT_255_2_778
10
28.9761211
20
3.813427
11
28.9761211
21
3.409127
0
LINE
8
DEFAULT_255_2_778
10
28.9761211
20
3.409127
11
30.4760211
21
3.409127
0
LINE
8
DEFAULT_255_2_778
10
30.4760211
20
3.409127
11
30.4760211
21
3.813427
0
LINE
8
DEFAULT_255_2_778
10
38.8260211
20
7.813427
11
37.3261211
21
7.813427
0
LINE
8
DEFAULT_255_2_778
10
37.3261211
20
7.813427
11
36.4239211
21
7.598027
0
LINE
8
DEFAULT_255_2_778
10
36.4239211
20
7.598027
11
35.5209211
21
7.390627
0
LINE
8
DEFAULT_255_2_778
10
35.5209211
20
7.390627
11
34.6168211
21
7.191427
0
LINE
8
DEFAULT_255_2_778
10
34.6168211
20
7.191427
11
33.7116211
21
7.000127
0
LINE
8
DEFAULT_255_2_778
10
33.7116211
20
7.000127
11
32.8057211
21
6.817027
0
LINE
8
DEFAULT_255_2_778
10
32.8057211
20
6.817027
11
31.8987211
21
6.641827
0
LINE
8
DEFAULT_255_2_778
10
31.8987211
20
6.641827
11
30.9907211
21
6.474927
0
LINE
8
DEFAULT_255_2_778
10
30.9907211
20
6.474927
11
30.0818211
21
6.315927
0
LINE
8
DEFAULT_255_2_778
10
30.0818211
20
6.315927
11
29.1719211
21
6.164827
0
LINE
8
DEFAULT_255_2_778
10
29.1719211
20
6.164827
11
28.2610211
21
6.021627
0
LINE
8
DEFAULT_255_2_778
10
28.2610211
20
6.021627
11
27.3492211
21
5.886727
0
LINE
8
DEFAULT_255_2_778
10
27.3492211
20
5.886727
11
26.4364211
21
5.759727
0
LINE
8
DEFAULT_255_2_778
10
26.4364211
20
5.759727
11
25.5225211
21
5.640627
0
LINE
8
DEFAULT_255_2_778
10
25.5225211
20
5.640627
11
24.6078211
21
5.529527
0
LINE
8
DEFAULT_255_2_778
10
24.6078211
20
5.529527
11
23.6921211
21
5.426327
0
LINE
8
DEFAULT_255_2_778
10
23.6921211
20
5.426327
11
22.7753211
21
5.331127
0
LINE
8
DEFAULT_255_2_778
10
22.7753211
20
5.331127
11
21.8578211
21
5.244027
0
LINE
8
DEFAULT_255_2_778
10
21.8578211
20
5.244027
11
20.9391211
21
5.164927
0
LINE
8
DEFAULT_255_2_778
10
20.9391211
20
5.164927
11
20.6264211
21
5.140827
0
ARC
8
DEFAULT_255_2_778
10
35.6509238
20
6.6886503
40
0.6245793
50
0.0724139
51
38.7677138
0
ARC
8
DEFAULT_255_2_778
10
12.4334054
20
104.3520296
40
1.0278947
50
95.9752563
51
143.662637
0
ARC
8
DEFAULT_255_2_778
10
12.4308117
20
104.3518561
40
1.0259095
50
143.5690034
51
180.0511816
0
ARC
8
DEFAULT_255_2_778
10
12.4326445
20
96.8504927
40
1.0277421
50
179.9695046
51
227.6636364
0
ARC
8
DEFAULT_255_2_778
10
12.4325948
20
96.8479839
40
1.0258555
50
227.5713254
51
264.0583405
0
LINE
8
DEFAULT_255_2_778
10
20.6262026
20
3.8134397
11
38.8261026
21
3.8134397
0
LINE
8
DEFAULT_255_2_778
10
34.3763026
20
7.1511397
11
34.3787026
21
6.7029397
0
LINE
8
DEFAULT_255_2_778
10
34.3787026
20
6.7029397
11
34.3816026
21
6.6664397
0
LINE
8
DEFAULT_255_2_778
10
34.3816026
20
6.6664397
11
34.3855026
21
6.6299397
0
LINE
8
DEFAULT_255_2_778
10
34.3855026
20
6.6299397
11
34.3906026
21
6.5934397
0
LINE
8
DEFAULT_255_2_778
10
34.3906026
20
6.5934397
11
34.3969026
21
6.5571397
0
LINE
8
DEFAULT_255_2_778
10
34.3969026
20
6.5571397
11
34.4043026
21
6.5212397
0
LINE
8
DEFAULT_255_2_778
10
34.4043026
20
6.5212397
11
34.4223026
21
6.4497397
0
LINE
8
DEFAULT_255_2_778
10
34.4223026
20
6.4497397
11
34.4448026
21
6.3793397
0
LINE
8
DEFAULT_255_2_778
10
34.4448026
20
6.3793397
11
34.4715026
21
6.3106397
0
LINE
8
DEFAULT_255_2_778
10
34.4715026
20
6.3106397
11
34.5025026
21
6.2434397
0
LINE
8
DEFAULT_255_2_778
10
34.5025026
20
6.2434397
11
34.5567026
21
6.1465397
0
LINE
8
DEFAULT_255_2_778
10
34.5567026
20
6.1465397
11
34.6197026
21
6.0550397
0
LINE
8
DEFAULT_255_2_778
10
34.6197026
20
6.0550397
11
34.6909026
21
5.9695397
0
LINE
8
DEFAULT_255_2_778
10
34.6909026
20
5.9695397
11
34.7975026
21
5.8658397
0
LINE
8
DEFAULT_255_2_778
10
34.7975026
20
5.8658397
11
34.9166026
21
5.7753397
0
LINE
8
DEFAULT_255_2_778
10
34.9166026
20
5.7753397
11
35.0793026
21
5.6827397
0
LINE
8
DEFAULT_255_2_778
10
35.0793026
20
5.6827397
11
35.2544026
21
5.6150397
0
LINE
8
DEFAULT_255_2_778
10
35.2544026
20
5.6150397
11
35.4383026
21
5.5737397
0
LINE
8
DEFAULT_255_2_778
10
35.4383026
20
5.5737397
11
35.6262026
21
5.5597397
0
LINE
8
DEFAULT_255_2_778
10
35.6262026
20
5.5597397
11
35.8143026
21
5.5737397
0
LINE
8
DEFAULT_255_2_778
10
35.8143026
20
5.5737397
11
35.9982026
21
5.6150397
0
LINE
8
DEFAULT_255_2_778
10
35.9982026
20
5.6150397
11
36.1736026
21
5.6827397
0
LINE
8
DEFAULT_255_2_778
10
36.1736026
20
5.6827397
11
36.3363026
21
5.7753397
0
LINE
8
DEFAULT_255_2_778
10
36.3363026
20
5.7753397
11
36.4554026
21
5.8658397
0
LINE
8
DEFAULT_255_2_778
10
36.4554026
20
5.8658397
11
36.5620026
21
5.9695397
0
LINE
8
DEFAULT_255_2_778
10
36.5620026
20
5.9695397
11
36.6332026
21
6.0550397
0
LINE
8
DEFAULT_255_2_778
10
36.6332026
20
6.0550397
11
36.6962026
21
6.1465397
0
LINE
8
DEFAULT_255_2_778
10
36.6962026
20
6.1465397
11
36.7504026
21
6.2434397
0
LINE
8
DEFAULT_255_2_778
10
36.7504026
20
6.2434397
11
36.7814026
21
6.3106397
0
LINE
8
DEFAULT_255_2_778
10
36.7814026
20
6.3106397
11
36.8081026
21
6.3793397
0
LINE
8
DEFAULT_255_2_778
10
36.8081026
20
6.3793397
11
36.8306026
21
6.4497397
0
LINE
8
DEFAULT_255_2_778
10
36.8306026
20
6.4497397
11
36.8486026
21
6.5212397
0
LINE
8
DEFAULT_255_2_778
10
36.8486026
20
6.5212397
11
36.8560026
21
6.5571397
0
LINE
8
DEFAULT_255_2_778
10
36.8560026
20
6.5571397
11
36.8623026
21
6.5934397
0
LINE
8
DEFAULT_255_2_778
10
36.8623026
20
6.5934397
11
36.8673026
21
6.6299397
0
LINE
8
DEFAULT_255_2_778
10
36.8673026
20
6.6299397
11
36.8713026
21
6.6664397
0
LINE
8
DEFAULT_255_2_778
10
36.8713026
20
6.6664397
11
36.8742026
21
6.7029397
0
LINE
8
DEFAULT_255_2_778
10
36.8742026
20
6.7029397
11
36.8766026
21
7.7054397
0
LINE
8
DEFAULT_255_2_778
10
34.9872026
20
7.2898397
11
35.5767026
21
6.5529397
0
LINE
8
DEFAULT_255_2_778
10
35.5767026
20
6.5529397
11
35.7738026
21
6.7032397
0
LINE
8
DEFAULT_255_2_778
10
35.7738026
20
6.7032397
11
35.3891026
21
7.1842397
0
LINE
8
DEFAULT_255_2_778
10
35.3891026
20
7.1842397
11
35.6050026
21
7.3490397
0
LINE
8
DEFAULT_255_2_778
10
35.6050026
20
7.3490397
11
35.9940026
21
6.8410397
0
LINE
8
DEFAULT_255_2_778
10
35.9940026
20
6.8410397
11
36.0196026
21
6.7553397
0
LINE
8
DEFAULT_255_2_778
10
36.0196026
20
6.7553397
11
36.0244026
21
6.7159397
0
LINE
8
DEFAULT_255_2_778
10
36.0244026
20
6.7159397
11
36.0223026
21
6.6408397
0
LINE
8
DEFAULT_255_2_778
10
36.0223026
20
6.6408397
11
36.0164026
21
6.6072397
0
LINE
8
DEFAULT_255_2_778
10
36.0164026
20
6.6072397
11
36.0003026
21
6.5529397
0
LINE
8
DEFAULT_255_2_778
10
36.0003026
20
6.5529397
11
35.9582026
21
6.4725397
0
LINE
8
DEFAULT_255_2_778
10
35.9582026
20
6.4725397
11
35.8627026
21
6.3749397
0
LINE
8
DEFAULT_255_2_778
10
35.8627026
20
6.3749397
11
35.7050026
21
6.3069397
0
LINE
8
DEFAULT_255_2_778
10
35.7050026
20
6.3069397
11
35.5214026
21
6.3132397
0
LINE
8
DEFAULT_255_2_778
10
35.5214026
20
6.3132397
11
35.3685026
21
6.3920397
0
LINE
8
DEFAULT_255_2_778
10
35.3685026
20
6.3920397
11
35.3121026
21
6.4492397
0
LINE
8
DEFAULT_255_2_778
10
35.3121026
20
6.4492397
11
35.1150026
21
6.2989397
0
LINE
8
DEFAULT_255_2_778
10
35.1150026
20
6.2989397
11
35.2103026
21
6.2029397
0
LINE
8
DEFAULT_255_2_778
10
35.2103026
20
6.2029397
11
35.3418026
21
6.1195397
0
LINE
8
DEFAULT_255_2_778
10
35.3418026
20
6.1195397
11
35.5071026
21
6.0661397
0
LINE
8
DEFAULT_255_2_778
10
35.5071026
20
6.0661397
11
35.6997026
21
6.0595397
0
LINE
8
DEFAULT_255_2_778
10
35.6997026
20
6.0595397
11
35.8855026
21
6.1082397
0
LINE
8
DEFAULT_255_2_778
10
35.8855026
20
6.1082397
11
36.0334026
21
6.1957397
0
LINE
8
DEFAULT_255_2_778
10
36.0334026
20
6.1957397
11
36.1292026
21
6.2886397
0
LINE
8
DEFAULT_255_2_778
10
36.1292026
20
6.2886397
11
36.1940026
21
6.3820397
0
LINE
8
DEFAULT_255_2_778
10
36.1940026
20
6.3820397
11
36.2273026
21
6.4500397
0
LINE
8
DEFAULT_255_2_778
10
36.2273026
20
6.4500397
11
36.2469026
21
6.5032397
0
LINE
8
DEFAULT_255_2_778
10
36.2469026
20
6.5032397
11
36.2614026
21
6.5579397
0
LINE
8
DEFAULT_255_2_778
10
36.2614026
20
6.5579397
11
36.2683026
21
6.5952397
0
LINE
8
DEFAULT_255_2_778
10
36.2683026
20
6.5952397
11
36.2728026
21
6.6328397
0
LINE
8
DEFAULT_255_2_778
10
36.2728026
20
6.6328397
11
36.2755026
21
6.6894397
0
LINE
8
DEFAULT_255_2_778
10
36.1379026
20
7.0797397
11
35.8225026
21
7.4742397
0
LINE
8
DEFAULT_255_2_778
10
36.1167026
20
7.5626397
11
36.4025026
21
7.1998397
0
LINE
8
DEFAULT_255_2_778
10
36.4025026
20
7.1998397
11
36.5996026
21
7.3525397
0
LINE
8
DEFAULT_255_2_778
10
36.5996026
20
7.3525397
11
36.3847026
21
7.6250397
0
LINE
8
DEFAULT_255_2_778
10
44.8263026
20
106.5622397
11
42.8263026
21
106.5622397
0
LINE
8
DEFAULT_255_2_778
10
42.8263026
20
106.5622397
11
42.8263026
21
109.2925397
0
LINE
8
DEFAULT_255_2_778
10
42.8263026
20
109.2925397
11
44.8263026
21
109.2925397
0
LINE
8
DEFAULT_255_2_778
10
44.8263026
20
109.2925397
11
44.8263026
21
106.5622397
0
LINE
8
DEFAULT_255_2_778
10
44.8263026
20
128.1618397
11
42.8263026
21
128.1618397
0
LINE
8
DEFAULT_255_2_778
10
42.8263026
20
128.1618397
11
42.8263026
21
130.8994397
0
LINE
8
DEFAULT_255_2_778
10
42.8263026
20
130.8994397
11
44.8263026
21
130.8994397
0
LINE
8
DEFAULT_255_2_778
10
44.8263026
20
130.8994397
11
44.8263026
21
128.1618397
0
LINE
8
DEFAULT_255_2_778
10
47.1263026
20
134.4938397
11
46.6762026
21
134.4938397
0
LINE
8
DEFAULT_255_2_778
10
46.6762026
20
134.4938397
11
42.7263026
21
132.2133397
0
LINE
8
DEFAULT_255_2_778
10
14.6262026
20
106.5622397
11
16.6262026
21
106.5622397
0
LINE
8
DEFAULT_255_2_778
10
16.6262026
20
106.5622397
11
16.6262026
21
109.2925397
0
LINE
8
DEFAULT_255_2_778
10
16.6262026
20
109.2925397
11
14.6262026
21
109.2925397
0
LINE
8
DEFAULT_255_2_778
10
14.6262026
20
109.2925397
11
14.6262026
21
106.5622397
0
LINE
8
DEFAULT_255_2_778
10
11.4049026
20
104.3509397
11
11.4049026
21
96.8510397
0
LINE
8
DEFAULT_255_2_778
10
17.2263026
20
135.9987397
11
42.2262026
21
135.9987397
0
LINE
8
DEFAULT_255_2_778
10
42.2262026
20
146.8133397
11
42.2262026
21
135.9987397
0
LINE
8
DEFAULT_255_2_778
10
42.2262026
20
135.3965397
11
42.2262026
21
135.4132397
0
LINE
8
DEFAULT_255_2_778
10
42.2262026
20
135.4132397
11
42.2262026
21
135.9987397
0
LINE
8
DEFAULT_255_2_778
10
42.2257026
20
135.3804397
11
42.2262026
21
135.3968397
0
LINE
8
DEFAULT_255_2_778
10
42.2249026
20
135.3637397
11
42.2257026
21
135.3801397
0
LINE
8
DEFAULT_255_2_778
10
42.2241026
20
135.3473397
11
42.2252026
21
135.3637397
0
LINE
8
DEFAULT_255_2_778
10
42.2212026
20
135.3145397
11
42.2228026
21
135.3309397
0
LINE
8
DEFAULT_255_2_778
10
42.2228026
20
135.3309397
11
42.2241026
21
135.3473397
0
LINE
8
DEFAULT_255_2_778
10
42.2196026
20
135.2981397
11
42.2214026
21
135.3145397
0
LINE
8
DEFAULT_255_2_778
10
42.2151026
20
135.2661397
11
42.2175026
21
135.2822397
0
LINE
8
DEFAULT_255_2_778
10
42.2175026
20
135.2822397
11
42.2196026
21
135.2984397
0
LINE
8
DEFAULT_255_2_778
10
42.2125026
20
135.2497397
11
42.2151026
21
135.2658397
0
LINE
8
DEFAULT_255_2_778
10
42.2095026
20
135.2335397
11
42.2125026
21
135.2497397
0
LINE
8
DEFAULT_255_2_778
10
42.2066026
20
135.2177397
11
42.2098026
21
135.2338397
0
LINE
8
DEFAULT_255_2_778
10
42.1995026
20
135.1857397
11
42.2032026
21
135.2015397
0
LINE
8
DEFAULT_255_2_778
10
42.2032026
20
135.2015397
11
42.2066026
21
135.2174397
0
LINE
8
DEFAULT_255_2_778
10
42.1955026
20
135.1698397
11
42.1995026
21
135.1857397
0
LINE
8
DEFAULT_255_2_778
10
42.1916026
20
135.1539397
11
42.1958026
21
135.1698397
0
LINE
8
DEFAULT_255_2_778
10
42.1871026
20
135.1380397
11
42.1916026
21
135.1539397
0
LINE
8
DEFAULT_255_2_778
10
42.1775026
20
135.1065397
11
42.1826026
21
135.1222397
0
LINE
8
DEFAULT_255_2_778
10
42.1826026
20
135.1222397
11
42.1873026
21
135.1380397
0
LINE
8
DEFAULT_255_2_778
10
42.1722026
20
135.0909397
11
42.1775026
21
135.1065397
0
LINE
8
DEFAULT_255_2_778
10
42.1667026
20
135.0753397
11
42.1722026
21
135.0909397
0
LINE
8
DEFAULT_255_2_778
10
42.1611026
20
135.0597397
11
42.1669026
21
135.0753397
0
LINE
8
DEFAULT_255_2_778
10
42.1550026
20
135.0444397
11
42.1611026
21
135.0597397
0
LINE
8
DEFAULT_255_2_778
10
42.1490026
20
135.0290397
11
42.1550026
21
135.0444397
0
LINE
8
DEFAULT_255_2_778
10
42.1217026
20
134.9692397
11
42.1288026
21
134.9840397
0
LINE
8
DEFAULT_255_2_778
10
42.1288026
20
134.9840397
11
42.1357026
21
134.9989397
0
LINE
8
DEFAULT_255_2_778
10
42.1357026
20
134.9989397
11
42.1423026
21
135.0139397
0
LINE
8
DEFAULT_255_2_778
10
42.1423026
20
135.0139397
11
42.1487026
21
135.0290397
0
LINE
8
DEFAULT_255_2_778
10
42.1143026
20
134.9547397
11
42.1217026
21
134.9692397
0
LINE
8
DEFAULT_255_2_778
10
42.0907026
20
134.9115397
11
42.0987026
21
134.9258397
0
LINE
8
DEFAULT_255_2_778
10
42.0987026
20
134.9258397
11
42.1066026
21
134.9401397
0
LINE
8
DEFAULT_255_2_778
10
42.1066026
20
134.9401397
11
42.1143026
21
134.9547397
0
LINE
8
DEFAULT_255_2_778
10
42.0825026
20
134.8975397
11
42.0907026
21
134.9115397
0
LINE
8
DEFAULT_255_2_778
10
42.0653026
20
134.8695397
11
42.0741026
21
134.8832397
0
LINE
8
DEFAULT_255_2_778
10
42.0741026
20
134.8832397
11
42.0825026
21
134.8973397
0
LINE
8
DEFAULT_255_2_778
10
42.0563026
20
134.8557397
11
42.0653026
21
134.8695397
0
LINE
8
DEFAULT_255_2_778
10
42.0471026
20
134.8422397
11
42.0563026
21
134.8557397
0
LINE
8
DEFAULT_255_2_778
10
42.0376026
20
134.8287397
11
42.0471026
21
134.8422397
0
LINE
8
DEFAULT_255_2_778
10
41.9868026
20
134.7634397
11
41.9973026
21
134.7761397
0
LINE
8
DEFAULT_255_2_778
10
41.9973026
20
134.7761397
11
42.0077026
21
134.7890397
0
LINE
8
DEFAULT_255_2_778
10
42.0077026
20
134.7890397
11
42.0180026
21
134.8020397
0
LINE
8
DEFAULT_255_2_778
10
42.0180026
20
134.8020397
11
42.0280026
21
134.8152397
0
LINE
8
DEFAULT_255_2_778
10
42.0280026
20
134.8152397
11
42.0378026
21
134.8285397
0
LINE
8
DEFAULT_255_2_778
10
41.9759026
20
134.7509397
11
41.9868026
21
134.7634397
0
LINE
8
DEFAULT_255_2_778
10
41.9071026
20
134.6800397
11
41.9190026
21
134.6912397
0
LINE
8
DEFAULT_255_2_778
10
41.9190026
20
134.6912397
11
41.9307026
21
134.7025397
0
LINE
8
DEFAULT_255_2_778
10
41.9307026
20
134.7025397
11
41.9423026
21
134.7142397
0
LINE
8
DEFAULT_255_2_778
10
41.9423026
20
134.7142397
11
41.9537026
21
134.7261397
0
LINE
8
DEFAULT_255_2_778
10
41.9537026
20
134.7261397
11
41.9648026
21
134.7382397
0
LINE
8
DEFAULT_255_2_778
10
41.9648026
20
134.7382397
11
41.9759026
21
134.7507397
0
LINE
8
DEFAULT_255_2_778
10
41.8950026
20
134.6692397
11
41.9071026
21
134.6803397
0
LINE
8
DEFAULT_255_2_778
10
41.8315026
20
134.6171397
11
41.8444026
21
134.6271397
0
LINE
8
DEFAULT_255_2_778
10
41.8444026
20
134.6271397
11
41.8574026
21
134.6372397
0
LINE
8
DEFAULT_255_2_778
10
41.8574026
20
134.6372397
11
41.8701026
21
134.6475397
0
LINE
8
DEFAULT_255_2_778
10
41.8701026
20
134.6475397
11
41.8825026
21
134.6581397
0
LINE
8
DEFAULT_255_2_778
10
41.8825026
20
134.6581397
11
41.8947026
21
134.6689397
0
LINE
8
DEFAULT_255_2_778
10
41.8182026
20
134.6073397
11
41.8315026
21
134.6171397
0
LINE
8
DEFAULT_255_2_778
10
41.8050026
20
134.5978397
11
41.8185026
21
134.6073397
0
LINE
8
DEFAULT_255_2_778
10
41.7912026
20
134.5885397
11
41.8047026
21
134.5978397
0
LINE
8
DEFAULT_255_2_778
10
41.7494026
20
134.5612397
11
41.7635026
21
134.5700397
0
LINE
8
DEFAULT_255_2_778
10
41.7635026
20
134.5700397
11
41.7775026
21
134.5790397
0
LINE
8
DEFAULT_255_2_778
10
41.7775026
20
134.5790397
11
41.7912026
21
134.5882397
0
LINE
8
DEFAULT_255_2_778
10
41.7354026
20
134.5530397
11
41.7497026
21
134.5615397
0
LINE
8
DEFAULT_255_2_778
10
41.7063026
20
134.5364397
11
41.7209026
21
134.5443397
0
LINE
8
DEFAULT_255_2_778
10
41.7209026
20
134.5443397
11
41.7351026
21
134.5525397
0
LINE
8
DEFAULT_255_2_778
10
41.6918026
20
134.5287397
11
41.7063026
21
134.5364397
0
LINE
8
DEFAULT_255_2_778
10
41.6769026
20
134.5210397
11
41.6918026
21
134.5287397
0
LINE
8
DEFAULT_255_2_778
10
41.6621026
20
134.5141397
11
41.6769026
21
134.5213397
0
LINE
8
DEFAULT_255_2_778
10
41.6473026
20
134.5067397
11
41.6621026
21
134.5139397
0
LINE
8
DEFAULT_255_2_778
10
41.6322026
20
134.5001397
11
41.6473026
21
134.5070397
0
LINE
8
DEFAULT_255_2_778
10
41.6171026
20
134.4935397
11
41.6322026
21
134.5001397
0
LINE
8
DEFAULT_255_2_778
10
41.6021026
20
134.4872397
11
41.6174026
21
134.4935397
0
LINE
8
DEFAULT_255_2_778
10
41.5401026
20
134.4644397
11
41.5558026
21
134.4697397
0
LINE
8
DEFAULT_255_2_778
10
41.5558026
20
134.4697397
11
41.5714026
21
134.4753397
0
LINE
8
DEFAULT_255_2_778
10
41.5714026
20
134.4753397
11
41.5867026
21
134.4811397
0
LINE
8
DEFAULT_255_2_778
10
41.5867026
20
134.4811397
11
41.6021026
21
134.4872397
0
LINE
8
DEFAULT_255_2_778
10
41.5245026
20
134.4594397
11
41.5401026
21
134.4644397
0
LINE
8
DEFAULT_255_2_778
10
41.4608026
20
134.4416397
11
41.4769026
21
134.4456397
0
LINE
8
DEFAULT_255_2_778
10
41.4769026
20
134.4456397
11
41.4928026
21
134.4499397
0
LINE
8
DEFAULT_255_2_778
10
41.4928026
20
134.4499397
11
41.5087026
21
134.4543397
0
LINE
8
DEFAULT_255_2_778
10
41.5087026
20
134.4543397
11
41.5245026
21
134.4591397
0
LINE
8
DEFAULT_255_2_778
10
41.4444026
20
134.4379397
11
41.4605026
21
134.4416397
0
LINE
8
DEFAULT_255_2_778
10
41.4118026
20
134.4311397
11
41.4282026
21
134.4342397
0
LINE
8
DEFAULT_255_2_778
10
41.4282026
20
134.4342397
11
41.4444026
21
134.4377397
0
LINE
8
DEFAULT_255_2_778
10
41.3954026
20
134.4282397
11
41.4118026
21
134.4311397
0
LINE
8
DEFAULT_255_2_778
10
41.3626026
20
134.4231397
11
41.3790026
21
134.4255397
0
LINE
8
DEFAULT_255_2_778
10
41.3790026
20
134.4255397
11
41.3954026
21
134.4282397
0
LINE
8
DEFAULT_255_2_778
10
41.3462026
20
134.4207397
11
41.3626026
21
134.4229397
0
LINE
8
DEFAULT_255_2_778
10
41.3298026
20
134.4189397
11
41.3462026
21
134.4207397
0
LINE
8
DEFAULT_255_2_778
10
41.3131026
20
134.4173397
11
41.3298026
21
134.4189397
0
LINE
8
DEFAULT_255_2_778
10
41.2801026
20
134.4147397
11
41.2967026
21
134.4157397
0
LINE
8
DEFAULT_255_2_778
10
41.2967026
20
134.4157397
11
41.3134026
21
134.4170397
0
LINE
8
DEFAULT_255_2_778
10
41.2634026
20
134.4139397
11
41.2801026
21
134.4147397
0
LINE
8
DEFAULT_255_2_778
10
18.2092026
20
134.4133397
11
18.2259026
21
134.4133397
0
LINE
8
DEFAULT_255_2_778
10
18.2259026
20
134.4133397
11
41.2298026
21
134.4133397
0
LINE
8
DEFAULT_255_2_778
10
41.2298026
20
134.4133397
11
41.2465026
21
134.4136397
0
LINE
8
DEFAULT_255_2_778
10
41.2465026
20
134.4136397
11
41.2631026
21
134.4141397
0
LINE
8
DEFAULT_255_2_778
10
18.1928119
20
134.4139364
11
18.2094119
21
134.4134364
0
LINE
8
DEFAULT_255_2_778
10
18.1594119
20
134.4158364
11
18.1761119
21
134.4147364
0
LINE
8
DEFAULT_255_2_778
10
18.1761119
20
134.4147364
11
18.1928119
21
134.4139364
0
LINE
8
DEFAULT_255_2_778
10
18.1428119
20
134.4169364
11
18.1594119
21
134.4155364
0
LINE
8
DEFAULT_255_2_778
10
18.0766119
20
134.4251364
11
18.0930119
21
134.4227364
0
LINE
8
DEFAULT_255_2_778
10
18.0930119
20
134.4227364
11
18.1094119
21
134.4206364
0
LINE
8
DEFAULT_255_2_778
10
18.1094119
20
134.4206364
11
18.1258119
21
134.4187364
0
LINE
8
DEFAULT_255_2_778
10
18.1258119
20
134.4187364
11
18.1425119
21
134.4171364
0
LINE
8
DEFAULT_255_2_778
10
18.0602119
20
134.4277364
11
18.0766119
21
134.4251364
0
LINE
8
DEFAULT_255_2_778
10
18.0438119
20
134.4306364
11
18.0602119
21
134.4277364
0
LINE
8
DEFAULT_255_2_778
10
18.0277119
20
134.4338364
11
18.0441119
21
134.4306364
0
LINE
8
DEFAULT_255_2_778
10
17.9949119
20
134.4412364
11
18.0110119
21
134.4375364
0
LINE
8
DEFAULT_255_2_778
10
18.0110119
20
134.4375364
11
18.0274119
21
134.4341364
0
LINE
8
DEFAULT_255_2_778
10
17.9787119
20
134.4452364
11
17.9949119
21
134.4412364
0
LINE
8
DEFAULT_255_2_778
10
17.9467119
20
134.4542364
11
17.9626119
21
134.4497364
0
LINE
8
DEFAULT_255_2_778
10
17.9626119
20
134.4497364
11
17.9787119
21
134.4454364
0
LINE
8
DEFAULT_255_2_778
10
17.9311119
20
134.4589364
11
17.9470119
21
134.4542364
0
LINE
8
DEFAULT_255_2_778
10
17.9152119
20
134.4640364
11
17.9308119
21
134.4589364
0
LINE
8
DEFAULT_255_2_778
10
17.8996119
20
134.4692364
11
17.9152119
21
134.4640364
0
LINE
8
DEFAULT_255_2_778
10
17.8840119
20
134.4748364
11
17.8996119
21
134.4692364
0
LINE
8
DEFAULT_255_2_778
10
17.8687119
20
134.4806364
11
17.8840119
21
134.4748364
0
LINE
8
DEFAULT_255_2_778
10
17.8380119
20
134.4931364
11
17.8533119
21
134.4867364
0
LINE
8
DEFAULT_255_2_778
10
17.8533119
20
134.4867364
11
17.8687119
21
134.4806364
0
LINE
8
DEFAULT_255_2_778
10
17.8229119
20
134.4994364
11
17.8380119
21
134.4928364
0
LINE
8
DEFAULT_255_2_778
10
17.8078119
20
134.5063364
11
17.8229119
21
134.4994364
0
LINE
8
DEFAULT_255_2_778
10
17.7930119
20
134.5132364
11
17.8078119
21
134.5063364
0
LINE
8
DEFAULT_255_2_778
10
17.7340119
20
134.5439364
11
17.7485119
21
134.5359364
0
LINE
8
DEFAULT_255_2_778
10
17.7485119
20
134.5359364
11
17.7631119
21
134.5282364
0
LINE
8
DEFAULT_255_2_778
10
17.7631119
20
134.5282364
11
17.7779119
21
134.5208364
0
LINE
8
DEFAULT_255_2_778
10
17.7779119
20
134.5208364
11
17.7927119
21
134.5137364
0
LINE
8
DEFAULT_255_2_778
10
17.7197119
20
134.5521364
11
17.7342119
21
134.5439364
0
LINE
8
DEFAULT_255_2_778
10
17.7054119
20
134.5605364
11
17.7197119
21
134.5521364
0
LINE
8
DEFAULT_255_2_778
10
17.6911119
20
134.5693364
11
17.7054119
21
134.5605364
0
LINE
8
DEFAULT_255_2_778
10
17.6229119
20
134.6164364
11
17.6361119
21
134.6066364
0
LINE
8
DEFAULT_255_2_778
10
17.6361119
20
134.6066364
11
17.6496119
21
134.5970364
0
LINE
8
DEFAULT_255_2_778
10
17.6496119
20
134.5970364
11
17.6633119
21
134.5878364
0
LINE
8
DEFAULT_255_2_778
10
17.6633119
20
134.5878364
11
17.6771119
21
134.5785364
0
LINE
8
DEFAULT_255_2_778
10
17.6771119
20
134.5785364
11
17.6911119
21
134.5695364
0
LINE
8
DEFAULT_255_2_778
10
17.6099119
20
134.6261364
11
17.6229119
21
134.6161364
0
LINE
8
DEFAULT_255_2_778
10
17.5969119
20
134.6365364
11
17.6099119
21
134.6264364
0
LINE
8
DEFAULT_255_2_778
10
17.5842119
20
134.6468364
11
17.5969119
21
134.6365364
0
LINE
8
DEFAULT_255_2_778
10
17.5120119
20
134.7137364
11
17.5236119
21
134.7021364
0
LINE
8
DEFAULT_255_2_778
10
17.5236119
20
134.7021364
11
17.5355119
21
134.6907364
0
LINE
8
DEFAULT_255_2_778
10
17.5355119
20
134.6907364
11
17.5474119
21
134.6796364
0
LINE
8
DEFAULT_255_2_778
10
17.5474119
20
134.6796364
11
17.5596119
21
134.6685364
0
LINE
8
DEFAULT_255_2_778
10
17.5596119
20
134.6685364
11
17.5721119
21
134.6576364
0
LINE
8
DEFAULT_255_2_778
10
17.5721119
20
134.6576364
11
17.5845119
21
134.6470364
0
LINE
8
DEFAULT_255_2_778
10
17.5004119
20
134.7256364
11
17.5117119
21
134.7137364
0
LINE
8
DEFAULT_255_2_778
10
17.4567119
20
134.7751364
11
17.4673119
21
134.7624364
0
LINE
8
DEFAULT_255_2_778
10
17.4673119
20
134.7624364
11
17.4781119
21
134.7500364
0
LINE
8
DEFAULT_255_2_778
10
17.4781119
20
134.7500364
11
17.4892119
21
134.7375364
0
LINE
8
DEFAULT_255_2_778
10
17.4892119
20
134.7375364
11
17.5004119
21
134.7254364
0
LINE
8
DEFAULT_255_2_778
10
17.4461119
20
134.7881364
11
17.4564119
21
134.7751364
0
LINE
8
DEFAULT_255_2_778
10
17.4361119
20
134.8013364
11
17.4464119
21
134.7883364
0
LINE
8
DEFAULT_255_2_778
10
17.4260119
20
134.8145364
11
17.4361119
21
134.8013364
0
LINE
8
DEFAULT_255_2_778
10
17.4162119
20
134.8278364
11
17.4260119
21
134.8143364
0
LINE
8
DEFAULT_255_2_778
10
17.4067119
20
134.8412364
11
17.4162119
21
134.8278364
0
LINE
8
DEFAULT_255_2_778
10
17.3548119
20
134.9251364
11
17.3630119
21
134.9108364
0
LINE
8
DEFAULT_255_2_778
10
17.3630119
20
134.9108364
11
17.3712119
21
134.8968364
0
LINE
8
DEFAULT_255_2_778
10
17.3712119
20
134.8968364
11
17.3797119
21
134.8828364
0
LINE
8
DEFAULT_255_2_778
10
17.3797119
20
134.8828364
11
17.3884119
21
134.8690364
0
LINE
8
DEFAULT_255_2_778
10
17.3884119
20
134.8690364
11
17.3974119
21
134.8553364
0
LINE
8
DEFAULT_255_2_778
10
17.3974119
20
134.8553364
11
17.4067119
21
134.8418364
0
LINE
8
DEFAULT_255_2_778
10
17.3469119
20
134.9394364
11
17.3548119
21
134.9251364
0
LINE
8
DEFAULT_255_2_778
10
17.3392119
20
134.9540364
11
17.3469119
21
134.9394364
0
LINE
8
DEFAULT_255_2_778
10
17.3318119
20
134.9685364
11
17.3392119
21
134.9540364
0
LINE
8
DEFAULT_255_2_778
10
17.3247119
20
134.9833364
11
17.3318119
21
134.9685364
0
LINE
8
DEFAULT_255_2_778
10
17.3178119
20
134.9984364
11
17.3247119
21
134.9836364
0
LINE
8
DEFAULT_255_2_778
10
17.3109119
20
135.0132364
11
17.3175119
21
134.9981364
0
LINE
8
DEFAULT_255_2_778
10
17.3046119
20
135.0286364
11
17.3109119
21
135.0135364
0
LINE
8
DEFAULT_255_2_778
10
17.2924119
20
135.0593364
11
17.2985119
21
135.0439364
0
LINE
8
DEFAULT_255_2_778
10
17.2985119
20
135.0439364
11
17.3048119
21
135.0286364
0
LINE
8
DEFAULT_255_2_778
10
17.2866119
20
135.0749364
11
17.2924119
21
135.0593364
0
LINE
8
DEFAULT_255_2_778
10
17.2810119
20
135.0905364
11
17.2866119
21
135.0749364
0
LINE
8
DEFAULT_255_2_778
10
17.2757119
20
135.1061364
11
17.2810119
21
135.0905364
0
LINE
8
DEFAULT_255_2_778
10
17.2659119
20
135.1376364
11
17.2707119
21
135.1217364
0
LINE
8
DEFAULT_255_2_778
10
17.2707119
20
135.1217364
11
17.2757119
21
135.1058364
0
LINE
8
DEFAULT_255_2_778
10
17.2614119
20
135.1535364
11
17.2659119
21
135.1376364
0
LINE
8
DEFAULT_255_2_778
10
17.2575119
20
135.1693364
11
17.2617119
21
135.1535364
0
LINE
8
DEFAULT_255_2_778
10
17.2535119
20
135.1855364
11
17.2575119
21
135.1696364
0
LINE
8
DEFAULT_255_2_778
10
17.2464119
20
135.2175364
11
17.2498119
21
135.2013364
0
LINE
8
DEFAULT_255_2_778
10
17.2498119
20
135.2013364
11
17.2535119
21
135.1855364
0
LINE
8
DEFAULT_255_2_778
10
17.2432119
20
135.2334364
11
17.2464119
21
135.2172364
0
LINE
8
DEFAULT_255_2_778
10
17.2403119
20
135.2495364
11
17.2432119
21
135.2334364
0
LINE
8
DEFAULT_255_2_778
10
17.2376119
20
135.2656364
11
17.2403119
21
135.2495364
0
LINE
8
DEFAULT_255_2_778
10
17.2331119
20
135.2982364
11
17.2352119
21
135.2820364
0
LINE
8
DEFAULT_255_2_778
10
17.2352119
20
135.2820364
11
17.2376119
21
135.2659364
0
LINE
8
DEFAULT_255_2_778
10
17.2313119
20
135.3146364
11
17.2331119
21
135.2982364
0
LINE
8
DEFAULT_255_2_778
10
17.2286119
20
135.3471364
11
17.2299119
21
135.3307364
0
LINE
8
DEFAULT_255_2_778
10
17.2299119
20
135.3307364
11
17.2315119
21
135.3143364
0
LINE
8
DEFAULT_255_2_778
10
17.2276119
20
135.3635364
11
17.2286119
21
135.3471364
0
LINE
8
DEFAULT_255_2_778
10
17.2268119
20
135.3802364
11
17.2276119
21
135.3638364
0
LINE
8
DEFAULT_255_2_778
10
17.2265119
20
135.3966364
11
17.2270119
21
135.3802364
0
LINE
8
DEFAULT_255_2_778
10
17.2262119
20
135.4133364
11
17.2262119
21
135.3966364
0
LINE
8
DEFAULT_255_2_778
10
17.2382119
20
146.7893364
11
17.2382119
21
136.6063364
0
LINE
8
DEFAULT_255_2_778
10
17.2382119
20
136.6063364
11
42.0381119
21
136.6063364
0
LINE
8
DEFAULT_255_2_778
10
42.0381119
20
136.6063364
11
42.0381119
21
146.7893364
0
LINE
8
DEFAULT_255_2_778
10
12.3264119
20
76.1347364
11
11.8340119
21
76.1347364
0
LINE
8
DEFAULT_255_2_778
10
12.3264119
20
70.3448364
11
11.8340119
21
70.3448364
0
LINE
8
DEFAULT_255_2_778
10
9.1845119
20
74.5625364
11
11.8338119
21
74.5625364
0
LINE
8
DEFAULT_255_2_778
10
30.7263043
20
141.8502812
11
30.7263043
21
143.8489812
0
LINE
8
DEFAULT_255_2_778
10
30.7263043
20
143.8489812
11
28.7263043
21
143.8489812
0
LINE
8
DEFAULT_255_2_778
10
28.7263043
20
143.8489812
11
28.7263043
21
141.8502812
0
LINE
8
DEFAULT_255_2_778
10
34.7263043
20
141.8502812
11
34.7263043
21
143.8489812
0
LINE
8
DEFAULT_255_2_778
10
34.7263043
20
143.8489812
11
32.7263043
21
143.8489812
0
LINE
8
DEFAULT_255_2_778
10
32.7263043
20
143.8489812
11
32.7263043
21
141.8502812
0
LINE
8
DEFAULT_255_2_778
10
24.7261043
20
141.8502812
11
24.7261043
21
141.8121812
0
LINE
8
DEFAULT_255_2_778
10
24.7261043
20
141.8121812
11
26.7261043
21
141.8121812
0
LINE
8
DEFAULT_255_2_778
10
26.7261043
20
141.8121812
11
26.7261043
21
141.8502812
0
LINE
8
DEFAULT_255_2_778
10
26.7261043
20
141.8502812
11
26.7261043
21
143.8489812
0
LINE
8
DEFAULT_255_2_778
10
26.7261043
20
143.8489812
11
24.7261043
21
143.8489812
0
LINE
8
DEFAULT_255_2_778
10
24.7261043
20
143.8489812
11
24.7261043
21
141.8502812
0
LINE
8
DEFAULT_255_2_778
10
34.7262366
20
141.8503
11
32.7262366
21
141.8503
0
LINE
8
DEFAULT_255_2_778
10
30.7263366
20
141.8503
11
28.7263366
21
141.8503
0
LINE
8
DEFAULT_255_2_778
10
26.7263366
20
141.8503
11
24.7263366
21
141.8503
0
ARC
8
DEFAULT_255_2_778
10
13.3388288
20
118.8543549
40
0.0672541
50
288.4486932
51
299.5641111
0
ARC
8
DEFAULT_255_2_778
10
13.3347712
20
118.8490978
40
0.0632174
50
275.4831072
51
281.5342711
0
ARC
8
DEFAULT_255_2_778
10
13.3342706
20
118.8544454
40
0.0685884
50
269.950874
51
275.4725424
0
ARC
8
DEFAULT_255_2_778
10
13.5456763
20
75.1963975
40
0.3655579
50
132.8832354
51
145.2513711
0
ARC
8
DEFAULT_255_2_778
10
13.5352774
20
75.21396
40
0.3456397
50
127.0943891
51
133.6013121
0
ARC
8
DEFAULT_255_2_778
10
13.549922
20
75.1995695
40
0.3659631
50
121.3339796
51
127.5643648
0
ARC
8
DEFAULT_255_2_778
10
13.5522553
20
75.1927794
40
0.3732853
50
108.9860034
51
115.0485042
0
ARC
8
DEFAULT_255_2_778
10
13.595491
20
75.0181131
40
0.5542235
50
90.9696781
51
99.1025505
0
ARC
8
DEFAULT_255_2_778
10
13.6015031
20
75.2245465
40
0.3477404
50
79.4936339
51
86.0410376
0
ARC
8
DEFAULT_255_2_778
10
13.6125645
20
75.2770429
40
0.2941102
50
64.2992119
51
79.747585
0
ARC
8
DEFAULT_255_2_778
10
13.609273
20
75.272108
40
0.2999854
50
49.0428617
51
64.1414892
0
ARC
8
DEFAULT_255_2_778
10
13.5827744
20
75.240487
40
0.3412361
50
42.4622798
51
49.1630234
0
ARC
8
DEFAULT_255_2_778
10
13.5595864
20
75.2224241
40
0.3705441
50
35.9871243
51
42.1021592
0
ARC
8
DEFAULT_255_2_778
10
13.4912245
20
75.1727256
40
0.4550621
50
26.0343814
51
35.9926402
0
ARC
8
DEFAULT_255_2_778
10
13.3801902
20
75.1168796
40
0.5793429
50
18.3696155
51
26.1773178
0
ARC
8
DEFAULT_255_2_778
10
13.2176944
20
74.9370418
40
0.7569194
50
346.0569954
51
352.0350186
0
ARC
8
DEFAULT_255_2_778
10
13.2944813
20
74.9233034
40
0.6791042
50
338.9839954
51
345.6209083
0
ARC
8
DEFAULT_255_2_778
10
13.4255342
20
74.8611621
40
0.5338055
50
323.2076601
51
331.6714639
0
ARC
8
DEFAULT_255_2_778
10
13.5419243
20
74.76532
40
0.3828432
50
300.5312335
51
312.3666324
0
ARC
8
DEFAULT_255_2_778
10
13.5395541
20
74.7669553
40
0.3851954
50
283.0164109
51
288.9135458
0
ARC
8
DEFAULT_255_2_778
10
13.5280226
20
74.8983522
40
0.5170701
50
269.9987977
51
272.1822532
0
ARC
8
DEFAULT_255_2_778
10
13.5280009
20
74.8983522
40
0.5170701
50
267.8177468
51
270.0012023
0
ARC
8
DEFAULT_255_2_778
10
13.4740179
20
74.7478537
40
0.3638674
50
256.8296367
51
263.0536344
0
ARC
8
DEFAULT_255_2_778
10
13.4716224
20
74.7628418
40
0.3783063
50
239.6570527
51
245.6614089
0
ARC
8
DEFAULT_255_2_778
10
13.4225744
20
74.7148951
40
0.3104281
50
213.6331901
51
228.2613256
0
ARC
8
DEFAULT_255_2_778
10
13.559714
20
74.8080505
40
0.4762096
50
204.1583345
51
213.826072
0
ARC
8
DEFAULT_255_2_778
10
13.575398
20
74.8268461
40
0.372467
50
205.6770019
51
213.4466414
0
ARC
8
DEFAULT_255_2_778
10
13.4418392
20
74.7390068
40
0.2126124
50
213.5326698
51
227.1008017
0
ARC
8
DEFAULT_255_2_778
10
13.5097423
20
74.8144435
40
0.3141001
50
227.3941343
51
235.0289005
0
ARC
8
DEFAULT_255_2_778
10
13.4744572
20
74.7659664
40
0.2541541
50
235.2833615
51
244.7173115
0
ARC
8
DEFAULT_255_2_778
10
13.4766257
20
74.7720198
40
0.2605548
50
244.8546501
51
254.0010826
0
ARC
8
DEFAULT_255_2_778
10
13.478339
20
74.7817976
40
0.2704281
50
254.223116
51
263.0490199
0
ARC
8
DEFAULT_255_2_778
10
13.542507
20
74.7440567
40
0.2343031
50
282.0976311
51
294.0281528
0
ARC
8
DEFAULT_255_2_778
10
13.5674568
20
74.6970493
40
0.1812465
50
292.875149
51
300.6708909
0
ARC
8
DEFAULT_255_2_778
10
13.5104454
20
74.8045824
40
0.3028821
50
304.2277772
51
313.4938071
0
ARC
8
DEFAULT_255_2_778
10
13.4782833
20
74.8315137
40
0.3450986
50
322.4845435
51
330.5911561
0
ARC
8
DEFAULT_255_2_778
10
13.4067
20
74.8787443
40
0.4306912
50
329.793696
51
336.3476666
0
ARC
8
DEFAULT_255_2_778
10
13.2321383
20
74.9461809
40
0.617955
50
341.6325498
51
350.6661871
0
ARC
8
DEFAULT_255_2_778
10
13.1645803
20
75.0353386
40
0.6827166
50
8.4920702
51
16.667817
0
ARC
8
DEFAULT_255_2_778
10
13.4322833
20
75.1321639
40
0.3984624
50
21.3851038
51
28.3632041
0
ARC
8
DEFAULT_255_2_778
10
13.4599904
20
75.1445516
40
0.3682035
50
28.7151773
51
36.2274615
0
ARC
8
DEFAULT_255_2_778
10
13.6187126
20
75.2861506
40
0.1551366
50
46.647395
51
55.6661794
0
ARC
8
DEFAULT_255_2_778
10
13.6193547
20
75.2878436
40
0.1533771
50
55.5075467
51
64.6544796
0
ARC
8
DEFAULT_255_2_778
10
13.6063368
20
75.2623946
40
0.1819513
50
64.3802856
51
72.0168954
0
ARC
8
DEFAULT_255_2_778
10
13.6052319
20
75.2521437
40
0.1920541
50
72.647549
51
79.960598
0
ARC
8
DEFAULT_255_2_778
10
13.601099
20
75.2302722
40
0.2143114
50
79.8919525
51
86.3850002
0
ARC
8
DEFAULT_255_2_778
10
13.5770179
20
75.1236226
40
0.3196017
50
96.3603938
51
105.0532894
0
ARC
8
DEFAULT_255_2_778
10
13.583002
20
75.1384193
40
0.3073275
50
115.9516327
51
125.0032989
0
ARC
8
DEFAULT_255_2_778
10
13.5029858
20
75.2400639
40
0.1777851
50
130.5474181
51
138.4615521
0
ARC
8
DEFAULT_255_2_778
10
13.5530906
20
75.1909573
40
0.2478778
50
137.6453164
51
146.2816206
0
ARC
8
DEFAULT_255_2_778
10
13.4731338
20
75.2419481
40
0.1530788
50
145.5434991
51
159.5400817
0
ARC
8
DEFAULT_255_2_778
10
13.5487681
20
75.1917338
40
0.370713
50
132.7954671
51
145.0771343
0
ARC
8
DEFAULT_255_2_778
10
13.5121453
20
75.2399907
40
0.3104785
50
126.5353253
51
133.8864812
0
ARC
8
DEFAULT_255_2_778
10
13.5555
20
75.1897781
40
0.3766414
50
115.170103
51
121.1960625
0
ARC
8
DEFAULT_255_2_778
10
13.5552125
20
75.1886296
40
0.3775593
50
109.0287982
51
115.0564799
0
ARC
8
DEFAULT_255_2_778
10
13.5956288
20
75.0078989
40
0.5636072
50
90.7540315
51
98.8095797
0
ARC
8
DEFAULT_255_2_778
10
13.5482179
20
97.3490355
40
0.3116057
50
299.5109575
51
312.8692227
0
ARC
8
DEFAULT_255_2_778
10
13.572465
20
97.3192668
40
0.2733033
50
313.3894687
51
321.0500545
0
ARC
8
DEFAULT_255_2_778
10
13.5696171
20
97.3217225
40
0.2770619
50
321.0253426
51
328.5239966
0
ARC
8
DEFAULT_255_2_778
10
13.59979
20
97.294723
40
0.2382629
50
339.056618
51
347.8454935
0
ARC
8
DEFAULT_255_2_778
10
13.5097146
20
97.3114024
40
0.3298416
50
348.3075214
51
359.9911584
0
ARC
8
DEFAULT_255_2_778
10
13.5103585
20
97.3113383
40
0.3291977
50
0.0022901
51
0.9431622
0
ARC
8
DEFAULT_255_2_778
10
13.4206283
20
97.3741829
40
0.4141407
50
12.1371641
51
22.184312
0
ARC
8
DEFAULT_255_2_778
10
13.5472306
20
97.4311126
40
0.2748827
50
28.7568881
51
36.3544037
0
ARC
8
DEFAULT_255_2_778
10
13.5675256
20
97.4479073
40
0.2485868
50
36.0097188
51
44.4073372
0
ARC
8
DEFAULT_255_2_778
10
13.5526375
20
97.422669
40
0.2775418
50
53.5292486
51
61.0190281
0
ARC
8
DEFAULT_255_2_778
10
13.5496785
20
97.4119838
40
0.2883342
50
61.5334508
51
68.8288748
0
ARC
8
DEFAULT_255_2_778
10
13.5344591
20
97.3607267
40
0.3416555
50
69.5532799
51
81.7622689
0
ARC
8
DEFAULT_255_2_778
10
13.5190862
20
97.1661498
40
0.5374725
50
90.8927666
51
98.6866136
0
ARC
8
DEFAULT_255_2_778
10
13.4559709
20
97.4571421
40
0.2378166
50
110.3904671
51
118.4404938
0
ARC
8
DEFAULT_255_2_778
10
13.482511
20
97.4131606
40
0.2891395
50
118.9143023
51
125.4987948
0
ARC
8
DEFAULT_255_2_778
10
13.4899135
20
97.4110294
40
0.295212
50
126.4283124
51
132.9648925
0
ARC
8
DEFAULT_255_2_778
10
13.4354118
20
97.4686571
40
0.2158969
50
132.8038928
51
141.6013035
0
ARC
8
DEFAULT_255_2_778
10
13.5159015
20
97.4049594
40
0.3185418
50
141.6146439
51
153.6275413
0
ARC
8
DEFAULT_255_2_778
10
13.4899282
20
97.4188976
40
0.4175199
50
137.0728323
51
153.7048212
0
ARC
8
DEFAULT_255_2_778
10
13.4536914
20
97.448974
40
0.3708234
50
117.9455078
51
127.2737601
0
ARC
8
DEFAULT_255_2_778
10
13.493224
20
97.3379893
40
0.4889967
50
101.6820405
51
108.7783848
0
ARC
8
DEFAULT_255_2_778
10
13.5035199
20
97.2736887
40
0.5540579
50
95.0953886
51
101.3783283
0
ARC
8
DEFAULT_255_2_778
10
13.5177869
20
97.2152701
40
0.6128916
50
90.0049375
51
90.2220408
0
ARC
8
DEFAULT_255_2_778
10
13.5173909
20
97.2018582
40
0.6263034
50
82.9729352
51
89.9686065
0
ARC
8
DEFAULT_255_2_778
10
13.5329027
20
97.3331234
40
0.4941269
50
73.7695589
51
82.8959937
0
ARC
8
DEFAULT_255_2_778
10
13.5730573
20
97.4497908
40
0.3702024
50
50.2836988
51
62.4975626
0
ARC
8
DEFAULT_255_2_778
10
13.5583492
20
97.4359378
40
0.3902645
50
38.420115
51
49.9222565
0
ARC
8
DEFAULT_255_2_778
10
13.4437955
20
97.3794733
40
0.5178818
50
17.9708602
51
26.6863359
0
ARC
8
DEFAULT_255_2_778
10
13.3634413
20
97.3574743
40
0.6011157
50
10.11618
51
17.6023495
0
ARC
8
DEFAULT_255_2_778
10
13.4614897
20
97.3097286
40
0.5061281
50
350.874405
51
359.7202175
0
ARC
8
DEFAULT_255_2_778
10
13.6473471
20
97.2803817
40
0.3179691
50
343.6847482
51
350.7840626
0
ARC
8
DEFAULT_255_2_778
10
13.6755905
20
97.2717688
40
0.2884437
50
335.9584371
51
343.750658
0
ARC
8
DEFAULT_255_2_778
10
13.6796226
20
97.2558761
40
0.2778421
50
322.4533382
51
330.570329
0
ARC
8
DEFAULT_255_2_778
10
13.6284636
20
97.2937918
40
0.3415118
50
316.0930741
51
322.6403934
0
ARC
8
DEFAULT_255_2_778
10
13.5988557
20
97.3161465
40
0.3782716
50
304.8869858
51
310.8371571
0
ARC
8
DEFAULT_255_2_778
10
13.6323438
20
96.5886288
40
0.3494498
50
40.3877147
51
49.7542822
0
ARC
8
DEFAULT_255_2_778
10
13.6603109
20
96.609785
40
0.314446
50
30.3686996
51
40.7534663
0
ARC
8
DEFAULT_255_2_778
10
13.633625
20
96.5943146
40
0.3452916
50
20.8935791
51
30.3448534
0
ARC
8
DEFAULT_255_2_778
10
13.6014723
20
96.5809921
40
0.3800826
50
12.453686
51
21.0412662
0
ARC
8
DEFAULT_255_2_778
10
13.5754672
20
96.5763666
40
0.4064748
50
4.2736487
51
12.2998644
0
ARC
8
DEFAULT_255_2_778
10
13.4968633
20
96.4484682
40
0.4706226
50
324.1674534
51
337.9983262
0
ARC
8
DEFAULT_255_2_778
10
13.5437245
20
96.4167725
40
0.4140791
50
316.0246466
51
323.9271459
0
ARC
8
DEFAULT_255_2_778
10
13.5560504
20
96.4050698
40
0.3970832
50
307.8340276
51
316.0049109
0
ARC
8
DEFAULT_255_2_778
10
13.5714672
20
96.3864555
40
0.3729262
50
298.9905718
51
307.7174925
0
ARC
8
DEFAULT_255_2_778
10
13.5535747
20
96.413565
40
0.4053185
50
291.2703547
51
299.3456028
0
ARC
8
DEFAULT_255_2_778
10
13.5306319
20
96.4722189
40
0.4682999
50
284.3139206
51
291.2828434
0
ARC
8
DEFAULT_255_2_778
10
13.5146932
20
96.5368534
40
0.5348687
50
278.1275775
51
284.2565027
0
ARC
8
DEFAULT_255_2_778
10
13.4964199
20
96.6536119
40
0.6530398
50
269.78578
51
278.2664426
0
ARC
8
DEFAULT_255_2_778
10
13.4940742
20
96.7981058
40
0.7975291
50
268.7813015
51
269.9931127
0
ARC
8
DEFAULT_255_2_778
10
13.4538481
20
96.3904046
40
0.3864711
50
239.691227
51
248.1659137
0
ARC
8
DEFAULT_255_2_778
10
13.4288314
20
96.3460788
40
0.3355796
50
229.9078512
51
239.559416
0
ARC
8
DEFAULT_255_2_778
10
13.4029693
20
96.3128533
40
0.2935251
50
218.5180788
51
224.0805198
0
ARC
8
DEFAULT_255_2_778
10
13.5747745
20
96.4287335
40
0.5004875
50
203.6758137
51
210.1763253
0
ARC
8
DEFAULT_255_2_778
10
13.5132794
20
96.4022062
40
0.3072486
50
203.4052754
51
214.7768851
0
ARC
8
DEFAULT_255_2_778
10
13.4500973
20
96.3585042
40
0.2304253
50
214.8121924
51
222.3901455
0
ARC
8
DEFAULT_255_2_778
10
13.4307029
20
96.3394431
40
0.2032531
50
222.1074727
51
230.7893596
0
ARC
8
DEFAULT_255_2_778
10
13.4275066
20
96.3349154
40
0.1977247
50
230.6776002
51
239.5531296
0
ARC
8
DEFAULT_255_2_778
10
13.4437064
20
96.366798
40
0.2334299
50
240.0907553
51
247.6155622
0
ARC
8
DEFAULT_255_2_778
10
13.4814874
20
96.5152455
40
0.3866046
50
255.3809425
51
259.963516
0
ARC
8
DEFAULT_255_2_778
10
13.4863962
20
96.5707221
40
0.4421142
50
260.5900596
51
268.5115128
0
ARC
8
DEFAULT_255_2_778
10
13.4930534
20
96.7440213
40
0.6155316
50
268.311067
51
269.995429
0
ARC
8
DEFAULT_255_2_778
10
13.493023
20
96.7284422
40
0.5999524
50
269.9982161
51
271.192769
0
ARC
8
DEFAULT_255_2_778
10
13.4934804
20
96.7110993
40
0.5826039
50
271.1832995
51
274.196301
0
ARC
8
DEFAULT_255_2_778
10
13.4925704
20
96.6830513
40
0.5547057
50
274.5020368
51
275.5550756
0
ARC
8
DEFAULT_255_2_778
10
13.5028435
20
96.5900028
40
0.4611015
50
275.4037803
51
281.7460294
0
ARC
8
DEFAULT_255_2_778
10
13.5257536
20
96.4815493
40
0.3502552
50
281.6884545
51
291.6740272
0
ARC
8
DEFAULT_255_2_778
10
13.5552069
20
96.4123577
40
0.2750836
50
291.2956276
51
304.0201272
0
ARC
8
DEFAULT_255_2_778
10
13.5645576
20
96.3994413
40
0.259147
50
303.9043267
51
310.6606208
0
ARC
8
DEFAULT_255_2_778
10
13.5728183
20
96.3899615
40
0.2465731
50
310.6397867
51
317.7760991
0
ARC
8
DEFAULT_255_2_778
10
13.5415924
20
96.4184804
40
0.2888623
50
317.7494817
51
329.8642836
0
ARC
8
DEFAULT_255_2_778
10
13.4420338
20
96.4733654
40
0.4025274
50
330.222527
51
338.9152985
0
ARC
8
DEFAULT_255_2_778
10
13.3602602
20
96.49944
40
0.4882329
50
339.512508
51
346.6559718
0
ARC
8
DEFAULT_255_2_778
10
12.9250883
20
96.5738121
40
0.9303401
50
352.1506837
51
359.6578909
0
ARC
8
DEFAULT_255_2_778
10
13.5569377
20
96.5696823
40
0.2984774
50
359.7264194
51
0.0078158
0
ARC
8
DEFAULT_255_2_778
10
13.5433469
20
96.5698515
40
0.3120683
50
359.9764047
51
11.5354455
0
ARC
8
DEFAULT_255_2_778
10
13.5970409
20
96.578002
40
0.2578436
50
12.1468764
51
19.3551182
0
ARC
8
DEFAULT_255_2_778
10
13.6242759
20
96.5886435
40
0.2286232
50
19.1010713
51
27.2029459
0
ARC
8
DEFAULT_255_2_778
10
13.5344283
20
96.5369534
40
0.3321989
50
28.0480156
51
33.5725937
0
ARC
8
DEFAULT_255_2_778
10
13.6215856
20
96.5963634
40
0.2267311
50
33.2435259
51
41.4181028
0
ARC
8
DEFAULT_255_2_778
10
13.5818102
20
96.5695915
40
0.2743406
50
40.1153782
51
53.5474069
0
ARC
8
DEFAULT_255_2_778
10
13.5000888
20
96.4563884
40
0.4138249
50
62.6809289
51
71.5562843
0
LINE
8
DEFAULT_255_2_778
10
30.7263118
20
141.8503571
11
30.7263118
21
141.8122571
0
LINE
8
DEFAULT_255_2_778
10
30.7263118
20
141.8122571
11
28.7263118
21
141.8122571
0
LINE
8
DEFAULT_255_2_778
10
28.7263118
20
141.8122571
11
28.7263118
21
141.8503571
0
LINE
8
DEFAULT_255_2_778
10
34.7263118
20
141.8503571
11
34.7263118
21
141.8122571
0
LINE
8
DEFAULT_255_2_778
10
34.7263118
20
141.8122571
11
32.7263118
21
141.8122571
0
LINE
8
DEFAULT_255_2_778
10
32.7263118
20
141.8122571
11
32.7263118
21
141.8503571
0
LINE
8
DEFAULT_255_2_778
10
13.6612118
20
119.0755571
11
13.5903118
21
118.9996571
0
LINE
8
DEFAULT_255_2_778
10
13.5903118
20
118.9996571
11
13.5181118
21
118.9247571
0
LINE
8
DEFAULT_255_2_778
10
13.5181118
20
118.9247571
11
13.4435118
21
118.8522571
0
LINE
8
DEFAULT_255_2_778
10
13.4435118
20
118.8522571
11
13.4040118
21
118.8183571
0
LINE
8
DEFAULT_255_2_778
10
13.4040118
20
118.8183571
11
13.3831118
21
118.8027571
0
LINE
8
DEFAULT_255_2_778
10
13.3831118
20
118.8027571
11
13.3720118
21
118.7958571
0
LINE
8
DEFAULT_255_2_778
10
13.3601118
20
118.7905571
11
13.3474118
21
118.7871571
0
LINE
8
DEFAULT_255_2_778
10
13.3342118
20
118.7858571
11
13.3265118
21
118.9130571
0
LINE
8
DEFAULT_255_2_778
10
13.3265118
20
118.9130571
11
13.3114118
21
118.9080571
0
LINE
8
DEFAULT_255_2_778
10
13.3114118
20
118.9080571
11
13.3223118
21
118.9157571
0
LINE
8
DEFAULT_255_2_778
10
13.3223118
20
118.9157571
11
13.3326118
21
118.9239571
0
LINE
8
DEFAULT_255_2_778
10
13.3326118
20
118.9239571
11
13.3530118
21
118.9411571
0
LINE
8
DEFAULT_255_2_778
10
13.3530118
20
118.9411571
11
13.3921118
21
118.9771571
0
LINE
8
DEFAULT_255_2_778
10
13.3921118
20
118.9771571
11
13.4667118
21
119.0533571
0
LINE
8
DEFAULT_255_2_778
10
13.4667118
20
119.0533571
11
13.5392118
21
119.1311571
0
LINE
8
DEFAULT_255_2_778
10
13.5392118
20
119.1311571
11
13.6109118
21
119.2099571
0
LINE
8
DEFAULT_255_2_778
10
13.6109118
20
119.2099571
11
13.6284118
21
119.2300571
0
LINE
8
DEFAULT_255_2_778
10
13.6284118
20
119.2300571
11
13.7070118
21
119.2300571
0
LINE
8
DEFAULT_255_2_778
10
13.7070118
20
119.2300571
11
13.7856118
21
119.2300571
0
LINE
8
DEFAULT_255_2_778
10
13.7856118
20
119.2300571
11
13.7856118
21
117.4375571
0
LINE
8
DEFAULT_255_2_778
10
13.7856118
20
117.4375571
11
13.7231118
21
117.4375571
0
LINE
8
DEFAULT_255_2_778
10
13.7231118
20
117.4375571
11
13.6607118
21
117.4375571
0
LINE
8
DEFAULT_255_2_778
10
13.6607118
20
117.4375571
11
13.6607118
21
119.0755571
0
LINE
8
DEFAULT_255_2_778
10
13.3596118
20
75.5121571
11
13.3942118
21
75.5309571
0
LINE
8
DEFAULT_255_2_778
10
13.4308118
20
75.5457571
11
13.4689118
21
75.5571571
0
LINE
8
DEFAULT_255_2_778
10
13.4689118
20
75.5571571
11
13.5078118
21
75.5653571
0
LINE
8
DEFAULT_255_2_778
10
13.5861118
20
75.5722571
11
13.6255118
21
75.5714571
0
LINE
8
DEFAULT_255_2_778
10
13.9300118
20
75.2994571
11
13.9509118
21
75.2237571
0
LINE
8
DEFAULT_255_2_778
10
13.9509118
20
75.2237571
11
13.9647118
21
75.1459571
0
LINE
8
DEFAULT_255_2_778
10
13.9647118
20
75.1459571
11
13.9726118
21
75.0676571
0
LINE
8
DEFAULT_255_2_778
10
13.9726118
20
75.0676571
11
13.9758118
21
74.9893571
0
LINE
8
DEFAULT_255_2_778
10
13.9758118
20
74.9893571
11
13.9747118
21
74.9107571
0
LINE
8
DEFAULT_255_2_778
10
13.9747118
20
74.9107571
11
13.9673118
21
74.8321571
0
LINE
8
DEFAULT_255_2_778
10
13.9284118
20
74.6797571
11
13.9131118
21
74.6432571
0
LINE
8
DEFAULT_255_2_778
10
13.9131118
20
74.6432571
11
13.8954118
21
74.6078571
0
LINE
8
DEFAULT_255_2_778
10
13.8530118
20
74.5414571
11
13.8279118
21
74.5107571
0
LINE
8
DEFAULT_255_2_778
10
13.8279118
20
74.5107571
11
13.7999118
21
74.4824571
0
LINE
8
DEFAULT_255_2_778
10
13.7364118
20
74.4355571
11
13.7012118
21
74.4170571
0
LINE
8
DEFAULT_255_2_778
10
13.7012118
20
74.4170571
11
13.6644118
21
74.4025571
0
LINE
8
DEFAULT_255_2_778
10
13.6263118
20
74.3916571
11
13.5871118
21
74.3847571
0
LINE
8
DEFAULT_255_2_778
10
13.5871118
20
74.3847571
11
13.5477118
21
74.3816571
0
LINE
8
DEFAULT_255_2_778
10
13.5083118
20
74.3816571
11
13.4691118
21
74.3834571
0
LINE
8
DEFAULT_255_2_778
10
13.4691118
20
74.3834571
11
13.4495118
21
74.3847571
0
LINE
8
DEFAULT_255_2_778
10
13.4495118
20
74.3847571
11
13.4300118
21
74.3866571
0
LINE
8
DEFAULT_255_2_778
10
13.3911118
20
74.3935571
11
13.3527118
21
74.4040571
0
LINE
8
DEFAULT_255_2_778
10
13.3527118
20
74.4040571
11
13.3157118
21
74.4181571
0
LINE
8
DEFAULT_255_2_778
10
13.2805118
20
74.4363571
11
13.2471118
21
74.4583571
0
LINE
8
DEFAULT_255_2_778
10
13.2471118
20
74.4583571
11
13.2313118
21
74.4705571
0
LINE
8
DEFAULT_255_2_778
10
13.2313118
20
74.4705571
11
13.2159118
21
74.4832571
0
LINE
8
DEFAULT_255_2_778
10
13.1252118
20
74.6131571
11
13.2397118
21
74.6654571
0
LINE
8
DEFAULT_255_2_778
10
13.4456118
20
74.5133571
11
13.4943118
21
74.5091571
0
LINE
8
DEFAULT_255_2_778
10
13.4943118
20
74.5091571
11
13.5186118
21
74.5083571
0
LINE
8
DEFAULT_255_2_778
10
13.5186118
20
74.5083571
11
13.5429118
21
74.5086571
0
LINE
8
DEFAULT_255_2_778
10
13.5429118
20
74.5086571
11
13.5673118
21
74.5107571
0
LINE
8
DEFAULT_255_2_778
10
13.5673118
20
74.5107571
11
13.5916118
21
74.5149571
0
LINE
8
DEFAULT_255_2_778
10
13.6599118
20
74.5411571
11
13.6808118
21
74.5541571
0
LINE
8
DEFAULT_255_2_778
10
13.7189118
20
74.5848571
11
13.7361118
21
74.6025571
0
LINE
8
DEFAULT_255_2_778
10
13.7361118
20
74.6025571
11
13.7520118
21
74.6213571
0
LINE
8
DEFAULT_255_2_778
10
13.8012118
20
74.7059571
11
13.8186118
21
74.7514571
0
LINE
8
DEFAULT_255_2_778
10
13.8419118
20
74.8459571
11
13.8483118
21
74.8943571
0
LINE
8
DEFAULT_255_2_778
10
13.8483118
20
74.8943571
11
13.8512118
21
74.9427571
0
LINE
8
DEFAULT_255_2_778
10
13.8512118
20
74.9427571
11
13.8512118
21
74.9912571
0
LINE
8
DEFAULT_255_2_778
10
13.8512118
20
74.9912571
11
13.8491118
21
75.0396571
0
LINE
8
DEFAULT_255_2_778
10
13.8491118
20
75.0396571
11
13.8454118
21
75.0880571
0
LINE
8
DEFAULT_255_2_778
10
13.8454118
20
75.0880571
11
13.8430118
21
75.1121571
0
LINE
8
DEFAULT_255_2_778
10
13.8430118
20
75.1121571
11
13.8398118
21
75.1361571
0
LINE
8
DEFAULT_255_2_778
10
13.8186118
20
75.2311571
11
13.8115118
21
75.2544571
0
LINE
8
DEFAULT_255_2_778
10
13.8115118
20
75.2544571
11
13.8033118
21
75.2774571
0
LINE
8
DEFAULT_255_2_778
10
13.7570118
20
75.3621571
11
13.7419118
21
75.3811571
0
LINE
8
DEFAULT_255_2_778
10
13.7419118
20
75.3811571
11
13.7252118
21
75.3989571
0
LINE
8
DEFAULT_255_2_778
10
13.6146118
20
75.4441571
11
13.5903118
21
75.4444571
0
LINE
8
DEFAULT_255_2_778
10
13.5903118
20
75.4444571
11
13.5416118
21
75.4412571
0
LINE
8
DEFAULT_255_2_778
10
13.4940118
20
75.4322571
11
13.4707118
21
75.4248571
0
LINE
8
DEFAULT_255_2_778
10
13.4707118
20
75.4248571
11
13.4593118
21
75.4200571
0
LINE
8
DEFAULT_255_2_778
10
13.4593118
20
75.4200571
11
13.4485118
21
75.4147571
0
LINE
8
DEFAULT_255_2_778
10
13.4067118
20
75.3901571
11
13.3874118
21
75.3751571
0
LINE
8
DEFAULT_255_2_778
10
13.3297118
20
75.2954571
11
13.3239118
21
75.2774571
0
LINE
8
DEFAULT_255_2_778
10
13.3239118
20
75.2774571
11
13.3212118
21
75.2684571
0
LINE
8
DEFAULT_255_2_778
10
13.3212118
20
75.2684571
11
13.3196118
21
75.2592571
0
LINE
8
DEFAULT_255_2_778
10
13.3196118
20
75.2592571
11
13.3098118
21
75.2044571
0
LINE
8
DEFAULT_255_2_778
10
13.3098118
20
75.2044571
11
13.2149118
21
75.2044571
0
LINE
8
DEFAULT_255_2_778
10
13.2149118
20
75.2044571
11
13.1199118
21
75.2044571
0
LINE
8
DEFAULT_255_2_778
10
13.1199118
20
75.2044571
11
13.1199118
21
76.1932571
0
LINE
8
DEFAULT_255_2_778
10
13.1199118
20
76.1932571
11
13.5355118
21
76.1932571
0
LINE
8
DEFAULT_255_2_778
10
13.5355118
20
76.1932571
11
13.9512118
21
76.1932571
0
LINE
8
DEFAULT_255_2_778
10
13.9512118
20
76.1932571
11
13.9512118
21
76.0685571
0
LINE
8
DEFAULT_255_2_778
10
13.9512118
20
76.0685571
11
13.5980118
21
76.0685571
0
LINE
8
DEFAULT_255_2_778
10
13.5980118
20
76.0685571
11
13.2448118
21
76.0685571
0
LINE
8
DEFAULT_255_2_778
10
13.2448118
20
76.0685571
11
13.2448118
21
75.4039571
0
LINE
8
DEFAULT_255_2_778
10
13.3273118
20
75.4894571
11
13.3604118
21
75.5119571
0
LINE
8
DEFAULT_255_2_778
10
13.4321118
20
75.5455571
11
13.4704118
21
75.5568571
0
LINE
8
DEFAULT_255_2_778
10
13.4704118
20
75.5568571
11
13.5093118
21
75.5648571
0
LINE
8
DEFAULT_255_2_778
10
13.5882118
20
75.5714571
11
13.5996118
21
75.5714571
0
LINE
8
DEFAULT_255_2_778
10
13.4977118
20
97.0040571
11
13.5670118
21
97.0251571
0
LINE
8
DEFAULT_255_2_778
10
13.5670118
20
97.0251571
11
13.6014118
21
97.0360571
0
LINE
8
DEFAULT_255_2_778
10
13.6014118
20
97.0360571
11
13.6358118
21
97.0473571
0
LINE
8
DEFAULT_255_2_778
10
13.6358118
20
97.0473571
11
13.6694118
21
97.0611571
0
LINE
8
DEFAULT_255_2_778
10
13.6694118
20
97.0611571
11
13.7017118
21
97.0778571
0
LINE
8
DEFAULT_255_2_778
10
13.8059118
20
97.1770571
11
13.8149118
21
97.1929571
0
LINE
8
DEFAULT_255_2_778
10
13.8149118
20
97.1929571
11
13.8223118
21
97.2095571
0
LINE
8
DEFAULT_255_2_778
10
13.8395118
20
97.3167571
11
13.8364118
21
97.3892571
0
LINE
8
DEFAULT_255_2_778
10
13.8364118
20
97.3892571
11
13.8321118
21
97.4252571
0
LINE
8
DEFAULT_255_2_778
10
13.8321118
20
97.4252571
11
13.8255118
21
97.4612571
0
LINE
8
DEFAULT_255_2_778
10
13.8041118
20
97.5305571
11
13.7882118
21
97.5633571
0
LINE
8
DEFAULT_255_2_778
10
13.7451118
20
97.6218571
11
13.7316118
21
97.6345571
0
LINE
8
DEFAULT_255_2_778
10
13.7316118
20
97.6345571
11
13.7176118
21
97.6458571
0
LINE
8
DEFAULT_255_2_778
10
13.5834118
20
97.6988571
11
13.5472118
21
97.7025571
0
LINE
8
DEFAULT_255_2_778
10
13.5472118
20
97.7025571
11
13.5107118
21
97.7035571
0
LINE
8
DEFAULT_255_2_778
10
13.4379118
20
97.6974571
11
13.4051118
21
97.6903571
0
LINE
8
DEFAULT_255_2_778
10
13.4051118
20
97.6903571
11
13.3731118
21
97.6800571
0
LINE
8
DEFAULT_255_2_778
10
13.2305118
20
97.5464571
11
13.1156118
21
97.6038571
0
LINE
8
DEFAULT_255_2_778
10
13.1842118
20
97.7032571
11
13.2059118
21
97.7247571
0
LINE
8
DEFAULT_255_2_778
10
13.2059118
20
97.7247571
11
13.2291118
21
97.7440571
0
LINE
8
DEFAULT_255_2_778
10
13.2799118
20
97.7765571
11
13.3075118
21
97.7898571
0
LINE
8
DEFAULT_255_2_778
10
13.3075118
20
97.7898571
11
13.3358118
21
97.8009571
0
LINE
8
DEFAULT_255_2_778
10
13.4543118
20
97.8255571
11
13.5154118
21
97.8281571
0
LINE
8
DEFAULT_255_2_778
10
13.6710118
20
97.8075571
11
13.7083118
21
97.7945571
0
LINE
8
DEFAULT_255_2_778
10
13.7083118
20
97.7945571
11
13.7440118
21
97.7781571
0
LINE
8
DEFAULT_255_2_778
10
13.8641118
20
97.6784571
11
13.8869118
21
97.6461571
0
LINE
8
DEFAULT_255_2_778
10
13.8869118
20
97.6461571
11
13.9065118
21
97.6120571
0
LINE
8
DEFAULT_255_2_778
10
13.9552118
20
97.4630571
11
13.9650118
21
97.3857571
0
LINE
8
DEFAULT_255_2_778
10
13.9650118
20
97.3857571
11
13.9671118
21
97.3466571
0
LINE
8
DEFAULT_255_2_778
10
13.9671118
20
97.3466571
11
13.9676118
21
97.3072571
0
LINE
8
DEFAULT_255_2_778
10
13.9390118
20
97.1542571
11
13.9216118
21
97.1193571
0
LINE
8
DEFAULT_255_2_778
10
13.8745118
20
97.0569571
11
13.8462118
21
97.0299571
0
LINE
8
DEFAULT_255_2_778
10
13.8152118
20
97.0058571
11
13.7988118
21
96.9950571
0
LINE
8
DEFAULT_255_2_778
10
13.7988118
20
96.9950571
11
13.7821118
21
96.9846571
0
LINE
8
DEFAULT_255_2_778
10
13.7821118
20
96.9846571
11
13.7133118
21
96.9465571
0
LINE
8
DEFAULT_255_2_778
10
13.7133118
20
96.9465571
11
13.8120118
21
96.8891571
0
LINE
8
DEFAULT_255_2_778
10
13.8120118
20
96.8891571
11
13.8356118
21
96.8730571
0
LINE
8
DEFAULT_255_2_778
10
13.8356118
20
96.8730571
11
13.8581118
21
96.8553571
0
LINE
8
DEFAULT_255_2_778
10
13.9808118
20
96.6066571
11
13.9824118
21
96.5782571
0
LINE
8
DEFAULT_255_2_778
10
13.9824118
20
96.5782571
11
13.9824118
21
96.5499571
0
LINE
8
DEFAULT_255_2_778
10
13.9824118
20
96.5499571
11
13.9803118
21
96.4930571
0
LINE
8
DEFAULT_255_2_778
10
13.9803118
20
96.4930571
11
13.9750118
21
96.4364571
0
LINE
8
DEFAULT_255_2_778
10
13.9750118
20
96.4364571
11
13.9657118
21
96.3806571
0
LINE
8
DEFAULT_255_2_778
10
13.9657118
20
96.3806571
11
13.9520118
21
96.3258571
0
LINE
8
DEFAULT_255_2_778
10
13.9520118
20
96.3258571
11
13.9332118
21
96.2721571
0
LINE
8
DEFAULT_255_2_778
10
13.4771118
20
96.0007571
11
13.4202118
21
96.0041571
0
LINE
8
DEFAULT_255_2_778
10
13.4202118
20
96.0041571
11
13.3919118
21
96.0081571
0
LINE
8
DEFAULT_255_2_778
10
13.3919118
20
96.0081571
11
13.3641118
21
96.0139571
0
LINE
8
DEFAULT_255_2_778
10
13.3641118
20
96.0139571
11
13.3368118
21
96.0218571
0
LINE
8
DEFAULT_255_2_778
10
13.3368118
20
96.0218571
11
13.3101118
21
96.0316571
0
LINE
8
DEFAULT_255_2_778
10
13.2127118
20
96.0893571
11
13.1921118
21
96.1086571
0
LINE
8
DEFAULT_255_2_778
10
13.1733118
20
96.1300571
11
13.1649118
21
96.1414571
0
LINE
8
DEFAULT_255_2_778
10
13.1649118
20
96.1414571
11
13.1569118
21
96.1531571
0
LINE
8
DEFAULT_255_2_778
10
13.1569118
20
96.1531571
11
13.1421118
21
96.1771571
0
LINE
8
DEFAULT_255_2_778
10
13.1164118
20
96.2277571
11
13.2313118
21
96.2801571
0
LINE
8
DEFAULT_255_2_778
10
13.3548118
20
96.1509571
11
13.3839118
21
96.1411571
0
LINE
8
DEFAULT_255_2_778
10
13.8353118
20
96.3867571
11
13.8467118
21
96.4467571
0
LINE
8
DEFAULT_255_2_778
10
13.7448118
20
96.7902571
11
13.7181118
21
96.8082571
0
LINE
8
DEFAULT_255_2_778
10
13.7181118
20
96.8082571
11
13.6900118
21
96.8240571
0
LINE
8
DEFAULT_255_2_778
10
13.6310118
20
96.8489571
11
13.6001118
21
96.8584571
0
LINE
8
DEFAULT_255_2_778
10
13.6001118
20
96.8584571
11
13.5689118
21
96.8669571
0
LINE
8
DEFAULT_255_2_778
10
13.5689118
20
96.8669571
11
13.5056118
21
96.8801571
0
LINE
8
DEFAULT_255_2_778
10
13.5056118
20
96.8801571
11
13.4982118
21
97.0047571
0
LINE
8
DEFAULT_255_2_778
10
13.8329118
20
54.1682571
11
13.8401118
21
54.1907571
0
LINE
8
DEFAULT_255_2_778
10
13.8401118
20
54.1907571
11
13.8562118
21
54.2409571
0
LINE
8
DEFAULT_255_2_778
10
13.8562118
20
54.2409571
11
13.8644118
21
54.2661571
0
LINE
8
DEFAULT_255_2_778
10
13.8644118
20
54.2661571
11
13.8686118
21
54.2785571
0
LINE
8
DEFAULT_255_2_778
10
13.8686118
20
54.2785571
11
13.8708118
21
54.2846571
0
LINE
8
DEFAULT_255_2_778
10
13.8708118
20
54.2846571
11
13.8731118
21
54.2907571
0
LINE
8
DEFAULT_255_2_778
10
13.8731118
20
54.2907571
11
13.8731118
21
54.3259571
0
LINE
8
DEFAULT_255_2_778
10
13.8731118
20
54.3259571
11
13.4863118
21
54.3259571
0
LINE
8
DEFAULT_255_2_778
10
13.4863118
20
54.3259571
11
13.0995118
21
54.3259571
0
LINE
8
DEFAULT_255_2_778
10
13.0995118
20
54.3259571
11
13.0995118
21
54.4531571
0
LINE
8
DEFAULT_255_2_778
10
13.0995118
20
54.4531571
11
13.5488118
21
54.4531571
0
LINE
8
DEFAULT_255_2_778
10
13.5488118
20
54.4531571
11
13.9980118
21
54.4531571
0
LINE
8
DEFAULT_255_2_778
10
13.9980118
20
54.4531571
11
13.9980118
21
54.2711571
0
LINE
8
DEFAULT_255_2_778
10
13.9980118
20
54.2711571
11
13.4863118
21
52.6434571
0
LINE
8
DEFAULT_255_2_778
10
13.4863118
20
52.6434571
11
13.3665118
21
52.6833571
0
LINE
8
DEFAULT_255_2_778
10
13.3665118
20
52.6833571
11
13.4927118
21
53.0855571
0
LINE
8
DEFAULT_255_2_778
10
13.4927118
20
53.0855571
11
13.6189118
21
53.4877571
0
LINE
8
DEFAULT_255_2_778
10
13.6189118
20
53.4877571
11
13.7451118
21
53.8896571
0
LINE
8
DEFAULT_255_2_778
10
13.7451118
20
53.8896571
11
13.7766118
21
53.9901571
0
LINE
8
DEFAULT_255_2_778
10
13.7766118
20
53.9901571
11
13.8083118
21
54.0907571
0
LINE
8
DEFAULT_255_2_778
10
13.8083118
20
54.0907571
11
13.8403118
21
54.1909571
0
LINE
8
DEFAULT_255_2_778
10
13.8403118
20
54.1909571
11
13.8565118
21
54.2412571
0
LINE
8
DEFAULT_255_2_778
10
13.8565118
20
54.2412571
11
13.8647118
21
54.2663571
0
LINE
8
DEFAULT_255_2_778
10
13.8647118
20
54.2663571
11
13.8689118
21
54.2788571
0
LINE
8
DEFAULT_255_2_778
10
13.8689118
20
54.2788571
11
13.8710118
21
54.2849571
0
LINE
8
DEFAULT_255_2_778
10
13.8710118
20
54.2849571
11
13.8734118
21
54.2909571
0
ARC
8
DEFAULT_255_2_778
10
13.4360667
20
74.696264
40
0.3022057
50
238.14541
51
245.5893462
0
ARC
8
DEFAULT_255_2_778
10
13.4860385
20
74.8089772
40
0.4255248
50
251.0671801
51
261.6403528
0
ARC
8
DEFAULT_255_2_778
10
13.6204027
20
64.1577853
40
0.3942718
50
146.2250945
51
158.7361145
0
ARC
8
DEFAULT_255_2_778
10
13.6044608
20
64.2147481
40
0.3464009
50
130.2651371
51
137.7685861
0
ARC
8
DEFAULT_255_2_778
10
13.5573564
20
64.2704351
40
0.2734636
50
120.741056
51
130.2752766
0
ARC
8
DEFAULT_255_2_778
10
13.5635754
20
64.264984
40
0.2813394
50
111.9804027
51
121.2621569
0
ARC
8
DEFAULT_255_2_778
10
13.5741161
20
64.214582
40
0.3329352
50
94.5382096
51
102.4617106
0
ARC
8
DEFAULT_255_2_778
10
13.5955598
20
64.2246753
40
0.3248015
50
89.9925108
51
90.2622776
0
ARC
8
DEFAULT_255_2_778
10
13.5954346
20
64.2173997
40
0.3320773
50
79.1801004
51
89.9710776
0
ARC
8
DEFAULT_255_2_778
10
13.6097577
20
64.2873745
40
0.2606594
50
72.284715
51
79.3851023
0
ARC
8
DEFAULT_255_2_778
10
13.6214463
20
64.3295914
40
0.2168944
50
63.3674546
51
71.8325358
0
ARC
8
DEFAULT_255_2_778
10
13.6301584
20
64.3436178
40
0.2004567
50
45.6550362
51
63.7962202
0
ARC
8
DEFAULT_255_2_778
10
13.6152064
20
64.3280207
40
0.2220621
50
37.5877724
51
45.7090229
0
ARC
8
DEFAULT_255_2_778
10
13.5746115
20
64.2998791
40
0.2714074
50
30.412965
51
37.0680253
0
ARC
8
DEFAULT_255_2_778
10
13.5117433
20
64.2667705
40
0.3424011
50
19.4657591
51
29.8652947
0
ARC
8
DEFAULT_255_2_778
10
13.5329156
20
63.9985408
40
0.3143758
50
318.1447697
51
323.9139092
0
ARC
8
DEFAULT_255_2_778
10
13.5229921
20
64.0045576
40
0.3257888
50
307.3789106
51
318.5211285
0
ARC
8
DEFAULT_255_2_778
10
13.5901144
20
63.9220257
40
0.2194807
50
285.4471626
51
306.5345783
0
ARC
8
DEFAULT_255_2_778
10
13.5664083
20
63.9972697
40
0.2983339
50
278.1832437
51
285.9865575
0
ARC
8
DEFAULT_255_2_778
10
13.5513878
20
64.102027
40
0.4041626
50
274.3574069
51
278.1770674
0
ARC
8
DEFAULT_255_2_778
10
13.5553102
20
64.0534542
40
0.3554322
50
272.1546008
51
274.3218556
0
ARC
8
DEFAULT_255_2_778
10
13.5471492
20
63.9296165
40
0.2318458
50
265.23079
51
270.2777249
0
ARC
8
DEFAULT_255_2_778
10
13.544611
20
63.9538699
40
0.2558446
50
257.2101025
51
266.2488958
0
ARC
8
DEFAULT_255_2_778
10
13.5399984
20
63.9416815
40
0.242944
50
248.0973852
51
257.6345838
0
ARC
8
DEFAULT_255_2_778
10
13.5403327
20
63.9474348
40
0.2484135
50
239.1029213
51
248.5208573
0
ARC
8
DEFAULT_255_2_778
10
13.6269603
20
64.0852806
40
0.4111961
50
228.7190676
51
238.6081353
0
ARC
8
DEFAULT_255_2_778
10
13.6192787
20
64.0728135
40
0.3967669
50
218.2691449
51
228.3648983
0
ARC
8
DEFAULT_255_2_778
10
13.6319167
20
64.0808979
40
0.4119074
50
198.6649909
51
208.3385585
0
ARC
8
DEFAULT_255_2_778
10
13.6673659
20
64.0947154
40
0.4499179
50
187.4763637
51
198.8873223
0
ARC
8
DEFAULT_255_2_778
10
13.5690715
20
64.0811824
40
0.3506987
50
180.0504808
51
187.3737288
0
ARC
8
DEFAULT_255_2_778
10
13.9165278
20
64.0975791
40
0.6977166
50
170.3552784
51
177.7005228
0
ARC
8
DEFAULT_255_2_778
10
13.6478135
20
64.1453133
40
0.424808
50
158.5337141
51
170.6303592
0
ARC
8
DEFAULT_255_2_778
10
13.5235727
20
64.2603976
40
0.3759422
50
136.0372024
51
144.4316402
0
ARC
8
DEFAULT_255_2_778
10
13.5228254
20
64.2658532
40
0.3721825
50
145.0478949
51
153.4908541
0
ARC
8
DEFAULT_255_2_778
10
13.5984286
20
64.8589859
40
0.3789572
50
150.4165848
51
156.3220511
0
ARC
8
DEFAULT_255_2_778
10
13.5305167
20
64.8960324
40
0.3016119
50
142.6121488
51
150.1676595
0
ARC
8
DEFAULT_255_2_778
10
13.5152626
20
64.9069536
40
0.282861
50
134.480031
51
142.4936285
0
ARC
8
DEFAULT_255_2_778
10
13.4715863
20
64.9552286
40
0.2178496
50
114.174539
51
124.6347696
0
ARC
8
DEFAULT_255_2_778
10
13.5085544
20
64.8430091
40
0.3362074
50
98.3254517
51
105.1878965
0
ARC
8
DEFAULT_255_2_778
10
13.5214224
20
64.7605757
40
0.419636
50
92.9025635
51
98.4341844
0
ARC
8
DEFAULT_255_2_778
10
13.5296006
20
64.8215453
40
0.3587959
50
75.411398
51
88.2475578
0
ARC
8
DEFAULT_255_2_778
10
13.5442832
20
64.875517
40
0.3028668
50
67.8706112
51
75.5277384
0
ARC
8
DEFAULT_255_2_778
10
13.5430901
20
64.8669279
40
0.31128
50
60.9218279
51
68.2627359
0
ARC
8
DEFAULT_255_2_778
10
13.5721854
20
64.9152766
40
0.2548556
50
43.4274598
51
52.3180302
0
ARC
8
DEFAULT_255_2_778
10
13.5589107
20
64.9003974
40
0.2747298
50
35.5357492
51
43.7779317
0
ARC
8
DEFAULT_255_2_778
10
13.5441828
20
64.8920634
40
0.291564
50
27.385002
51
35.1863059
0
ARC
8
DEFAULT_255_2_778
10
13.5637531
20
64.8956765
40
0.3972692
50
28.0147502
51
40.4035476
0
ARC
8
DEFAULT_255_2_778
10
13.6245963
20
64.9522378
40
0.3142972
50
39.7409155
51
47.6381667
0
ARC
8
DEFAULT_255_2_778
10
13.5739648
20
64.9028822
40
0.3849047
50
47.0195813
51
53.4707157
0
ARC
8
DEFAULT_255_2_778
10
13.5761047
20
64.9120716
40
0.3762655
50
52.8996305
51
59.500157
0
ARC
8
DEFAULT_255_2_778
10
13.5581759
20
64.8877258
40
0.4063538
50
59.0642248
51
65.2231162
0
ARC
8
DEFAULT_255_2_778
10
13.5380751
20
64.8362665
40
0.4616492
50
71.1181367
51
76.5602269
0
ARC
8
DEFAULT_255_2_778
10
13.47724
20
64.9322236
40
0.3619914
50
104.8815179
51
111.823024
0
ARC
8
DEFAULT_255_2_778
10
13.4689779
20
64.948074
40
0.34421
50
111.5270992
51
118.777279
0
ARC
8
DEFAULT_255_2_778
10
13.5045361
20
64.8816317
40
0.4195654
50
118.665429
51
124.6523564
0
ARC
8
DEFAULT_255_2_778
10
13.4626852
20
64.9503392
40
0.3392809
50
125.4358731
51
132.7518447
0
ARC
8
DEFAULT_255_2_778
10
13.4528281
20
64.9582768
40
0.3267663
50
132.4274934
51
140.010245
0
ARC
8
DEFAULT_255_2_778
10
13.5448526
20
64.8863373
40
0.4437386
50
146.0933039
51
157.1046586
0
ARC
8
DEFAULT_255_2_778
10
13.9637028
20
64.7447607
40
0.8864396
50
164.7264582
51
170.1716484
0
ARC
8
DEFAULT_255_2_778
10
13.6048792
20
64.0357912
40
0.5030144
50
202.1456843
51
212.3580772
0
ARC
8
DEFAULT_255_2_778
10
13.5136817
20
63.9679476
40
0.3892646
50
217.8169747
51
224.507227
0
ARC
8
DEFAULT_255_2_778
10
13.4918203
20
63.9504404
40
0.3614125
50
224.957371
51
232.1728957
0
ARC
8
DEFAULT_255_2_778
10
13.4950663
20
63.9317593
40
0.3474272
50
245.0429018
51
252.6866732
0
ARC
8
DEFAULT_255_2_778
10
13.5133071
20
63.9905667
40
0.4089987
50
252.6987963
51
259.2291793
0
ARC
8
DEFAULT_255_2_778
10
13.5735058
20
64.0052495
40
0.424498
50
282.8443367
51
289.0805524
0
ARC
8
DEFAULT_255_2_778
10
13.5803871
20
63.984568
40
0.4027034
50
289.1171839
51
295.723671
0
ARC
8
DEFAULT_255_2_778
10
13.5927098
20
63.9567152
40
0.3722638
50
295.8756551
51
309.9350396
0
ARC
8
DEFAULT_255_2_778
10
13.5941207
20
63.9508117
40
0.3668416
50
310.3579579
51
317.5204025
0
ARC
8
DEFAULT_255_2_778
10
13.6024615
20
63.9484167
40
0.3590936
50
316.9034867
51
324.1628553
0
ARC
8
DEFAULT_255_2_778
10
13.5498436
20
63.9825783
40
0.4217626
50
324.5856973
51
330.7620225
0
ARC
8
DEFAULT_255_2_778
10
13.4555829
20
64.0253371
40
0.5253086
50
336.6785865
51
346.4514353
0
ARC
8
DEFAULT_255_2_778
10
13.1837115
20
64.172907
40
0.8068321
50
5.9664043
51
12.3499152
0
ARC
8
DEFAULT_255_2_778
10
13.3714624
20
64.212063
40
0.6150538
50
12.5275161
51
20.9196774
0
ARC
8
DEFAULT_255_2_778
10
13.5504704
20
64.2796331
40
0.4238248
50
27.1864424
51
33.308208
0
ARC
8
DEFAULT_255_2_778
10
13.6112415
20
64.3225879
40
0.3494575
50
32.8939586
51
47.8013973
0
ARC
8
DEFAULT_255_2_778
10
13.6224478
20
64.3305034
40
0.3360796
50
48.3103013
51
63.9625226
0
ARC
8
DEFAULT_255_2_778
10
13.6073797
20
64.2824729
40
0.3861539
50
71.974227
51
78.877288
0
ARC
8
DEFAULT_255_2_778
10
13.5938004
20
64.2049253
40
0.4648674
50
79.0788784
51
90.5210455
0
ARC
8
DEFAULT_255_2_778
10
13.5751042
20
64.2126434
40
0.4557683
50
93.6772503
51
104.3592779
0
ARC
8
DEFAULT_255_2_778
10
13.5414555
20
64.3301026
40
0.3336517
50
103.7638303
51
111.057472
0
ARC
8
DEFAULT_255_2_778
10
13.554237
20
64.2818735
40
0.3832908
50
110.2500862
51
116.5067658
0
ARC
8
DEFAULT_255_2_778
10
13.5556266
20
64.2748734
40
0.3900002
50
122.3967082
51
128.5512372
0
ARC
8
DEFAULT_255_2_778
10
13.6102761
20
64.2096375
40
0.4750808
50
128.8024273
51
138.8632545
0
ARC
8
DEFAULT_255_2_778
10
13.3666295
20
108.1283266
40
0.5626647
50
350.0157668
51
359.9711786
0
ARC
8
DEFAULT_255_2_778
10
13.3790646
20
108.1280661
40
0.5502295
50
359.9976561
51
0.5005945
0
ARC
8
DEFAULT_255_2_778
10
13.4623792
20
108.1325139
40
0.466894
50
0.0441219
51
6.3895479
0
ARC
8
DEFAULT_255_2_778
10
13.4938235
20
108.1340378
40
0.43548
50
6.6506923
51
13.442468
0
ARC
8
DEFAULT_255_2_778
10
13.6498762
20
108.1727154
40
0.2747145
50
13.1628886
51
34.4640951
0
ARC
8
DEFAULT_255_2_778
10
13.6897147
20
108.1977004
40
0.2277379
50
34.9533196
51
53.9697235
0
ARC
8
DEFAULT_255_2_778
10
13.6252648
20
108.1412256
40
0.292724
50
93.2689103
51
107.9043449
0
ARC
8
DEFAULT_255_2_778
10
13.6837525
20
108.1175202
40
0.3472249
50
141.1405273
51
153.6617326
0
ARC
8
DEFAULT_255_2_778
10
13.6914051
20
108.1202092
40
0.4752492
50
140.144647
51
154.049796
0
ARC
8
DEFAULT_255_2_778
10
13.7141624
20
108.2280654
40
0.313235
50
46.5519392
51
62.5258123
0
ARC
8
DEFAULT_255_2_778
10
13.6459764
20
108.1622873
40
0.4079033
50
35.3992003
51
45.9524979
0
ARC
8
DEFAULT_255_2_778
10
13.4460814
20
108.12804
40
0.6063749
50
5.4919216
51
12.6345456
0
ARC
8
DEFAULT_255_2_778
10
13.3327215
20
108.1293183
40
0.7197777
50
352.5806748
51
358.5634351
0
ARC
8
DEFAULT_255_2_778
10
13.460552
20
108.0946558
40
0.5875972
50
339.5934993
51
346.949775
0
ARC
8
DEFAULT_255_2_778
10
13.389458
20
108.1143216
40
0.6611171
50
333.7651125
51
340.1444672
0
ARC
8
DEFAULT_255_2_778
10
13.4200032
20
108.0955536
40
0.5027601
50
332.726989
51
341.0002958
0
LINE
8
DEFAULT_255_2_778
10
13.183673
20
74.5178734
11
13.199573
21
74.4998734
0
LINE
8
DEFAULT_255_2_778
10
13.199573
20
74.4998734
11
13.213573
21
74.4860734
0
LINE
8
DEFAULT_255_2_778
10
13.213573
20
74.4860734
11
13.228673
21
74.4733734
0
LINE
8
DEFAULT_255_2_778
10
13.228673
20
74.4733734
11
13.244273
21
74.4614734
0
LINE
8
DEFAULT_255_2_778
10
13.244273
20
74.4614734
11
13.276573
21
74.4395734
0
LINE
8
DEFAULT_255_2_778
10
13.311173
20
74.4210734
11
13.329473
21
74.4130734
0
LINE
8
DEFAULT_255_2_778
10
13.329473
20
74.4130734
11
13.347973
21
74.4064734
0
LINE
8
DEFAULT_255_2_778
10
13.424173
20
74.3879734
11
13.443773
21
74.3858734
0
LINE
8
DEFAULT_255_2_778
10
13.443773
20
74.3858734
11
13.463573
21
74.3844734
0
LINE
8
DEFAULT_255_2_778
10
13.463573
20
74.3844734
11
13.503073
21
74.3823734
0
LINE
8
DEFAULT_255_2_778
10
13.503073
20
74.3823734
11
13.529973
21
74.3818734
0
LINE
8
DEFAULT_255_2_778
10
13.292673
20
64.3769734
11
13.319173
21
64.4131734
0
LINE
8
DEFAULT_255_2_778
10
13.319173
20
64.4131734
11
13.333173
21
64.4306734
0
LINE
8
DEFAULT_255_2_778
10
13.333173
20
64.4306734
11
13.347973
21
64.4475734
0
LINE
8
DEFAULT_255_2_778
10
13.458273
20
64.5258734
11
13.479973
21
64.5335734
0
LINE
8
DEFAULT_255_2_778
10
13.479973
20
64.5335734
11
13.502273
21
64.5396734
0
LINE
8
DEFAULT_255_2_778
10
13.547773
20
64.5464734
11
13.559373
21
64.5472734
0
LINE
8
DEFAULT_255_2_778
10
13.559373
20
64.5472734
11
13.571073
21
64.5480734
0
LINE
8
DEFAULT_255_2_778
10
13.571073
20
64.5480734
11
13.594073
21
64.5494734
0
LINE
8
DEFAULT_255_2_778
10
13.834573
20
64.3808734
11
13.843773
21
64.3512734
0
LINE
8
DEFAULT_255_2_778
10
13.843773
20
64.3512734
11
13.851273
21
64.3213734
0
LINE
8
DEFAULT_255_2_778
10
13.851273
20
64.3213734
11
13.861273
21
64.2607734
0
LINE
8
DEFAULT_255_2_778
10
13.861273
20
64.2607734
11
13.866573
21
64.1996734
0
LINE
8
DEFAULT_255_2_778
10
13.866573
20
64.1996734
11
13.868173
21
64.1382734
0
LINE
8
DEFAULT_255_2_778
10
13.868173
20
64.1382734
11
13.865773
21
64.0765734
0
LINE
8
DEFAULT_255_2_778
10
13.865773
20
64.0765734
11
13.859673
21
64.0154734
0
LINE
8
DEFAULT_255_2_778
10
13.859673
20
64.0154734
11
13.855173
21
63.9850734
0
LINE
8
DEFAULT_255_2_778
10
13.855173
20
63.9850734
11
13.848873
21
63.9548734
0
LINE
8
DEFAULT_255_2_778
10
13.848873
20
63.9548734
11
13.840673
21
63.9249734
0
LINE
8
DEFAULT_255_2_778
10
13.840673
20
63.9249734
11
13.830373
21
63.8956734
0
LINE
8
DEFAULT_255_2_778
10
13.830373
20
63.8956734
11
13.818173
21
63.8670734
0
LINE
8
DEFAULT_255_2_778
10
13.818173
20
63.8670734
11
13.803873
21
63.8395734
0
LINE
8
DEFAULT_255_2_778
10
13.803873
20
63.8395734
11
13.786973
21
63.8133734
0
LINE
8
DEFAULT_255_2_778
10
13.568673
20
63.6982734
11
13.548273
21
63.6977734
0
LINE
8
DEFAULT_255_2_778
10
13.307773
20
63.8270734
11
13.287373
21
63.8554734
0
LINE
8
DEFAULT_255_2_778
10
13.287373
20
63.8554734
11
13.269373
21
63.8853734
0
LINE
8
DEFAULT_255_2_778
10
13.218373
20
64.0808734
11
13.219373
21
64.1255734
0
LINE
8
DEFAULT_255_2_778
10
13.252473
20
64.3007734
11
13.252973
21
64.3007734
0
LINE
8
DEFAULT_255_2_778
10
13.189773
20
64.4319734
11
13.191573
21
64.5880734
0
LINE
8
DEFAULT_255_2_778
10
13.191573
20
64.5880734
11
13.197973
21
64.7441734
0
LINE
8
DEFAULT_255_2_778
10
13.197973
20
64.7441734
11
13.204873
21
64.8219734
0
LINE
8
DEFAULT_255_2_778
10
13.204873
20
64.8219734
11
13.217573
21
64.8989734
0
LINE
8
DEFAULT_255_2_778
10
13.217573
20
64.8989734
11
13.226573
21
64.9370734
0
LINE
8
DEFAULT_255_2_778
10
13.226573
20
64.9370734
11
13.237673
21
64.9745734
0
LINE
8
DEFAULT_255_2_778
10
13.237673
20
64.9745734
11
13.251373
21
65.0111734
0
LINE
8
DEFAULT_255_2_778
10
13.317073
20
65.1087734
11
13.331873
21
65.1222734
0
LINE
8
DEFAULT_255_2_778
10
13.331873
20
65.1222734
11
13.347773
21
65.1344734
0
LINE
8
DEFAULT_255_2_778
10
13.382373
20
65.1539734
11
13.401173
21
65.1613734
0
LINE
8
DEFAULT_255_2_778
10
13.401173
20
65.1613734
11
13.420473
21
65.1674734
0
LINE
8
DEFAULT_255_2_778
10
13.500173
20
65.1796734
11
13.540573
21
65.1801734
0
LINE
8
DEFAULT_255_2_778
10
13.694373
20
65.1389734
11
13.711573
21
65.1285734
0
LINE
8
DEFAULT_255_2_778
10
13.711573
20
65.1285734
11
13.727973
21
65.1169734
0
LINE
8
DEFAULT_255_2_778
10
13.803073
20
65.0261734
11
13.914473
21
65.0822734
0
LINE
8
DEFAULT_255_2_778
10
13.728473
20
65.2566734
11
13.708073
21
65.2653734
0
LINE
8
DEFAULT_255_2_778
10
13.708073
20
65.2653734
11
13.687473
21
65.2730734
0
LINE
8
DEFAULT_255_2_778
10
13.645373
20
65.2852734
11
13.602273
21
65.2934734
0
LINE
8
DEFAULT_255_2_778
10
13.602273
20
65.2934734
11
13.558373
21
65.2976734
0
LINE
8
DEFAULT_255_2_778
10
13.558373
20
65.2976734
11
13.514373
21
65.2984734
0
LINE
8
DEFAULT_255_2_778
10
13.514373
20
65.2984734
11
13.470773
21
65.2963734
0
LINE
8
DEFAULT_255_2_778
10
13.470773
20
65.2963734
11
13.427373
21
65.2910734
0
LINE
8
DEFAULT_255_2_778
10
13.427373
20
65.2910734
11
13.405673
21
65.2870734
0
LINE
8
DEFAULT_255_2_778
10
13.405673
20
65.2870734
11
13.384273
21
65.2820734
0
LINE
8
DEFAULT_255_2_778
10
13.202473
20
65.1682734
11
13.188973
21
65.1513734
0
LINE
8
DEFAULT_255_2_778
10
13.188973
20
65.1513734
11
13.176573
21
65.1338734
0
LINE
8
DEFAULT_255_2_778
10
13.136073
20
65.0589734
11
13.120973
21
65.0190734
0
LINE
8
DEFAULT_255_2_778
10
13.120973
20
65.0190734
11
13.108573
21
64.9782734
0
LINE
8
DEFAULT_255_2_778
10
13.090273
20
64.8960734
11
13.078873
21
64.8126734
0
LINE
8
DEFAULT_255_2_778
10
13.078873
20
64.8126734
11
13.068373
21
64.6443734
0
LINE
8
DEFAULT_255_2_778
10
13.068373
20
64.6443734
11
13.065973
21
64.4655734
0
LINE
8
DEFAULT_255_2_778
10
13.065973
20
64.4655734
11
13.066173
21
64.3761734
0
LINE
8
DEFAULT_255_2_778
10
13.066173
20
64.3761734
11
13.067573
21
64.2866734
0
LINE
8
DEFAULT_255_2_778
10
13.067573
20
64.2866734
11
13.068573
21
64.2419734
0
LINE
8
DEFAULT_255_2_778
10
13.068573
20
64.2419734
11
13.070673
21
64.1972734
0
LINE
8
DEFAULT_255_2_778
10
13.070673
20
64.1972734
11
13.078073
21
64.1078734
0
LINE
8
DEFAULT_255_2_778
10
13.078073
20
64.1078734
11
13.090773
21
64.0189734
0
LINE
8
DEFAULT_255_2_778
10
13.090773
20
64.0189734
11
13.110673
21
63.9313734
0
LINE
8
DEFAULT_255_2_778
10
13.110673
20
63.9313734
11
13.123573
21
63.8882734
0
LINE
8
DEFAULT_255_2_778
10
13.123573
20
63.8882734
11
13.138973
21
63.8461734
0
LINE
8
DEFAULT_255_2_778
10
13.179973
20
63.7665734
11
13.192673
21
63.7477734
0
LINE
8
DEFAULT_255_2_778
10
13.192673
20
63.7477734
11
13.206173
21
63.7292734
0
LINE
8
DEFAULT_255_2_778
10
13.270173
20
63.6649734
11
13.288673
21
63.6511734
0
LINE
8
DEFAULT_255_2_778
10
13.288673
20
63.6511734
11
13.308073
21
63.6384734
0
LINE
8
DEFAULT_255_2_778
10
13.308073
20
63.6384734
11
13.327873
21
63.6270734
0
LINE
8
DEFAULT_255_2_778
10
13.327873
20
63.6270734
11
13.348473
21
63.6167734
0
LINE
8
DEFAULT_255_2_778
10
13.436873
20
63.5887734
11
13.482973
21
63.5820734
0
LINE
8
DEFAULT_255_2_778
10
13.482973
20
63.5820734
11
13.529273
21
63.5791734
0
LINE
8
DEFAULT_255_2_778
10
13.529273
20
63.5791734
11
13.575773
21
63.5794734
0
LINE
8
DEFAULT_255_2_778
10
13.575773
20
63.5794734
11
13.622373
21
63.5834734
0
LINE
8
DEFAULT_255_2_778
10
13.622373
20
63.5834734
11
13.667873
21
63.5913734
0
LINE
8
DEFAULT_255_2_778
10
13.917873
20
63.7765734
11
13.928473
21
63.7966734
0
LINE
8
DEFAULT_255_2_778
10
13.928473
20
63.7966734
11
13.937973
21
63.8173734
0
LINE
8
DEFAULT_255_2_778
10
13.966273
20
63.9022734
11
13.975873
21
63.9461734
0
LINE
8
DEFAULT_255_2_778
10
13.975873
20
63.9461734
11
13.982973
21
63.9906734
0
LINE
8
DEFAULT_255_2_778
10
13.982973
20
63.9906734
11
13.990673
21
64.0795734
0
LINE
8
DEFAULT_255_2_778
10
13.990673
20
64.0795734
11
13.991673
21
64.1681734
0
LINE
8
DEFAULT_255_2_778
10
13.991673
20
64.1681734
11
13.986173
21
64.2567734
0
LINE
8
DEFAULT_255_2_778
10
13.945973
20
64.4316734
11
13.927473
21
64.4732734
0
LINE
8
DEFAULT_255_2_778
10
13.769973
20
64.6324734
11
13.748873
21
64.6417734
0
LINE
8
DEFAULT_255_2_778
10
13.748873
20
64.6417734
11
13.726873
21
64.6496734
0
LINE
8
DEFAULT_255_2_778
10
13.589573
20
64.6697734
11
13.545873
21
64.6674734
0
LINE
8
DEFAULT_255_2_778
10
13.383173
20
64.6248734
11
13.346673
21
64.6041734
0
LINE
8
DEFAULT_255_2_778
10
13.252473
20
64.5221734
11
13.252973
21
64.5213734
0
LINE
8
DEFAULT_255_2_778
10
13.689873
20
85.6999734
11
13.352773
21
85.6999734
0
LINE
8
DEFAULT_255_2_778
10
13.352773
20
85.6999734
11
13.015673
21
85.6999734
0
LINE
8
DEFAULT_255_2_778
10
13.015673
20
85.6999734
11
13.015673
21
85.8846734
0
LINE
8
DEFAULT_255_2_778
10
13.015673
20
85.8846734
11
13.519973
21
87.0231734
0
LINE
8
DEFAULT_255_2_778
10
13.519973
20
87.0231734
11
13.668373
21
87.0231734
0
LINE
8
DEFAULT_255_2_778
10
13.668373
20
87.0231734
11
13.816873
21
87.0231734
0
LINE
8
DEFAULT_255_2_778
10
13.816873
20
87.0231734
11
13.816873
21
85.8248734
0
LINE
8
DEFAULT_255_2_778
10
13.816873
20
85.8248734
11
13.949073
21
85.8248734
0
LINE
8
DEFAULT_255_2_778
10
13.949073
20
85.8248734
11
14.081373
21
85.8248734
0
LINE
8
DEFAULT_255_2_778
10
14.081373
20
85.8248734
11
14.081373
21
85.7001734
0
LINE
8
DEFAULT_255_2_778
10
14.081373
20
85.7001734
11
13.949073
21
85.7001734
0
LINE
8
DEFAULT_255_2_778
10
13.949073
20
85.7001734
11
13.816873
21
85.7001734
0
LINE
8
DEFAULT_255_2_778
10
13.816873
20
85.7001734
11
13.816873
21
85.2234734
0
LINE
8
DEFAULT_255_2_778
10
13.816873
20
85.2234734
11
13.753373
21
85.2234734
0
LINE
8
DEFAULT_255_2_778
10
13.753373
20
85.2234734
11
13.689873
21
85.2234734
0
LINE
8
DEFAULT_255_2_778
10
13.689873
20
85.2234734
11
13.689873
21
85.7001734
0
LINE
8
DEFAULT_255_2_778
10
13.689873
20
85.8248734
11
13.689873
21
86.8984734
0
LINE
8
DEFAULT_255_2_778
10
13.689873
20
86.8984734
11
13.646173
21
86.8984734
0
LINE
8
DEFAULT_255_2_778
10
13.646173
20
86.8984734
11
13.602473
21
86.8984734
0
LINE
8
DEFAULT_255_2_778
10
13.602473
20
86.8984734
11
13.593473
21
86.8778734
0
LINE
8
DEFAULT_255_2_778
10
13.593473
20
86.8778734
11
13.576373
21
86.8381734
0
LINE
8
DEFAULT_255_2_778
10
13.576373
20
86.8381734
11
13.558873
21
86.7984734
0
LINE
8
DEFAULT_255_2_778
10
13.558873
20
86.7984734
11
13.455173
21
86.5627734
0
LINE
8
DEFAULT_255_2_778
10
13.455173
20
86.5627734
11
13.403273
21
86.4450734
0
LINE
8
DEFAULT_255_2_778
10
13.403273
20
86.4450734
11
13.350873
21
86.3275734
0
LINE
8
DEFAULT_255_2_778
10
13.350873
20
86.3275734
11
13.298273
21
86.2100734
0
LINE
8
DEFAULT_255_2_778
10
13.298273
20
86.2100734
11
13.272073
21
86.1513734
0
LINE
8
DEFAULT_255_2_778
10
13.272073
20
86.1513734
11
13.246173
21
86.0923734
0
LINE
8
DEFAULT_255_2_778
10
13.246173
20
86.0923734
11
13.193773
21
85.9748734
0
LINE
8
DEFAULT_255_2_778
10
13.193773
20
85.9748734
11
13.167573
21
85.9160734
0
LINE
8
DEFAULT_255_2_778
10
13.167573
20
85.9160734
11
13.154273
21
85.8867734
0
LINE
8
DEFAULT_255_2_778
10
13.154273
20
85.8867734
11
13.147673
21
85.8721734
0
LINE
8
DEFAULT_255_2_778
10
13.147673
20
85.8721734
11
13.144273
21
85.8647734
0
LINE
8
DEFAULT_255_2_778
10
13.144273
20
85.8647734
11
13.140773
21
85.8576734
0
LINE
8
DEFAULT_255_2_778
10
13.140773
20
85.8576734
11
13.140773
21
85.8250734
0
LINE
8
DEFAULT_255_2_778
10
13.140773
20
85.8250734
11
13.415473
21
85.8250734
0
LINE
8
DEFAULT_255_2_778
10
13.415473
20
85.8250734
11
13.690073
21
85.8250734
0
LINE
8
DEFAULT_255_2_778
10
13.690073
20
85.8250734
11
13.690073
21
86.8987734
0
LINE
8
DEFAULT_255_2_778
10
13.895373
20
107.9315734
11
13.910273
21
107.9807734
0
LINE
8
DEFAULT_255_2_778
10
13.910273
20
107.9807734
11
13.920773
21
108.0307734
0
LINE
8
DEFAULT_255_2_778
10
13.823673
20
108.3818734
11
13.791473
21
108.4014734
0
LINE
8
DEFAULT_255_2_778
10
13.791473
20
108.4014734
11
13.756773
21
108.4160734
0
LINE
8
DEFAULT_255_2_778
10
13.756773
20
108.4160734
11
13.720473
21
108.4257734
0
LINE
8
DEFAULT_255_2_778
10
13.720473
20
108.4257734
11
13.683473
21
108.4316734
0
LINE
8
DEFAULT_255_2_778
10
13.683473
20
108.4316734
11
13.646173
21
108.4339734
0
LINE
8
DEFAULT_255_2_778
10
13.646173
20
108.4339734
11
13.608573
21
108.4334734
0
LINE
8
DEFAULT_255_2_778
10
13.535273
20
108.4197734
11
13.517573
21
108.4133734
0
LINE
8
DEFAULT_255_2_778
10
13.517573
20
108.4133734
11
13.500373
21
108.4056734
0
LINE
8
DEFAULT_255_2_778
10
13.500373
20
108.4056734
11
13.468373
21
108.3868734
0
LINE
8
DEFAULT_255_2_778
10
13.468373
20
108.3868734
11
13.438973
21
108.3630734
0
LINE
8
DEFAULT_255_2_778
10
13.438973
20
108.3630734
11
13.413373
21
108.3353734
0
LINE
8
DEFAULT_255_2_778
10
13.372573
20
108.2715734
11
13.264073
21
108.3281734
0
LINE
8
DEFAULT_255_2_778
10
13.326573
20
108.4247734
11
13.367073
21
108.4660734
0
LINE
8
DEFAULT_255_2_778
10
13.367073
20
108.4660734
11
13.413073
21
108.5001734
0
LINE
8
DEFAULT_255_2_778
10
13.413073
20
108.5001734
11
13.438173
21
108.5141734
0
LINE
8
DEFAULT_255_2_778
10
13.438173
20
108.5141734
11
13.464373
21
108.5263734
0
LINE
8
DEFAULT_255_2_778
10
13.464373
20
108.5263734
11
13.518873
21
108.5440734
0
LINE
8
DEFAULT_255_2_778
10
13.518873
20
108.5440734
11
13.575573
21
108.5541734
0
LINE
8
DEFAULT_255_2_778
10
13.575573
20
108.5541734
11
13.632973
21
108.5572734
0
LINE
8
DEFAULT_255_2_778
10
13.632973
20
108.5572734
11
13.691173
21
108.5546734
0
LINE
8
DEFAULT_255_2_778
10
13.691173
20
108.5546734
11
13.748873
21
108.5453734
0
LINE
8
DEFAULT_255_2_778
10
13.748873
20
108.5453734
11
13.777173
21
108.5379734
0
LINE
8
DEFAULT_255_2_778
10
13.777173
20
108.5379734
11
13.804973
21
108.5289734
0
LINE
8
DEFAULT_255_2_778
10
13.804973
20
108.5289734
11
13.858673
21
108.5059734
0
LINE
8
DEFAULT_255_2_778
10
13.978473
20
108.3985734
11
13.998373
21
108.3665734
0
LINE
8
DEFAULT_255_2_778
10
13.998373
20
108.3665734
11
14.014973
21
108.3323734
0
LINE
8
DEFAULT_255_2_778
10
14.014973
20
108.3323734
11
14.028273
21
108.2972734
0
LINE
8
DEFAULT_255_2_778
10
14.028273
20
108.2972734
11
14.037773
21
108.2606734
0
LINE
8
DEFAULT_255_2_778
10
14.049673
20
108.1860734
11
14.052273
21
108.1112734
0
LINE
8
DEFAULT_255_2_778
10
14.046473
20
108.0363734
11
14.040673
21
107.9990734
0
LINE
8
DEFAULT_255_2_778
10
14.040673
20
107.9990734
11
14.032973
21
107.9619734
0
LINE
8
DEFAULT_255_2_778
10
13.982473
20
107.8220734
11
13.947773
21
107.7577734
0
LINE
8
DEFAULT_255_2_778
10
13.947773
20
107.7577734
11
13.909473
21
107.6960734
0
LINE
8
DEFAULT_255_2_778
10
13.909473
20
107.6960734
11
13.868473
21
107.6360734
0
LINE
8
DEFAULT_255_2_778
10
13.868473
20
107.6360734
11
13.781873
21
107.5187734
0
LINE
8
DEFAULT_255_2_778
10
13.781873
20
107.5187734
11
13.736973
21
107.4611734
0
LINE
8
DEFAULT_255_2_778
10
13.736973
20
107.4611734
11
13.691373
21
107.4039734
0
LINE
8
DEFAULT_255_2_778
10
13.691373
20
107.4039734
11
13.599373
21
107.2907734
0
LINE
8
DEFAULT_255_2_778
10
13.599373
20
107.2907734
11
13.505973
21
107.1785734
0
LINE
8
DEFAULT_255_2_778
10
13.505973
20
107.1785734
11
13.319373
21
106.9539734
0
LINE
8
DEFAULT_255_2_778
10
13.319373
20
106.9539734
11
13.319373
21
106.8946734
0
LINE
8
DEFAULT_255_2_778
10
13.319373
20
106.8946734
11
14.124573
21
106.8946734
0
LINE
8
DEFAULT_255_2_778
10
14.124573
20
106.8946734
11
14.124573
21
106.7716734
0
LINE
8
DEFAULT_255_2_778
10
14.124573
20
106.7716734
11
13.198473
21
106.7716734
0
LINE
8
DEFAULT_255_2_778
10
13.198473
20
106.7716734
11
13.198473
21
106.9983734
0
LINE
8
DEFAULT_255_2_778
10
13.198473
20
106.9983734
11
13.213073
21
107.0155734
0
LINE
8
DEFAULT_255_2_778
10
13.213073
20
107.0155734
11
13.305673
21
107.1248734
0
LINE
8
DEFAULT_255_2_778
10
13.305673
20
107.1248734
11
13.398273
21
107.2341734
0
LINE
8
DEFAULT_255_2_778
10
13.398273
20
107.2341734
11
13.444073
21
107.2891734
0
LINE
8
DEFAULT_255_2_778
10
13.444073
20
107.2891734
11
13.489573
21
107.3444734
0
LINE
8
DEFAULT_255_2_778
10
13.489573
20
107.3444734
11
13.580573
21
107.4550734
0
LINE
8
DEFAULT_255_2_778
10
13.580573
20
107.4550734
11
13.625573
21
107.5108734
0
LINE
8
DEFAULT_255_2_778
10
13.625573
20
107.5108734
11
13.669473
21
107.5674734
0
LINE
8
DEFAULT_255_2_778
10
13.669473
20
107.5674734
11
13.712273
21
107.6248734
0
LINE
8
DEFAULT_255_2_778
10
13.712273
20
107.6248734
11
13.753873
21
107.6831734
0
LINE
8
DEFAULT_255_2_778
10
13.753873
20
107.6831734
11
13.793773
21
107.7423734
0
LINE
8
DEFAULT_255_2_778
10
13.793773
20
107.7423734
11
13.831873
21
107.8026734
0
LINE
8
DEFAULT_255_2_778
10
13.831873
20
107.8026734
11
13.866873
21
107.8651734
0
LINE
8
DEFAULT_255_2_778
10
14.626173
20
84.9630734
11
16.626173
21
84.9630734
0
LINE
8
DEFAULT_255_2_778
10
16.626173
20
84.9630734
11
16.626173
21
87.6858734
0
LINE
8
DEFAULT_255_2_778
10
16.626173
20
87.6858734
11
14.626173
21
87.6858734
0
LINE
8
DEFAULT_255_2_778
10
14.626173
20
87.6858734
11
14.626173
21
84.9630734
0
LINE
8
DEFAULT_255_2_778
10
14.626173
20
63.3630734
11
16.626173
21
63.3630734
0
LINE
8
DEFAULT_255_2_778
10
16.626173
20
63.3630734
11
16.626173
21
66.0792734
0
LINE
8
DEFAULT_255_2_778
10
16.626173
20
66.0792734
11
14.626173
21
66.0792734
0
LINE
8
DEFAULT_255_2_778
10
14.626173
20
66.0792734
11
14.626173
21
63.3630734
0
LINE
8
DEFAULT_255_2_778
10
14.626173
20
30.4634734
11
16.626173
21
30.4634734
0
LINE
8
DEFAULT_255_2_778
10
16.626173
20
30.4634734
11
16.626173
21
33.1690734
0
LINE
8
DEFAULT_255_2_778
10
16.626173
20
33.1690734
11
14.626173
21
33.1690734
0
LINE
8
DEFAULT_255_2_778
10
14.626173
20
33.1690734
11
14.626173
21
30.4634734
0
LINE
8
DEFAULT_255_2_778
10
18.815873
20
145.7468734
11
18.466873
21
144.7464734
0
LINE
8
DEFAULT_255_2_778
10
18.466873
20
144.7464734
11
19.165073
21
144.7464734
0
LINE
8
DEFAULT_255_2_778
10
19.165073
20
144.7464734
11
18.815873
21
145.7468734
0
LINE
8
DEFAULT_255_2_778
10
18.742273
20
145.8873734
11
18.907673
21
145.8873734
0
LINE
8
DEFAULT_255_2_778
10
18.907673
20
145.8873734
11
19.477373
21
144.2202734
0
LINE
8
DEFAULT_255_2_778
10
19.477373
20
144.2202734
11
19.348773
21
144.1675734
0
LINE
8
DEFAULT_255_2_778
10
19.348773
20
144.1675734
11
19.201673
21
144.6237734
0
LINE
8
DEFAULT_255_2_778
10
19.201673
20
144.6237734
11
18.429873
21
144.6237734
0
LINE
8
DEFAULT_255_2_778
10
18.429873
20
144.6237734
11
18.264773
21
144.1675734
0
LINE
8
DEFAULT_255_2_778
10
18.264773
20
144.1675734
11
18.154373
21
144.2202734
0
LINE
8
DEFAULT_255_2_778
10
18.154373
20
144.2202734
11
18.742273
21
145.8873734
0
ARC
8
DEFAULT_255_2_778
10
20.7771948
20
144.5664788
40
0.2350811
50
211.9188034
51
218.8277143
0
ARC
8
DEFAULT_255_2_778
10
20.8075702
20
144.5807685
40
0.2684476
50
199.2672544
51
211.0797755
0
ARC
8
DEFAULT_255_2_778
10
20.8610853
20
144.6032104
40
0.3263897
50
190.2043344
51
199.8862892
0
ARC
8
DEFAULT_255_2_778
10
20.800585
20
144.5995498
40
0.2662929
50
187.5008971
51
191.7354883
0
ARC
8
DEFAULT_255_2_778
10
20.8879239
20
144.611042
40
0.3543846
50
184.3459245
51
187.4996853
0
ARC
8
DEFAULT_255_2_778
10
20.8946756
20
144.6592937
40
0.3614321
50
160.7948293
51
167.0342871
0
ARC
8
DEFAULT_255_2_778
10
20.8224479
20
144.6833747
40
0.2853044
50
152.5964346
51
160.5902583
0
ARC
8
DEFAULT_255_2_778
10
20.8178224
20
144.684774
40
0.2805553
50
144.2753778
51
152.4153658
0
ARC
8
DEFAULT_255_2_778
10
20.8077673
20
144.6874476
40
0.2708564
50
134.9953642
51
143.4925577
0
ARC
8
DEFAULT_255_2_778
10
20.848808
20
144.6432823
40
0.3311136
50
127.4957242
51
134.6138925
0
ARC
8
DEFAULT_255_2_778
10
20.9056969
20
144.5628981
40
0.4295355
50
115.9618039
51
126.9895785
0
ARC
8
DEFAULT_255_2_778
10
20.8812196
20
144.6290786
40
0.3487843
50
45.3217678
51
56.8476199
0
ARC
8
DEFAULT_255_2_778
10
20.9420412
20
144.6919991
40
0.2612804
50
37.4533002
51
45.1040732
0
ARC
8
DEFAULT_255_2_778
10
20.930514
20
144.6808417
40
0.2772223
50
30.7509258
51
37.8351186
0
ARC
8
DEFAULT_255_2_778
10
20.924116
20
144.6792958
40
0.2835179
50
23.5306676
51
30.3583082
0
ARC
8
DEFAULT_255_2_778
10
20.8914468
20
144.6653173
40
0.3190514
50
19.4114876
51
23.4899561
0
ARC
8
DEFAULT_255_2_778
10
20.8373408
20
144.6457139
40
0.3765973
50
17.77596
51
19.4886113
0
ARC
8
DEFAULT_255_2_778
10
20.8625368
20
144.6578826
40
0.3489109
50
6.1211706
51
17.1362556
0
ARC
8
DEFAULT_255_2_778
10
20.6977485
20
144.6143772
40
0.5128755
50
346.5503965
51
354.0472166
0
ARC
8
DEFAULT_255_2_778
10
20.9610066
20
144.5299227
40
0.235042
50
326.7898318
51
335.1338292
0
ARC
8
DEFAULT_255_2_778
10
20.9624331
20
144.5309099
40
0.2343946
50
317.9401699
51
326.3969314
0
ARC
8
DEFAULT_255_2_778
10
20.9734628
20
144.5275075
40
0.2239792
50
307.74081
51
316.6961269
0
ARC
8
DEFAULT_255_2_778
10
20.9810928
20
144.5142646
40
0.208847
50
298.5351239
51
308.309319
0
ARC
8
DEFAULT_255_2_778
10
20.9444865
20
144.574565
40
0.2793291
50
291.8967957
51
299.2231346
0
ARC
8
DEFAULT_255_2_778
10
20.9123242
20
144.6611229
40
0.371645
50
285.951086
51
291.5208584
0
ARC
8
DEFAULT_255_2_778
10
20.8959866
20
144.731995
40
0.4442941
50
276.1855088
51
285.4651192
0
ARC
8
DEFAULT_255_2_778
10
20.8689125
20
144.7127649
40
0.4261828
50
270.0054441
51
270.2884917
0
ARC
8
DEFAULT_255_2_778
10
20.8696746
20
144.7316566
40
0.4450751
50
262.6009724
51
269.9071057
0
ARC
8
DEFAULT_255_2_778
10
20.8584727
20
144.6466877
40
0.3593712
50
253.2924784
51
262.6275153
0
ARC
8
DEFAULT_255_2_778
10
20.8309112
20
144.5647551
40
0.2728413
50
241.6279532
51
247.7178279
0
ARC
8
DEFAULT_255_2_778
10
20.8232349
20
144.5509927
40
0.2570842
50
235.2393286
51
241.6757188
0
ARC
8
DEFAULT_255_2_778
10
20.8120895
20
144.5436198
40
0.2447227
50
229.6241044
51
236.3989715
0
ARC
8
DEFAULT_255_2_778
10
20.9885068
20
144.5247695
40
0.3349803
50
314.9963159
51
321.6633088
0
ARC
8
DEFAULT_255_2_778
10
20.9740974
20
144.5339042
40
0.3519533
50
321.9519171
51
328.3047302
0
ARC
8
DEFAULT_255_2_778
10
20.9369346
20
144.5515994
40
0.3928959
50
328.9565115
51
340.1809091
0
ARC
8
DEFAULT_255_2_778
10
20.6791476
20
144.6214967
40
0.6608846
50
348.7166716
51
353.982917
0
ARC
8
DEFAULT_255_2_778
10
20.5639657
20
144.6350385
40
0.7768528
50
353.880162
51
354.9967567
0
ARC
8
DEFAULT_255_2_778
10
20.7781211
20
144.6447635
40
0.5628419
50
359.7683049
51
359.9948508
0
ARC
8
DEFAULT_255_2_778
10
20.7644078
20
144.6443847
40
0.5765551
50
0.0326205
51
7.3243515
0
ARC
8
DEFAULT_255_2_778
10
20.9362195
20
144.6754495
40
0.3998001
50
27.9583269
51
33.5126362
0
ARC
8
DEFAULT_255_2_778
10
20.9619262
20
144.6934849
40
0.3684099
50
33.3813663
51
39.4123809
0
ARC
8
DEFAULT_255_2_778
10
20.9055301
20
144.6490775
40
0.4401781
50
39.2175629
51
49.4391119
0
ARC
8
DEFAULT_255_2_778
10
20.7872011
20
144.4824813
40
0.6436701
50
58.1925028
51
65.3696681
0
ARC
8
DEFAULT_255_2_778
10
20.7993314
20
145.5854177
40
0.5777103
50
296.3177277
51
307.2054652
0
ARC
8
DEFAULT_255_2_778
10
20.8160359
20
145.5607934
40
0.5479992
50
307.371184
51
313.0268719
0
ARC
8
DEFAULT_255_2_778
10
20.8816395
20
145.4933688
40
0.4538896
50
319.6320724
51
326.414748
0
ARC
8
DEFAULT_255_2_778
10
20.9237905
20
145.4680437
40
0.4047719
50
326.1005641
51
333.6346956
0
ARC
8
DEFAULT_255_2_778
10
20.9619405
20
145.4526172
40
0.3636884
50
341.5116732
51
349.7798156
0
ARC
8
DEFAULT_255_2_778
10
20.9511266
20
145.4534306
40
0.3744768
50
349.9509193
51
357.9274238
0
ARC
8
DEFAULT_255_2_778
10
20.7718552
20
145.465985
40
0.553343
50
2.7556057
51
13.5667844
0
ARC
8
DEFAULT_255_2_778
10
20.8994599
20
145.495809
40
0.4223038
50
13.6945232
51
20.8312707
0
ARC
8
DEFAULT_255_2_778
10
20.9614463
20
145.5188256
40
0.3561846
50
20.9167561
51
29.5310907
0
ARC
8
DEFAULT_255_2_778
10
20.9773281
20
145.5293476
40
0.3371825
50
29.3055991
51
38.486734
0
ARC
8
DEFAULT_255_2_778
10
20.9841103
20
145.5299076
40
0.3315467
50
39.1403977
51
48.6478286
0
ARC
8
DEFAULT_255_2_778
10
20.9431812
20
145.4820722
40
0.3944973
50
48.7756738
51
63.1011495
0
ARC
8
DEFAULT_255_2_778
10
20.9112562
20
145.4044543
40
0.4786524
50
69.9116474
51
75.9499521
0
ARC
8
DEFAULT_255_2_778
10
20.8311013
20
145.414709
40
0.4682744
50
102.8875197
51
115.208295
0
ARC
8
DEFAULT_255_2_778
10
20.8040279
20
145.4729021
40
0.4040173
50
122.3305243
51
129.3133177
0
ARC
8
DEFAULT_255_2_778
10
20.7549171
20
145.5322336
40
0.3269986
50
129.2420752
51
137.7521726
0
ARC
8
DEFAULT_255_2_778
10
20.7403163
20
145.5470147
40
0.3062547
50
137.9626367
51
147.0725839
0
ARC
8
DEFAULT_255_2_778
10
20.7761651
20
145.5222152
40
0.3498277
50
146.8548878
51
162.5382763
0
ARC
8
DEFAULT_255_2_778
10
20.8896176
20
145.4855184
40
0.4690645
50
162.4207452
51
173.9584247
0
ARC
8
DEFAULT_255_2_778
10
20.8429033
20
145.4543053
40
0.423364
50
181.8432869
51
194.572146
0
ARC
8
DEFAULT_255_2_778
10
20.7905427
20
145.4426542
40
0.3695564
50
202.2725625
51
209.6762254
0
ARC
8
DEFAULT_255_2_778
10
20.7756862
20
145.4322174
40
0.3514854
50
209.3970756
51
217.184061
0
ARC
8
DEFAULT_255_2_778
10
20.8453101
20
145.4872633
40
0.440295
50
223.7691174
51
230.18059
0
ARC
8
DEFAULT_255_2_778
10
20.9084881
20
144.5451378
40
0.5683804
50
112.6222537
51
118.8472177
0
ARC
8
DEFAULT_255_2_778
10
20.8044533
20
144.6889483
40
0.3915579
50
124.5913242
51
136.1543508
0
ARC
8
DEFAULT_255_2_778
10
20.8398454
20
144.6652405
40
0.4344851
50
147.4376971
51
157.560399
0
ARC
8
DEFAULT_255_2_778
10
20.8879939
20
144.6583102
40
0.4831918
50
168.0586644
51
177.0131883
0
ARC
8
DEFAULT_255_2_778
10
20.9947018
20
144.6096212
40
0.5882752
50
187.573529
51
194.9573443
0
ARC
8
DEFAULT_255_2_778
10
20.7723235
20
144.5326189
40
0.3522615
50
210.9626949
51
217.3133048
0
ARC
8
DEFAULT_255_2_778
10
20.7424563
20
144.5104514
40
0.3150701
50
217.3995284
51
224.5327099
0
ARC
8
DEFAULT_255_2_778
10
20.7636992
20
144.5357592
40
0.3479763
50
225.0501789
51
231.537762
0
ARC
8
DEFAULT_255_2_778
10
20.780976
20
144.5543535
40
0.3733565
50
237.3518959
51
243.5125646
0
ARC
8
DEFAULT_255_2_778
10
20.8142366
20
144.6168087
40
0.4440943
50
243.2655955
51
253.7355227
0
ARC
8
DEFAULT_255_2_778
10
20.8475535
20
144.7373304
40
0.5691265
50
253.913831
51
262.1130321
0
ARC
8
DEFAULT_255_2_778
10
20.8633482
20
144.8574864
40
0.6903137
50
262.1829515
51
268.9549915
0
ARC
8
DEFAULT_255_2_778
10
20.8877575
20
144.8068288
40
0.6390068
50
274.0113259
51
281.2899385
0
ARC
8
DEFAULT_255_2_778
10
20.9477107
20
144.5836597
40
0.407306
50
290.636148
51
301.9848194
0
ARC
8
DEFAULT_255_2_778
10
21.0527736
20
145.4623096
40
0.5047392
50
180.000052
51
180.5587483
0
ARC
8
DEFAULT_255_2_778
10
21.0566996
20
145.4620989
40
0.5086654
50
170.1989764
51
179.9763124
0
ARC
8
DEFAULT_255_2_778
10
20.8749152
20
145.4930875
40
0.3242592
50
161.9817143
51
170.126828
0
ARC
8
DEFAULT_255_2_778
10
20.8261257
20
145.5094086
40
0.2728143
50
152.3087116
51
162.0718469
0
ARC
8
DEFAULT_255_2_778
10
20.748792
20
145.5502559
40
0.1853562
50
145.1072304
51
152.3801843
0
ARC
8
DEFAULT_255_2_778
10
20.7440843
20
145.5576513
40
0.1772964
50
138.5189564
51
146.1973086
0
ARC
8
DEFAULT_255_2_778
10
20.752282
20
145.550764
40
0.1879999
50
131.3987783
51
138.6012647
0
ARC
8
DEFAULT_255_2_778
10
20.7536734
20
145.5505363
40
0.1890929
50
125.4714744
51
131.669411
0
ARC
8
DEFAULT_255_2_778
10
21.2427264
20
144.8864609
40
1.0137976
50
126.0050839
51
126.2020013
0
ARC
8
DEFAULT_255_2_778
10
20.8262945
20
145.4409738
40
0.3212401
50
106.6859095
51
115.3891183
0
ARC
8
DEFAULT_255_2_778
10
20.8809249
20
145.302133
40
0.4642091
50
77.9345051
51
83.9862937
0
ARC
8
DEFAULT_255_2_778
10
20.9175378
20
145.445325
40
0.3162124
50
61.2239431
51
70.0637008
0
ARC
8
DEFAULT_255_2_778
10
20.9780474
20
145.5371189
40
0.205751
50
37.0504159
51
50.1971643
0
ARC
8
DEFAULT_255_2_778
10
20.9610716
20
145.5251416
40
0.2265169
50
25.004374
51
36.8811886
0
ARC
8
DEFAULT_255_2_778
10
20.9137369
20
145.5032102
40
0.2786854
50
15.5217331
51
24.9772619
0
ARC
8
DEFAULT_255_2_778
10
20.7918317
20
145.469195
40
0.4052472
50
9.0283183
51
15.5432659
0
ARC
8
DEFAULT_255_2_778
10
20.9063466
20
145.4633745
40
0.2924116
50
337.7360795
51
346.7366891
0
ARC
8
DEFAULT_255_2_778
10
20.8944771
20
145.4798336
40
0.3100924
50
318.4820864
51
327.1413887
0
ARC
8
DEFAULT_255_2_778
10
20.837706
20
145.5270815
40
0.3839249
50
311.6907953
51
318.8184971
0
ARC
8
DEFAULT_255_2_778
10
20.7985508
20
145.5732053
40
0.4444125
50
305.3632855
51
311.5053335
0
ARC
8
DEFAULT_255_2_778
10
20.7887697
20
145.5867659
40
0.461132
50
299.4167223
51
305.3792049
0
ARC
8
DEFAULT_255_2_778
10
20.7258689
20
145.722612
40
0.6110387
50
284.5191461
51
293.7188336
0
ARC
8
DEFAULT_255_2_778
10
20.8758229
20
145.5108457
40
0.3538246
50
225.8924508
51
237.1239015
0
ARC
8
DEFAULT_255_2_778
10
20.8180844
20
145.4487739
40
0.269074
50
213.4424481
51
225.5210376
0
ARC
8
DEFAULT_255_2_778
10
20.7910728
20
145.4339769
40
0.2383933
50
207.313635
51
214.0526548
0
ARC
8
DEFAULT_255_2_778
10
20.8762843
20
145.4746298
40
0.3327718
50
202.0527174
51
206.8005842
0
ARC
8
DEFAULT_255_2_778
10
20.8909059
20
145.4645141
40
0.3437173
50
181.1547138
51
190.3286759
0
LINE
8
DEFAULT_255_2_778
10
20.6533584
20
144.3577875
11
20.6324584
21
144.3772875
0
LINE
8
DEFAULT_255_2_778
10
20.6324584
20
144.3772875
11
20.6125584
21
144.3976875
0
LINE
8
DEFAULT_255_2_778
10
20.6125584
20
144.3976875
11
20.6030584
21
144.4082875
0
LINE
8
DEFAULT_255_2_778
10
20.6030584
20
144.4082875
11
20.5940584
21
144.4190875
0
LINE
8
DEFAULT_255_2_778
10
20.5345584
20
144.5841875
11
20.5324584
21
144.6233875
0
LINE
8
DEFAULT_255_2_778
10
20.5324584
20
144.6233875
11
20.5324584
21
144.6622875
0
LINE
8
DEFAULT_255_2_778
10
20.5324584
20
144.6622875
11
20.5355584
21
144.7014875
0
LINE
8
DEFAULT_255_2_778
10
20.5355584
20
144.7014875
11
20.5424584
21
144.7403875
0
LINE
8
DEFAULT_255_2_778
10
20.7176584
20
144.9490875
11
20.7557584
21
144.9662875
0
LINE
8
DEFAULT_255_2_778
10
20.7557584
20
144.9662875
11
20.7951584
21
144.9810875
0
LINE
8
DEFAULT_255_2_778
10
20.7951584
20
144.9810875
11
20.8761584
21
145.0046875
0
LINE
8
DEFAULT_255_2_778
10
20.8761584
20
145.0046875
11
20.9443584
21
144.9829875
0
LINE
8
DEFAULT_255_2_778
10
20.9443584
20
144.9829875
11
21.0099584
21
144.9556875
0
LINE
8
DEFAULT_255_2_778
10
21.0099584
20
144.9556875
11
21.0414584
21
144.9395875
0
LINE
8
DEFAULT_255_2_778
10
21.0414584
20
144.9395875
11
21.0719584
21
144.9210875
0
LINE
8
DEFAULT_255_2_778
10
21.2094584
20
144.6950875
11
21.2118584
21
144.6617875
0
LINE
8
DEFAULT_255_2_778
10
21.2118584
20
144.6617875
11
21.2121584
21
144.6281875
0
LINE
8
DEFAULT_255_2_778
10
21.2121584
20
144.6281875
11
21.2078584
21
144.5611875
0
LINE
8
DEFAULT_255_2_778
10
21.1965584
20
144.4950875
11
21.1869584
21
144.4624875
0
LINE
8
DEFAULT_255_2_778
10
21.1869584
20
144.4624875
11
21.1742584
21
144.4310875
0
LINE
8
DEFAULT_255_2_778
10
20.9438584
20
144.2902875
11
20.9075584
21
144.2873875
0
LINE
8
DEFAULT_255_2_778
10
20.9075584
20
144.2873875
11
20.8710584
21
144.2865875
0
LINE
8
DEFAULT_255_2_778
10
20.7551584
20
144.3024875
11
20.7274584
21
144.3122875
0
LINE
8
DEFAULT_255_2_778
10
20.6535584
20
144.3571875
11
20.6533584
21
144.3577875
0
LINE
8
DEFAULT_255_2_778
10
21.1795584
20
144.2497875
11
21.2253584
21
144.2878875
0
LINE
8
DEFAULT_255_2_778
10
21.3065584
20
144.4183875
11
21.3182584
21
144.4548875
0
LINE
8
DEFAULT_255_2_778
10
21.3182584
20
144.4548875
11
21.3272584
21
144.4921875
0
LINE
8
DEFAULT_255_2_778
10
21.3378584
20
144.5672875
11
21.3409584
21
144.6424875
0
LINE
8
DEFAULT_255_2_778
10
21.3362584
20
144.7178875
11
21.3296584
21
144.7556875
0
LINE
8
DEFAULT_255_2_778
10
21.3296584
20
144.7556875
11
21.3195584
21
144.7924875
0
LINE
8
DEFAULT_255_2_778
10
21.3195584
20
144.7924875
11
21.3060584
21
144.8281875
0
LINE
8
DEFAULT_255_2_778
10
21.3060584
20
144.8281875
11
21.2893584
21
144.8628875
0
LINE
8
DEFAULT_255_2_778
10
21.1917584
20
144.9834875
11
21.1600584
21
145.0077875
0
LINE
8
DEFAULT_255_2_778
10
21.1600584
20
145.0077875
11
21.1433584
21
145.0189875
0
LINE
8
DEFAULT_255_2_778
10
21.1433584
20
145.0189875
11
21.1264584
21
145.0294875
0
LINE
8
DEFAULT_255_2_778
10
21.1899584
20
145.1601875
11
21.2092584
21
145.1792875
0
LINE
8
DEFAULT_255_2_778
10
21.2092584
20
145.1792875
11
21.2274584
21
145.1993875
0
LINE
8
DEFAULT_255_2_778
10
21.2864584
20
145.2882875
11
21.2975584
21
145.3123875
0
LINE
8
DEFAULT_255_2_778
10
21.2975584
20
145.3123875
11
21.3068584
21
145.3372875
0
LINE
8
DEFAULT_255_2_778
10
21.3253584
20
145.4398875
11
21.3253584
21
145.4663875
0
LINE
8
DEFAULT_255_2_778
10
21.3253584
20
145.4663875
11
21.3245584
21
145.4925875
0
LINE
8
DEFAULT_255_2_778
10
21.1216584
20
145.8338875
11
21.0991584
21
145.8444875
0
LINE
8
DEFAULT_255_2_778
10
21.0991584
20
145.8444875
11
21.0756584
21
145.8539875
0
LINE
8
DEFAULT_255_2_778
10
21.0274584
20
145.8687875
11
20.9779584
21
145.8788875
0
LINE
8
DEFAULT_255_2_778
10
20.9779584
20
145.8788875
11
20.9274584
21
145.8846875
0
LINE
8
DEFAULT_255_2_778
10
20.9274584
20
145.8846875
11
20.8769584
21
145.8867875
0
LINE
8
DEFAULT_255_2_778
10
20.8769584
20
145.8867875
11
20.8266584
21
145.8854875
0
LINE
8
DEFAULT_255_2_778
10
20.8266584
20
145.8854875
11
20.7766584
21
145.8803875
0
LINE
8
DEFAULT_255_2_778
10
20.7766584
20
145.8803875
11
20.7266584
21
145.8711875
0
LINE
8
DEFAULT_255_2_778
10
20.6316584
20
145.8383875
11
20.6094584
21
145.8269875
0
LINE
8
DEFAULT_255_2_778
10
20.6094584
20
145.8269875
11
20.5879584
21
145.8142875
0
LINE
8
DEFAULT_255_2_778
10
20.4231584
20
145.5348875
11
20.4197584
21
145.4880875
0
LINE
8
DEFAULT_255_2_778
10
20.4197584
20
145.4880875
11
20.4197584
21
145.4406875
0
LINE
8
DEFAULT_255_2_778
10
20.4331584
20
145.3477875
11
20.4400584
21
145.3250875
0
LINE
8
DEFAULT_255_2_778
10
20.4400584
20
145.3250875
11
20.4485584
21
145.3025875
0
LINE
8
DEFAULT_255_2_778
10
20.4956584
20
145.2197875
11
20.5109584
21
145.2009875
0
LINE
8
DEFAULT_255_2_778
10
20.5109584
20
145.2009875
11
20.5273584
21
145.1826875
0
LINE
8
DEFAULT_255_2_778
10
20.5633584
20
145.1490875
11
20.5826584
21
145.1340875
0
LINE
8
DEFAULT_255_2_778
10
20.5826584
20
145.1340875
11
20.6030584
21
145.1197875
0
LINE
8
DEFAULT_255_2_778
10
20.6030584
20
145.1197875
11
20.6453584
21
145.0932875
0
LINE
8
DEFAULT_255_2_778
10
20.6453584
20
145.0932875
11
20.6898584
21
145.0697875
0
LINE
8
DEFAULT_255_2_778
10
20.6342584
20
145.0429875
11
20.5821584
21
145.0112875
0
LINE
8
DEFAULT_255_2_778
10
20.5220584
20
144.9601875
11
20.4964584
21
144.9308875
0
LINE
8
DEFAULT_255_2_778
10
20.4964584
20
144.9308875
11
20.4736584
21
144.8990875
0
LINE
8
DEFAULT_255_2_778
10
20.4382584
20
144.8310875
11
20.4249584
21
144.7950875
0
LINE
8
DEFAULT_255_2_778
10
20.4249584
20
144.7950875
11
20.4152584
21
144.7582875
0
LINE
8
DEFAULT_255_2_778
10
20.4054584
20
144.6834875
11
20.4043584
21
144.6455875
0
LINE
8
DEFAULT_255_2_778
10
20.4043584
20
144.6455875
11
20.4051584
21
144.6074875
0
LINE
8
DEFAULT_255_2_778
10
20.4051584
20
144.6074875
11
20.4115584
21
144.5320875
0
LINE
8
DEFAULT_255_2_778
10
20.4263584
20
144.4577875
11
20.4376584
21
144.4209875
0
LINE
8
DEFAULT_255_2_778
10
20.4376584
20
144.4209875
11
20.4522584
21
144.3854875
0
LINE
8
DEFAULT_255_2_778
10
20.4522584
20
144.3854875
11
20.4702584
21
144.3513875
0
LINE
8
DEFAULT_255_2_778
10
20.5472584
20
144.2632875
11
20.5795584
21
144.2399875
0
LINE
8
DEFAULT_255_2_778
10
20.8507584
20
144.1672875
11
20.8917584
21
144.1672875
0
LINE
8
DEFAULT_255_2_778
10
20.8917584
20
144.1672875
11
20.9324584
21
144.1693875
0
LINE
8
DEFAULT_255_2_778
10
21.0128584
20
144.1801875
11
21.0523584
21
144.1897875
0
LINE
8
DEFAULT_255_2_778
10
21.0523584
20
144.1897875
11
21.0912584
21
144.2024875
0
LINE
8
DEFAULT_255_2_778
10
21.1634584
20
144.2381875
11
21.1801584
21
144.2492875
0
LINE
8
DEFAULT_255_2_778
10
21.1801584
20
144.2492875
11
21.1962584
21
144.2611875
0
LINE
8
DEFAULT_255_2_778
10
20.6467584
20
145.7065875
11
20.6670584
21
145.7197875
0
LINE
8
DEFAULT_255_2_778
10
20.6670584
20
145.7197875
11
20.6885584
21
145.7311875
0
LINE
8
DEFAULT_255_2_778
10
20.7340584
20
145.7486875
11
20.7578584
21
145.7549875
0
LINE
8
DEFAULT_255_2_778
10
20.7578584
20
145.7549875
11
20.7819584
21
145.7597875
0
LINE
8
DEFAULT_255_2_778
10
20.7819584
20
145.7597875
11
20.8308584
21
145.7652875
0
LINE
8
DEFAULT_255_2_778
10
20.8308584
20
145.7652875
11
20.8800584
21
145.7666875
0
LINE
8
DEFAULT_255_2_778
10
20.8800584
20
145.7666875
11
20.9295584
21
145.7637875
0
LINE
8
DEFAULT_255_2_778
10
20.9779584
20
145.7560875
11
21.0017584
21
145.7502875
0
LINE
8
DEFAULT_255_2_778
10
21.0017584
20
145.7502875
11
21.0253584
21
145.7425875
0
LINE
8
DEFAULT_255_2_778
10
21.0697584
20
145.7224875
11
21.0904584
21
145.7097875
0
LINE
8
DEFAULT_255_2_778
10
21.0904584
20
145.7097875
11
21.1097584
21
145.6951875
0
LINE
8
DEFAULT_255_2_778
10
21.1920584
20
145.5327875
11
21.1965584
21
145.4872875
0
LINE
8
DEFAULT_255_2_778
10
21.1965584
20
145.4872875
11
21.1973584
21
145.4644875
0
LINE
8
DEFAULT_255_2_778
10
21.1973584
20
145.4644875
11
21.1970584
21
145.4417875
0
LINE
8
DEFAULT_255_2_778
10
21.1970584
20
145.4417875
11
21.1949584
21
145.4186875
0
LINE
8
DEFAULT_255_2_778
10
21.1949584
20
145.4186875
11
21.1909584
21
145.3962875
0
LINE
8
DEFAULT_255_2_778
10
21.1769584
20
145.3525875
11
21.1668584
21
145.3316875
0
LINE
8
DEFAULT_255_2_778
10
21.1668584
20
145.3316875
11
21.1549584
21
145.3115875
0
LINE
8
DEFAULT_255_2_778
10
21.0152584
20
145.1850875
11
20.9716584
21
145.1631875
0
LINE
8
DEFAULT_255_2_778
10
20.8790584
20
145.1310875
11
20.8110584
21
145.1525875
0
LINE
8
DEFAULT_255_2_778
10
20.8110584
20
145.1525875
11
20.7454584
21
145.1795875
0
LINE
8
DEFAULT_255_2_778
10
20.7454584
20
145.1795875
11
20.7139584
21
145.1956875
0
LINE
8
DEFAULT_255_2_778
10
20.7139584
20
145.1956875
11
20.6837584
21
145.2136875
0
LINE
8
DEFAULT_255_2_778
10
20.5678584
20
145.3496875
11
20.5591584
21
145.3758875
0
LINE
8
DEFAULT_255_2_778
10
20.5591584
20
145.3758875
11
20.5527584
21
145.4028875
0
LINE
8
DEFAULT_255_2_778
10
20.5472584
20
145.4575875
11
20.5480584
21
145.4573875
0
LINE
8
DEFAULT_255_2_778
10
19.7204584
20
144.1674875
11
19.6095584
21
144.1674875
0
LINE
8
DEFAULT_255_2_778
10
19.6095584
20
144.1674875
11
19.6095584
21
145.8872875
0
LINE
8
DEFAULT_255_2_778
10
19.6095584
20
145.8872875
11
19.7204584
21
145.8872875
0
LINE
8
DEFAULT_255_2_778
10
19.7204584
20
145.8872875
11
19.7204584
21
144.1674875
0
LINE
8
DEFAULT_255_2_778
10
22.2723584
20
145.3049875
11
22.3654584
21
145.2451875
0
LINE
8
DEFAULT_255_2_778
10
22.3654584
20
145.2451875
11
22.0572584
21
144.7596875
0
LINE
8
DEFAULT_255_2_778
10
22.0572584
20
144.7596875
11
22.3876584
21
144.2254875
0
LINE
8
DEFAULT_255_2_778
10
22.3876584
20
144.2254875
11
22.2924584
21
144.1677875
0
LINE
8
DEFAULT_255_2_778
10
22.2924584
20
144.1677875
11
21.9907584
21
144.6532875
0
LINE
8
DEFAULT_255_2_778
10
21.9907584
20
144.6532875
11
21.6891584
21
144.1722875
0
LINE
8
DEFAULT_255_2_778
10
21.6891584
20
144.1722875
11
21.5939584
21
144.2320875
0
LINE
8
DEFAULT_255_2_778
10
21.5939584
20
144.2320875
11
21.9265584
21
144.7596875
0
LINE
8
DEFAULT_255_2_778
10
21.9265584
20
144.7596875
11
21.6203584
21
145.2496875
0
LINE
8
DEFAULT_255_2_778
10
21.6203584
20
145.2496875
11
21.7156584
21
145.3094875
0
LINE
8
DEFAULT_255_2_778
10
21.7156584
20
145.3094875
11
21.9926584
21
144.8638875
0
LINE
8
DEFAULT_255_2_778
10
21.9926584
20
144.8638875
11
22.2720584
21
145.3051875
0
LINE
8
DEFAULT_255_2_778
10
23.0456584
20
145.8872875
11
22.9168584
21
145.8872875
0
LINE
8
DEFAULT_255_2_778
10
22.9168584
20
145.8872875
11
22.9168584
21
144.8876875
0
LINE
8
DEFAULT_255_2_778
10
22.9168584
20
144.8876875
11
22.9202584
21
144.6373875
0
LINE
8
DEFAULT_255_2_778
10
22.9202584
20
144.6373875
11
22.9956584
21
144.3989875
0
LINE
8
DEFAULT_255_2_778
10
22.9956584
20
144.3989875
11
23.1898584
21
144.2278875
0
LINE
8
DEFAULT_255_2_778
10
23.1898584
20
144.2278875
11
23.4475584
21
144.1674875
0
LINE
8
DEFAULT_255_2_778
10
23.4475584
20
144.1674875
11
23.7050584
21
144.2278875
0
LINE
8
DEFAULT_255_2_778
10
23.7050584
20
144.2278875
11
23.8965584
21
144.3997875
0
LINE
8
DEFAULT_255_2_778
10
23.8965584
20
144.3997875
11
23.9725584
21
144.6371875
0
LINE
8
DEFAULT_255_2_778
10
23.9725584
20
144.6371875
11
23.9751584
21
145.8870875
0
LINE
8
DEFAULT_255_2_778
10
23.9751584
20
145.8870875
11
23.8463584
21
145.8870875
0
LINE
8
DEFAULT_255_2_778
10
23.8463584
20
145.8870875
11
23.8465584
21
144.7561875
0
LINE
8
DEFAULT_255_2_778
10
23.8465584
20
144.7561875
11
23.8206584
21
144.5307875
0
LINE
8
DEFAULT_255_2_778
10
23.8206584
20
144.5307875
11
23.6761584
21
144.3521875
0
LINE
8
DEFAULT_255_2_778
10
23.6761584
20
144.3521875
11
23.4470584
21
144.2878875
0
LINE
8
DEFAULT_255_2_778
10
23.4470584
20
144.2878875
11
23.2160584
21
144.3521875
0
LINE
8
DEFAULT_255_2_778
10
23.2160584
20
144.3521875
11
23.0708584
21
144.5310875
0
LINE
8
DEFAULT_255_2_778
10
23.0708584
20
144.5310875
11
23.0454584
21
144.7559875
0
LINE
8
DEFAULT_255_2_778
10
23.0454584
20
144.7559875
11
23.0456584
21
145.8867875
0
LINE
8
DEFAULT_255_2_778
10
24.1074584
20
144.0568875
11
24.1963584
21
144.0248875
0
LINE
8
DEFAULT_255_2_778
10
24.6366584
20
145.9505875
11
24.6366584
21
145.9637875
0
LINE
8
DEFAULT_255_2_778
10
24.6366584
20
145.9637875
11
24.1963584
21
144.0248875
0
LINE
8
DEFAULT_255_2_778
10
24.1963584
20
144.0248875
11
24.1963584
21
144.0116875
0
LINE
8
DEFAULT_255_2_778
10
24.1963584
20
144.0116875
11
24.6366584
21
145.9505875
0
LINE
8
DEFAULT_255_2_778
10
24.6366584
20
145.9637875
11
24.5477584
21
145.9957875
0
LINE
8
DEFAULT_255_2_778
10
24.5477584
20
145.9957875
11
24.1074584
21
144.0568875
0
LINE
8
DEFAULT_255_2_778
10
24.1074584
20
144.0568875
11
24.1074584
21
144.0436875
0
LINE
8
DEFAULT_255_2_778
10
24.1074584
20
144.0436875
11
24.1963584
21
144.0113875
0
LINE
8
DEFAULT_255_2_778
10
26.414725
20
145.7492312
11
26.240325
21
145.7680312
0
LINE
8
DEFAULT_255_2_778
10
26.240325
20
145.7680312
11
26.064925
21
145.7675312
0
LINE
8
DEFAULT_255_2_778
10
26.064925
20
145.7675312
11
26.064925
21
145.1470312
0
LINE
8
DEFAULT_255_2_778
10
26.064925
20
145.1470312
11
26.240325
21
145.1470312
0
LINE
8
DEFAULT_255_2_778
10
26.240325
20
145.1470312
11
26.415225
21
145.1597312
0
LINE
8
DEFAULT_255_2_778
10
26.415225
20
145.1597312
11
26.562825
21
145.2640312
0
LINE
8
DEFAULT_255_2_778
10
26.562825
20
145.2640312
11
26.617125
21
145.4518312
0
LINE
8
DEFAULT_255_2_778
10
26.617125
20
145.4518312
11
26.559425
21
145.6386312
0
LINE
8
DEFAULT_255_2_778
10
26.559425
20
145.6386312
11
26.414725
21
145.7492312
0
LINE
8
DEFAULT_255_2_778
10
26.753325
20
144.2234312
11
26.753325
21
144.2099312
0
LINE
8
DEFAULT_255_2_778
10
26.753325
20
144.2099312
11
26.656525
21
144.1675312
0
LINE
8
DEFAULT_255_2_778
10
26.656525
20
144.1675312
11
26.656525
21
144.1810312
0
LINE
8
DEFAULT_255_2_778
10
26.656525
20
144.1810312
11
26.753325
21
144.2234312
0
LINE
8
DEFAULT_255_2_778
10
26.753325
20
144.2234312
11
26.719525
21
144.6308312
0
LINE
8
DEFAULT_255_2_778
10
26.719525
20
144.6308312
11
26.676625
21
144.8872312
0
LINE
8
DEFAULT_255_2_778
10
26.676625
20
144.8872312
11
26.530625
21
145.0856312
0
LINE
8
DEFAULT_255_2_778
10
26.530625
20
145.0856312
11
26.659225
21
145.2113312
0
LINE
8
DEFAULT_255_2_778
10
26.659225
20
145.2113312
11
26.718725
21
145.3931312
0
LINE
8
DEFAULT_255_2_778
10
26.718725
20
145.3931312
11
26.666325
21
145.6757312
0
LINE
8
DEFAULT_255_2_778
10
26.666325
20
145.6757312
11
26.468925
21
145.8561312
0
LINE
8
DEFAULT_255_2_778
10
26.468925
20
145.8561312
11
26.215525
21
145.8868312
0
LINE
8
DEFAULT_255_2_778
10
26.215525
20
145.8868312
11
25.959625
21
145.8868312
0
LINE
8
DEFAULT_255_2_778
10
25.959625
20
145.8868312
11
25.959625
21
144.1787312
0
LINE
8
DEFAULT_255_2_778
10
25.959625
20
144.1787312
11
26.064625
21
144.1787312
0
LINE
8
DEFAULT_255_2_778
10
26.064625
20
144.1787312
11
26.064625
21
145.0272312
0
LINE
8
DEFAULT_255_2_778
10
26.064625
20
145.0272312
11
26.357025
21
145.0248312
0
LINE
8
DEFAULT_255_2_778
10
26.357025
20
145.0248312
11
26.494325
21
144.9695312
0
LINE
8
DEFAULT_255_2_778
10
26.494325
20
144.9695312
11
26.584325
21
144.8385312
0
LINE
8
DEFAULT_255_2_778
10
26.584325
20
144.8385312
11
26.617925
21
144.5091312
0
LINE
8
DEFAULT_255_2_778
10
26.617925
20
144.5091312
11
26.656525
21
144.1810312
0
LINE
8
DEFAULT_255_2_778
10
27.0179167
20
144.0569875
11
27.1068167
21
144.0249875
0
LINE
8
DEFAULT_255_2_778
10
27.5471167
20
145.9505875
11
27.5471167
21
145.9637875
0
LINE
8
DEFAULT_255_2_778
10
27.5471167
20
145.9637875
11
27.1068167
21
144.0249875
0
LINE
8
DEFAULT_255_2_778
10
27.1068167
20
144.0249875
11
27.1068167
21
144.0116875
0
LINE
8
DEFAULT_255_2_778
10
27.1068167
20
144.0116875
11
27.5471167
21
145.9505875
0
LINE
8
DEFAULT_255_2_778
10
27.5471167
20
145.9637875
11
27.4582167
21
145.9960875
0
LINE
8
DEFAULT_255_2_778
10
27.4582167
20
145.9960875
11
27.0179167
21
144.0571875
0
LINE
8
DEFAULT_255_2_778
10
27.0179167
20
144.0571875
11
27.0179167
21
144.0439875
0
LINE
8
DEFAULT_255_2_778
10
27.0179167
20
144.0439875
11
27.1068167
21
144.0116875
0
LINE
8
DEFAULT_255_2_778
10
28.399025
20
145.7492312
11
28.224625
21
145.7680312
0
LINE
8
DEFAULT_255_2_778
10
28.224625
20
145.7680312
11
28.049225
21
145.7675312
0
LINE
8
DEFAULT_255_2_778
10
28.049225
20
145.7675312
11
28.049225
21
145.1470312
0
LINE
8
DEFAULT_255_2_778
10
28.049225
20
145.1470312
11
28.224625
21
145.1470312
0
LINE
8
DEFAULT_255_2_778
10
28.224625
20
145.1470312
11
28.399525
21
145.1597312
0
LINE
8
DEFAULT_255_2_778
10
28.399525
20
145.1597312
11
28.547125
21
145.2640312
0
LINE
8
DEFAULT_255_2_778
10
28.547125
20
145.2640312
11
28.601425
21
145.4518312
0
LINE
8
DEFAULT_255_2_778
10
28.601425
20
145.4518312
11
28.543725
21
145.6386312
0
LINE
8
DEFAULT_255_2_778
10
28.543725
20
145.6386312
11
28.399025
21
145.7492312
0
LINE
8
DEFAULT_255_2_778
10
28.737625
20
144.2234312
11
28.737625
21
144.2099312
0
LINE
8
DEFAULT_255_2_778
10
28.737625
20
144.2099312
11
28.640825
21
144.1675312
0
LINE
8
DEFAULT_255_2_778
10
28.640825
20
144.1675312
11
28.640825
21
144.1810312
0
LINE
8
DEFAULT_255_2_778
10
28.640825
20
144.1810312
11
28.737625
21
144.2234312
0
LINE
8
DEFAULT_255_2_778
10
28.737625
20
144.2234312
11
28.703825
21
144.6308312
0
LINE
8
DEFAULT_255_2_778
10
28.703825
20
144.6308312
11
28.660925
21
144.8872312
0
LINE
8
DEFAULT_255_2_778
10
28.660925
20
144.8872312
11
28.514925
21
145.0856312
0
LINE
8
DEFAULT_255_2_778
10
28.514925
20
145.0856312
11
28.643525
21
145.2113312
0
LINE
8
DEFAULT_255_2_778
10
28.643525
20
145.2113312
11
28.703025
21
145.3931312
0
LINE
8
DEFAULT_255_2_778
10
28.703025
20
145.3931312
11
28.650625
21
145.6757312
0
LINE
8
DEFAULT_255_2_778
10
28.650625
20
145.6757312
11
28.453225
21
145.8561312
0
LINE
8
DEFAULT_255_2_778
10
28.453225
20
145.8561312
11
28.199825
21
145.8868312
0
LINE
8
DEFAULT_255_2_778
10
28.199825
20
145.8868312
11
27.943925
21
145.8868312
0
LINE
8
DEFAULT_255_2_778
10
27.943925
20
145.8868312
11
27.943925
21
144.1787312
0
LINE
8
DEFAULT_255_2_778
10
27.943925
20
144.1787312
11
28.048925
21
144.1787312
0
LINE
8
DEFAULT_255_2_778
10
28.048925
20
144.1787312
11
28.048925
21
145.0272312
0
LINE
8
DEFAULT_255_2_778
10
28.048925
20
145.0272312
11
28.341325
21
145.0248312
0
LINE
8
DEFAULT_255_2_778
10
28.341325
20
145.0248312
11
28.478625
21
144.9695312
0
LINE
8
DEFAULT_255_2_778
10
28.478625
20
144.9695312
11
28.568625
21
144.8385312
0
LINE
8
DEFAULT_255_2_778
10
28.568625
20
144.8385312
11
28.602225
21
144.5091312
0
LINE
8
DEFAULT_255_2_778
10
28.602225
20
144.5091312
11
28.640825
21
144.1810312
0
LINE
8
DEFAULT_255_2_778
10
30.8682188
20
144.854407
11
30.8682188
21
145.264007
0
ARC
8
DEFAULT_255_2_778
10
30.1735351
20
145.2283688
40
0.6955973
50
2.9367766
51
22.2979655
0
ARC
8
DEFAULT_255_2_778
10
30.420658
20
145.323399
40
0.4309364
50
23.0744666
51
82.8623873
0
ARC
8
DEFAULT_255_2_778
10
30.3362031
20
144.9751622
40
0.7880113
50
79.9141025
51
88.0280405
0
LINE
8
DEFAULT_255_2_778
10
30.3633188
20
145.762707
11
30.1784188
21
145.762707
0
LINE
8
DEFAULT_255_2_778
10
30.1784188
20
145.762707
11
30.1784188
21
144.284507
0
ARC
8
DEFAULT_255_2_778
10
30.1908264
20
145.5113061
40
1.2268619
50
269.4205424
51
281.2506584
0
ARC
8
DEFAULT_255_2_778
10
30.3111743
20
144.9370227
40
0.6401622
50
280.714396
51
303.1441559
0
ARC
8
DEFAULT_255_2_778
10
30.394734
20
144.7854068
40
0.4677074
50
304.7284845
51
353.7667534
0
ARC
8
DEFAULT_255_2_778
10
30.068543
20
144.8512412
40
0.7996822
50
351.6147503
51
0.2268236
0
ARC
8
DEFAULT_255_2_778
10
30.5598615
20
144.5624151
40
0.3432956
50
285.1220019
51
332.5940667
0
ARC
8
DEFAULT_255_2_778
10
30.2084862
20
144.7690113
40
0.7506427
50
330.9394663
51
346.7010785
0
ARC
8
DEFAULT_255_2_778
10
29.4849539
20
144.9514247
40
1.4967741
50
346.2766879
51
355.0731628
0
ARC
8
DEFAULT_255_2_778
10
28.3623727
20
145.0573167
40
2.6243177
50
354.8747168
51
0.209225
0
ARC
8
DEFAULT_255_2_778
10
27.4538801
20
145.0663084
40
3.5327928
50
0.0095914
51
1.0359556
0
ARC
8
DEFAULT_255_2_778
10
27.1693647
20
145.0617406
40
3.8173444
50
1.0272962
51
1.165802
0
ARC
8
DEFAULT_255_2_778
10
29.4041336
20
145.0792465
40
1.5829289
50
2.1780971
51
11.9158396
0
ARC
8
DEFAULT_255_2_778
10
30.1272017
20
145.2371198
40
0.8428605
50
11.5639735
51
28.2178864
0
ARC
8
DEFAULT_255_2_778
10
30.4533151
20
145.4167588
40
0.4705837
50
27.7192776
51
90.7057373
0
ARC
8
DEFAULT_255_2_778
10
30.2614634
20
146.1270371
40
1.9597387
50
264.1206306
51
268.9999862
0
ARC
8
DEFAULT_255_2_778
10
30.253242
20
145.8399923
40
1.6725973
50
269.1099619
51
269.9971459
0
ARC
8
DEFAULT_255_2_778
10
30.2624051
20
145.4664158
40
1.2990539
50
269.5921765
51
280.6607316
0
ARC
8
DEFAULT_255_2_778
10
30.3315561
20
145.0805226
40
0.9070354
50
280.8774082
51
290.5143094
0
LINE
8
DEFAULT_255_2_778
10
28.8700188
20
145.887307
11
29.9284188
21
145.887307
0
LINE
8
DEFAULT_255_2_778
10
29.9284188
20
145.887307
11
29.9284188
21
145.763307
0
LINE
8
DEFAULT_255_2_778
10
29.9284188
20
145.763307
11
29.4413188
21
145.763307
0
LINE
8
DEFAULT_255_2_778
10
29.4413188
20
145.763307
11
29.4413188
21
144.167507
0
LINE
8
DEFAULT_255_2_778
10
29.4413188
20
144.167507
11
29.3238188
21
144.167507
0
LINE
8
DEFAULT_255_2_778
10
29.3238188
20
144.167507
11
29.3238188
21
145.763307
0
LINE
8
DEFAULT_255_2_778
10
29.3238188
20
145.763307
11
28.8703188
21
145.763307
0
LINE
8
DEFAULT_255_2_778
10
28.8703188
20
145.763307
11
28.8700188
21
145.887307
0
LINE
8
DEFAULT_255_2_778
10
30.8682188
20
144.854407
11
30.8682188
21
144.854407
0
LINE
8
DEFAULT_255_2_778
10
30.4475188
20
145.887307
11
30.0607188
21
145.887307
0
LINE
8
DEFAULT_255_2_778
10
30.0607188
20
145.887307
11
30.0607188
21
144.177607
0
LINE
8
DEFAULT_255_2_778
10
30.6494188
20
144.231007
11
30.6494188
21
144.231007
0
LINE
8
DEFAULT_255_2_778
10
31.1190188
20
144.207007
11
31.2079188
21
144.179207
0
LINE
8
DEFAULT_255_2_778
10
31.6482188
20
145.848207
11
31.6482188
21
145.859607
0
LINE
8
DEFAULT_255_2_778
10
31.6482188
20
145.859607
11
31.2079188
21
144.179207
0
LINE
8
DEFAULT_255_2_778
10
31.2079188
20
144.179207
11
31.2079188
21
144.167507
0
LINE
8
DEFAULT_255_2_778
10
31.2079188
20
144.167507
11
31.6482188
21
145.848207
0
LINE
8
DEFAULT_255_2_778
10
31.6482188
20
145.859607
11
31.5593188
21
145.887307
0
LINE
8
DEFAULT_255_2_778
10
31.5593188
20
145.887307
11
31.1190188
21
144.207007
0
LINE
8
DEFAULT_255_2_778
10
31.1190188
20
144.207007
11
31.1190188
21
144.195607
0
LINE
8
DEFAULT_255_2_778
10
31.1190188
20
144.195607
11
31.2079188
21
144.167807
0
LINE
8
DEFAULT_255_2_778
10
24.8616188
20
144.209907
11
24.9725188
21
144.209907
0
LINE
8
DEFAULT_255_2_778
10
24.9725188
20
144.209907
11
24.9725188
21
144.223407
0
LINE
8
DEFAULT_255_2_778
10
24.9725188
20
144.223407
11
24.9725188
21
145.896607
0
LINE
8
DEFAULT_255_2_778
10
24.9725188
20
145.896607
11
24.8616188
21
145.896607
0
LINE
8
DEFAULT_255_2_778
10
24.8616188
20
145.896607
11
24.8616188
21
144.223407
0
LINE
8
DEFAULT_255_2_778
10
24.8616188
20
144.223407
11
24.8616188
21
144.209907
0
LINE
8
DEFAULT_255_2_778
10
25.2370418
20
144.0569875
11
25.3259418
21
144.0249875
0
LINE
8
DEFAULT_255_2_778
10
25.7662418
20
145.9505875
11
25.7662418
21
145.9637875
0
LINE
8
DEFAULT_255_2_778
10
25.7662418
20
145.9637875
11
25.3259418
21
144.0249875
0
LINE
8
DEFAULT_255_2_778
10
25.3259418
20
144.0249875
11
25.3259418
21
144.0116875
0
LINE
8
DEFAULT_255_2_778
10
25.3259418
20
144.0116875
11
25.7662418
21
145.9505875
0
LINE
8
DEFAULT_255_2_778
10
25.7662418
20
145.9637875
11
25.6773418
21
145.9960875
0
LINE
8
DEFAULT_255_2_778
10
25.6773418
20
145.9960875
11
25.2370418
21
144.0571875
0
LINE
8
DEFAULT_255_2_778
10
25.2370418
20
144.0571875
11
25.2370418
21
144.0439875
0
LINE
8
DEFAULT_255_2_778
10
25.2370418
20
144.0439875
11
25.3259418
21
144.0116875
0
LINE
8
DEFAULT_255_2_778
10
32.4945418
20
145.0078875
11
32.0992418
21
145.0078875
0
LINE
8
DEFAULT_255_2_778
10
32.0992418
20
145.0078875
11
32.0992418
21
144.2654875
0
LINE
8
DEFAULT_255_2_778
10
32.0992418
20
144.2654875
11
32.5456418
21
144.2892875
0
LINE
8
DEFAULT_255_2_778
10
32.5456418
20
144.2892875
11
32.6840418
21
144.3651875
0
LINE
8
DEFAULT_255_2_778
10
32.6840418
20
144.3651875
11
32.7475418
21
144.4461875
0
LINE
8
DEFAULT_255_2_778
10
32.7475418
20
144.4461875
11
32.7776418
21
144.5170875
0
LINE
8
DEFAULT_255_2_778
10
32.7776418
20
144.5170875
11
32.7887418
21
144.5651875
0
LINE
8
DEFAULT_255_2_778
10
32.7887418
20
144.5651875
11
32.7943418
21
144.6064875
0
LINE
8
DEFAULT_255_2_778
10
32.7943418
20
144.6064875
11
32.7916418
21
144.7644875
0
LINE
8
DEFAULT_255_2_778
10
32.7916418
20
144.7644875
11
32.7827418
21
144.8117875
0
LINE
8
DEFAULT_255_2_778
10
32.7827418
20
144.8117875
11
32.7612418
21
144.8723875
0
LINE
8
DEFAULT_255_2_778
10
32.7612418
20
144.8723875
11
32.7120418
21
144.9406875
0
LINE
8
DEFAULT_255_2_778
10
32.7120418
20
144.9406875
11
32.5906418
21
144.9988875
0
LINE
8
DEFAULT_255_2_778
10
32.5906418
20
144.9988875
11
32.5085418
21
145.0075875
0
LINE
8
DEFAULT_255_2_778
10
32.7276418
20
145.0858875
11
32.8049418
21
145.1769875
0
LINE
8
DEFAULT_255_2_778
10
32.8049418
20
145.1769875
11
32.8424418
21
145.2568875
0
LINE
8
DEFAULT_255_2_778
10
32.8424418
20
145.2568875
11
32.8565418
21
145.3081875
0
LINE
8
DEFAULT_255_2_778
10
32.8565418
20
145.3081875
11
32.8631418
21
145.3486875
0
LINE
8
DEFAULT_255_2_778
10
32.8631418
20
145.3486875
11
32.8610418
21
145.5057875
0
LINE
8
DEFAULT_255_2_778
10
32.8610418
20
145.5057875
11
32.8506418
21
145.5536875
0
LINE
8
DEFAULT_255_2_778
10
32.8506418
20
145.5536875
11
32.8292418
21
145.6139875
0
LINE
8
DEFAULT_255_2_778
10
32.8292418
20
145.6139875
11
32.7832418
21
145.6952875
0
LINE
8
DEFAULT_255_2_778
10
32.7832418
20
145.6952875
11
32.6980418
21
145.7838875
0
LINE
8
DEFAULT_255_2_778
10
32.6980418
20
145.7838875
11
32.5570418
21
145.8611875
0
LINE
8
DEFAULT_255_2_778
10
32.5570418
20
145.8611875
11
32.3458418
21
145.8963875
0
LINE
8
DEFAULT_255_2_778
10
32.3458418
20
145.8963875
11
31.9839418
21
145.8963875
0
LINE
8
DEFAULT_255_2_778
10
31.9839418
20
145.8963875
11
31.9839418
21
144.1434875
0
LINE
8
DEFAULT_255_2_778
10
31.9839418
20
144.1434875
11
32.3387418
21
144.1434875
0
LINE
8
DEFAULT_255_2_778
10
32.3456418
20
145.7722875
11
32.0992418
21
145.7722875
0
LINE
8
DEFAULT_255_2_778
10
32.0992418
20
145.7722875
11
32.0992418
21
145.1295875
0
LINE
8
DEFAULT_255_2_778
10
32.0992418
20
145.1295875
11
32.6011418
21
145.1488875
0
LINE
8
DEFAULT_255_2_778
10
32.6011418
20
145.1488875
11
32.6996418
21
145.2279875
0
LINE
8
DEFAULT_255_2_778
10
32.6996418
20
145.2279875
11
32.7300418
21
145.2856875
0
LINE
8
DEFAULT_255_2_778
10
32.7300418
20
145.2856875
11
32.7446418
21
145.3372875
0
LINE
8
DEFAULT_255_2_778
10
32.7446418
20
145.3372875
11
32.7498418
21
145.3732875
0
LINE
8
DEFAULT_255_2_778
10
32.7498418
20
145.3732875
11
32.7488418
21
145.4721875
0
LINE
8
DEFAULT_255_2_778
10
32.7488418
20
145.4721875
11
32.7422418
21
145.5078875
0
LINE
8
DEFAULT_255_2_778
10
32.7422418
20
145.5078875
11
32.7229418
21
145.5639875
0
LINE
8
DEFAULT_255_2_778
10
32.7229418
20
145.5639875
11
32.6726418
21
145.6417875
0
LINE
8
DEFAULT_255_2_778
10
32.6726418
20
145.6417875
11
32.5578418
21
145.7272875
0
LINE
8
DEFAULT_255_2_778
10
32.5578418
20
145.7272875
11
32.3601418
21
145.7719875
0
LINE
8
DEFAULT_255_2_778
10
32.3442418
20
144.1437875
11
32.5966418
21
144.1796875
0
LINE
8
DEFAULT_255_2_778
10
32.5966418
20
144.1796875
11
32.7565418
21
144.2693875
0
LINE
8
DEFAULT_255_2_778
10
32.7565418
20
144.2693875
11
32.8239418
21
144.3431875
0
LINE
8
DEFAULT_255_2_778
10
32.8239418
20
144.3431875
11
32.8641418
21
144.4130875
0
LINE
8
DEFAULT_255_2_778
10
32.8641418
20
144.4130875
11
32.8858418
21
144.4733875
0
LINE
8
DEFAULT_255_2_778
10
32.8858418
20
144.4733875
11
32.8988418
21
144.5307875
0
LINE
8
DEFAULT_255_2_778
10
32.8988418
20
144.5307875
11
32.9054418
21
144.5723875
0
LINE
8
DEFAULT_255_2_778
10
32.9054418
20
144.5723875
11
32.9099418
21
144.6136875
0
LINE
8
DEFAULT_255_2_778
10
32.9099418
20
144.6136875
11
32.9089418
21
144.7559875
0
LINE
8
DEFAULT_255_2_778
10
32.9089418
20
144.7559875
11
32.9046418
21
144.7884875
0
LINE
8
DEFAULT_255_2_778
10
32.9046418
20
144.7884875
11
32.8951418
21
144.8363875
0
LINE
8
DEFAULT_255_2_778
10
32.8951418
20
144.8363875
11
32.8729418
21
144.9041875
0
LINE
8
DEFAULT_255_2_778
10
32.8729418
20
144.9041875
11
32.8340418
21
144.9758875
0
LINE
8
DEFAULT_255_2_778
10
32.8340418
20
144.9758875
11
32.7591418
21
145.0538875
0
LINE
8
DEFAULT_255_2_778
10
32.7591418
20
145.0538875
11
32.7231418
21
145.0869875
0
LINE
8
DEFAULT_255_2_778
10
33.6374875
20
145.7535323
11
33.3234875
21
144.7340323
0
LINE
8
DEFAULT_255_2_778
10
33.3234875
20
144.7340323
11
33.9518875
21
144.7340323
0
LINE
8
DEFAULT_255_2_778
10
33.9518875
20
144.7340323
11
33.6374875
21
145.7535323
0
LINE
8
DEFAULT_255_2_778
10
33.5713875
20
145.8966323
11
33.7203875
21
145.8966323
0
LINE
8
DEFAULT_255_2_778
10
33.7203875
20
145.8966323
11
34.2330875
21
144.1974323
0
LINE
8
DEFAULT_255_2_778
10
34.2330875
20
144.1974323
11
34.1174875
21
144.1437323
0
LINE
8
DEFAULT_255_2_778
10
34.1174875
20
144.1437323
11
33.9851875
21
144.6089323
0
LINE
8
DEFAULT_255_2_778
10
33.9851875
20
144.6089323
11
33.2906875
21
144.6089323
0
LINE
8
DEFAULT_255_2_778
10
33.2906875
20
144.6089323
11
33.1416875
21
144.1437323
0
LINE
8
DEFAULT_255_2_778
10
33.1416875
20
144.1437323
11
33.0424875
21
144.1974323
0
LINE
8
DEFAULT_255_2_778
10
33.0424875
20
144.1974323
11
33.5713875
21
145.8966323
0
LINE
8
DEFAULT_255_2_778
10
25.0319594
20
141.0827604
11
25.0319594
21
141.0700604
0
LINE
8
DEFAULT_255_2_778
10
25.0319594
20
141.0700604
11
25.0454594
21
141.0745604
0
LINE
8
DEFAULT_255_2_778
10
25.0454594
20
141.0745604
11
25.0454594
21
141.0872604
0
LINE
8
DEFAULT_255_2_778
10
25.0454594
20
141.0872604
11
25.0319594
21
141.0827604
0
LINE
8
DEFAULT_255_2_778
10
25.0319594
20
141.0827604
11
25.0338594
21
141.0838604
0
LINE
8
DEFAULT_255_2_778
10
25.0338594
20
141.0838604
11
25.0356594
21
141.0851604
0
LINE
8
DEFAULT_255_2_778
10
25.0356594
20
141.0851604
11
25.0377594
21
141.0867604
0
LINE
8
DEFAULT_255_2_778
10
25.0377594
20
141.0867604
11
25.0401594
21
141.0883604
0
LINE
8
DEFAULT_255_2_778
10
25.0401594
20
141.0883604
11
25.0425594
21
141.0901604
0
LINE
8
DEFAULT_255_2_778
10
25.0425594
20
141.0901604
11
25.0451594
21
141.0922604
0
LINE
8
DEFAULT_255_2_778
10
25.0451594
20
141.0922604
11
25.0480594
21
141.0946604
0
LINE
8
DEFAULT_255_2_778
10
25.0480594
20
141.0946604
11
25.0509594
21
141.0970604
0
LINE
8
DEFAULT_255_2_778
10
25.0509594
20
141.0970604
11
25.0541594
21
141.0996604
0
LINE
8
DEFAULT_255_2_778
10
25.0541594
20
141.0996604
11
25.0576594
21
141.1025604
0
LINE
8
DEFAULT_255_2_778
10
25.0576594
20
141.1025604
11
25.0650594
21
141.1089604
0
LINE
8
DEFAULT_255_2_778
10
25.0650594
20
141.1089604
11
25.0732594
21
141.1160604
0
LINE
8
DEFAULT_255_2_778
10
25.0732594
20
141.1160604
11
25.0774594
21
141.1197604
0
LINE
8
DEFAULT_255_2_778
10
25.0774594
20
141.1197604
11
25.0819594
21
141.1237604
0
LINE
8
DEFAULT_255_2_778
10
25.0819594
20
141.1237604
11
25.0864594
21
141.1277604
0
LINE
8
DEFAULT_255_2_778
10
25.0864594
20
141.1277604
11
25.0909594
21
141.1319604
0
LINE
8
DEFAULT_255_2_778
10
25.0909594
20
141.1319604
11
25.0957594
21
141.1364604
0
LINE
8
DEFAULT_255_2_778
10
25.0957594
20
141.1364604
11
25.1004594
21
141.1409604
0
LINE
8
DEFAULT_255_2_778
10
25.1004594
20
141.1409604
11
25.1055594
21
141.1457604
0
LINE
8
DEFAULT_255_2_778
10
25.1055594
20
141.1457604
11
25.1105594
21
141.1504604
0
LINE
8
DEFAULT_255_2_778
10
25.1105594
20
141.1504604
11
25.1155594
21
141.1555604
0
LINE
8
DEFAULT_255_2_778
10
25.1155594
20
141.1555604
11
25.1205594
21
141.1605604
0
LINE
8
DEFAULT_255_2_778
10
25.1205594
20
141.1605604
11
25.1258594
21
141.1658604
0
LINE
8
DEFAULT_255_2_778
10
25.1258594
20
141.1658604
11
25.1311594
21
141.1711604
0
LINE
8
DEFAULT_255_2_778
10
25.1311594
20
141.1711604
11
25.1364594
21
141.1766604
0
LINE
8
DEFAULT_255_2_778
10
25.1364594
20
141.1766604
11
25.1586594
21
141.1996604
0
LINE
8
DEFAULT_255_2_778
10
25.1586594
20
141.1996604
11
25.1761594
21
141.2176604
0
LINE
8
DEFAULT_255_2_778
10
25.1761594
20
141.2176604
11
25.1941594
21
141.2364604
0
LINE
8
DEFAULT_255_2_778
10
25.1941594
20
141.2364604
11
25.2063594
21
141.2494604
0
LINE
8
DEFAULT_255_2_778
10
25.2063594
20
141.2494604
11
25.2375594
21
141.2830604
0
LINE
8
DEFAULT_255_2_778
10
25.2375594
20
141.2830604
11
25.2743594
21
141.3227604
0
LINE
8
DEFAULT_255_2_778
10
25.2743594
20
141.3227604
11
25.2983594
21
141.3489604
0
LINE
8
DEFAULT_255_2_778
10
25.2983594
20
141.3489604
11
25.3137594
21
141.3666604
0
LINE
8
DEFAULT_255_2_778
10
25.3137594
20
141.3666604
11
25.4534594
21
141.3666604
0
LINE
8
DEFAULT_255_2_778
10
25.4534594
20
141.3666604
11
25.4534594
21
139.7733604
0
LINE
8
DEFAULT_255_2_778
10
25.4534594
20
139.7733604
11
25.3428594
21
139.7733604
0
LINE
8
DEFAULT_255_2_778
10
25.3428594
20
139.7733604
11
25.3428594
21
141.2298604
0
LINE
8
DEFAULT_255_2_778
10
25.3428594
20
141.2298604
11
25.3198594
21
141.2052604
0
LINE
8
DEFAULT_255_2_778
10
25.3198594
20
141.2052604
11
25.2981594
21
141.1822604
0
LINE
8
DEFAULT_255_2_778
10
25.2981594
20
141.1822604
11
25.2774594
21
141.1608604
0
LINE
8
DEFAULT_255_2_778
10
25.2774594
20
141.1608604
11
25.2581594
21
141.1406604
0
LINE
8
DEFAULT_255_2_778
10
25.2581594
20
141.1406604
11
25.2401594
21
141.1221604
0
LINE
8
DEFAULT_255_2_778
10
25.2401594
20
141.1221604
11
25.2235594
21
141.1052604
0
LINE
8
DEFAULT_255_2_778
10
25.2235594
20
141.1052604
11
25.2132594
21
141.0949604
0
LINE
8
DEFAULT_255_2_778
10
25.2132594
20
141.0949604
11
25.2033594
21
141.0851604
0
LINE
8
DEFAULT_255_2_778
10
25.2033594
20
141.0851604
11
25.1941594
21
141.0758604
0
LINE
8
DEFAULT_255_2_778
10
25.1941594
20
141.0758604
11
25.1851594
21
141.0671604
0
LINE
8
DEFAULT_255_2_778
10
25.1851594
20
141.0671604
11
25.1766594
21
141.0589604
0
LINE
8
DEFAULT_255_2_778
10
25.1766594
20
141.0589604
11
25.1684594
21
141.0510604
0
LINE
8
DEFAULT_255_2_778
10
25.1684594
20
141.0510604
11
25.1605594
21
141.0435604
0
LINE
8
DEFAULT_255_2_778
10
25.1605594
20
141.0435604
11
25.1531594
21
141.0367604
0
LINE
8
DEFAULT_255_2_778
10
25.1531594
20
141.0367604
11
25.1494594
21
141.0332604
0
LINE
8
DEFAULT_255_2_778
10
25.1494594
20
141.0332604
11
25.1459594
21
141.0301604
0
LINE
8
DEFAULT_255_2_778
10
25.1459594
20
141.0301604
11
25.1425594
21
141.0269604
0
LINE
8
DEFAULT_255_2_778
10
25.1425594
20
141.0269604
11
25.1391594
21
141.0240604
0
LINE
8
DEFAULT_255_2_778
10
25.1391594
20
141.0240604
11
25.1359594
21
141.0211604
0
LINE
8
DEFAULT_255_2_778
10
25.1359594
20
141.0211604
11
25.1327594
21
141.0181604
0
LINE
8
DEFAULT_255_2_778
10
25.1327594
20
141.0181604
11
25.1295594
21
141.0155604
0
LINE
8
DEFAULT_255_2_778
10
25.1295594
20
141.0155604
11
25.1266594
21
141.0129604
0
LINE
8
DEFAULT_255_2_778
10
25.1266594
20
141.0129604
11
25.1237594
21
141.0105604
0
LINE
8
DEFAULT_255_2_778
10
25.1237594
20
141.0105604
11
25.1208594
21
141.0081604
0
LINE
8
DEFAULT_255_2_778
10
25.1208594
20
141.0081604
11
25.1182594
21
141.0060604
0
LINE
8
DEFAULT_255_2_778
10
25.1182594
20
141.0060604
11
25.1155594
21
141.0041604
0
LINE
8
DEFAULT_255_2_778
10
25.1155594
20
141.0041604
11
25.1131594
21
141.0023604
0
LINE
8
DEFAULT_255_2_778
10
25.1131594
20
141.0023604
11
25.1107594
21
141.0004604
0
LINE
8
DEFAULT_255_2_778
10
25.1107594
20
141.0004604
11
25.1084594
21
140.9986604
0
LINE
8
DEFAULT_255_2_778
10
25.1084594
20
140.9986604
11
25.1060594
21
140.9970604
0
LINE
8
DEFAULT_255_2_778
10
25.1060594
20
140.9970604
11
25.1039594
21
140.9954604
0
LINE
8
DEFAULT_255_2_778
10
25.1039594
20
140.9954604
11
25.1017594
21
140.9938604
0
LINE
8
DEFAULT_255_2_778
10
25.1017594
20
140.9938604
11
25.1007594
21
140.9930604
0
LINE
8
DEFAULT_255_2_778
10
25.1007594
20
140.9930604
11
25.0996594
21
140.9922604
0
LINE
8
DEFAULT_255_2_778
10
25.0996594
20
140.9922604
11
25.0986594
21
140.9914604
0
LINE
8
DEFAULT_255_2_778
10
25.0986594
20
140.9914604
11
25.0975594
21
140.9906604
0
LINE
8
DEFAULT_255_2_778
10
25.0975594
20
140.9906604
11
25.0965594
21
140.9898604
0
LINE
8
DEFAULT_255_2_778
10
25.0965594
20
140.9898604
11
25.0954594
21
140.9890604
0
LINE
8
DEFAULT_255_2_778
10
25.0954594
20
140.9890604
11
25.0943594
21
140.9885604
0
LINE
8
DEFAULT_255_2_778
10
25.0943594
20
140.9885604
11
25.0933594
21
140.9880604
0
LINE
8
DEFAULT_255_2_778
10
25.0933594
20
140.9880604
11
25.0922594
21
140.9875604
0
LINE
8
DEFAULT_255_2_778
10
25.0922594
20
140.9875604
11
25.0912594
21
140.9869604
0
LINE
8
DEFAULT_255_2_778
10
25.0912594
20
140.9869604
11
25.0901594
21
140.9864604
0
LINE
8
DEFAULT_255_2_778
10
25.0901594
20
140.9864604
11
25.0893594
21
140.9859604
0
LINE
8
DEFAULT_255_2_778
10
25.0893594
20
140.9859604
11
25.0885594
21
140.9853604
0
LINE
8
DEFAULT_255_2_778
10
25.0885594
20
140.9853604
11
25.0877594
21
140.9848604
0
LINE
8
DEFAULT_255_2_778
10
25.0877594
20
140.9848604
11
25.0869594
21
140.9843604
0
LINE
8
DEFAULT_255_2_778
10
25.0869594
20
140.9843604
11
25.0861594
21
140.9837604
0
LINE
8
DEFAULT_255_2_778
10
25.0861594
20
140.9837604
11
25.0853594
21
140.9832604
0
LINE
8
DEFAULT_255_2_778
10
25.0853594
20
140.9832604
11
25.0846594
21
140.9827604
0
LINE
8
DEFAULT_255_2_778
10
25.0846594
20
140.9827604
11
25.0838594
21
140.9822604
0
LINE
8
DEFAULT_255_2_778
10
25.0838594
20
140.9822604
11
25.0830594
21
140.9816604
0
LINE
8
DEFAULT_255_2_778
10
25.0830594
20
140.9816604
11
25.0822594
21
140.9814604
0
LINE
8
DEFAULT_255_2_778
10
25.0822594
20
140.9814604
11
25.0814594
21
140.9811604
0
LINE
8
DEFAULT_255_2_778
10
25.0814594
20
140.9811604
11
25.0806594
21
140.9808604
0
LINE
8
DEFAULT_255_2_778
10
25.0806594
20
140.9808604
11
25.0798594
21
140.9806604
0
LINE
8
DEFAULT_255_2_778
10
25.0798594
20
140.9806604
11
25.0790594
21
140.9803604
0
LINE
8
DEFAULT_255_2_778
10
25.0790594
20
140.9803604
11
25.0782594
21
140.9800604
0
LINE
8
DEFAULT_255_2_778
10
25.0782594
20
140.9800604
11
25.0774594
21
140.9798604
0
LINE
8
DEFAULT_255_2_778
10
25.0774594
20
140.9798604
11
25.0769594
21
140.9795604
0
LINE
8
DEFAULT_255_2_778
10
25.0769594
20
140.9795604
11
25.0761594
21
140.9793604
0
LINE
8
DEFAULT_255_2_778
10
25.0761594
20
140.9793604
11
25.0756594
21
140.9790604
0
LINE
8
DEFAULT_255_2_778
10
25.0756594
20
140.9790604
11
25.0750594
21
140.9790604
0
LINE
8
DEFAULT_255_2_778
10
25.0750594
20
140.9790604
11
25.0745594
21
140.9787604
0
LINE
8
DEFAULT_255_2_778
10
25.0745594
20
140.9787604
11
25.0740594
21
140.9785604
0
LINE
8
DEFAULT_255_2_778
10
25.0740594
20
140.9785604
11
25.0734594
21
140.9782604
0
LINE
8
DEFAULT_255_2_778
10
25.0734594
20
140.9782604
11
25.0729594
21
140.9782604
0
LINE
8
DEFAULT_255_2_778
10
25.0729594
20
140.9782604
11
25.0724594
21
140.9779604
0
LINE
8
DEFAULT_255_2_778
10
25.0724594
20
140.9779604
11
25.0719594
21
140.9777604
0
LINE
8
DEFAULT_255_2_778
10
25.0719594
20
140.9777604
11
25.0713594
21
140.9777604
0
LINE
8
DEFAULT_255_2_778
10
25.0713594
20
140.9777604
11
25.0708594
21
140.9774604
0
LINE
8
DEFAULT_255_2_778
10
25.0708594
20
140.9774604
11
25.0703594
21
140.9771604
0
LINE
8
DEFAULT_255_2_778
10
25.0703594
20
140.9771604
11
25.0697594
21
140.9771604
0
LINE
8
DEFAULT_255_2_778
10
25.0697594
20
140.9771604
11
25.0692594
21
140.9769604
0
LINE
8
DEFAULT_255_2_778
10
25.0692594
20
140.9769604
11
25.0687594
21
140.9769604
0
LINE
8
DEFAULT_255_2_778
10
25.0687594
20
140.9769604
11
25.0681594
21
140.9766604
0
LINE
8
DEFAULT_255_2_778
10
25.0681594
20
140.9766604
11
25.0676594
21
140.9766604
0
LINE
8
DEFAULT_255_2_778
10
25.0676594
20
140.9766604
11
25.0671594
21
140.9766604
0
LINE
8
DEFAULT_255_2_778
10
25.0671594
20
140.9766604
11
25.0666594
21
140.9766604
0
LINE
8
DEFAULT_255_2_778
10
25.0666594
20
140.9766604
11
25.0660594
21
140.9766604
0
LINE
8
DEFAULT_255_2_778
10
25.0660594
20
140.9766604
11
25.0655594
21
140.9766604
0
LINE
8
DEFAULT_255_2_778
10
25.0655594
20
140.9766604
11
25.0650594
21
140.9766604
0
LINE
8
DEFAULT_255_2_778
10
25.0650594
20
140.9766604
11
25.0644594
21
140.9766604
0
LINE
8
DEFAULT_255_2_778
10
25.0644594
20
140.9766604
11
25.0639594
21
140.9766604
0
LINE
8
DEFAULT_255_2_778
10
25.0639594
20
140.9766604
11
25.0634594
21
140.9766604
0
LINE
8
DEFAULT_255_2_778
10
25.0634594
20
140.9766604
11
25.0629594
21
140.9766604
0
LINE
8
DEFAULT_255_2_778
10
25.0629594
20
140.9766604
11
25.0623594
21
140.9766604
0
LINE
8
DEFAULT_255_2_778
10
25.0623594
20
140.9766604
11
25.0618594
21
140.9766604
0
LINE
8
DEFAULT_255_2_778
10
25.0618594
20
140.9766604
11
25.0613594
21
140.9766604
0
LINE
8
DEFAULT_255_2_778
10
25.0613594
20
140.9766604
11
25.0607594
21
140.9766604
0
LINE
8
DEFAULT_255_2_778
10
25.0607594
20
140.9766604
11
25.0602594
21
140.9766604
0
LINE
8
DEFAULT_255_2_778
10
25.0602594
20
140.9766604
11
25.0597594
21
140.9766604
0
LINE
8
DEFAULT_255_2_778
10
25.0597594
20
140.9766604
11
25.0592594
21
140.9766604
0
LINE
8
DEFAULT_255_2_778
10
25.0592594
20
140.9766604
11
25.0586594
21
140.9766604
0
LINE
8
DEFAULT_255_2_778
10
25.0586594
20
140.9766604
11
25.0581594
21
140.9766604
0
LINE
8
DEFAULT_255_2_778
10
25.0581594
20
140.9766604
11
25.0576594
21
140.9766604
0
LINE
8
DEFAULT_255_2_778
10
25.0576594
20
140.9766604
11
25.0570594
21
140.9766604
0
LINE
8
DEFAULT_255_2_778
10
25.0570594
20
140.9766604
11
25.0565594
21
140.9766604
0
LINE
8
DEFAULT_255_2_778
10
25.0565594
20
140.9766604
11
25.0560594
21
140.9766604
0
LINE
8
DEFAULT_255_2_778
10
25.0560594
20
140.9766604
11
25.0555594
21
140.9766604
0
LINE
8
DEFAULT_255_2_778
10
25.0555594
20
140.9766604
11
25.0549594
21
140.9766604
0
LINE
8
DEFAULT_255_2_778
10
25.0549594
20
140.9766604
11
25.0544594
21
140.9766604
0
LINE
8
DEFAULT_255_2_778
10
25.0544594
20
140.9766604
11
25.0539594
21
140.9766604
0
LINE
8
DEFAULT_255_2_778
10
25.0539594
20
140.9766604
11
25.0536594
21
140.9766604
0
LINE
8
DEFAULT_255_2_778
10
25.0536594
20
140.9766604
11
25.0531594
21
140.9766604
0
LINE
8
DEFAULT_255_2_778
10
25.0531594
20
140.9766604
11
25.0528594
21
140.9766604
0
LINE
8
DEFAULT_255_2_778
10
25.0528594
20
140.9766604
11
25.0525594
21
140.9766604
0
LINE
8
DEFAULT_255_2_778
10
25.0525594
20
140.9766604
11
25.0523594
21
140.9766604
0
LINE
8
DEFAULT_255_2_778
10
25.0523594
20
140.9766604
11
25.0520594
21
140.9766604
0
LINE
8
DEFAULT_255_2_778
10
25.0520594
20
140.9766604
11
25.0509594
21
140.9766604
0
LINE
8
DEFAULT_255_2_778
10
25.3428594
20
141.2176604
11
25.3198594
21
141.1930604
0
LINE
8
DEFAULT_255_2_778
10
25.3198594
20
141.1930604
11
25.2981594
21
141.1700604
0
LINE
8
DEFAULT_255_2_778
10
25.2981594
20
141.1700604
11
25.2774594
21
141.1486604
0
LINE
8
DEFAULT_255_2_778
10
25.2774594
20
141.1486604
11
25.2581594
21
141.1287604
0
LINE
8
DEFAULT_255_2_778
10
25.2581594
20
141.1287604
11
25.2401594
21
141.1102604
0
LINE
8
DEFAULT_255_2_778
10
25.2401594
20
141.1102604
11
25.2235594
21
141.0933604
0
LINE
8
DEFAULT_255_2_778
10
25.2235594
20
141.0933604
11
25.2132594
21
141.0830604
0
LINE
8
DEFAULT_255_2_778
10
25.2132594
20
141.0830604
11
25.2033594
21
141.0732604
0
LINE
8
DEFAULT_255_2_778
10
25.2033594
20
141.0732604
11
25.1941594
21
141.0639604
0
LINE
8
DEFAULT_255_2_778
10
25.1941594
20
141.0639604
11
25.1851594
21
141.0552604
0
LINE
8
DEFAULT_255_2_778
10
25.1851594
20
141.0552604
11
25.1766594
21
141.0470604
0
LINE
8
DEFAULT_255_2_778
10
25.1766594
20
141.0470604
11
25.1684594
21
141.0390604
0
LINE
8
DEFAULT_255_2_778
10
25.1684594
20
141.0390604
11
25.1605594
21
141.0316604
0
LINE
8
DEFAULT_255_2_778
10
25.1605594
20
141.0316604
11
25.1531594
21
141.0248604
0
LINE
8
DEFAULT_255_2_778
10
25.1531594
20
141.0248604
11
25.1494594
21
141.0213604
0
LINE
8
DEFAULT_255_2_778
10
25.1494594
20
141.0213604
11
25.1459594
21
141.0181604
0
LINE
8
DEFAULT_255_2_778
10
25.1459594
20
141.0181604
11
25.1425594
21
141.0150604
0
LINE
8
DEFAULT_255_2_778
10
25.1425594
20
141.0150604
11
25.1391594
21
141.0121604
0
LINE
8
DEFAULT_255_2_778
10
25.1391594
20
141.0121604
11
25.1359594
21
141.0091604
0
LINE
8
DEFAULT_255_2_778
10
25.1359594
20
141.0091604
11
25.1327594
21
141.0062604
0
LINE
8
DEFAULT_255_2_778
10
25.1327594
20
141.0062604
11
25.1295594
21
141.0036604
0
LINE
8
DEFAULT_255_2_778
10
25.1295594
20
141.0036604
11
25.1266594
21
141.0009604
0
LINE
8
DEFAULT_255_2_778
10
25.1266594
20
141.0009604
11
25.1237594
21
140.9986604
0
LINE
8
DEFAULT_255_2_778
10
25.1237594
20
140.9986604
11
25.1208594
21
140.9962604
0
LINE
8
DEFAULT_255_2_778
10
25.1208594
20
140.9962604
11
25.1182594
21
140.9941604
0
LINE
8
DEFAULT_255_2_778
10
25.1182594
20
140.9941604
11
25.1155594
21
140.9922604
0
LINE
8
DEFAULT_255_2_778
10
25.1155594
20
140.9922604
11
25.1131594
21
140.9904604
0
LINE
8
DEFAULT_255_2_778
10
25.1131594
20
140.9904604
11
25.1107594
21
140.9885604
0
LINE
8
DEFAULT_255_2_778
10
25.1107594
20
140.9885604
11
25.1084594
21
140.9867604
0
LINE
8
DEFAULT_255_2_778
10
25.1084594
20
140.9867604
11
25.1060594
21
140.9851604
0
LINE
8
DEFAULT_255_2_778
10
25.1060594
20
140.9851604
11
25.1039594
21
140.9835604
0
LINE
8
DEFAULT_255_2_778
10
25.1039594
20
140.9835604
11
25.1017594
21
140.9819604
0
LINE
8
DEFAULT_255_2_778
10
25.1017594
20
140.9819604
11
25.1007594
21
140.9811604
0
LINE
8
DEFAULT_255_2_778
10
25.1007594
20
140.9811604
11
25.0996594
21
140.9803604
0
LINE
8
DEFAULT_255_2_778
10
25.0996594
20
140.9803604
11
25.0986594
21
140.9795604
0
LINE
8
DEFAULT_255_2_778
10
25.0986594
20
140.9795604
11
25.0975594
21
140.9787604
0
LINE
8
DEFAULT_255_2_778
10
25.0975594
20
140.9787604
11
25.0965594
21
140.9779604
0
LINE
8
DEFAULT_255_2_778
10
25.0965594
20
140.9779604
11
25.0954594
21
140.9771604
0
LINE
8
DEFAULT_255_2_778
10
25.0954594
20
140.9771604
11
25.0943594
21
140.9766604
0
LINE
8
DEFAULT_255_2_778
10
25.0943594
20
140.9766604
11
25.0933594
21
140.9761604
0
LINE
8
DEFAULT_255_2_778
10
25.0933594
20
140.9761604
11
25.0922594
21
140.9755604
0
LINE
8
DEFAULT_255_2_778
10
25.0922594
20
140.9755604
11
25.0912594
21
140.9750604
0
LINE
8
DEFAULT_255_2_778
10
25.0912594
20
140.9750604
11
25.0901594
21
140.9745604
0
LINE
8
DEFAULT_255_2_778
10
25.0901594
20
140.9745604
11
25.0893594
21
140.9740604
0
LINE
8
DEFAULT_255_2_778
10
25.0893594
20
140.9740604
11
25.0885594
21
140.9734604
0
LINE
8
DEFAULT_255_2_778
10
25.0885594
20
140.9734604
11
25.0877594
21
140.9729604
0
LINE
8
DEFAULT_255_2_778
10
25.0877594
20
140.9729604
11
25.0869594
21
140.9724604
0
LINE
8
DEFAULT_255_2_778
10
25.0869594
20
140.9724604
11
25.0861594
21
140.9718604
0
LINE
8
DEFAULT_255_2_778
10
25.0861594
20
140.9718604
11
25.0853594
21
140.9713604
0
LINE
8
DEFAULT_255_2_778
10
25.0853594
20
140.9713604
11
25.0846594
21
140.9708604
0
LINE
8
DEFAULT_255_2_778
10
25.0846594
20
140.9708604
11
25.0838594
21
140.9703604
0
LINE
8
DEFAULT_255_2_778
10
25.0838594
20
140.9703604
11
25.0830594
21
140.9697604
0
LINE
8
DEFAULT_255_2_778
10
25.0830594
20
140.9697604
11
25.0822594
21
140.9695604
0
LINE
8
DEFAULT_255_2_778
10
25.0822594
20
140.9695604
11
25.0814594
21
140.9692604
0
LINE
8
DEFAULT_255_2_778
10
25.0814594
20
140.9692604
11
25.0806594
21
140.9689604
0
LINE
8
DEFAULT_255_2_778
10
25.0806594
20
140.9689604
11
25.0798594
21
140.9687604
0
LINE
8
DEFAULT_255_2_778
10
25.0798594
20
140.9687604
11
25.0790594
21
140.9684604
0
LINE
8
DEFAULT_255_2_778
10
25.0790594
20
140.9684604
11
25.0782594
21
140.9681604
0
LINE
8
DEFAULT_255_2_778
10
25.0782594
20
140.9681604
11
25.0774594
21
140.9679604
0
LINE
8
DEFAULT_255_2_778
10
25.0774594
20
140.9679604
11
25.0769594
21
140.9676604
0
LINE
8
DEFAULT_255_2_778
10
25.0769594
20
140.9676604
11
25.0763594
21
140.9673604
0
LINE
8
DEFAULT_255_2_778
10
25.0763594
20
140.9673604
11
25.0758594
21
140.9671604
0
LINE
8
DEFAULT_255_2_778
10
25.0758594
20
140.9671604
11
25.0753594
21
140.9668604
0
LINE
8
DEFAULT_255_2_778
10
25.0753594
20
140.9668604
11
25.0748594
21
140.9666604
0
LINE
8
DEFAULT_255_2_778
10
25.0748594
20
140.9666604
11
25.0742594
21
140.9666604
0
LINE
8
DEFAULT_255_2_778
10
25.0742594
20
140.9666604
11
25.0737594
21
140.9663604
0
LINE
8
DEFAULT_255_2_778
10
25.0737594
20
140.9663604
11
25.0732594
21
140.9660604
0
LINE
8
DEFAULT_255_2_778
10
25.0732594
20
140.9660604
11
25.0727594
21
140.9658604
0
LINE
8
DEFAULT_255_2_778
10
25.0727594
20
140.9658604
11
25.0721594
21
140.9658604
0
LINE
8
DEFAULT_255_2_778
10
25.0721594
20
140.9658604
11
25.0716594
21
140.9655604
0
LINE
8
DEFAULT_255_2_778
10
25.0716594
20
140.9655604
11
25.0711594
21
140.9652604
0
LINE
8
DEFAULT_255_2_778
10
25.0711594
20
140.9652604
11
25.0705594
21
140.9652604
0
LINE
8
DEFAULT_255_2_778
10
25.0705594
20
140.9652604
11
25.0700594
21
140.9650604
0
LINE
8
DEFAULT_255_2_778
10
25.0700594
20
140.9650604
11
25.0695594
21
140.9650604
0
LINE
8
DEFAULT_255_2_778
10
25.0695594
20
140.9650604
11
25.0689594
21
140.9647604
0
LINE
8
DEFAULT_255_2_778
10
25.0689594
20
140.9647604
11
25.0684594
21
140.9647604
0
LINE
8
DEFAULT_255_2_778
10
25.0684594
20
140.9647604
11
25.0679594
21
140.9647604
0
LINE
8
DEFAULT_255_2_778
10
25.0679594
20
140.9647604
11
25.0674594
21
140.9644604
0
LINE
8
DEFAULT_255_2_778
10
25.0674594
20
140.9644604
11
25.0668594
21
140.9644604
0
LINE
8
DEFAULT_255_2_778
10
25.0668594
20
140.9644604
11
25.0663594
21
140.9644604
0
LINE
8
DEFAULT_255_2_778
10
25.0663594
20
140.9644604
11
25.0658594
21
140.9644604
0
LINE
8
DEFAULT_255_2_778
10
25.0658594
20
140.9644604
11
25.0652594
21
140.9644604
0
LINE
8
DEFAULT_255_2_778
10
25.0652594
20
140.9644604
11
25.0647594
21
140.9644604
0
LINE
8
DEFAULT_255_2_778
10
25.0647594
20
140.9644604
11
25.0642594
21
140.9644604
0
LINE
8
DEFAULT_255_2_778
10
25.0642594
20
140.9644604
11
25.0636594
21
140.9644604
0
LINE
8
DEFAULT_255_2_778
10
25.0636594
20
140.9644604
11
25.0631594
21
140.9644604
0
LINE
8
DEFAULT_255_2_778
10
25.0631594
20
140.9644604
11
25.0626594
21
140.9644604
0
LINE
8
DEFAULT_255_2_778
10
25.0626594
20
140.9644604
11
25.0621594
21
140.9644604
0
LINE
8
DEFAULT_255_2_778
10
25.0621594
20
140.9644604
11
25.0615594
21
140.9644604
0
LINE
8
DEFAULT_255_2_778
10
25.0615594
20
140.9644604
11
25.0610594
21
140.9644604
0
LINE
8
DEFAULT_255_2_778
10
25.0610594
20
140.9644604
11
25.0605594
21
140.9644604
0
LINE
8
DEFAULT_255_2_778
10
25.0605594
20
140.9644604
11
25.0599594
21
140.9644604
0
LINE
8
DEFAULT_255_2_778
10
25.0599594
20
140.9644604
11
25.0594594
21
140.9644604
0
LINE
8
DEFAULT_255_2_778
10
25.0594594
20
140.9644604
11
25.0589594
21
140.9644604
0
LINE
8
DEFAULT_255_2_778
10
25.0589594
20
140.9644604
11
25.0584594
21
140.9644604
0
LINE
8
DEFAULT_255_2_778
10
25.0584594
20
140.9644604
11
25.0578594
21
140.9644604
0
LINE
8
DEFAULT_255_2_778
10
25.0578594
20
140.9644604
11
25.0573594
21
140.9644604
0
LINE
8
DEFAULT_255_2_778
10
25.0573594
20
140.9644604
11
25.0568594
21
140.9644604
0
LINE
8
DEFAULT_255_2_778
10
25.0568594
20
140.9644604
11
25.0562594
21
140.9644604
0
LINE
8
DEFAULT_255_2_778
10
25.0562594
20
140.9644604
11
25.0557594
21
140.9644604
0
LINE
8
DEFAULT_255_2_778
10
25.0557594
20
140.9644604
11
25.0552594
21
140.9644604
0
LINE
8
DEFAULT_255_2_778
10
25.0552594
20
140.9644604
11
25.0547594
21
140.9644604
0
LINE
8
DEFAULT_255_2_778
10
25.0547594
20
140.9644604
11
25.0544594
21
140.9644604
0
LINE
8
DEFAULT_255_2_778
10
25.0544594
20
140.9644604
11
25.0539594
21
140.9644604
0
LINE
8
DEFAULT_255_2_778
10
25.0539594
20
140.9644604
11
25.0536594
21
140.9644604
0
LINE
8
DEFAULT_255_2_778
10
25.0536594
20
140.9644604
11
25.0531594
21
140.9644604
0
LINE
8
DEFAULT_255_2_778
10
25.0531594
20
140.9644604
11
25.0528594
21
140.9644604
0
LINE
8
DEFAULT_255_2_778
10
25.0528594
20
140.9644604
11
25.0509594
21
140.9644604
0
LINE
8
DEFAULT_255_2_778
10
25.0455023
20
141.0745844
11
25.0524023
21
140.9623844
0
LINE
8
DEFAULT_255_2_778
10
25.0524023
20
140.9623844
11
25.0524023
21
140.9750844
0
LINE
8
DEFAULT_255_2_778
10
25.0524023
20
140.9750844
11
25.0455023
21
141.0872844
0
LINE
8
DEFAULT_255_2_778
10
25.0754023
20
140.9668844
11
25.0754023
21
140.9795844
0
LINE
8
DEFAULT_255_2_778
10
25.1209023
20
140.9962844
11
25.1209023
21
141.0089844
0
LINE
8
DEFAULT_255_2_778
10
25.4538023
20
139.7862844
11
25.3429023
21
139.7862844
0
LINE
8
DEFAULT_255_2_778
10
29.1555023
20
139.7928844
11
29.0423023
21
139.7928844
0
LINE
8
DEFAULT_255_2_778
10
19.9457023
20
139.7928844
11
19.1490023
21
139.7928844
0
LINE
8
DEFAULT_255_2_778
10
32.4422023
20
140.3387844
11
31.9363023
21
140.3387844
0
LINE
8
DEFAULT_255_2_778
10
31.9363023
20
140.4511844
11
32.4422023
21
140.4511844
0
LINE
8
DEFAULT_255_2_778
10
32.4422023
20
140.4511844
11
32.4422023
21
140.3260844
0
LINE
8
DEFAULT_255_2_778
10
32.4422023
20
140.3260844
11
31.9363023
21
140.3260844
0
LINE
8
DEFAULT_255_2_778
10
31.9363023
20
140.3260844
11
31.9363023
21
140.4511844
0
LINE
8
DEFAULT_255_2_778
10
26.7470023
20
140.3384844
11
26.2412023
21
140.3384844
0
LINE
8
DEFAULT_255_2_778
10
26.2412023
20
140.4509844
11
26.7470023
21
140.4509844
0
LINE
8
DEFAULT_255_2_778
10
26.7470023
20
140.4509844
11
26.7470023
21
140.3257844
0
LINE
8
DEFAULT_255_2_778
10
26.7470023
20
140.3257844
11
26.2412023
21
140.3257844
0
LINE
8
DEFAULT_255_2_778
10
26.2412023
20
140.3257844
11
26.2412023
21
140.4509844
0
LINE
8
DEFAULT_255_2_778
10
19.2599023
20
141.2507844
11
19.9454023
21
141.2507844
0
LINE
8
DEFAULT_255_2_778
10
19.9454023
20
141.2634844
11
19.9454023
21
141.2507844
0
LINE
8
DEFAULT_255_2_778
10
19.2599023
20
141.2634844
11
19.2599023
21
141.2507844
0
LINE
8
DEFAULT_255_2_778
10
19.2598344
20
140.57215
11
19.2598344
21
140.55945
0
LINE
8
DEFAULT_255_2_778
10
19.9035344
20
140.57215
11
19.2598344
21
140.57215
0
LINE
8
DEFAULT_255_2_778
10
19.9035344
20
140.55945
11
19.2598344
21
140.55945
0
ARC
8
DEFAULT_255_2_778
10
18.6049639
20
140.3157378
40
0.3683904
50
147.1653044
51
159.4444401
0
ARC
8
DEFAULT_255_2_778
10
18.5747152
20
140.3780166
40
0.3063093
50
130.8588975
51
138.5494131
0
ARC
8
DEFAULT_255_2_778
10
18.554445
20
140.4024994
40
0.2745325
50
122.4037027
51
131.002024
0
ARC
8
DEFAULT_255_2_778
10
18.5470517
20
140.4065345
40
0.267195
50
112.725894
51
121.5288152
0
ARC
8
DEFAULT_255_2_778
10
18.5447484
20
140.4057963
40
0.2671175
50
94.5134271
51
103.359495
0
ARC
8
DEFAULT_255_2_778
10
18.5679161
20
140.3967099
40
0.2779905
50
90.0040029
51
90.5952402
0
ARC
8
DEFAULT_255_2_778
10
18.5677683
20
140.3961005
40
0.2785999
50
78.7903271
51
89.9736037
0
ARC
8
DEFAULT_255_2_778
10
18.5826724
20
140.4659984
40
0.2071408
50
71.1119488
51
79.0756823
0
ARC
8
DEFAULT_255_2_778
10
18.5934692
20
140.4912357
40
0.1797791
50
62.6270447
51
71.7638744
0
ARC
8
DEFAULT_255_2_778
10
18.6111326
20
140.5185964
40
0.1473934
50
52.6624468
51
63.8344309
0
ARC
8
DEFAULT_255_2_778
10
18.5905481
20
140.4862214
40
0.1856475
50
44.8218925
51
53.6715339
0
ARC
8
DEFAULT_255_2_778
10
18.5795844
20
140.4767401
40
0.2001101
50
36.3631052
51
44.5346565
0
ARC
8
DEFAULT_255_2_778
10
18.5508388
20
140.4553705
40
0.2359283
50
29.4269962
51
36.4032027
0
ARC
8
DEFAULT_255_2_778
10
18.492051
20
140.4218366
40
0.3036072
50
18.7016574
51
29.4881649
0
ARC
8
DEFAULT_255_2_778
10
18.4900986
20
140.1687104
40
0.3017456
50
319.4358297
51
324.918647
0
ARC
8
DEFAULT_255_2_778
10
18.4864459
20
140.1736533
40
0.307738
50
308.4312586
51
319.1789579
0
ARC
8
DEFAULT_255_2_778
10
18.5584303
20
140.0885119
40
0.1963289
50
286.2072312
51
307.4192424
0
ARC
8
DEFAULT_255_2_778
10
18.5374565
20
140.1567654
40
0.2677262
50
278.6513179
51
286.4404733
0
ARC
8
DEFAULT_255_2_778
10
18.530934
20
140.1952645
40
0.3067691
50
272.0164551
51
278.7740723
0
ARC
8
DEFAULT_255_2_778
10
18.5245549
20
140.260957
40
0.3725731
50
267.0265154
51
269.8420956
0
ARC
8
DEFAULT_255_2_778
10
18.5204735
20
140.1144689
40
0.2260981
50
256.9780393
51
266.1337141
0
ARC
8
DEFAULT_255_2_778
10
18.5194089
20
140.1136597
40
0.2250713
50
247.9265401
51
257.1956841
0
ARC
8
DEFAULT_255_2_778
10
18.5151632
20
140.104691
40
0.2151653
50
238.3713792
51
248.0767518
0
ARC
8
DEFAULT_255_2_778
10
18.5858717
20
140.2157682
40
0.3468294
50
227.4934882
51
238.0482935
0
ARC
8
DEFAULT_255_2_778
10
18.6013939
20
140.2307579
40
0.3683701
50
217.3673986
51
227.2889811
0
ARC
8
DEFAULT_255_2_778
10
18.6259166
20
140.2416004
40
0.3950057
50
197.9926117
51
207.2748347
0
ARC
8
DEFAULT_255_2_778
10
18.6405242
20
140.2506412
40
0.4117119
50
187.0533816
51
198.5613031
0
ARC
8
DEFAULT_255_2_778
10
18.5856924
20
140.2413628
40
0.3561642
50
179.9963623
51
186.6552065
0
ARC
8
DEFAULT_255_2_778
10
18.9164988
20
140.2557761
40
0.6866942
50
170.8574895
51
177.7625418
0
ARC
8
DEFAULT_255_2_778
10
18.6186545
20
140.3050909
40
0.3848005
50
158.7455135
51
171.0605338
0
ARC
8
DEFAULT_255_2_778
10
18.4994082
20
140.4236959
40
0.328585
50
136.7622827
51
145.5260317
0
ARC
8
DEFAULT_255_2_778
10
18.5112642
20
140.4164995
40
0.3424332
50
145.656267
51
154.0608444
0
ARC
8
DEFAULT_255_2_778
10
18.5632515
20
140.973537
40
0.330671
50
151.1116862
51
157.3299605
0
ARC
8
DEFAULT_255_2_778
10
18.5234452
20
140.9938012
40
0.2860322
50
143.5633619
51
150.8136359
0
ARC
8
DEFAULT_255_2_778
10
18.4637332
20
141.0402116
40
0.2104369
50
134.2743979
51
144.0732805
0
ARC
8
DEFAULT_255_2_778
10
18.4573886
20
141.056092
40
0.194547
50
114.9484369
51
125.4950853
0
ARC
8
DEFAULT_255_2_778
10
18.4864045
20
140.9763826
40
0.2793742
50
98.6414954
51
106.0363615
0
ARC
8
DEFAULT_255_2_778
10
18.5062017
20
140.8292284
40
0.42784
50
93.4670688
51
98.3016508
0
ARC
8
DEFAULT_255_2_778
10
18.5067796
20
140.9485012
40
0.3084415
50
74.8233859
51
88.170233
0
ARC
8
DEFAULT_255_2_778
10
18.516046
20
140.9773964
40
0.2781316
50
67.6235295
51
75.1073881
0
ARC
8
DEFAULT_255_2_778
10
18.5163034
20
140.9792564
40
0.2763141
50
60.0555954
51
67.5260413
0
ARC
8
DEFAULT_255_2_778
10
18.539844
20
141.0150415
40
0.2332301
50
42.9601772
51
51.7835072
0
ARC
8
DEFAULT_255_2_778
10
18.5480592
20
141.0217104
40
0.2226743
50
33.9246602
51
43.1449592
0
ARC
8
DEFAULT_255_2_778
10
18.5271891
20
141.0061636
40
0.2486715
50
25.8236066
51
34.2132783
0
ARC
8
DEFAULT_255_2_778
10
18.5249209
20
140.9989139
40
0.3660142
50
27.1766223
51
39.4306185
0
ARC
8
DEFAULT_255_2_778
10
18.5515258
20
141.0215624
40
0.3310802
50
39.3275325
51
46.1406332
0
ARC
8
DEFAULT_255_2_778
10
18.5401009
20
141.0092668
40
0.3478622
50
46.187028
51
52.6737448
0
ARC
8
DEFAULT_255_2_778
10
18.5290424
20
140.9988965
40
0.3628227
50
52.2780646
51
58.4793581
0
ARC
8
DEFAULT_255_2_778
10
18.5139969
20
140.9725601
40
0.3931402
50
58.6168357
51
64.3254808
0
ARC
8
DEFAULT_255_2_778
10
18.4557615
20
141.0600297
40
0.3004027
50
105.1547465
51
112.6392566
0
ARC
8
DEFAULT_255_2_778
10
18.489845
20
140.9862695
40
0.3816114
50
113.0994324
51
118.9842008
0
ARC
8
DEFAULT_255_2_778
10
18.4742684
20
141.0212695
40
0.3434633
50
119.5404103
51
126.1563398
0
ARC
8
DEFAULT_255_2_778
10
18.4276324
20
141.0823893
40
0.2666047
50
125.8137222
51
134.2110074
0
ARC
8
DEFAULT_255_2_778
10
18.4723313
20
141.032919
40
0.3332417
50
133.7886136
51
140.5448317
0
ARC
8
DEFAULT_255_2_778
10
18.551981
20
140.9795507
40
0.429217
50
147.0689886
51
157.5028191
0
ARC
8
DEFAULT_255_2_778
10
18.6091465
20
140.2023567
40
0.484473
50
201.5141576
51
211.2416572
0
ARC
8
DEFAULT_255_2_778
10
18.5091357
20
140.1360289
40
0.3641736
50
217.0351426
51
223.5353484
0
ARC
8
DEFAULT_255_2_778
10
18.5062582
20
140.1410468
40
0.3655872
50
224.416123
51
230.8872703
0
ARC
8
DEFAULT_255_2_778
10
18.4744703
20
140.0778424
40
0.294489
50
244.0764643
51
252.1145171
0
ARC
8
DEFAULT_255_2_778
10
18.5084076
20
140.1939776
40
0.415448
50
252.5792499
51
258.3518399
0
ARC
8
DEFAULT_255_2_778
10
18.5557926
20
140.1202645
40
0.3389438
50
282.7554559
51
296.8214713
0
ARC
8
DEFAULT_255_2_778
10
18.5624624
20
140.1098022
40
0.3265999
50
296.6054314
51
311.0457861
0
ARC
8
DEFAULT_255_2_778
10
18.5507207
20
140.1217026
40
0.343287
50
311.2195105
51
318.1988114
0
ARC
8
DEFAULT_255_2_778
10
18.558888
20
140.1143609
40
0.3323049
50
318.2038285
51
325.341707
0
ARC
8
DEFAULT_255_2_778
10
18.5564471
20
140.1183436
40
0.3365829
50
325.0203155
51
332.1074974
0
ARC
8
DEFAULT_255_2_778
10
18.3858814
20
140.1996248
40
0.5259449
50
337.5390195
51
346.515682
0
ARC
8
DEFAULT_255_2_778
10
18.1422524
20
140.3261779
40
0.7768126
50
5.7707708
51
11.8793131
0
ARC
8
DEFAULT_255_2_778
10
18.3649981
20
140.3732745
40
0.5491424
50
11.8547358
51
20.5108277
0
ARC
8
DEFAULT_255_2_778
10
18.541744
20
140.4496545
40
0.3562521
50
25.6355686
51
32.3126965
0
ARC
8
DEFAULT_255_2_778
10
18.5707282
20
140.4689675
40
0.3214338
50
32.1649226
51
46.9310793
0
ARC
8
DEFAULT_255_2_778
10
18.596079
20
140.4966583
40
0.2838935
50
46.8523989
51
63.5729364
0
ARC
8
DEFAULT_255_2_778
10
18.5702799
20
140.4235336
40
0.3619244
50
71.665528
51
78.2588402
0
ARC
8
DEFAULT_255_2_778
10
18.5626435
20
140.3690827
40
0.4168055
50
78.754212
51
89.9767586
0
ARC
8
DEFAULT_255_2_778
10
18.5627595
20
140.3924149
40
0.3934732
50
89.9922806
51
90.2084321
0
ARC
8
DEFAULT_255_2_778
10
18.5477188
20
140.3892658
40
0.3952296
50
93.6688457
51
104.6847079
0
ARC
8
DEFAULT_255_2_778
10
18.5285897
20
140.4619297
40
0.32009
50
104.6696897
51
111.432337
0
ARC
8
DEFAULT_255_2_778
10
18.5284251
20
140.4509593
40
0.3302679
50
110.7103038
51
117.2453049
0
ARC
8
DEFAULT_255_2_778
10
18.5339593
20
140.4397039
40
0.3428081
50
117.2064361
51
123.524593
0
ARC
8
DEFAULT_255_2_778
10
18.534685
20
140.4369114
40
0.3455381
50
123.3691834
51
129.643609
0
ARC
8
DEFAULT_255_2_778
10
18.5732077
20
140.3873767
40
0.4082637
50
129.3713299
51
139.985011
0
LINE
8
DEFAULT_255_2_778
10
19.9035282
20
140.5720854
11
19.9035282
21
140.5593854
0
LINE
8
DEFAULT_255_2_778
10
18.2954282
20
140.5154854
11
18.3192282
21
140.5490854
0
LINE
8
DEFAULT_255_2_778
10
18.3192282
20
140.5490854
11
18.3319282
21
140.5651854
0
LINE
8
DEFAULT_255_2_778
10
18.3319282
20
140.5651854
11
18.3451282
21
140.5807854
0
LINE
8
DEFAULT_255_2_778
10
18.4438282
20
140.6529854
11
18.4632282
21
140.6601854
0
LINE
8
DEFAULT_255_2_778
10
18.4632282
20
140.6601854
11
18.4830282
21
140.6656854
0
LINE
8
DEFAULT_255_2_778
10
18.5237282
20
140.6720854
11
18.5341282
21
140.6728854
0
LINE
8
DEFAULT_255_2_778
10
18.5341282
20
140.6728854
11
18.5444282
21
140.6733854
0
LINE
8
DEFAULT_255_2_778
10
18.5444282
20
140.6733854
11
18.5650282
21
140.6746854
0
LINE
8
DEFAULT_255_2_778
10
18.7796282
20
140.5191854
11
18.7881282
21
140.4915854
0
LINE
8
DEFAULT_255_2_778
10
18.7881282
20
140.4915854
11
18.7947282
21
140.4638854
0
LINE
8
DEFAULT_255_2_778
10
18.7947282
20
140.4638854
11
18.8037282
21
140.4079854
0
LINE
8
DEFAULT_255_2_778
10
18.8037282
20
140.4079854
11
18.8084282
21
140.3516854
0
LINE
8
DEFAULT_255_2_778
10
18.8084282
20
140.3516854
11
18.8098282
21
140.2950854
0
LINE
8
DEFAULT_255_2_778
10
18.8098282
20
140.2950854
11
18.8076282
21
140.2381854
0
LINE
8
DEFAULT_255_2_778
10
18.8076282
20
140.2381854
11
18.8021282
21
140.1817854
0
LINE
8
DEFAULT_255_2_778
10
18.8021282
20
140.1817854
11
18.7981282
21
140.1537854
0
LINE
8
DEFAULT_255_2_778
10
18.7981282
20
140.1537854
11
18.7926282
21
140.1259854
0
LINE
8
DEFAULT_255_2_778
10
18.7926282
20
140.1259854
11
18.7851282
21
140.0984854
0
LINE
8
DEFAULT_255_2_778
10
18.7851282
20
140.0984854
11
18.7759282
21
140.0711854
0
LINE
8
DEFAULT_255_2_778
10
18.7759282
20
140.0711854
11
18.7650282
21
140.0447854
0
LINE
8
DEFAULT_255_2_778
10
18.7650282
20
140.0447854
11
18.7523282
21
140.0193854
0
LINE
8
DEFAULT_255_2_778
10
18.7523282
20
140.0193854
11
18.7370282
21
139.9952854
0
LINE
8
DEFAULT_255_2_778
10
18.5417282
20
139.8886854
11
18.5235282
21
139.8883854
0
LINE
8
DEFAULT_255_2_778
10
18.3086282
20
140.0071854
11
18.2906282
21
140.0330854
0
LINE
8
DEFAULT_255_2_778
10
18.2906282
20
140.0330854
11
18.2748282
21
140.0605854
0
LINE
8
DEFAULT_255_2_778
10
18.2295282
20
140.2413854
11
18.2303282
21
140.2825854
0
LINE
8
DEFAULT_255_2_778
10
18.2600282
20
140.4445854
11
18.2600282
21
140.4450854
0
LINE
8
DEFAULT_255_2_778
10
18.2033282
20
140.5662854
11
18.2049282
21
140.7104854
0
LINE
8
DEFAULT_255_2_778
10
18.2049282
20
140.7104854
11
18.2107282
21
140.8543854
0
LINE
8
DEFAULT_255_2_778
10
18.2107282
20
140.8543854
11
18.2168282
21
140.9263854
0
LINE
8
DEFAULT_255_2_778
10
18.2168282
20
140.9263854
11
18.2279282
21
140.9974854
0
LINE
8
DEFAULT_255_2_778
10
18.2279282
20
140.9974854
11
18.2359282
21
141.0326854
0
LINE
8
DEFAULT_255_2_778
10
18.2359282
20
141.0326854
11
18.2457282
21
141.0673854
0
LINE
8
DEFAULT_255_2_778
10
18.2457282
20
141.0673854
11
18.2581282
21
141.1009854
0
LINE
8
DEFAULT_255_2_778
10
18.3168282
20
141.1908854
11
18.3301282
21
141.2033854
0
LINE
8
DEFAULT_255_2_778
10
18.3301282
20
141.2033854
11
18.3444282
21
141.2144854
0
LINE
8
DEFAULT_255_2_778
10
18.3753282
20
141.2324854
11
18.3920282
21
141.2393854
0
LINE
8
DEFAULT_255_2_778
10
18.3920282
20
141.2393854
11
18.4092282
21
141.2448854
0
LINE
8
DEFAULT_255_2_778
10
18.4803282
20
141.2562854
11
18.5166282
21
141.2567854
0
LINE
8
DEFAULT_255_2_778
10
18.6542282
20
141.2186854
11
18.6695282
21
141.2091854
0
LINE
8
DEFAULT_255_2_778
10
18.6695282
20
141.2091854
11
18.6841282
21
141.1982854
0
LINE
8
DEFAULT_255_2_778
10
18.7510282
20
141.1144854
11
18.8505282
21
141.1660854
0
LINE
8
DEFAULT_255_2_778
10
18.6843282
20
141.3268854
11
18.6664282
21
141.3348854
0
LINE
8
DEFAULT_255_2_778
10
18.6664282
20
141.3348854
11
18.6481282
21
141.3419854
0
LINE
8
DEFAULT_255_2_778
10
18.6481282
20
141.3419854
11
18.6105282
21
141.3530854
0
LINE
8
DEFAULT_255_2_778
10
18.6105282
20
141.3530854
11
18.5719282
21
141.3604854
0
LINE
8
DEFAULT_255_2_778
10
18.5719282
20
141.3604854
11
18.5327282
21
141.3644854
0
LINE
8
DEFAULT_255_2_778
10
18.5327282
20
141.3644854
11
18.4936282
21
141.3652854
0
LINE
8
DEFAULT_255_2_778
10
18.4936282
20
141.3652854
11
18.4547282
21
141.3633854
0
LINE
8
DEFAULT_255_2_778
10
18.4547282
20
141.3633854
11
18.4158282
21
141.3583854
0
LINE
8
DEFAULT_255_2_778
10
18.4158282
20
141.3583854
11
18.3965282
21
141.3546854
0
LINE
8
DEFAULT_255_2_778
10
18.3965282
20
141.3546854
11
18.3772282
21
141.3499854
0
LINE
8
DEFAULT_255_2_778
10
18.2150282
20
141.2446854
11
18.2028282
21
141.2289854
0
LINE
8
DEFAULT_255_2_778
10
18.2028282
20
141.2289854
11
18.1917282
21
141.2128854
0
LINE
8
DEFAULT_255_2_778
10
18.1554282
20
141.1437854
11
18.1419282
21
141.1067854
0
LINE
8
DEFAULT_255_2_778
10
18.1419282
20
141.1067854
11
18.1308282
21
141.0691854
0
LINE
8
DEFAULT_255_2_778
10
18.1308282
20
141.0691854
11
18.1147282
21
140.9932854
0
LINE
8
DEFAULT_255_2_778
10
18.1147282
20
140.9932854
11
18.1046282
21
140.9165854
0
LINE
8
DEFAULT_255_2_778
10
18.1046282
20
140.9165854
11
18.0951282
21
140.7612854
0
LINE
8
DEFAULT_255_2_778
10
18.0951282
20
140.7612854
11
18.0930282
21
140.5961854
0
LINE
8
DEFAULT_255_2_778
10
18.0930282
20
140.5961854
11
18.0933282
21
140.5135854
0
LINE
8
DEFAULT_255_2_778
10
18.0933282
20
140.5135854
11
18.0946282
21
140.4310854
0
LINE
8
DEFAULT_255_2_778
10
18.0946282
20
140.4310854
11
18.0956282
21
140.3897854
0
LINE
8
DEFAULT_255_2_778
10
18.0956282
20
140.3897854
11
18.0975282
21
140.3484854
0
LINE
8
DEFAULT_255_2_778
10
18.0975282
20
140.3484854
11
18.1041282
21
140.2659854
0
LINE
8
DEFAULT_255_2_778
10
18.1041282
20
140.2659854
11
18.1152282
21
140.1838854
0
LINE
8
DEFAULT_255_2_778
10
18.1152282
20
140.1838854
11
18.1330282
21
140.1031854
0
LINE
8
DEFAULT_255_2_778
10
18.1330282
20
140.1031854
11
18.1446282
21
140.0635854
0
LINE
8
DEFAULT_255_2_778
10
18.1446282
20
140.0635854
11
18.1584282
21
140.0246854
0
LINE
8
DEFAULT_255_2_778
10
18.1949282
20
139.9510854
11
18.2062282
21
139.9335854
0
LINE
8
DEFAULT_255_2_778
10
18.2062282
20
139.9335854
11
18.2184282
21
139.9166854
0
LINE
8
DEFAULT_255_2_778
10
18.2756282
20
139.8573854
11
18.2922282
21
139.8446854
0
LINE
8
DEFAULT_255_2_778
10
18.2922282
20
139.8446854
11
18.3097282
21
139.8330854
0
LINE
8
DEFAULT_255_2_778
10
18.3097282
20
139.8330854
11
18.3274282
21
139.8224854
0
LINE
8
DEFAULT_255_2_778
10
18.3274282
20
139.8224854
11
18.3457282
21
139.8129854
0
LINE
8
DEFAULT_255_2_778
10
18.4245282
20
139.7870854
11
18.4655282
21
139.7809854
0
LINE
8
DEFAULT_255_2_778
10
18.4655282
20
139.7809854
11
18.5068282
21
139.7782854
0
LINE
8
DEFAULT_255_2_778
10
18.5068282
20
139.7782854
11
18.5483282
21
139.7785854
0
LINE
8
DEFAULT_255_2_778
10
18.5483282
20
139.7785854
11
18.5899282
21
139.7822854
0
LINE
8
DEFAULT_255_2_778
10
18.5899282
20
139.7822854
11
18.6306282
21
139.7896854
0
LINE
8
DEFAULT_255_2_778
10
18.8539282
20
139.9608854
11
18.8635282
21
139.9796854
0
LINE
8
DEFAULT_255_2_778
10
18.8635282
20
139.9796854
11
18.8719282
21
139.9986854
0
LINE
8
DEFAULT_255_2_778
10
18.8973282
20
140.0769854
11
18.9058282
21
140.1174854
0
LINE
8
DEFAULT_255_2_778
10
18.9058282
20
140.1174854
11
18.9121282
21
140.1584854
0
LINE
8
DEFAULT_255_2_778
10
18.9121282
20
140.1584854
11
18.9190282
21
140.2405854
0
LINE
8
DEFAULT_255_2_778
10
18.9190282
20
140.2405854
11
18.9201282
21
140.3225854
0
LINE
8
DEFAULT_255_2_778
10
18.9201282
20
140.3225854
11
18.9151282
21
140.4042854
0
LINE
8
DEFAULT_255_2_778
10
18.8793282
20
140.5656854
11
18.8629282
21
140.6037854
0
LINE
8
DEFAULT_255_2_778
10
18.7224282
20
140.7508854
11
18.7037282
21
140.7596854
0
LINE
8
DEFAULT_255_2_778
10
18.7037282
20
140.7596854
11
18.6841282
21
140.7670854
0
LINE
8
DEFAULT_255_2_778
10
18.5613282
20
140.7858854
11
18.5224282
21
140.7836854
0
LINE
8
DEFAULT_255_2_778
10
18.2605282
20
140.6498854
11
18.2600282
21
140.6487854
0
ARC
8
DEFAULT_255_2_778
10
20.6127464
20
140.9204926
40
0.5069771
50
20.8590112
51
49.5651995
0
ARC
8
DEFAULT_255_2_778
10
20.6755007
20
140.9702968
40
0.4286467
50
51.6325284
51
88.1155895
0
ARC
8
DEFAULT_255_2_778
10
20.7265145
20
140.7355166
40
0.664222
50
93.186229
51
111.1390806
0
ARC
8
DEFAULT_255_2_778
10
20.6140906
20
141.0250932
40
0.353588
50
111.06977
51
180.2315641
0
ARC
8
DEFAULT_255_2_778
10
20.8991422
20
140.981493
40
0.6400276
50
176.2220662
51
180.0489527
0
ARC
8
DEFAULT_255_2_778
10
20.9868916
20
140.9811976
40
0.7277769
50
180.0197962
51
182.2904536
0
ARC
8
DEFAULT_255_2_778
10
20.6509462
20
140.9800852
40
0.3922489
50
184.089548
51
225.9730708
0
ARC
8
DEFAULT_255_2_778
10
20.9671322
20
141.2788316
40
0.8270347
50
224.6071629
51
239.9534133
0
ARC
8
DEFAULT_255_2_778
10
21.3751612
20
141.9636598
40
1.624169
50
239.5900143
51
248.508424
0
ARC
8
DEFAULT_255_2_778
10
21.7185732
20
142.7915255
40
2.5203408
50
248.1393565
51
251.1601828
0
ARC
8
DEFAULT_255_2_778
10
20.7947926
20
140.1868489
40
0.2453545
50
34.8222862
51
63.3885959
0
ARC
8
DEFAULT_255_2_778
10
20.8591374
20
140.2379978
40
0.1634086
50
359.3981075
51
32.9823619
0
ARC
8
DEFAULT_255_2_778
10
20.7712436
20
140.2408957
40
0.2513356
50
338.576239
51
358.9479929
0
ARC
8
DEFAULT_255_2_778
10
20.6230232
20
140.2922492
40
0.4081214
50
333.259019
51
339.4655339
0
ARC
8
DEFAULT_255_2_778
10
20.6177987
20
140.2544149
40
0.3974099
50
315.0253409
51
338.4764591
0
ARC
8
DEFAULT_255_2_778
10
20.7028534
20
140.1798076
40
0.2846033
50
268.1892214
51
313.5480008
0
ARC
8
DEFAULT_255_2_778
10
20.6981931
20
140.3837148
40
0.4883876
50
256.6824181
51
269.4916843
0
ARC
8
DEFAULT_255_2_778
10
20.7625771
20
140.6653647
40
0.7772973
50
248.4301467
51
256.8464273
0
ARC
8
DEFAULT_255_2_778
10
20.8181239
20
140.8194598
40
0.9410353
50
248.615304
51
248.7342092
0
ARC
8
DEFAULT_255_2_778
10
20.6436551
20
140.2135487
40
0.3186345
50
199.2283124
51
238.0405924
0
ARC
8
DEFAULT_255_2_778
10
15.7281231
20
153.7871305
40
14.4359649
50
288.22723
51
288.6426676
0
ARC
8
DEFAULT_255_2_778
10
20.7777829
20
140.249652
40
0.5619496
50
198.052354
51
220.2438252
0
ARC
8
DEFAULT_255_2_778
10
20.6297769
20
140.1354487
40
0.3752913
50
221.5334562
51
272.2112107
0
ARC
8
DEFAULT_255_2_778
10
20.6440214
20
140.3212742
40
0.5608374
50
270.0240559
51
273.0125427
0
ARC
8
DEFAULT_255_2_778
10
20.6030522
20
140.5247367
40
0.7667677
50
275.2712611
51
291.6243933
0
ARC
8
DEFAULT_255_2_778
10
20.7579818
20
140.1584326
40
0.3692601
50
290.22233
51
359.465161
0
ARC
8
DEFAULT_255_2_778
10
20.530448
20
140.1907436
40
0.5978482
50
356.57104
51
0.0352864
0
ARC
8
DEFAULT_255_2_778
10
20.7466763
20
140.2340582
40
0.3840286
50
353.5791085
51
359.9255653
0
ARC
8
DEFAULT_255_2_778
10
20.8026165
20
140.2316153
40
0.3280937
50
0.3394791
51
57.3071643
0
ARC
8
DEFAULT_255_2_778
10
20.5493942
20
139.8934
40
0.7501199
50
54.9826371
51
70.3415626
0
ARC
8
DEFAULT_255_2_778
10
20.3809292
20
139.4739777
40
1.2018979
50
69.505041
51
72.6374501
0
ARC
8
DEFAULT_255_2_778
10
21.2541477
20
141.7538756
40
1.2441533
50
236.6146468
51
245.5703379
0
ARC
8
DEFAULT_255_2_778
10
20.9026007
20
141.2280838
40
0.6116928
50
221.3837253
51
237.0091553
0
ARC
8
DEFAULT_255_2_778
10
20.6494614
20
141.0139056
40
0.2802487
50
181.3627581
51
222.7439027
0
ARC
8
DEFAULT_255_2_778
10
20.6495983
20
141.0049431
40
0.2803158
50
159.4864495
51
179.5303752
0
ARC
8
DEFAULT_255_2_778
10
20.7169759
20
140.983434
40
0.3509754
50
157.5944472
51
160.0522535
0
ARC
8
DEFAULT_255_2_778
10
20.6456438
20
140.9928602
40
0.282041
50
89.7985621
51
153.8387595
0
ARC
8
DEFAULT_255_2_778
10
20.677717
20
140.7765569
40
0.4993108
50
89.9572444
51
93.5689166
0
ARC
8
DEFAULT_255_2_778
10
20.6753775
20
140.6317761
40
0.6440974
50
82.1196463
51
89.7587416
0
ARC
8
DEFAULT_255_2_778
10
20.6548117
20
140.4611251
40
0.8159622
50
80.5062927
51
82.3320986
0
ARC
8
DEFAULT_255_2_778
10
20.722363
20
141.0628102
40
0.2138777
50
22.8173883
51
71.7346888
0
ARC
8
DEFAULT_255_2_778
10
20.4615935
20
140.92202
40
0.5096444
50
14.63788
51
26.0397333
0
ARC
8
DEFAULT_255_2_778
10
22.0536897
20
138.3242522
40
2.9397132
50
109.5347193
51
111.952873
0
ARC
8
DEFAULT_255_2_778
10
21.482322
20
139.9158146
40
1.2487257
50
108.4564378
51
109.2458497
0
ARC
8
DEFAULT_255_2_778
10
23.3310195
20
140.4637525
40
0.2856514
50
144.8418222
51
174.9067494
0
ARC
8
DEFAULT_255_2_778
10
23.25695
20
140.4987088
40
0.2054483
50
87.2588357
51
140.914111
0
ARC
8
DEFAULT_255_2_778
10
23.2740925
20
140.3412353
40
0.3627605
50
89.9938276
51
91.1557721
0
ARC
8
DEFAULT_255_2_778
10
23.2725608
20
140.2643351
40
0.4396636
50
82.7097573
51
89.7953045
0
ARC
8
DEFAULT_255_2_778
10
23.269482
20
140.2267686
40
0.4773202
50
82.6923201
51
82.9153909
0
ARC
8
DEFAULT_255_2_778
10
23.2762233
20
140.4991886
40
0.2081427
50
19.1794702
51
74.9711088
0
ARC
8
DEFAULT_255_2_778
10
22.9371798
20
140.3505582
40
0.5779244
50
5.9967374
51
22.0552706
0
ARC
8
DEFAULT_255_2_778
10
22.2924545
20
140.266765
40
1.2279798
50
359.6692778
51
6.7423193
0
ARC
8
DEFAULT_255_2_778
10
21.7148938
20
140.2606089
40
1.8055203
50
358.1095997
51
359.9704254
0
ARC
8
DEFAULT_255_2_778
10
21.5447562
20
140.2652549
40
1.9757187
50
358.0205575
51
358.1376995
0
ARC
8
DEFAULT_255_2_778
10
23.074634
20
140.2350082
40
0.4462824
50
332.5619089
51
355.1159295
0
ARC
8
DEFAULT_255_2_778
10
23.2617127
20
140.1425106
40
0.2376621
50
271.322038
51
331.5706553
0
ARC
8
DEFAULT_255_2_778
10
23.2004529
20
140.310611
40
0.4111527
50
270.3150201
51
279.3422579
0
ARC
8
DEFAULT_255_2_778
10
23.1883267
20
140.0982375
40
0.1992929
50
198.5573589
51
274.1397341
0
ARC
8
DEFAULT_255_2_778
10
22.6148167
20
140.7565818
40
0.8178345
50
289.5951958
51
298.049938
0
ARC
8
DEFAULT_255_2_778
10
23.2256801
20
140.1364175
40
0.36862
50
204.0637362
51
237.2696238
0
ARC
8
DEFAULT_255_2_778
10
23.2029341
20
140.1266001
40
0.3483374
50
239.5444267
51
271.406316
0
ARC
8
DEFAULT_255_2_778
10
23.2087959
20
140.3383918
40
0.5600305
50
270.2749317
51
279.6765078
0
ARC
8
DEFAULT_255_2_778
10
23.1877689
20
140.4798282
40
0.7029955
50
279.4282859
51
281.6890553
0
ARC
8
DEFAULT_255_2_778
10
23.1840729
20
140.1945241
40
0.4287791
50
289.9249381
51
353.7013637
0
ARC
8
DEFAULT_255_2_778
10
22.9457331
20
140.2399224
40
0.6709291
50
352.0806594
51
0.1838767
0
ARC
8
DEFAULT_255_2_778
10
22.7650159
20
140.2409291
40
0.8516437
50
0.0771309
51
4.7000171
0
ARC
8
DEFAULT_255_2_778
10
22.5025841
20
140.3226497
40
1.111276
50
359.384486
51
9.9573172
0
ARC
8
DEFAULT_255_2_778
10
23.1198548
20
140.4373985
40
0.4835026
50
9.2124759
51
30.3921948
0
ARC
8
DEFAULT_255_2_778
10
23.3255652
20
140.5563518
40
0.2458844
50
30.7336209
51
66.2495574
0
ARC
8
DEFAULT_255_2_778
10
23.2341366
20
140.2702102
40
0.5455289
50
69.5660186
51
81.7193914
0
ARC
8
DEFAULT_255_2_778
10
23.257457
20
140.4143817
40
0.3995086
50
82.0511818
51
89.879268
0
ARC
8
DEFAULT_255_2_778
10
23.2572786
20
140.4923867
40
0.3215045
50
89.818182
51
143.3919833
0
ARC
8
DEFAULT_255_2_778
10
32.524463
20
140.6733146
40
9.5252732
50
178.3486346
51
179.9350536
0
ARC
8
DEFAULT_255_2_778
10
37.6684304
20
140.5290994
40
14.6712606
50
177.1752706
51
178.3645776
0
LINE
8
DEFAULT_255_2_778
10
23.014996
20
141.2521117
11
23.597896
21
141.2521117
0
ARC
8
DEFAULT_255_2_778
10
24.288019
20
141.2629604
40
0.6902083
50
173.972558
51
180.9006113
0
ARC
8
DEFAULT_255_2_778
10
23.6329166
20
141.3403587
40
0.0316751
50
127.1315422
51
188.9414526
0
ARC
8
DEFAULT_255_2_778
10
24.1360624
20
140.0260766
40
0.2606699
50
218.8643642
51
224.5490369
0
ARC
8
DEFAULT_255_2_778
10
24.1637279
20
140.0577699
40
0.3026421
50
230.1241124
51
239.9101437
0
ARC
8
DEFAULT_255_2_778
10
24.1835511
20
140.0902592
40
0.3406928
50
239.7649957
51
248.573944
0
ARC
8
DEFAULT_255_2_778
10
24.2061121
20
140.1717307
40
0.4259154
50
256.8334434
51
263.9193975
0
ARC
8
DEFAULT_255_2_778
10
24.229561
20
140.4409481
40
0.6960195
50
268.685654
51
269.9173652
0
ARC
8
DEFAULT_255_2_778
10
24.2292806
20
140.1326588
40
0.3877303
50
269.8930975
51
270.0356538
0
ARC
8
DEFAULT_255_2_778
10
24.2305687
20
140.3851183
40
0.6401906
50
269.9063133
51
277.8400592
0
ARC
8
DEFAULT_255_2_778
10
24.2474616
20
140.2549239
40
0.5089099
50
277.9554168
51
283.8976781
0
ARC
8
DEFAULT_255_2_778
10
24.2629518
20
140.1861121
40
0.4383944
50
284.0925531
51
290.9912774
0
ARC
8
DEFAULT_255_2_778
10
24.2756039
20
140.1517222
40
0.4017548
50
291.0635645
51
298.5472898
0
ARC
8
DEFAULT_255_2_778
10
24.2928927
20
140.1155212
40
0.3619162
50
307.2177006
51
315.424695
0
ARC
8
DEFAULT_255_2_778
10
24.2507762
20
140.1472219
40
0.4146132
50
323.5534881
51
337.8518728
0
ARC
8
DEFAULT_255_2_778
10
24.1796797
20
140.1822418
40
0.4936983
50
337.1982058
51
343.1956924
0
ARC
8
DEFAULT_255_2_778
10
23.9589554
20
140.2346136
40
0.7206037
50
348.3428218
51
356.4753012
0
ARC
8
DEFAULT_255_2_778
10
24.3027243
20
140.2642109
40
0.3768738
50
4.3828458
51
12.1934776
0
ARC
8
DEFAULT_255_2_778
10
24.366838
20
140.2796825
40
0.310683
50
21.4531479
51
30.9818669
0
ARC
8
DEFAULT_255_2_778
10
24.3679238
20
140.2770285
40
0.3111216
50
41.0657147
51
50.6491202
0
ARC
8
DEFAULT_255_2_778
10
23.9678278
20
139.6823338
40
1.0281621
50
57.3586809
51
63.2191649
0
ARC
8
DEFAULT_255_2_778
10
24.3233697
20
140.9477246
40
0.3564757
50
304.4057095
51
310.16558
0
ARC
8
DEFAULT_255_2_778
10
24.3636558
20
140.9100186
40
0.3015884
50
322.61689
51
336.1995249
0
ARC
8
DEFAULT_255_2_778
10
24.39143
20
140.9006394
40
0.2721997
50
343.1882939
51
350.6276628
0
ARC
8
DEFAULT_255_2_778
10
24.2134721
20
140.929815
40
0.4525332
50
350.6522548
51
359.6324183
0
ARC
8
DEFAULT_255_2_778
10
24.1348354
20
140.9745778
40
0.5285766
50
10.1153287
51
17.8399198
0
ARC
8
DEFAULT_255_2_778
10
24.2024259
20
140.9937261
40
0.4583766
50
18.1498296
51
27.0402774
0
ARC
8
DEFAULT_255_2_778
10
24.2998911
20
141.0440598
40
0.3486789
50
38.7301258
51
50.4748892
0
ARC
8
DEFAULT_255_2_778
10
24.3295755
20
141.0805895
40
0.3016103
50
50.4081875
51
57.3048796
0
ARC
8
DEFAULT_255_2_778
10
24.2877982
20
141.0211654
40
0.3741984
50
56.8364898
51
62.3769849
0
ARC
8
DEFAULT_255_2_778
10
24.28814
20
141.0136328
40
0.3807328
50
62.9481613
51
73.8885366
0
ARC
8
DEFAULT_255_2_778
10
24.2670889
20
140.9385292
40
0.4587288
50
73.9656601
51
83.0752362
0
ARC
8
DEFAULT_255_2_778
10
24.2506175
20
140.794372
40
0.6038212
50
83.1728881
51
88.3661725
0
ARC
8
DEFAULT_255_2_778
10
24.2496175
20
140.7696354
40
0.6285763
50
88.3393511
51
90.0019622
0
ARC
8
DEFAULT_255_2_778
10
24.2465695
20
140.8257489
40
0.5724709
50
89.6970917
51
89.9999812
0
ARC
8
DEFAULT_255_2_778
10
24.2469149
20
140.8228993
40
0.5753207
50
90.0343804
51
100.8623168
0
ARC
8
DEFAULT_255_2_778
10
24.2389848
20
140.8993355
40
0.4988033
50
101.6223357
51
108.0422893
0
ARC
8
DEFAULT_255_2_778
10
24.1842355
20
141.0567304
40
0.3314494
50
117.1678817
51
126.7770363
0
ARC
8
DEFAULT_255_2_778
10
24.2018091
20
141.037962
40
0.356995
50
136.1648377
51
145.0223692
0
ARC
8
DEFAULT_255_2_778
10
24.2391207
20
141.0128006
40
0.4019919
50
145.1324686
51
153.0462783
0
ARC
8
DEFAULT_255_2_778
10
24.2366131
20
141.0166263
40
0.2801912
50
140.8273325
51
153.1648208
0
ARC
8
DEFAULT_255_2_778
10
24.1757512
20
141.0680177
40
0.2005513
50
132.4863643
51
141.2264384
0
ARC
8
DEFAULT_255_2_778
10
24.2250222
20
141.0124393
40
0.2748177
50
125.8435707
51
132.2353196
0
ARC
8
DEFAULT_255_2_778
10
24.2077265
20
141.0330364
40
0.2480012
50
118.3409725
51
125.3909707
0
ARC
8
DEFAULT_255_2_778
10
24.226971
20
140.9733263
40
0.3101134
50
99.0117061
51
110.4942779
0
ARC
8
DEFAULT_255_2_778
10
24.2532609
20
140.7879389
40
0.4973399
50
90.9406827
51
98.6576872
0
ARC
8
DEFAULT_255_2_778
10
24.2509634
20
140.8505684
40
0.434683
50
89.9961301
51
90.7734056
0
ARC
8
DEFAULT_255_2_778
10
24.250997
20
140.8514729
40
0.4337786
50
81.9828393
51
90.0005695
0
ARC
8
DEFAULT_255_2_778
10
24.2701652
20
140.9653014
40
0.3181396
50
75.6101592
51
76.4698826
0
ARC
8
DEFAULT_255_2_778
10
24.2899906
20
141.038379
40
0.2424299
50
69.0692768
51
75.8565049
0
ARC
8
DEFAULT_255_2_778
10
24.3172566
20
141.0758765
40
0.1971919
50
53.121288
51
62.8315557
0
ARC
8
DEFAULT_255_2_778
10
24.3037294
20
141.053526
40
0.2232033
50
45.3120527
51
53.7867954
0
ARC
8
DEFAULT_255_2_778
10
24.3033708
20
141.0510406
40
0.2252273
50
37.2315843
51
45.6918235
0
ARC
8
DEFAULT_255_2_778
10
24.2674438
20
141.0253259
40
0.2693936
50
22.9596656
51
36.9629243
0
ARC
8
DEFAULT_255_2_778
10
24.1778273
20
140.9869466
40
0.366882
50
12.7972724
51
23.0191608
0
ARC
8
DEFAULT_255_2_778
10
24.0297044
20
140.9543526
40
0.5185462
50
5.4621117
51
12.6839952
0
ARC
8
DEFAULT_255_2_778
10
24.2386974
20
140.9340394
40
0.310428
50
0.0027084
51
0.7885739
0
ARC
8
DEFAULT_255_2_778
10
24.2273534
20
140.9344846
40
0.3217723
50
349.0769405
51
359.9233404
0
ARC
8
DEFAULT_255_2_778
10
24.3156979
20
140.922306
40
0.2327698
50
339.6899872
51
347.899642
0
ARC
8
DEFAULT_255_2_778
10
24.3581792
20
140.9081958
40
0.1880381
50
329.1998108
51
339.2291895
0
ARC
8
DEFAULT_255_2_778
10
24.3284617
20
140.924743
40
0.2220393
50
320.8679149
51
329.4587271
0
ARC
8
DEFAULT_255_2_778
10
24.296148
20
140.9491087
40
0.2624865
50
313.9119442
51
321.1938521
0
ARC
8
DEFAULT_255_2_778
10
24.3115138
20
140.9340534
40
0.2409843
50
305.804867
51
313.7626364
0
ARC
8
DEFAULT_255_2_778
10
24.2771296
20
140.9787745
40
0.2973744
50
299.6400548
51
306.1368462
0
ARC
8
DEFAULT_255_2_778
10
24.231766
20
141.0581483
40
0.3887966
50
289.7890051
51
299.6656176
0
ARC
8
DEFAULT_255_2_778
10
24.2380819
20
140.1484656
40
0.3812663
50
62.9455381
51
71.8741229
0
ARC
8
DEFAULT_255_2_778
10
24.3128662
20
140.2523817
40
0.2533307
50
40.7100135
51
53.992795
0
ARC
8
DEFAULT_255_2_778
10
24.3468427
20
140.2791718
40
0.2101106
50
33.2297065
51
41.2153313
0
ARC
8
DEFAULT_255_2_778
10
24.3245084
20
140.256705
40
0.2411935
50
27.8852499
51
34.7867932
0
ARC
8
DEFAULT_255_2_778
10
24.3528335
20
140.2720604
40
0.2089759
50
19.8475982
51
27.7962233
0
ARC
8
DEFAULT_255_2_778
10
24.3386717
20
140.2684429
40
0.223529
50
12.0247688
51
19.4872987
0
ARC
8
DEFAULT_255_2_778
10
24.2803189
20
140.2580138
40
0.282781
50
0.0794653
51
11.6283217
0
ARC
8
DEFAULT_255_2_778
10
24.2930389
20
140.2583674
40
0.2700607
50
359.7123766
51
0.0081843
0
ARC
8
DEFAULT_255_2_778
10
23.7305423
20
140.2620423
40
0.8325688
50
352.0931571
51
359.653806
0
ARC
8
DEFAULT_255_2_778
10
24.1358783
20
140.1913235
40
0.4205503
50
339.0000029
51
346.5509601
0
ARC
8
DEFAULT_255_2_778
10
24.2333793
20
140.1519325
40
0.3154143
50
329.3024883
51
339.3330599
0
ARC
8
DEFAULT_255_2_778
10
24.2801891
20
140.1215957
40
0.2596858
50
323.6324932
51
329.785509
0
ARC
8
DEFAULT_255_2_778
10
24.2927667
20
140.1113712
40
0.2434965
50
317.2583951
51
323.8148478
0
ARC
8
DEFAULT_255_2_778
10
24.2805654
20
140.1249432
40
0.2616742
50
310.7847556
51
316.8890853
0
ARC
8
DEFAULT_255_2_778
10
24.2936115
20
140.1135853
40
0.2445646
50
303.6125184
51
310.2087067
0
ARC
8
DEFAULT_255_2_778
10
24.2853938
20
140.1252004
40
0.2587871
50
291.2518608
51
303.7041396
0
ARC
8
DEFAULT_255_2_778
10
24.2404941
20
140.2766909
40
0.4175806
50
273.9687739
51
281.7170788
0
ARC
8
DEFAULT_255_2_778
10
24.2305015
20
140.1912047
40
0.3325617
50
269.9979039
51
271.8255901
0
ARC
8
DEFAULT_255_2_778
10
24.2304707
20
140.1926205
40
0.3339775
50
269.3952943
51
270.0031896
0
ARC
8
DEFAULT_255_2_778
10
24.2304508
20
140.1915643
40
0.332921
50
266.9601681
51
269.3968009
0
ARC
8
DEFAULT_255_2_778
10
24.2213498
20
140.249196
40
0.390178
50
260.4619133
51
268.7438181
0
ARC
8
DEFAULT_255_2_778
10
24.1939405
20
140.1172633
40
0.2554707
50
248.9057971
51
255.249727
0
ARC
8
DEFAULT_255_2_778
10
24.1777145
20
140.0690968
40
0.2047038
50
240.3978321
51
248.2909838
0
ARC
8
DEFAULT_255_2_778
10
24.1645509
20
140.0450243
40
0.1772714
50
231.1269558
51
240.2537449
0
ARC
8
DEFAULT_255_2_778
10
24.1845
20
140.069266
40
0.2086646
50
215.6289482
51
231.039871
0
ARC
8
DEFAULT_255_2_778
10
24.2425888
20
140.1099725
40
0.2795936
50
203.964062
51
215.4748177
0
ARC
8
DEFAULT_255_2_778
10
24.2492163
20
140.1124873
40
0.4026035
50
203.9566917
51
211.2692513
0
LINE
8
DEFAULT_255_2_778
10
19.151596
20
141.3656117
11
19.948296
21
141.3656117
0
LINE
8
DEFAULT_255_2_778
10
19.948296
20
141.3656117
11
19.948296
21
141.2524117
0
LINE
8
DEFAULT_255_2_778
10
19.948296
20
141.2524117
11
19.262496
21
141.2524117
0
LINE
8
DEFAULT_255_2_778
10
19.262496
20
141.2524117
11
19.262496
21
140.6666117
0
LINE
8
DEFAULT_255_2_778
10
19.262496
20
140.6666117
11
19.905896
21
140.6666117
0
LINE
8
DEFAULT_255_2_778
10
19.905896
20
140.6666117
11
19.905896
21
140.5557117
0
LINE
8
DEFAULT_255_2_778
10
19.905896
20
140.5557117
11
19.262496
21
140.5557117
0
LINE
8
DEFAULT_255_2_778
10
19.262496
20
140.5557117
11
19.262496
21
139.8811117
0
LINE
8
DEFAULT_255_2_778
10
19.262496
20
139.8811117
11
19.948296
21
139.8811117
0
LINE
8
DEFAULT_255_2_778
10
19.948296
20
139.8811117
11
19.948296
21
139.7702117
0
LINE
8
DEFAULT_255_2_778
10
19.948296
20
139.7702117
11
19.151596
21
139.7702117
0
LINE
8
DEFAULT_255_2_778
10
19.151596
20
139.7702117
11
19.151596
21
141.3656117
0
LINE
8
DEFAULT_255_2_778
10
21.086996
20
141.1003117
11
21.086496
21
141.1010117
0
LINE
8
DEFAULT_255_2_778
10
21.367496
20
141.3656117
11
21.367496
21
141.2675117
0
LINE
8
DEFAULT_255_2_778
10
21.367496
20
141.2675117
11
22.054896
21
141.2675117
0
LINE
8
DEFAULT_255_2_778
10
22.054896
20
141.2675117
11
21.612996
21
139.8109117
0
LINE
8
DEFAULT_255_2_778
10
21.612996
20
139.8109117
11
21.711196
21
139.7781117
0
LINE
8
DEFAULT_255_2_778
10
21.711196
20
139.7781117
11
22.161196
21
141.2019117
0
LINE
8
DEFAULT_255_2_778
10
22.161196
20
141.2019117
11
22.161196
21
141.3656117
0
LINE
8
DEFAULT_255_2_778
10
22.161196
20
141.3656117
11
21.367496
21
141.3656117
0
LINE
8
DEFAULT_255_2_778
10
23.613496
20
141.3656117
11
22.888796
21
141.3656117
0
LINE
8
DEFAULT_255_2_778
10
22.888796
20
141.3656117
11
22.888796
21
140.4891117
0
LINE
8
DEFAULT_255_2_778
10
22.888796
20
140.4891117
11
23.046496
21
140.4891117
0
LINE
8
DEFAULT_255_2_778
10
23.613796
20
141.3656117
11
23.613496
21
141.3656117
0
LINE
8
DEFAULT_255_2_778
10
23.918296
20
139.8834117
11
23.925496
21
139.8728117
0
LINE
8
DEFAULT_255_2_778
10
23.925496
20
139.8728117
11
23.933096
21
139.8625117
0
LINE
8
DEFAULT_255_2_778
10
23.950296
20
139.8432117
11
23.969696
21
139.8255117
0
LINE
8
DEFAULT_255_2_778
10
24.059096
20
139.7731117
11
24.083996
21
139.7641117
0
LINE
8
DEFAULT_255_2_778
10
24.083996
20
139.7641117
11
24.109096
21
139.7570117
0
LINE
8
DEFAULT_255_2_778
10
24.160996
20
139.7482117
11
24.213596
21
139.7451117
0
LINE
8
DEFAULT_255_2_778
10
24.467596
20
139.7988117
11
24.490396
21
139.8123117
0
LINE
8
DEFAULT_255_2_778
10
24.490396
20
139.8123117
11
24.511796
21
139.8273117
0
LINE
8
DEFAULT_255_2_778
10
24.550696
20
139.8615117
11
24.568096
21
139.8805117
0
LINE
8
DEFAULT_255_2_778
10
24.568096
20
139.8805117
11
24.584296
21
139.9009117
0
LINE
8
DEFAULT_255_2_778
10
24.652296
20
140.0395117
11
24.664696
21
140.0890117
0
LINE
8
DEFAULT_255_2_778
10
24.678196
20
140.1903117
11
24.680096
21
140.2417117
0
LINE
8
DEFAULT_255_2_778
10
24.680096
20
140.2417117
11
24.679796
21
140.2673117
0
LINE
8
DEFAULT_255_2_778
10
24.679796
20
140.2673117
11
24.678496
21
140.2930117
0
LINE
8
DEFAULT_255_2_778
10
24.671096
20
140.3438117
11
24.664496
21
140.3689117
0
LINE
8
DEFAULT_255_2_778
10
24.664496
20
140.3689117
11
24.655996
21
140.3933117
0
LINE
8
DEFAULT_255_2_778
10
24.633196
20
140.4396117
11
24.618696
21
140.4613117
0
LINE
8
DEFAULT_255_2_778
10
24.618696
20
140.4613117
11
24.602496
21
140.4814117
0
LINE
8
DEFAULT_255_2_778
10
24.565196
20
140.5176117
11
24.544296
21
140.5335117
0
LINE
8
DEFAULT_255_2_778
10
24.544296
20
140.5335117
11
24.522396
21
140.5481117
0
LINE
8
DEFAULT_255_2_778
10
24.431096
20
140.6002117
11
24.494296
21
140.6346117
0
LINE
8
DEFAULT_255_2_778
10
24.494296
20
140.6346117
11
24.509696
21
140.6438117
0
LINE
8
DEFAULT_255_2_778
10
24.509696
20
140.6438117
11
24.524796
21
140.6536117
0
LINE
8
DEFAULT_255_2_778
10
24.553296
20
140.6753117
11
24.579496
21
140.6997117
0
LINE
8
DEFAULT_255_2_778
10
24.579496
20
140.6997117
11
24.603296
21
140.7269117
0
LINE
8
DEFAULT_255_2_778
10
24.639596
20
140.7883117
11
24.646496
21
140.8050117
0
LINE
8
DEFAULT_255_2_778
10
24.646496
20
140.8050117
11
24.651996
21
140.8219117
0
LINE
8
DEFAULT_255_2_778
10
24.665996
20
140.9269117
11
24.665796
21
140.9621117
0
LINE
8
DEFAULT_255_2_778
10
24.665796
20
140.9621117
11
24.663896
21
140.9973117
0
LINE
8
DEFAULT_255_2_778
10
24.663896
20
140.9973117
11
24.655196
21
141.0674117
0
LINE
8
DEFAULT_255_2_778
10
24.610696
20
141.2021117
11
24.592796
21
141.2331117
0
LINE
8
DEFAULT_255_2_778
10
24.592796
20
141.2331117
11
24.571896
21
141.2622117
0
LINE
8
DEFAULT_255_2_778
10
24.084496
20
141.3736117
11
24.057996
21
141.3635117
0
LINE
8
DEFAULT_255_2_778
10
24.057996
20
141.3635117
11
24.032896
21
141.3516117
0
LINE
8
DEFAULT_255_2_778
10
23.985796
20
141.3222117
11
23.964096
21
141.3045117
0
LINE
8
DEFAULT_255_2_778
10
23.964096
20
141.3045117
11
23.944296
21
141.2852117
0
LINE
8
DEFAULT_255_2_778
10
23.880796
20
141.1950117
11
23.986596
21
141.1431117
0
LINE
8
DEFAULT_255_2_778
10
24.089996
20
141.2513117
11
24.103796
21
141.2579117
0
LINE
8
DEFAULT_255_2_778
10
24.103796
20
141.2579117
11
24.118396
21
141.2638117
0
LINE
8
DEFAULT_255_2_778
10
24.311496
20
141.2810117
11
24.344596
21
141.2746117
0
LINE
8
DEFAULT_255_2_778
10
24.376596
20
141.2648117
11
24.407296
21
141.2513117
0
LINE
8
DEFAULT_255_2_778
10
24.545896
20
141.0037117
11
24.549096
21
140.9383117
0
LINE
8
DEFAULT_255_2_778
10
24.363396
20
140.6923117
11
24.331296
21
140.6817117
0
LINE
8
DEFAULT_255_2_778
10
24.331296
20
140.6817117
11
24.298796
21
140.6716117
0
LINE
8
DEFAULT_255_2_778
10
24.298796
20
140.6716117
11
24.233696
21
140.6520117
0
LINE
8
DEFAULT_255_2_778
10
24.233696
20
140.6520117
11
24.240596
21
140.5393117
0
LINE
8
DEFAULT_255_2_778
10
24.240596
20
140.5393117
11
24.299296
21
140.5272117
0
LINE
8
DEFAULT_255_2_778
10
24.299296
20
140.5272117
11
24.328196
21
140.5195117
0
LINE
8
DEFAULT_255_2_778
10
24.328196
20
140.5195117
11
24.356696
21
140.5108117
0
LINE
8
DEFAULT_255_2_778
10
24.411496
20
140.4880117
11
24.437196
21
140.4737117
0
LINE
8
DEFAULT_255_2_778
10
24.437196
20
140.4737117
11
24.461796
21
140.4573117
0
LINE
8
DEFAULT_255_2_778
10
24.555196
20
140.1475117
11
24.544896
21
140.0935117
0
LINE
8
DEFAULT_255_2_778
10
24.379196
20
139.8840117
11
24.352496
21
139.8747117
0
LINE
8
DEFAULT_255_2_778
10
24.352496
20
139.8747117
11
24.325296
21
139.8678117
0
LINE
8
DEFAULT_255_2_778
10
24.269396
20
139.8601117
11
24.241096
21
139.8588117
0
LINE
8
DEFAULT_255_2_778
10
24.156696
20
139.8644117
11
24.128896
21
139.8702117
0
LINE
8
DEFAULT_255_2_778
10
23.987096
20
139.9964117
11
23.881296
21
139.9490117
0
LINE
8
DEFAULT_255_2_778
10
29.040396
20
141.3987117
11
29.801596
21
141.3987117
0
LINE
8
DEFAULT_255_2_778
10
29.801596
20
141.3987117
11
29.801596
21
141.2855117
0
LINE
8
DEFAULT_255_2_778
10
29.801596
20
141.2855117
11
29.153596
21
141.2855117
0
LINE
8
DEFAULT_255_2_778
10
29.153596
20
141.2855117
11
29.153596
21
140.6997117
0
LINE
8
DEFAULT_255_2_778
10
29.153596
20
140.6997117
11
29.761696
21
140.6997117
0
LINE
8
DEFAULT_255_2_778
10
29.761696
20
140.6997117
11
29.761696
21
140.5888117
0
LINE
8
DEFAULT_255_2_778
10
29.761696
20
140.5888117
11
29.153596
21
140.5888117
0
LINE
8
DEFAULT_255_2_778
10
29.153596
20
140.5888117
11
29.153596
21
139.8033117
0
LINE
8
DEFAULT_255_2_778
10
29.153596
20
139.8033117
11
29.040396
21
139.8033117
0
LINE
8
DEFAULT_255_2_778
10
29.040396
20
139.8033117
11
29.040396
21
141.3987117
0
ARC
8
DEFAULT_255_2_778
10
30.3405388
20
140.2274563
40
0.3356196
50
270.0031713
51
270.6348143
0
ARC
8
DEFAULT_255_2_778
10
30.3407493
20
140.2313986
40
0.3395619
50
256.9121518
51
269.9676262
0
ARC
8
DEFAULT_255_2_778
10
30.3763896
20
140.1595644
40
0.2956029
50
199.1575558
51
214.8005979
0
ARC
8
DEFAULT_255_2_778
10
30.6333492
20
140.2606101
40
0.5716001
50
192.8016076
51
200.2726773
0
ARC
8
DEFAULT_255_2_778
10
31.470821
20
140.4022572
40
1.4215708
50
181.9309506
51
187.9045887
0
ARC
8
DEFAULT_255_2_778
10
30.6303039
20
140.9158297
40
0.571482
50
161.8175441
51
169.2466917
0
ARC
8
DEFAULT_255_2_778
10
30.3654242
20
141.0185789
40
0.2871181
50
135.1253715
51
149.9263835
0
ARC
8
DEFAULT_255_2_778
10
30.2970965
20
141.089272
40
0.1888288
50
120.7472835
51
135.6981613
0
ARC
8
DEFAULT_255_2_778
10
30.383132
20
141.0768322
40
0.2027642
50
45.1797965
51
59.2324606
0
ARC
8
DEFAULT_255_2_778
10
30.2947131
20
141.0026405
40
0.3178859
50
26.2740105
51
43.3011823
0
ARC
8
DEFAULT_255_2_778
10
30.2405169
20
140.9761491
40
0.3782097
50
19.076138
51
26.2382201
0
ARC
8
DEFAULT_255_2_778
10
29.8826166
20
140.307427
40
0.7500795
50
345.2738507
51
352.4873097
0
ARC
8
DEFAULT_255_2_778
10
30.2579658
20
140.1912341
40
0.3566962
50
332.8845242
51
340.43026
0
ARC
8
DEFAULT_255_2_778
10
30.3180898
20
140.1595598
40
0.4006962
50
315.0065631
51
330.9442057
0
ARC
8
DEFAULT_255_2_778
10
29.9981088
20
140.2833512
40
0.7444213
50
343.1732677
51
351.713062
0
ARC
8
DEFAULT_255_2_778
10
30.0821989
20
140.9265382
40
0.6569101
50
11.9143908
51
21.5338195
0
ARC
8
DEFAULT_255_2_778
10
30.311169
20
141.0147048
40
0.4115652
50
21.8165503
51
29.5620876
0
ARC
8
DEFAULT_255_2_778
10
30.3400712
20
140.9526938
40
0.4454832
50
89.4615933
51
103.8862639
0
ARC
8
DEFAULT_255_2_778
10
30.9739248
20
140.8371894
40
1.036066
50
167.566709
51
173.6790853
0
ARC
8
DEFAULT_255_2_778
10
30.7780921
20
140.3016358
40
0.8367874
50
188.6657368
51
196.2800341
0
ARC
8
DEFAULT_255_2_778
10
30.3349547
20
140.139896
40
0.363668
50
208.8612134
51
226.4641733
0
ARC
8
DEFAULT_255_2_778
10
30.3013914
20
140.0876214
40
0.3028781
50
224.2549177
51
237.6125813
0
ARC
8
DEFAULT_255_2_778
10
30.3777649
20
140.0956471
40
0.3134613
50
302.4934486
51
315.5302547
0
LINE
8
DEFAULT_255_2_778
10
30.2638573
20
139.9006573
11
30.2251573
21
139.9133573
0
LINE
8
DEFAULT_255_2_778
10
30.2251573
20
139.9133573
11
30.1897573
21
139.9328573
0
LINE
8
DEFAULT_255_2_778
10
30.1897573
20
139.9328573
11
30.1735573
21
139.9453573
0
LINE
8
DEFAULT_255_2_778
10
30.1735573
20
139.9453573
11
30.1590573
21
139.9593573
0
LINE
8
DEFAULT_255_2_778
10
30.1590573
20
139.9593573
11
30.1336573
21
139.9908573
0
LINE
8
DEFAULT_255_2_778
10
30.0759573
20
140.1339573
11
30.0627573
21
140.2067573
0
LINE
8
DEFAULT_255_2_778
10
30.0500573
20
140.3543573
11
30.0489573
21
140.3916573
0
LINE
8
DEFAULT_255_2_778
10
30.0489573
20
140.3916573
11
30.0481573
21
140.4287573
0
LINE
8
DEFAULT_255_2_778
10
30.0481573
20
140.4287573
11
30.0471573
21
140.5030573
0
LINE
8
DEFAULT_255_2_778
10
30.0471573
20
140.5030573
11
30.0468573
21
140.5774573
0
LINE
8
DEFAULT_255_2_778
10
30.0468573
20
140.5774573
11
30.0468573
21
140.6517573
0
LINE
8
DEFAULT_255_2_778
10
30.0468573
20
140.6517573
11
30.0489573
21
140.8004573
0
LINE
8
DEFAULT_255_2_778
10
30.0489573
20
140.8004573
11
30.0582573
21
140.9486573
0
LINE
8
DEFAULT_255_2_778
10
30.0582573
20
140.9486573
11
30.0627573
21
140.9856573
0
LINE
8
DEFAULT_255_2_778
10
30.0627573
20
140.9856573
11
30.0688573
21
141.0224573
0
LINE
8
DEFAULT_255_2_778
10
30.0873573
20
141.0941573
11
30.1003573
21
141.1290573
0
LINE
8
DEFAULT_255_2_778
10
30.1003573
20
141.1290573
11
30.1169573
21
141.1624573
0
LINE
8
DEFAULT_255_2_778
10
30.2005573
20
141.2515573
11
30.2225573
21
141.2629573
0
LINE
8
DEFAULT_255_2_778
10
30.2225573
20
141.2629573
11
30.2458573
21
141.2716573
0
LINE
8
DEFAULT_255_2_778
10
30.2458573
20
141.2716573
11
30.2698573
21
141.2780573
0
LINE
8
DEFAULT_255_2_778
10
30.2698573
20
141.2780573
11
30.2945573
21
141.2822573
0
LINE
8
DEFAULT_255_2_778
10
30.2945573
20
141.2822573
11
30.3437573
21
141.2851573
0
LINE
8
DEFAULT_255_2_778
10
30.3437573
20
141.2851573
11
30.3929573
21
141.2819573
0
LINE
8
DEFAULT_255_2_778
10
30.3929573
20
141.2819573
11
30.4413573
21
141.2711573
0
LINE
8
DEFAULT_255_2_778
10
30.4413573
20
141.2711573
11
30.4646573
21
141.2624573
0
LINE
8
DEFAULT_255_2_778
10
30.4646573
20
141.2624573
11
30.4868573
21
141.2510573
0
LINE
8
DEFAULT_255_2_778
10
30.5979573
20
141.0997573
11
30.6117573
21
141.0547573
0
LINE
8
DEFAULT_255_2_778
10
30.6117573
20
141.0547573
11
30.6215573
21
141.0089573
0
LINE
8
DEFAULT_255_2_778
10
30.6215573
20
141.0089573
11
30.6284573
21
140.9623573
0
LINE
8
DEFAULT_255_2_778
10
30.6284573
20
140.9623573
11
30.6366573
21
140.8684573
0
LINE
8
DEFAULT_255_2_778
10
30.6366573
20
140.8684573
11
30.6387573
21
140.8213573
0
LINE
8
DEFAULT_255_2_778
10
30.6387573
20
140.8213573
11
30.6397573
21
140.7742573
0
LINE
8
DEFAULT_255_2_778
10
30.6397573
20
140.7742573
11
30.6411573
21
140.6800573
0
LINE
8
DEFAULT_255_2_778
10
30.6411573
20
140.6800573
11
30.6413573
21
140.5858573
0
LINE
8
DEFAULT_255_2_778
10
30.6413573
20
140.5858573
11
30.6411573
21
140.4916573
0
LINE
8
DEFAULT_255_2_778
10
30.6411573
20
140.4916573
11
30.6395573
21
140.3974573
0
LINE
8
DEFAULT_255_2_778
10
30.6395573
20
140.3974573
11
30.6381573
21
140.3504573
0
LINE
8
DEFAULT_255_2_778
10
30.6381573
20
140.3504573
11
30.6358573
21
140.3033573
0
LINE
8
DEFAULT_255_2_778
10
30.6358573
20
140.3033573
11
30.6262573
21
140.2093573
0
LINE
8
DEFAULT_255_2_778
10
30.6080573
20
140.1167573
11
30.5940573
21
140.0717573
0
LINE
8
DEFAULT_255_2_778
10
30.5754573
20
140.0286573
11
30.5511573
21
139.9884573
0
LINE
8
DEFAULT_255_2_778
10
30.5511573
20
139.9884573
11
30.5363573
21
139.9696573
0
LINE
8
DEFAULT_255_2_778
10
30.5363573
20
139.9696573
11
30.5201573
21
139.9522573
0
LINE
8
DEFAULT_255_2_778
10
30.5201573
20
139.9522573
11
30.5022573
21
139.9365573
0
LINE
8
DEFAULT_255_2_778
10
30.5022573
20
139.9365573
11
30.4820573
21
139.9233573
0
LINE
8
DEFAULT_255_2_778
10
30.4820573
20
139.9233573
11
30.4384573
21
139.9043573
0
LINE
8
DEFAULT_255_2_778
10
30.4384573
20
139.9043573
11
30.4151573
21
139.8982573
0
LINE
8
DEFAULT_255_2_778
10
30.4151573
20
139.8982573
11
30.3916573
21
139.8942573
0
LINE
8
DEFAULT_255_2_778
10
30.3916573
20
139.8942573
11
30.3442573
21
139.8918573
0
LINE
8
DEFAULT_255_2_778
10
30.6683573
20
139.9649573
11
30.6810573
21
139.9897573
0
LINE
8
DEFAULT_255_2_778
10
30.6810573
20
139.9897573
11
30.6921573
21
140.0154573
0
LINE
8
DEFAULT_255_2_778
10
30.6921573
20
140.0154573
11
30.7106573
21
140.0678573
0
LINE
8
DEFAULT_255_2_778
10
30.7347573
20
140.1760573
11
30.7421573
21
140.2313573
0
LINE
8
DEFAULT_255_2_778
10
30.7421573
20
140.2313573
11
30.7469573
21
140.2866573
0
LINE
8
DEFAULT_255_2_778
10
30.7469573
20
140.2866573
11
30.7495573
21
140.3421573
0
LINE
8
DEFAULT_255_2_778
10
30.7495573
20
140.3421573
11
30.7501573
21
140.3699573
0
LINE
8
DEFAULT_255_2_778
10
30.7501573
20
140.3699573
11
30.7506573
21
140.3977573
0
LINE
8
DEFAULT_255_2_778
10
30.7506573
20
140.3977573
11
30.7519573
21
140.5086573
0
LINE
8
DEFAULT_255_2_778
10
30.7519573
20
140.5086573
11
30.7522573
21
140.6194573
0
LINE
8
DEFAULT_255_2_778
10
30.7522573
20
140.6194573
11
30.7514573
21
140.7306573
0
LINE
8
DEFAULT_255_2_778
10
30.7514573
20
140.7306573
11
30.7506573
21
140.7861573
0
LINE
8
DEFAULT_255_2_778
10
30.7506573
20
140.7861573
11
30.7493573
21
140.8417573
0
LINE
8
DEFAULT_255_2_778
10
30.7493573
20
140.8417573
11
30.7419573
21
140.9523573
0
LINE
8
DEFAULT_255_2_778
10
30.7419573
20
140.9523573
11
30.7350573
21
141.0073573
0
LINE
8
DEFAULT_255_2_778
10
30.7350573
20
141.0073573
11
30.7249573
21
141.0621573
0
LINE
8
DEFAULT_255_2_778
10
30.6691573
20
141.2177573
11
30.6381573
21
141.2640573
0
LINE
8
DEFAULT_255_2_778
10
30.6381573
20
141.2640573
11
30.6008573
21
141.3055573
0
LINE
8
DEFAULT_255_2_778
10
30.6008573
20
141.3055573
11
30.5799573
21
141.3240573
0
LINE
8
DEFAULT_255_2_778
10
30.5799573
20
141.3240573
11
30.5575573
21
141.3404573
0
LINE
8
DEFAULT_255_2_778
10
30.5575573
20
141.3404573
11
30.5088573
21
141.3669573
0
LINE
8
DEFAULT_255_2_778
10
30.5088573
20
141.3669573
11
30.4826573
21
141.3769573
0
LINE
8
DEFAULT_255_2_778
10
30.4826573
20
141.3769573
11
30.4556573
21
141.3849573
0
LINE
8
DEFAULT_255_2_778
10
30.4556573
20
141.3849573
11
30.4006573
21
141.3949573
0
LINE
8
DEFAULT_255_2_778
10
30.4006573
20
141.3949573
11
30.3442573
21
141.3981573
0
LINE
8
DEFAULT_255_2_778
10
30.2331573
20
141.3851573
11
30.1799573
21
141.3669573
0
LINE
8
DEFAULT_255_2_778
10
30.1799573
20
141.3669573
11
30.1307573
21
141.3402573
0
LINE
8
DEFAULT_255_2_778
10
30.1307573
20
141.3402573
11
30.1079573
21
141.3235573
0
LINE
8
DEFAULT_255_2_778
10
30.1079573
20
141.3235573
11
30.0868573
21
141.3050573
0
LINE
8
DEFAULT_255_2_778
10
30.0868573
20
141.3050573
11
30.0495573
21
141.2634573
0
LINE
8
DEFAULT_255_2_778
10
30.0495573
20
141.2634573
11
30.0330573
21
141.2404573
0
LINE
8
DEFAULT_255_2_778
10
30.0330573
20
141.2404573
11
30.0185573
21
141.2166573
0
LINE
8
DEFAULT_255_2_778
10
30.0185573
20
141.2166573
11
30.0058573
21
141.1920573
0
LINE
8
DEFAULT_255_2_778
10
30.0058573
20
141.1920573
11
29.9947573
21
141.1666573
0
LINE
8
DEFAULT_255_2_778
10
29.9947573
20
141.1666573
11
29.9764573
21
141.1139573
0
LINE
8
DEFAULT_255_2_778
10
29.9764573
20
141.1139573
11
29.9621573
21
141.0602573
0
LINE
8
DEFAULT_255_2_778
10
29.9441573
20
140.9512573
11
29.9362573
21
140.8409573
0
LINE
8
DEFAULT_255_2_778
10
29.9362573
20
140.8409573
11
29.9349573
21
140.7853573
0
LINE
8
DEFAULT_255_2_778
10
29.9349573
20
140.7853573
11
29.9341573
21
140.7298573
0
LINE
8
DEFAULT_255_2_778
10
29.9341573
20
140.7298573
11
29.9333573
21
140.6186573
0
LINE
8
DEFAULT_255_2_778
10
29.9333573
20
140.6186573
11
29.9336573
21
140.5075573
0
LINE
8
DEFAULT_255_2_778
10
29.9336573
20
140.5075573
11
29.9349573
21
140.3964573
0
LINE
8
DEFAULT_255_2_778
10
29.9349573
20
140.3964573
11
29.9362573
21
140.3408573
0
LINE
8
DEFAULT_255_2_778
10
29.9362573
20
140.3408573
11
29.9389573
21
140.2855573
0
LINE
8
DEFAULT_255_2_778
10
29.9389573
20
140.2855573
11
29.9508573
21
140.1755573
0
LINE
8
DEFAULT_255_2_778
10
29.9748573
20
140.0670573
11
29.9928573
21
140.0146573
0
LINE
8
DEFAULT_255_2_778
10
29.9928573
20
140.0146573
11
30.0037573
21
139.9892573
0
LINE
8
DEFAULT_255_2_778
10
30.0037573
20
139.9892573
11
30.0164573
21
139.9643573
0
LINE
8
DEFAULT_255_2_778
10
30.1391573
20
139.8318573
11
30.1701573
21
139.8146573
0
LINE
8
DEFAULT_255_2_778
10
30.1701573
20
139.8146573
11
30.2029573
21
139.8008573
0
LINE
8
DEFAULT_255_2_778
10
30.2029573
20
139.8008573
11
30.2717573
21
139.7839573
0
LINE
8
DEFAULT_255_2_778
10
30.2717573
20
139.7839573
11
30.3423573
21
139.7786573
0
LINE
8
DEFAULT_255_2_778
10
30.3423573
20
139.7786573
11
30.4130573
21
139.7833573
0
LINE
8
DEFAULT_255_2_778
10
30.4130573
20
139.7833573
11
30.4479573
21
139.7902573
0
LINE
8
DEFAULT_255_2_778
10
30.4479573
20
139.7902573
11
30.4820573
21
139.8003573
0
LINE
8
DEFAULT_255_2_778
10
30.4820573
20
139.8003573
11
30.5149573
21
139.8138573
0
LINE
8
DEFAULT_255_2_778
10
30.5149573
20
139.8138573
11
30.5461573
21
139.8312573
0
LINE
8
DEFAULT_255_2_778
10
30.6014573
20
139.8760573
11
30.6014573
21
139.8762573
0
ARC
8
DEFAULT_255_2_778
10
31.3327388
20
140.2274563
40
0.3356196
50
270.0031713
51
270.6348143
0
ARC
8
DEFAULT_255_2_778
10
31.3329493
20
140.2313986
40
0.3395619
50
256.9121518
51
269.9676262
0
ARC
8
DEFAULT_255_2_778
10
31.3685896
20
140.1595644
40
0.2956029
50
199.1575558
51
214.8005979
0
ARC
8
DEFAULT_255_2_778
10
31.6255492
20
140.2606101
40
0.5716001
50
192.8016076
51
200.2726773
0
ARC
8
DEFAULT_255_2_778
10
32.463021
20
140.4022572
40
1.4215708
50
181.9309506
51
187.9045887
0
ARC
8
DEFAULT_255_2_778
10
31.6225039
20
140.9158297
40
0.571482
50
161.8175441
51
169.2466917
0
ARC
8
DEFAULT_255_2_778
10
31.3576242
20
141.0185789
40
0.2871181
50
135.1253715
51
149.9263835
0
ARC
8
DEFAULT_255_2_778
10
31.2892965
20
141.089272
40
0.1888288
50
120.7472835
51
135.6981613
0
ARC
8
DEFAULT_255_2_778
10
31.375332
20
141.0768322
40
0.2027642
50
45.1797965
51
59.2324606
0
ARC
8
DEFAULT_255_2_778
10
31.2869131
20
141.0026405
40
0.3178859
50
26.2740105
51
43.3011823
0
ARC
8
DEFAULT_255_2_778
10
31.2327169
20
140.9761491
40
0.3782097
50
19.076138
51
26.2382201
0
ARC
8
DEFAULT_255_2_778
10
30.8748166
20
140.307427
40
0.7500795
50
345.2738507
51
352.4873097
0
ARC
8
DEFAULT_255_2_778
10
31.2501658
20
140.1912341
40
0.3566962
50
332.8845242
51
340.43026
0
ARC
8
DEFAULT_255_2_778
10
31.3102898
20
140.1595598
40
0.4006962
50
315.0065631
51
330.9442057
0
ARC
8
DEFAULT_255_2_778
10
30.9903088
20
140.2833512
40
0.7444213
50
343.1732677
51
351.713062
0
ARC
8
DEFAULT_255_2_778
10
31.0743989
20
140.9265382
40
0.6569101
50
11.9143908
51
21.5338195
0
ARC
8
DEFAULT_255_2_778
10
31.303369
20
141.0147048
40
0.4115652
50
21.8165503
51
29.5620876
0
ARC
8
DEFAULT_255_2_778
10
31.3322712
20
140.9526938
40
0.4454832
50
89.4615933
51
103.8862639
0
ARC
8
DEFAULT_255_2_778
10
31.9661248
20
140.8371894
40
1.036066
50
167.566709
51
173.6790853
0
ARC
8
DEFAULT_255_2_778
10
31.7702921
20
140.3016358
40
0.8367874
50
188.6657368
51
196.2800341
0
ARC
8
DEFAULT_255_2_778
10
31.3271547
20
140.139896
40
0.363668
50
208.8612134
51
226.4641733
0
ARC
8
DEFAULT_255_2_778
10
31.2935914
20
140.0876214
40
0.3028781
50
224.2549177
51
237.6125813
0
ARC
8
DEFAULT_255_2_778
10
31.3699649
20
140.0956471
40
0.3134613
50
302.4934486
51
315.5302547
0
LINE
8
DEFAULT_255_2_778
10
31.2560573
20
139.9006573
11
31.2173573
21
139.9133573
0
LINE
8
DEFAULT_255_2_778
10
31.2173573
20
139.9133573
11
31.1819573
21
139.9328573
0
LINE
8
DEFAULT_255_2_778
10
31.1819573
20
139.9328573
11
31.1657573
21
139.9453573
0
LINE
8
DEFAULT_255_2_778
10
31.1657573
20
139.9453573
11
31.1512573
21
139.9593573
0
LINE
8
DEFAULT_255_2_778
10
31.1512573
20
139.9593573
11
31.1258573
21
139.9908573
0
LINE
8
DEFAULT_255_2_778
10
31.0681573
20
140.1339573
11
31.0549573
21
140.2067573
0
LINE
8
DEFAULT_255_2_778
10
31.0422573
20
140.3543573
11
31.0411573
21
140.3916573
0
LINE
8
DEFAULT_255_2_778
10
31.0411573
20
140.3916573
11
31.0403573
21
140.4287573
0
LINE
8
DEFAULT_255_2_778
10
31.0403573
20
140.4287573
11
31.0393573
21
140.5030573
0
LINE
8
DEFAULT_255_2_778
10
31.0393573
20
140.5030573
11
31.0390573
21
140.5774573
0
LINE
8
DEFAULT_255_2_778
10
31.0390573
20
140.5774573
11
31.0390573
21
140.6517573
0
LINE
8
DEFAULT_255_2_778
10
31.0390573
20
140.6517573
11
31.0411573
21
140.8004573
0
LINE
8
DEFAULT_255_2_778
10
31.0411573
20
140.8004573
11
31.0504573
21
140.9486573
0
LINE
8
DEFAULT_255_2_778
10
31.0504573
20
140.9486573
11
31.0549573
21
140.9856573
0
LINE
8
DEFAULT_255_2_778
10
31.0549573
20
140.9856573
11
31.0610573
21
141.0224573
0
LINE
8
DEFAULT_255_2_778
10
31.0795573
20
141.0941573
11
31.0925573
21
141.1290573
0
LINE
8
DEFAULT_255_2_778
10
31.0925573
20
141.1290573
11
31.1091573
21
141.1624573
0
LINE
8
DEFAULT_255_2_778
10
31.1927573
20
141.2515573
11
31.2147573
21
141.2629573
0
LINE
8
DEFAULT_255_2_778
10
31.2147573
20
141.2629573
11
31.2380573
21
141.2716573
0
LINE
8
DEFAULT_255_2_778
10
31.2380573
20
141.2716573
11
31.2620573
21
141.2780573
0
LINE
8
DEFAULT_255_2_778
10
31.2620573
20
141.2780573
11
31.2867573
21
141.2822573
0
LINE
8
DEFAULT_255_2_778
10
31.2867573
20
141.2822573
11
31.3359573
21
141.2851573
0
LINE
8
DEFAULT_255_2_778
10
31.3359573
20
141.2851573
11
31.3851573
21
141.2819573
0
LINE
8
DEFAULT_255_2_778
10
31.3851573
20
141.2819573
11
31.4335573
21
141.2711573
0
LINE
8
DEFAULT_255_2_778
10
31.4335573
20
141.2711573
11
31.4568573
21
141.2624573
0
LINE
8
DEFAULT_255_2_778
10
31.4568573
20
141.2624573
11
31.4790573
21
141.2510573
0
LINE
8
DEFAULT_255_2_778
10
31.5901573
20
141.0997573
11
31.6039573
21
141.0547573
0
LINE
8
DEFAULT_255_2_778
10
31.6039573
20
141.0547573
11
31.6137573
21
141.0089573
0
LINE
8
DEFAULT_255_2_778
10
31.6137573
20
141.0089573
11
31.6206573
21
140.9623573
0
LINE
8
DEFAULT_255_2_778
10
31.6206573
20
140.9623573
11
31.6288573
21
140.8684573
0
LINE
8
DEFAULT_255_2_778
10
31.6288573
20
140.8684573
11
31.6309573
21
140.8213573
0
LINE
8
DEFAULT_255_2_778
10
31.6309573
20
140.8213573
11
31.6319573
21
140.7742573
0
LINE
8
DEFAULT_255_2_778
10
31.6319573
20
140.7742573
11
31.6333573
21
140.6800573
0
LINE
8
DEFAULT_255_2_778
10
31.6333573
20
140.6800573
11
31.6335573
21
140.5858573
0
LINE
8
DEFAULT_255_2_778
10
31.6335573
20
140.5858573
11
31.6333573
21
140.4916573
0
LINE
8
DEFAULT_255_2_778
10
31.6333573
20
140.4916573
11
31.6317573
21
140.3974573
0
LINE
8
DEFAULT_255_2_778
10
31.6317573
20
140.3974573
11
31.6303573
21
140.3504573
0
LINE
8
DEFAULT_255_2_778
10
31.6303573
20
140.3504573
11
31.6280573
21
140.3033573
0
LINE
8
DEFAULT_255_2_778
10
31.6280573
20
140.3033573
11
31.6184573
21
140.2093573
0
LINE
8
DEFAULT_255_2_778
10
31.6002573
20
140.1167573
11
31.5862573
21
140.0717573
0
LINE
8
DEFAULT_255_2_778
10
31.5676573
20
140.0286573
11
31.5433573
21
139.9884573
0
LINE
8
DEFAULT_255_2_778
10
31.5433573
20
139.9884573
11
31.5285573
21
139.9696573
0
LINE
8
DEFAULT_255_2_778
10
31.5285573
20
139.9696573
11
31.5123573
21
139.9522573
0
LINE
8
DEFAULT_255_2_778
10
31.5123573
20
139.9522573
11
31.4944573
21
139.9365573
0
LINE
8
DEFAULT_255_2_778
10
31.4944573
20
139.9365573
11
31.4742573
21
139.9233573
0
LINE
8
DEFAULT_255_2_778
10
31.4742573
20
139.9233573
11
31.4306573
21
139.9043573
0
LINE
8
DEFAULT_255_2_778
10
31.4306573
20
139.9043573
11
31.4073573
21
139.8982573
0
LINE
8
DEFAULT_255_2_778
10
31.4073573
20
139.8982573
11
31.3838573
21
139.8942573
0
LINE
8
DEFAULT_255_2_778
10
31.3838573
20
139.8942573
11
31.3364573
21
139.8918573
0
LINE
8
DEFAULT_255_2_778
10
31.6605573
20
139.9649573
11
31.6732573
21
139.9897573
0
LINE
8
DEFAULT_255_2_778
10
31.6732573
20
139.9897573
11
31.6843573
21
140.0154573
0
LINE
8
DEFAULT_255_2_778
10
31.6843573
20
140.0154573
11
31.7028573
21
140.0678573
0
LINE
8
DEFAULT_255_2_778
10
31.7269573
20
140.1760573
11
31.7343573
21
140.2313573
0
LINE
8
DEFAULT_255_2_778
10
31.7343573
20
140.2313573
11
31.7391573
21
140.2866573
0
LINE
8
DEFAULT_255_2_778
10
31.7391573
20
140.2866573
11
31.7417573
21
140.3421573
0
LINE
8
DEFAULT_255_2_778
10
31.7417573
20
140.3421573
11
31.7423573
21
140.3699573
0
LINE
8
DEFAULT_255_2_778
10
31.7423573
20
140.3699573
11
31.7428573
21
140.3977573
0
LINE
8
DEFAULT_255_2_778
10
31.7428573
20
140.3977573
11
31.7441573
21
140.5086573
0
LINE
8
DEFAULT_255_2_778
10
31.7441573
20
140.5086573
11
31.7444573
21
140.6194573
0
LINE
8
DEFAULT_255_2_778
10
31.7444573
20
140.6194573
11
31.7436573
21
140.7306573
0
LINE
8
DEFAULT_255_2_778
10
31.7436573
20
140.7306573
11
31.7428573
21
140.7861573
0
LINE
8
DEFAULT_255_2_778
10
31.7428573
20
140.7861573
11
31.7415573
21
140.8417573
0
LINE
8
DEFAULT_255_2_778
10
31.7415573
20
140.8417573
11
31.7341573
21
140.9523573
0
LINE
8
DEFAULT_255_2_778
10
31.7341573
20
140.9523573
11
31.7272573
21
141.0073573
0
LINE
8
DEFAULT_255_2_778
10
31.7272573
20
141.0073573
11
31.7171573
21
141.0621573
0
LINE
8
DEFAULT_255_2_778
10
31.6613573
20
141.2177573
11
31.6303573
21
141.2640573
0
LINE
8
DEFAULT_255_2_778
10
31.6303573
20
141.2640573
11
31.5930573
21
141.3055573
0
LINE
8
DEFAULT_255_2_778
10
31.5930573
20
141.3055573
11
31.5721573
21
141.3240573
0
LINE
8
DEFAULT_255_2_778
10
31.5721573
20
141.3240573
11
31.5497573
21
141.3404573
0
LINE
8
DEFAULT_255_2_778
10
31.5497573
20
141.3404573
11
31.5010573
21
141.3669573
0
LINE
8
DEFAULT_255_2_778
10
31.5010573
20
141.3669573
11
31.4748573
21
141.3769573
0
LINE
8
DEFAULT_255_2_778
10
31.4748573
20
141.3769573
11
31.4478573
21
141.3849573
0
LINE
8
DEFAULT_255_2_778
10
31.4478573
20
141.3849573
11
31.3928573
21
141.3949573
0
LINE
8
DEFAULT_255_2_778
10
31.3928573
20
141.3949573
11
31.3364573
21
141.3981573
0
LINE
8
DEFAULT_255_2_778
10
31.2253573
20
141.3851573
11
31.1721573
21
141.3669573
0
LINE
8
DEFAULT_255_2_778
10
31.1721573
20
141.3669573
11
31.1229573
21
141.3402573
0
LINE
8
DEFAULT_255_2_778
10
31.1229573
20
141.3402573
11
31.1001573
21
141.3235573
0
LINE
8
DEFAULT_255_2_778
10
31.1001573
20
141.3235573
11
31.0790573
21
141.3050573
0
LINE
8
DEFAULT_255_2_778
10
31.0790573
20
141.3050573
11
31.0417573
21
141.2634573
0
LINE
8
DEFAULT_255_2_778
10
31.0417573
20
141.2634573
11
31.0252573
21
141.2404573
0
LINE
8
DEFAULT_255_2_778
10
31.0252573
20
141.2404573
11
31.0107573
21
141.2166573
0
LINE
8
DEFAULT_255_2_778
10
31.0107573
20
141.2166573
11
30.9980573
21
141.1920573
0
LINE
8
DEFAULT_255_2_778
10
30.9980573
20
141.1920573
11
30.9869573
21
141.1666573
0
LINE
8
DEFAULT_255_2_778
10
30.9869573
20
141.1666573
11
30.9686573
21
141.1139573
0
LINE
8
DEFAULT_255_2_778
10
30.9686573
20
141.1139573
11
30.9543573
21
141.0602573
0
LINE
8
DEFAULT_255_2_778
10
30.9363573
20
140.9512573
11
30.9284573
21
140.8409573
0
LINE
8
DEFAULT_255_2_778
10
30.9284573
20
140.8409573
11
30.9271573
21
140.7853573
0
LINE
8
DEFAULT_255_2_778
10
30.9271573
20
140.7853573
11
30.9263573
21
140.7298573
0
LINE
8
DEFAULT_255_2_778
10
30.9263573
20
140.7298573
11
30.9255573
21
140.6186573
0
LINE
8
DEFAULT_255_2_778
10
30.9255573
20
140.6186573
11
30.9258573
21
140.5075573
0
LINE
8
DEFAULT_255_2_778
10
30.9258573
20
140.5075573
11
30.9271573
21
140.3964573
0
LINE
8
DEFAULT_255_2_778
10
30.9271573
20
140.3964573
11
30.9284573
21
140.3408573
0
LINE
8
DEFAULT_255_2_778
10
30.9284573
20
140.3408573
11
30.9311573
21
140.2855573
0
LINE
8
DEFAULT_255_2_778
10
30.9311573
20
140.2855573
11
30.9430573
21
140.1755573
0
LINE
8
DEFAULT_255_2_778
10
30.9670573
20
140.0670573
11
30.9850573
21
140.0146573
0
LINE
8
DEFAULT_255_2_778
10
30.9850573
20
140.0146573
11
30.9959573
21
139.9892573
0
LINE
8
DEFAULT_255_2_778
10
30.9959573
20
139.9892573
11
31.0086573
21
139.9643573
0
LINE
8
DEFAULT_255_2_778
10
31.1313573
20
139.8318573
11
31.1623573
21
139.8146573
0
LINE
8
DEFAULT_255_2_778
10
31.1623573
20
139.8146573
11
31.1951573
21
139.8008573
0
LINE
8
DEFAULT_255_2_778
10
31.1951573
20
139.8008573
11
31.2639573
21
139.7839573
0
LINE
8
DEFAULT_255_2_778
10
31.2639573
20
139.7839573
11
31.3345573
21
139.7786573
0
LINE
8
DEFAULT_255_2_778
10
31.3345573
20
139.7786573
11
31.4052573
21
139.7833573
0
LINE
8
DEFAULT_255_2_778
10
31.4052573
20
139.7833573
11
31.4401573
21
139.7902573
0
LINE
8
DEFAULT_255_2_778
10
31.4401573
20
139.7902573
11
31.4742573
21
139.8003573
0
LINE
8
DEFAULT_255_2_778
10
31.4742573
20
139.8003573
11
31.5071573
21
139.8138573
0
LINE
8
DEFAULT_255_2_778
10
31.5071573
20
139.8138573
11
31.5383573
21
139.8312573
0
LINE
8
DEFAULT_255_2_778
10
31.5936573
20
139.8760573
11
31.5936573
21
139.8762573
0
ARC
8
DEFAULT_255_2_778
10
33.0194388
20
140.1943563
40
0.3356196
50
270.0031713
51
270.6348143
0
ARC
8
DEFAULT_255_2_778
10
33.0196493
20
140.1982986
40
0.3395619
50
256.9121518
51
269.9676262
0
ARC
8
DEFAULT_255_2_778
10
33.0552896
20
140.1264644
40
0.2956029
50
199.1575558
51
214.8005979
0
ARC
8
DEFAULT_255_2_778
10
33.3122492
20
140.2275101
40
0.5716001
50
192.8016076
51
200.2726773
0
ARC
8
DEFAULT_255_2_778
10
34.149721
20
140.3691572
40
1.4215708
50
181.9309506
51
187.9045887
0
ARC
8
DEFAULT_255_2_778
10
33.3092039
20
140.8827297
40
0.571482
50
161.8175441
51
169.2466917
0
ARC
8
DEFAULT_255_2_778
10
33.0443242
20
140.9854789
40
0.2871181
50
135.1253715
51
149.9263835
0
ARC
8
DEFAULT_255_2_778
10
32.9759965
20
141.056172
40
0.1888288
50
120.7472835
51
135.6981613
0
ARC
8
DEFAULT_255_2_778
10
33.062032
20
141.0437322
40
0.2027642
50
45.1797965
51
59.2324606
0
ARC
8
DEFAULT_255_2_778
10
32.9736131
20
140.9695405
40
0.3178859
50
26.2740105
51
43.3011823
0
ARC
8
DEFAULT_255_2_778
10
32.9194169
20
140.9430491
40
0.3782097
50
19.076138
51
26.2382201
0
ARC
8
DEFAULT_255_2_778
10
32.5615166
20
140.274327
40
0.7500795
50
345.2738507
51
352.4873097
0
ARC
8
DEFAULT_255_2_778
10
32.9368658
20
140.1581341
40
0.3566962
50
332.8845242
51
340.43026
0
ARC
8
DEFAULT_255_2_778
10
32.9969898
20
140.1264598
40
0.4006962
50
315.0065631
51
330.9442057
0
ARC
8
DEFAULT_255_2_778
10
32.6770088
20
140.2502512
40
0.7444213
50
343.1732677
51
351.713062
0
ARC
8
DEFAULT_255_2_778
10
32.7610989
20
140.8934382
40
0.6569101
50
11.9143908
51
21.5338195
0
ARC
8
DEFAULT_255_2_778
10
32.990069
20
140.9816048
40
0.4115652
50
21.8165503
51
29.5620876
0
ARC
8
DEFAULT_255_2_778
10
33.0189712
20
140.9195938
40
0.4454832
50
89.4615933
51
103.8862639
0
ARC
8
DEFAULT_255_2_778
10
33.6528248
20
140.8040894
40
1.036066
50
167.566709
51
173.6790853
0
ARC
8
DEFAULT_255_2_778
10
33.4569921
20
140.2685358
40
0.8367874
50
188.6657368
51
196.2800341
0
ARC
8
DEFAULT_255_2_778
10
33.0138547
20
140.106796
40
0.363668
50
208.8612134
51
226.4641733
0
ARC
8
DEFAULT_255_2_778
10
32.9802914
20
140.0545214
40
0.3028781
50
224.2549177
51
237.6125813
0
ARC
8
DEFAULT_255_2_778
10
33.0566649
20
140.0625471
40
0.3134613
50
302.4934486
51
315.5302547
0
LINE
8
DEFAULT_255_2_778
10
32.9427573
20
139.8675573
11
32.9040573
21
139.8802573
0
LINE
8
DEFAULT_255_2_778
10
32.9040573
20
139.8802573
11
32.8686573
21
139.8997573
0
LINE
8
DEFAULT_255_2_778
10
32.8686573
20
139.8997573
11
32.8524573
21
139.9122573
0
LINE
8
DEFAULT_255_2_778
10
32.8524573
20
139.9122573
11
32.8379573
21
139.9262573
0
LINE
8
DEFAULT_255_2_778
10
32.8379573
20
139.9262573
11
32.8125573
21
139.9577573
0
LINE
8
DEFAULT_255_2_778
10
32.7548573
20
140.1008573
11
32.7416573
21
140.1736573
0
LINE
8
DEFAULT_255_2_778
10
32.7289573
20
140.3212573
11
32.7278573
21
140.3585573
0
LINE
8
DEFAULT_255_2_778
10
32.7278573
20
140.3585573
11
32.7270573
21
140.3956573
0
LINE
8
DEFAULT_255_2_778
10
32.7270573
20
140.3956573
11
32.7260573
21
140.4699573
0
LINE
8
DEFAULT_255_2_778
10
32.7260573
20
140.4699573
11
32.7257573
21
140.5443573
0
LINE
8
DEFAULT_255_2_778
10
32.7257573
20
140.5443573
11
32.7257573
21
140.6186573
0
LINE
8
DEFAULT_255_2_778
10
32.7257573
20
140.6186573
11
32.7278573
21
140.7673573
0
LINE
8
DEFAULT_255_2_778
10
32.7278573
20
140.7673573
11
32.7371573
21
140.9155573
0
LINE
8
DEFAULT_255_2_778
10
32.7371573
20
140.9155573
11
32.7416573
21
140.9525573
0
LINE
8
DEFAULT_255_2_778
10
32.7416573
20
140.9525573
11
32.7477573
21
140.9893573
0
LINE
8
DEFAULT_255_2_778
10
32.7662573
20
141.0610573
11
32.7792573
21
141.0959573
0
LINE
8
DEFAULT_255_2_778
10
32.7792573
20
141.0959573
11
32.7958573
21
141.1293573
0
LINE
8
DEFAULT_255_2_778
10
32.8794573
20
141.2184573
11
32.9014573
21
141.2298573
0
LINE
8
DEFAULT_255_2_778
10
32.9014573
20
141.2298573
11
32.9247573
21
141.2385573
0
LINE
8
DEFAULT_255_2_778
10
32.9247573
20
141.2385573
11
32.9487573
21
141.2449573
0
LINE
8
DEFAULT_255_2_778
10
32.9487573
20
141.2449573
11
32.9734573
21
141.2491573
0
LINE
8
DEFAULT_255_2_778
10
32.9734573
20
141.2491573
11
33.0226573
21
141.2520573
0
LINE
8
DEFAULT_255_2_778
10
33.0226573
20
141.2520573
11
33.0718573
21
141.2488573
0
LINE
8
DEFAULT_255_2_778
10
33.0718573
20
141.2488573
11
33.1202573
21
141.2380573
0
LINE
8
DEFAULT_255_2_778
10
33.1202573
20
141.2380573
11
33.1435573
21
141.2293573
0
LINE
8
DEFAULT_255_2_778
10
33.1435573
20
141.2293573
11
33.1657573
21
141.2179573
0
LINE
8
DEFAULT_255_2_778
10
33.2768573
20
141.0666573
11
33.2906573
21
141.0216573
0
LINE
8
DEFAULT_255_2_778
10
33.2906573
20
141.0216573
11
33.3004573
21
140.9758573
0
LINE
8
DEFAULT_255_2_778
10
33.3004573
20
140.9758573
11
33.3073573
21
140.9292573
0
LINE
8
DEFAULT_255_2_778
10
33.3073573
20
140.9292573
11
33.3155573
21
140.8353573
0
LINE
8
DEFAULT_255_2_778
10
33.3155573
20
140.8353573
11
33.3176573
21
140.7882573
0
LINE
8
DEFAULT_255_2_778
10
33.3176573
20
140.7882573
11
33.3186573
21
140.7411573
0
LINE
8
DEFAULT_255_2_778
10
33.3186573
20
140.7411573
11
33.3200573
21
140.6469573
0
LINE
8
DEFAULT_255_2_778
10
33.3200573
20
140.6469573
11
33.3202573
21
140.5527573
0
LINE
8
DEFAULT_255_2_778
10
33.3202573
20
140.5527573
11
33.3200573
21
140.4585573
0
LINE
8
DEFAULT_255_2_778
10
33.3200573
20
140.4585573
11
33.3184573
21
140.3643573
0
LINE
8
DEFAULT_255_2_778
10
33.3184573
20
140.3643573
11
33.3170573
21
140.3173573
0
LINE
8
DEFAULT_255_2_778
10
33.3170573
20
140.3173573
11
33.3147573
21
140.2702573
0
LINE
8
DEFAULT_255_2_778
10
33.3147573
20
140.2702573
11
33.3051573
21
140.1762573
0
LINE
8
DEFAULT_255_2_778
10
33.2869573
20
140.0836573
11
33.2729573
21
140.0386573
0
LINE
8
DEFAULT_255_2_778
10
33.2543573
20
139.9955573
11
33.2300573
21
139.9553573
0
LINE
8
DEFAULT_255_2_778
10
33.2300573
20
139.9553573
11
33.2152573
21
139.9365573
0
LINE
8
DEFAULT_255_2_778
10
33.2152573
20
139.9365573
11
33.1990573
21
139.9191573
0
LINE
8
DEFAULT_255_2_778
10
33.1990573
20
139.9191573
11
33.1811573
21
139.9034573
0
LINE
8
DEFAULT_255_2_778
10
33.1811573
20
139.9034573
11
33.1609573
21
139.8902573
0
LINE
8
DEFAULT_255_2_778
10
33.1609573
20
139.8902573
11
33.1173573
21
139.8712573
0
LINE
8
DEFAULT_255_2_778
10
33.1173573
20
139.8712573
11
33.0940573
21
139.8651573
0
LINE
8
DEFAULT_255_2_778
10
33.0940573
20
139.8651573
11
33.0705573
21
139.8611573
0
LINE
8
DEFAULT_255_2_778
10
33.0705573
20
139.8611573
11
33.0231573
21
139.8587573
0
LINE
8
DEFAULT_255_2_778
10
33.3472573
20
139.9318573
11
33.3599573
21
139.9566573
0
LINE
8
DEFAULT_255_2_778
10
33.3599573
20
139.9566573
11
33.3710573
21
139.9823573
0
LINE
8
DEFAULT_255_2_778
10
33.3710573
20
139.9823573
11
33.3895573
21
140.0347573
0
LINE
8
DEFAULT_255_2_778
10
33.4136573
20
140.1429573
11
33.4210573
21
140.1982573
0
LINE
8
DEFAULT_255_2_778
10
33.4210573
20
140.1982573
11
33.4258573
21
140.2535573
0
LINE
8
DEFAULT_255_2_778
10
33.4258573
20
140.2535573
11
33.4284573
21
140.3090573
0
LINE
8
DEFAULT_255_2_778
10
33.4284573
20
140.3090573
11
33.4290573
21
140.3368573
0
LINE
8
DEFAULT_255_2_778
10
33.4290573
20
140.3368573
11
33.4295573
21
140.3646573
0
LINE
8
DEFAULT_255_2_778
10
33.4295573
20
140.3646573
11
33.4308573
21
140.4755573
0
LINE
8
DEFAULT_255_2_778
10
33.4308573
20
140.4755573
11
33.4311573
21
140.5863573
0
LINE
8
DEFAULT_255_2_778
10
33.4311573
20
140.5863573
11
33.4303573
21
140.6975573
0
LINE
8
DEFAULT_255_2_778
10
33.4303573
20
140.6975573
11
33.4295573
21
140.7530573
0
LINE
8
DEFAULT_255_2_778
10
33.4295573
20
140.7530573
11
33.4282573
21
140.8086573
0
LINE
8
DEFAULT_255_2_778
10
33.4282573
20
140.8086573
11
33.4208573
21
140.9192573
0
LINE
8
DEFAULT_255_2_778
10
33.4208573
20
140.9192573
11
33.4139573
21
140.9742573
0
LINE
8
DEFAULT_255_2_778
10
33.4139573
20
140.9742573
11
33.4038573
21
141.0290573
0
LINE
8
DEFAULT_255_2_778
10
33.3480573
20
141.1846573
11
33.3170573
21
141.2309573
0
LINE
8
DEFAULT_255_2_778
10
33.3170573
20
141.2309573
11
33.2797573
21
141.2724573
0
LINE
8
DEFAULT_255_2_778
10
33.2797573
20
141.2724573
11
33.2588573
21
141.2909573
0
LINE
8
DEFAULT_255_2_778
10
33.2588573
20
141.2909573
11
33.2364573
21
141.3073573
0
LINE
8
DEFAULT_255_2_778
10
33.2364573
20
141.3073573
11
33.1877573
21
141.3338573
0
LINE
8
DEFAULT_255_2_778
10
33.1877573
20
141.3338573
11
33.1615573
21
141.3438573
0
LINE
8
DEFAULT_255_2_778
10
33.1615573
20
141.3438573
11
33.1345573
21
141.3518573
0
LINE
8
DEFAULT_255_2_778
10
33.1345573
20
141.3518573
11
33.0795573
21
141.3618573
0
LINE
8
DEFAULT_255_2_778
10
33.0795573
20
141.3618573
11
33.0231573
21
141.3650573
0
LINE
8
DEFAULT_255_2_778
10
32.9120573
20
141.3520573
11
32.8588573
21
141.3338573
0
LINE
8
DEFAULT_255_2_778
10
32.8588573
20
141.3338573
11
32.8096573
21
141.3071573
0
LINE
8
DEFAULT_255_2_778
10
32.8096573
20
141.3071573
11
32.7868573
21
141.2904573
0
LINE
8
DEFAULT_255_2_778
10
32.7868573
20
141.2904573
11
32.7657573
21
141.2719573
0
LINE
8
DEFAULT_255_2_778
10
32.7657573
20
141.2719573
11
32.7284573
21
141.2303573
0
LINE
8
DEFAULT_255_2_778
10
32.7284573
20
141.2303573
11
32.7119573
21
141.2073573
0
LINE
8
DEFAULT_255_2_778
10
32.7119573
20
141.2073573
11
32.6974573
21
141.1835573
0
LINE
8
DEFAULT_255_2_778
10
32.6974573
20
141.1835573
11
32.6847573
21
141.1589573
0
LINE
8
DEFAULT_255_2_778
10
32.6847573
20
141.1589573
11
32.6736573
21
141.1335573
0
LINE
8
DEFAULT_255_2_778
10
32.6736573
20
141.1335573
11
32.6553573
21
141.0808573
0
LINE
8
DEFAULT_255_2_778
10
32.6553573
20
141.0808573
11
32.6410573
21
141.0271573
0
LINE
8
DEFAULT_255_2_778
10
32.6230573
20
140.9181573
11
32.6151573
21
140.8078573
0
LINE
8
DEFAULT_255_2_778
10
32.6151573
20
140.8078573
11
32.6138573
21
140.7522573
0
LINE
8
DEFAULT_255_2_778
10
32.6138573
20
140.7522573
11
32.6130573
21
140.6967573
0
LINE
8
DEFAULT_255_2_778
10
32.6130573
20
140.6967573
11
32.6122573
21
140.5855573
0
LINE
8
DEFAULT_255_2_778
10
32.6122573
20
140.5855573
11
32.6125573
21
140.4744573
0
LINE
8
DEFAULT_255_2_778
10
32.6125573
20
140.4744573
11
32.6138573
21
140.3633573
0
LINE
8
DEFAULT_255_2_778
10
32.6138573
20
140.3633573
11
32.6151573
21
140.3077573
0
LINE
8
DEFAULT_255_2_778
10
32.6151573
20
140.3077573
11
32.6178573
21
140.2524573
0
LINE
8
DEFAULT_255_2_778
10
32.6178573
20
140.2524573
11
32.6297573
21
140.1424573
0
LINE
8
DEFAULT_255_2_778
10
32.6537573
20
140.0339573
11
32.6717573
21
139.9815573
0
LINE
8
DEFAULT_255_2_778
10
32.6717573
20
139.9815573
11
32.6826573
21
139.9561573
0
LINE
8
DEFAULT_255_2_778
10
32.6826573
20
139.9561573
11
32.6953573
21
139.9312573
0
LINE
8
DEFAULT_255_2_778
10
32.8180573
20
139.7987573
11
32.8490573
21
139.7815573
0
LINE
8
DEFAULT_255_2_778
10
32.8490573
20
139.7815573
11
32.8818573
21
139.7677573
0
LINE
8
DEFAULT_255_2_778
10
32.8818573
20
139.7677573
11
32.9506573
21
139.7508573
0
LINE
8
DEFAULT_255_2_778
10
32.9506573
20
139.7508573
11
33.0212573
21
139.7455573
0
LINE
8
DEFAULT_255_2_778
10
33.0212573
20
139.7455573
11
33.0919573
21
139.7502573
0
LINE
8
DEFAULT_255_2_778
10
33.0919573
20
139.7502573
11
33.1268573
21
139.7571573
0
LINE
8
DEFAULT_255_2_778
10
33.1268573
20
139.7571573
11
33.1609573
21
139.7672573
0
LINE
8
DEFAULT_255_2_778
10
33.1609573
20
139.7672573
11
33.1938573
21
139.7807573
0
LINE
8
DEFAULT_255_2_778
10
33.1938573
20
139.7807573
11
33.2250573
21
139.7981573
0
LINE
8
DEFAULT_255_2_778
10
33.2803573
20
139.8429573
11
33.2803573
21
139.8431573
0
LINE
8
DEFAULT_255_2_778
10
34.1666875
20
141.2014812
11
33.8526875
21
140.2680812
0
LINE
8
DEFAULT_255_2_778
10
33.8526875
20
140.2680812
11
34.4810875
21
140.2680812
0
LINE
8
DEFAULT_255_2_778
10
34.4810875
20
140.2680812
11
34.1666875
21
141.2014812
0
LINE
8
DEFAULT_255_2_778
10
34.1005875
20
141.3324812
11
34.2495875
21
141.3324812
0
LINE
8
DEFAULT_255_2_778
10
34.2495875
20
141.3324812
11
34.7622875
21
139.7767812
0
LINE
8
DEFAULT_255_2_778
10
34.7622875
20
139.7767812
11
34.6466875
21
139.7274812
0
LINE
8
DEFAULT_255_2_778
10
34.6466875
20
139.7274812
11
34.5143875
21
140.1532812
0
LINE
8
DEFAULT_255_2_778
10
34.5143875
20
140.1532812
11
33.8198875
21
140.1532812
0
LINE
8
DEFAULT_255_2_778
10
33.8198875
20
140.1532812
11
33.6708875
21
139.7274812
0
LINE
8
DEFAULT_255_2_778
10
33.6708875
20
139.7274812
11
33.5716875
21
139.7767812
0
LINE
8
DEFAULT_255_2_778
10
33.5716875
20
139.7767812
11
34.1005875
21
141.3324812
0
LINE
8
DEFAULT_255_2_778
10
35.5282136
20
140.5557094
11
35.1398136
21
140.5557094
0
LINE
8
DEFAULT_255_2_778
10
35.1398136
20
140.5557094
11
35.1398136
21
139.8789094
0
LINE
8
DEFAULT_255_2_778
10
35.1398136
20
139.8789094
11
35.5783136
21
139.9006094
0
LINE
8
DEFAULT_255_2_778
10
35.5783136
20
139.9006094
11
35.7143136
21
139.9699094
0
LINE
8
DEFAULT_255_2_778
10
35.7143136
20
139.9699094
11
35.7767136
21
140.0437094
0
LINE
8
DEFAULT_255_2_778
10
35.7767136
20
140.0437094
11
35.8063136
21
140.1083094
0
LINE
8
DEFAULT_255_2_778
10
35.8063136
20
140.1083094
11
35.8172136
21
140.1522094
0
LINE
8
DEFAULT_255_2_778
10
35.8172136
20
140.1522094
11
35.8225136
21
140.1900094
0
LINE
8
DEFAULT_255_2_778
10
35.8225136
20
140.1900094
11
35.8198136
21
140.3340094
0
LINE
8
DEFAULT_255_2_778
10
35.8198136
20
140.3340094
11
35.8111136
21
140.3771094
0
LINE
8
DEFAULT_255_2_778
10
35.8111136
20
140.3771094
11
35.7902136
21
140.4324094
0
LINE
8
DEFAULT_255_2_778
10
35.7902136
20
140.4324094
11
35.7418136
21
140.4946094
0
LINE
8
DEFAULT_255_2_778
10
35.7418136
20
140.4946094
11
35.6224136
21
140.5477094
0
LINE
8
DEFAULT_255_2_778
10
35.6224136
20
140.5477094
11
35.5417136
21
140.5557094
0
LINE
8
DEFAULT_255_2_778
10
35.7568136
20
140.6271094
11
35.8328136
21
140.7102094
0
LINE
8
DEFAULT_255_2_778
10
35.8328136
20
140.7102094
11
35.8696136
21
140.7830094
0
LINE
8
DEFAULT_255_2_778
10
35.8696136
20
140.7830094
11
35.8833136
21
140.8298094
0
LINE
8
DEFAULT_255_2_778
10
35.8833136
20
140.8298094
11
35.8899136
21
140.8666094
0
LINE
8
DEFAULT_255_2_778
10
35.8899136
20
140.8666094
11
35.8878136
21
141.0100094
0
LINE
8
DEFAULT_255_2_778
10
35.8878136
20
141.0100094
11
35.8775136
21
141.0536094
0
LINE
8
DEFAULT_255_2_778
10
35.8775136
20
141.0536094
11
35.8566136
21
141.1087094
0
LINE
8
DEFAULT_255_2_778
10
35.8566136
20
141.1087094
11
35.8114136
21
141.1827094
0
LINE
8
DEFAULT_255_2_778
10
35.8114136
20
141.1827094
11
35.7277136
21
141.2634094
0
LINE
8
DEFAULT_255_2_778
10
35.7277136
20
141.2634094
11
35.5891136
21
141.3338094
0
LINE
8
DEFAULT_255_2_778
10
35.5891136
20
141.3338094
11
35.3817136
21
141.3661094
0
LINE
8
DEFAULT_255_2_778
10
35.3817136
20
141.3661094
11
35.0266136
21
141.3661094
0
LINE
8
DEFAULT_255_2_778
10
35.0266136
20
141.3661094
11
35.0266136
21
139.7683094
0
LINE
8
DEFAULT_255_2_778
10
35.0266136
20
139.7683094
11
35.3751136
21
139.7683094
0
LINE
8
DEFAULT_255_2_778
10
35.3817136
20
141.2529094
11
35.1398136
21
141.2529094
0
LINE
8
DEFAULT_255_2_778
10
35.1398136
20
141.2529094
11
35.1398136
21
140.6671094
0
LINE
8
DEFAULT_255_2_778
10
35.1398136
20
140.6671094
11
35.6328136
21
140.6845094
0
LINE
8
DEFAULT_255_2_778
10
35.6328136
20
140.6845094
11
35.7293136
21
140.7568094
0
LINE
8
DEFAULT_255_2_778
10
35.7293136
20
140.7568094
11
35.7592136
21
140.8094094
0
LINE
8
DEFAULT_255_2_778
10
35.7592136
20
140.8094094
11
35.7735136
21
140.8565094
0
LINE
8
DEFAULT_255_2_778
10
35.7735136
20
140.8565094
11
35.7788136
21
140.8893094
0
LINE
8
DEFAULT_255_2_778
10
35.7788136
20
140.8893094
11
35.7778136
21
140.9795094
0
LINE
8
DEFAULT_255_2_778
10
35.7778136
20
140.9795094
11
35.7711136
21
141.0121094
0
LINE
8
DEFAULT_255_2_778
10
35.7711136
20
141.0121094
11
35.7521136
21
141.0634094
0
LINE
8
DEFAULT_255_2_778
10
35.7521136
20
141.0634094
11
35.7029136
21
141.1343094
0
LINE
8
DEFAULT_255_2_778
10
35.7029136
20
141.1343094
11
35.5902136
21
141.2121094
0
LINE
8
DEFAULT_255_2_778
10
35.5902136
20
141.2121094
11
35.3960136
21
141.2529094
0
LINE
8
DEFAULT_255_2_778
10
35.3803136
20
139.7685094
11
35.6283136
21
139.8014094
0
LINE
8
DEFAULT_255_2_778
10
35.6283136
20
139.8014094
11
35.7852136
21
139.8831094
0
LINE
8
DEFAULT_255_2_778
10
35.7852136
20
139.8831094
11
35.8513136
21
139.9503094
0
LINE
8
DEFAULT_255_2_778
10
35.8513136
20
139.9503094
11
35.8907136
21
140.0141094
0
LINE
8
DEFAULT_255_2_778
10
35.8907136
20
140.0141094
11
35.9122136
21
140.0691094
0
LINE
8
DEFAULT_255_2_778
10
35.9122136
20
140.0691094
11
35.9251136
21
140.1212094
0
LINE
8
DEFAULT_255_2_778
10
35.9251136
20
140.1212094
11
35.9315136
21
140.1591094
0
LINE
8
DEFAULT_255_2_778
10
35.9315136
20
140.1591094
11
35.9360136
21
140.1966094
0
LINE
8
DEFAULT_255_2_778
10
35.9360136
20
140.1966094
11
35.9349136
21
140.3266094
0
LINE
8
DEFAULT_255_2_778
10
35.9349136
20
140.3266094
11
35.9309136
21
140.3562094
0
LINE
8
DEFAULT_255_2_778
10
35.9309136
20
140.3562094
11
35.9214136
21
140.3998094
0
LINE
8
DEFAULT_255_2_778
10
35.9214136
20
140.3998094
11
35.8995136
21
140.4615094
0
LINE
8
DEFAULT_255_2_778
10
35.8995136
20
140.4615094
11
35.8614136
21
140.5268094
0
LINE
8
DEFAULT_255_2_778
10
35.8614136
20
140.5268094
11
35.7878136
21
140.5980094
0
LINE
8
DEFAULT_255_2_778
10
35.7878136
20
140.5980094
11
35.7526136
21
140.6282094
0
ARC
8
DEFAULT_255_2_778
10
36.6574336
20
140.2343508
40
0.3424531
50
269.99704
51
270.6345416
0
ARC
8
DEFAULT_255_2_778
10
36.657294
20
140.2323786
40
0.340481
50
257.004099
51
270.020525
0
ARC
8
DEFAULT_255_2_778
10
36.6902994
20
140.1584539
40
0.2924231
50
199.1309106
51
214.9541166
0
ARC
8
DEFAULT_255_2_778
10
37.005605
20
140.2762583
40
0.6289732
50
193.0702512
51
199.8564007
0
ARC
8
DEFAULT_255_2_778
10
37.8421456
20
140.4070063
40
1.4761565
50
182.0415735
51
187.7941281
0
ARC
8
DEFAULT_255_2_778
10
36.9877943
20
140.9054101
40
0.6133518
50
162.0714438
51
168.9928084
0
ARC
8
DEFAULT_255_2_778
10
36.6774571
20
141.0226624
40
0.2807831
50
134.9963295
51
150.1495555
0
ARC
8
DEFAULT_255_2_778
10
36.6107817
20
141.0935029
40
0.183568
50
120.5317696
51
135.9136752
0
ARC
8
DEFAULT_255_2_778
10
36.7020714
20
141.0803609
40
0.198777
50
44.8783224
51
59.2092288
0
ARC
8
DEFAULT_255_2_778
10
36.6159629
20
141.0054672
40
0.3127339
50
26.1750237
51
43.4696203
0
ARC
8
DEFAULT_255_2_778
10
36.5486609
20
140.9720209
40
0.387888
50
19.2210295
51
26.2235476
0
ARC
8
DEFAULT_255_2_778
10
36.2029098
20
140.3067761
40
0.7463931
50
345.2560107
51
352.5051437
0
ARC
8
DEFAULT_255_2_778
10
36.5523317
20
140.2009213
40
0.3809384
50
333.1248111
51
340.1897192
0
ARC
8
DEFAULT_255_2_778
10
36.6378514
20
140.1580489
40
0.3975399
50
314.872063
51
330.9342344
0
ARC
8
DEFAULT_255_2_778
10
36.300658
20
140.2864239
40
0.7591252
50
343.2635479
51
351.6450206
0
ARC
8
DEFAULT_255_2_778
10
36.4085605
20
140.9288511
40
0.647255
50
11.891038
51
21.6568657
0
ARC
8
DEFAULT_255_2_778
10
36.6226882
20
141.0125078
40
0.4173711
50
21.8314594
51
29.4507305
0
ARC
8
DEFAULT_255_2_778
10
36.6569063
20
140.9530801
40
0.4451596
50
89.4439799
51
103.8920737
0
ARC
8
DEFAULT_255_2_778
10
37.2658912
20
140.8413802
40
1.0107617
50
167.4901477
51
173.7556972
0
ARC
8
DEFAULT_255_2_778
10
37.0781669
20
140.2987536
40
0.8194601
50
188.6492643
51
196.4194855
0
ARC
8
DEFAULT_255_2_778
10
36.6613291
20
140.1461784
40
0.3747343
50
209.01485
51
226.0657302
0
ARC
8
DEFAULT_255_2_778
10
36.6218661
20
140.091913
40
0.3084133
50
224.3503021
51
237.4934764
0
ARC
8
DEFAULT_255_2_778
10
36.7002397
20
140.0892652
40
0.3050177
50
302.2554643
51
315.642895
0
ARC
8
DEFAULT_255_2_778
10
27.9507751
20
140.8097055
40
0.7169485
50
3.703752
51
19.144846
0
ARC
8
DEFAULT_255_2_778
10
28.3440179
20
140.9556614
40
0.2977213
50
17.4286324
51
59.9310537
0
ARC
8
DEFAULT_255_2_778
10
28.3547485
20
140.9430201
40
0.303687
50
62.8793984
51
91.3816202
0
ARC
8
DEFAULT_255_2_778
10
28.3367776
20
140.9599015
40
0.2869149
50
87.8730395
51
162.9647445
0
ARC
8
DEFAULT_255_2_778
10
28.670836
20
140.810352
40
0.6516922
50
158.9944992
51
170.2140519
0
LINE
8
DEFAULT_255_2_778
10
28.0286262
20
140.9211187
11
28.0286262
21
140.2374187
0
ARC
8
DEFAULT_255_2_778
10
28.5002963
20
140.2247202
40
0.471841
50
178.4578239
51
201.7419108
0
ARC
8
DEFAULT_255_2_778
10
28.3203418
20
140.1595758
40
0.2806245
50
202.9976154
51
255.8892081
0
ARC
8
DEFAULT_255_2_778
10
28.3313791
20
140.6318412
40
0.7486505
50
263.9078288
51
269.0466291
0
ARC
8
DEFAULT_255_2_778
10
28.3280266
20
140.5169095
40
0.6336805
50
269.1768082
51
269.9957991
0
ARC
8
DEFAULT_255_2_778
10
28.3389858
20
140.2826334
40
0.3995561
50
268.4216078
51
292.0939999
0
ARC
8
DEFAULT_255_2_778
10
28.3935966
20
140.1327312
40
0.2401906
50
293.4733134
51
345.9741517
0
ARC
8
DEFAULT_255_2_778
10
27.9118598
20
140.3202113
40
0.7558147
50
341.0301948
51
350.8204835
0
ARC
8
DEFAULT_255_2_778
10
27.1178971
20
140.4707054
40
1.5637708
50
350.0177862
51
352.0202821
0
LINE
8
DEFAULT_255_2_778
10
28.6665262
20
140.2536187
11
28.6665262
21
140.8558187
0
ARC
8
DEFAULT_255_2_778
10
26.243587
20
140.7116113
40
2.5405679
50
357.5998962
51
359.2002264
0
ARC
8
DEFAULT_255_2_778
10
26.4968502
20
140.7074666
40
2.2872715
50
359.2154858
51
359.9956521
0
ARC
8
DEFAULT_255_2_778
10
27.1291811
20
140.7182585
40
1.654977
50
359.6203683
51
7.7792106
0
ARC
8
DEFAULT_255_2_778
10
27.9118603
20
140.8304015
40
0.864337
50
7.4364632
51
21.5074991
0
ARC
8
DEFAULT_255_2_778
10
28.3256876
20
141.0007844
40
0.4169138
50
20.5728742
51
52.1146103
0
ARC
8
DEFAULT_255_2_778
10
28.3643856
20
141.0226098
40
0.3763152
50
54.7250678
51
91.8973464
0
ARC
8
DEFAULT_255_2_778
10
28.3391817
20
140.94792
40
0.4509789
50
88.3806233
51
118.5875262
0
ARC
8
DEFAULT_255_2_778
10
28.3355982
20
140.9919108
40
0.4110265
50
121.0839368
51
158.9625655
0
ARC
8
DEFAULT_255_2_778
10
28.715873
20
140.8288372
40
0.8246437
50
157.8721002
51
172.9155004
0
ARC
8
DEFAULT_255_2_778
10
29.3898526
20
140.7332697
40
1.50531
50
172.4696332
51
180.322792
0
ARC
8
DEFAULT_255_2_778
10
29.972988
20
140.7255896
40
2.0884219
50
180.021961
51
181.8511931
0
ARC
8
DEFAULT_255_2_778
10
30.2893278
20
140.735735
40
2.4049241
50
181.8493137
51
183.5143013
0
ARC
8
DEFAULT_255_2_778
10
31.3335451
20
140.3763456
40
3.4511349
50
176.4786034
51
178.1069208
0
ARC
8
DEFAULT_255_2_778
10
30.7000978
20
140.397071
40
2.8173487
50
178.1026199
51
179.9669913
0
ARC
8
DEFAULT_255_2_778
10
29.7504556
20
140.3879288
40
1.8677371
50
179.6697536
51
186.3953592
0
ARC
8
DEFAULT_255_2_778
10
28.8296249
20
140.280637
40
0.9406944
50
186.14843
51
197.1006699
0
ARC
8
DEFAULT_255_2_778
10
28.3290709
20
140.1205946
40
0.4152497
50
196.3033721
51
218.7274978
0
ARC
8
DEFAULT_255_2_778
10
28.1807204
20
140.005154
40
0.2273119
50
219.4211475
51
271.4887682
0
ARC
8
DEFAULT_255_2_778
10
28.1929328
20
140.2521121
40
0.5769816
50
319.738061
51
348.7258769
0
ARC
8
DEFAULT_255_2_778
10
27.7345701
20
140.3585183
40
1.0474056
50
347.9194556
51
0.5580009
0
LINE
8
DEFAULT_255_2_778
10
28.7819262
20
140.3687187
11
28.7819262
21
140.6050187
0
LINE
8
DEFAULT_255_2_778
10
36.5807262
20
139.9006187
11
36.5421262
21
139.9133187
0
LINE
8
DEFAULT_255_2_778
10
36.5421262
20
139.9133187
11
36.5066262
21
139.9329187
0
LINE
8
DEFAULT_255_2_778
10
36.5066262
20
139.9329187
11
36.4905262
21
139.9453187
0
LINE
8
DEFAULT_255_2_778
10
36.4905262
20
139.9453187
11
36.4760262
21
139.9594187
0
LINE
8
DEFAULT_255_2_778
10
36.4760262
20
139.9594187
11
36.4506262
21
139.9909187
0
LINE
8
DEFAULT_255_2_778
10
36.3929262
20
140.1340187
11
36.3796262
21
140.2068187
0
LINE
8
DEFAULT_255_2_778
10
36.3669262
20
140.3544187
11
36.3659262
21
140.3917187
0
LINE
8
DEFAULT_255_2_778
10
36.3659262
20
140.3917187
11
36.3651262
21
140.4287187
0
LINE
8
DEFAULT_255_2_778
10
36.3651262
20
140.4287187
11
36.3640262
21
140.5031187
0
LINE
8
DEFAULT_255_2_778
10
36.3640262
20
140.5031187
11
36.3638262
21
140.5774187
0
LINE
8
DEFAULT_255_2_778
10
36.3638262
20
140.5774187
11
36.3638262
21
140.6518187
0
LINE
8
DEFAULT_255_2_778
10
36.3638262
20
140.6518187
11
36.3659262
21
140.8005187
0
LINE
8
DEFAULT_255_2_778
10
36.3659262
20
140.8005187
11
36.3751262
21
140.9486187
0
LINE
8
DEFAULT_255_2_778
10
36.3751262
20
140.9486187
11
36.3796262
21
140.9857187
0
LINE
8
DEFAULT_255_2_778
10
36.3796262
20
140.9857187
11
36.3857262
21
141.0225187
0
LINE
8
DEFAULT_255_2_778
10
36.4042262
20
141.0942187
11
36.4172262
21
141.1291187
0
LINE
8
DEFAULT_255_2_778
10
36.4172262
20
141.1291187
11
36.4339262
21
141.1624187
0
LINE
8
DEFAULT_255_2_778
10
36.5175262
20
141.2516187
11
36.5395262
21
141.2630187
0
LINE
8
DEFAULT_255_2_778
10
36.5395262
20
141.2630187
11
36.5627262
21
141.2717187
0
LINE
8
DEFAULT_255_2_778
10
36.5627262
20
141.2717187
11
36.5868262
21
141.2781187
0
LINE
8
DEFAULT_255_2_778
10
36.5868262
20
141.2781187
11
36.6114262
21
141.2823187
0
LINE
8
DEFAULT_255_2_778
10
36.6114262
20
141.2823187
11
36.6606262
21
141.2852187
0
LINE
8
DEFAULT_255_2_778
10
36.6606262
20
141.2852187
11
36.7098262
21
141.2820187
0
LINE
8
DEFAULT_255_2_778
10
36.7098262
20
141.2820187
11
36.7583262
21
141.2712187
0
LINE
8
DEFAULT_255_2_778
10
36.7583262
20
141.2712187
11
36.7815262
21
141.2624187
0
LINE
8
DEFAULT_255_2_778
10
36.7815262
20
141.2624187
11
36.8038262
21
141.2511187
0
LINE
8
DEFAULT_255_2_778
10
36.9149262
20
141.0997187
11
36.9284262
21
141.0547187
0
LINE
8
DEFAULT_255_2_778
10
36.9284262
20
141.0547187
11
36.9382262
21
141.0090187
0
LINE
8
DEFAULT_255_2_778
10
36.9382262
20
141.0090187
11
36.9451262
21
140.9624187
0
LINE
8
DEFAULT_255_2_778
10
36.9451262
20
140.9624187
11
36.9533262
21
140.8685187
0
LINE
8
DEFAULT_255_2_778
10
36.9533262
20
140.8685187
11
36.9554262
21
140.8214187
0
LINE
8
DEFAULT_255_2_778
10
36.9554262
20
140.8214187
11
36.9564262
21
140.7743187
0
LINE
8
DEFAULT_255_2_778
10
36.9564262
20
140.7743187
11
36.9578262
21
140.6801187
0
LINE
8
DEFAULT_255_2_778
10
36.9578262
20
140.6801187
11
36.9583262
21
140.5859187
0
LINE
8
DEFAULT_255_2_778
10
36.9583262
20
140.5859187
11
36.9580262
21
140.4917187
0
LINE
8
DEFAULT_255_2_778
10
36.9580262
20
140.4917187
11
36.9564262
21
140.3975187
0
LINE
8
DEFAULT_255_2_778
10
36.9564262
20
140.3975187
11
36.9551262
21
140.3504187
0
LINE
8
DEFAULT_255_2_778
10
36.9551262
20
140.3504187
11
36.9525262
21
140.3033187
0
LINE
8
DEFAULT_255_2_778
10
36.9525262
20
140.3033187
11
36.9429262
21
140.2094187
0
LINE
8
DEFAULT_255_2_778
10
36.9247262
20
140.1168187
11
36.9107262
21
140.0718187
0
LINE
8
DEFAULT_255_2_778
10
36.8921262
20
140.0287187
11
36.8678262
21
139.9885187
0
LINE
8
DEFAULT_255_2_778
10
36.8678262
20
139.9885187
11
36.8530262
21
139.9697187
0
LINE
8
DEFAULT_255_2_778
10
36.8530262
20
139.9697187
11
36.8368262
21
139.9522187
0
LINE
8
DEFAULT_255_2_778
10
36.8368262
20
139.9522187
11
36.8189262
21
139.9366187
0
LINE
8
DEFAULT_255_2_778
10
36.8189262
20
139.9366187
11
36.7987262
21
139.9234187
0
LINE
8
DEFAULT_255_2_778
10
36.7987262
20
139.9234187
11
36.7551262
21
139.9043187
0
LINE
8
DEFAULT_255_2_778
10
36.7551262
20
139.9043187
11
36.7318262
21
139.8982187
0
LINE
8
DEFAULT_255_2_778
10
36.7318262
20
139.8982187
11
36.7083262
21
139.8943187
0
LINE
8
DEFAULT_255_2_778
10
36.7083262
20
139.8943187
11
36.6612262
21
139.8919187
0
LINE
8
DEFAULT_255_2_778
10
36.9853262
20
139.9649187
11
36.9980262
21
139.9898187
0
LINE
8
DEFAULT_255_2_778
10
36.9980262
20
139.9898187
11
37.0091262
21
140.0155187
0
LINE
8
DEFAULT_255_2_778
10
37.0091262
20
140.0155187
11
37.0276262
21
140.0678187
0
LINE
8
DEFAULT_255_2_778
10
37.0517262
20
140.1761187
11
37.0591262
21
140.2314187
0
LINE
8
DEFAULT_255_2_778
10
37.0591262
20
140.2314187
11
37.0639262
21
140.2867187
0
LINE
8
DEFAULT_255_2_778
10
37.0639262
20
140.2867187
11
37.0665262
21
140.3422187
0
LINE
8
DEFAULT_255_2_778
10
37.0665262
20
140.3422187
11
37.0670262
21
140.3700187
0
LINE
8
DEFAULT_255_2_778
10
37.0670262
20
140.3700187
11
37.0676262
21
140.3978187
0
LINE
8
DEFAULT_255_2_778
10
37.0676262
20
140.3978187
11
37.0689262
21
140.5086187
0
LINE
8
DEFAULT_255_2_778
10
37.0689262
20
140.5086187
11
37.0691262
21
140.6195187
0
LINE
8
DEFAULT_255_2_778
10
37.0691262
20
140.6195187
11
37.0684262
21
140.7306187
0
LINE
8
DEFAULT_255_2_778
10
37.0684262
20
140.7306187
11
37.0676262
21
140.7862187
0
LINE
8
DEFAULT_255_2_778
10
37.0676262
20
140.7862187
11
37.0662262
21
140.8418187
0
LINE
8
DEFAULT_255_2_778
10
37.0662262
20
140.8418187
11
37.0588262
21
140.9523187
0
LINE
8
DEFAULT_255_2_778
10
37.0588262
20
140.9523187
11
37.0519262
21
141.0074187
0
LINE
8
DEFAULT_255_2_778
10
37.0519262
20
141.0074187
11
37.0419262
21
141.0622187
0
LINE
8
DEFAULT_255_2_778
10
36.9861262
20
141.2177187
11
36.9551262
21
141.2640187
0
LINE
8
DEFAULT_255_2_778
10
36.9551262
20
141.2640187
11
36.9178262
21
141.3056187
0
LINE
8
DEFAULT_255_2_778
10
36.9178262
20
141.3056187
11
36.8969262
21
141.3241187
0
LINE
8
DEFAULT_255_2_778
10
36.8969262
20
141.3241187
11
36.8744262
21
141.3405187
0
LINE
8
DEFAULT_255_2_778
10
36.8744262
20
141.3405187
11
36.8257262
21
141.3670187
0
LINE
8
DEFAULT_255_2_778
10
36.8257262
20
141.3670187
11
36.7995262
21
141.3770187
0
LINE
8
DEFAULT_255_2_778
10
36.7995262
20
141.3770187
11
36.7725262
21
141.3849187
0
LINE
8
DEFAULT_255_2_778
10
36.7725262
20
141.3849187
11
36.7175262
21
141.3950187
0
LINE
8
DEFAULT_255_2_778
10
36.7175262
20
141.3950187
11
36.6612262
21
141.3982187
0
LINE
8
DEFAULT_255_2_778
10
36.5500262
20
141.3852187
11
36.4966262
21
141.3670187
0
LINE
8
DEFAULT_255_2_778
10
36.4966262
20
141.3670187
11
36.4474262
21
141.3402187
0
LINE
8
DEFAULT_255_2_778
10
36.4474262
20
141.3402187
11
36.4246262
21
141.3236187
0
LINE
8
DEFAULT_255_2_778
10
36.4246262
20
141.3236187
11
36.4035262
21
141.3050187
0
LINE
8
DEFAULT_255_2_778
10
36.4035262
20
141.3050187
11
36.3661262
21
141.2635187
0
LINE
8
DEFAULT_255_2_778
10
36.3661262
20
141.2635187
11
36.3497262
21
141.2405187
0
LINE
8
DEFAULT_255_2_778
10
36.3497262
20
141.2405187
11
36.3352262
21
141.2167187
0
LINE
8
DEFAULT_255_2_778
10
36.3352262
20
141.2167187
11
36.3225262
21
141.1921187
0
LINE
8
DEFAULT_255_2_778
10
36.3225262
20
141.1921187
11
36.3116262
21
141.1667187
0
LINE
8
DEFAULT_255_2_778
10
36.3116262
20
141.1667187
11
36.2934262
21
141.1140187
0
LINE
8
DEFAULT_255_2_778
10
36.2934262
20
141.1140187
11
36.2791262
21
141.0603187
0
LINE
8
DEFAULT_255_2_778
10
36.2611262
20
140.9513187
11
36.2532262
21
140.8410187
0
LINE
8
DEFAULT_255_2_778
10
36.2532262
20
140.8410187
11
36.2521262
21
140.7854187
0
LINE
8
DEFAULT_255_2_778
10
36.2521262
20
140.7854187
11
36.2513262
21
140.7298187
0
LINE
8
DEFAULT_255_2_778
10
36.2513262
20
140.7298187
11
36.2505262
21
140.6187187
0
LINE
8
DEFAULT_255_2_778
10
36.2505262
20
140.6187187
11
36.2508262
21
140.5076187
0
LINE
8
DEFAULT_255_2_778
10
36.2508262
20
140.5076187
11
36.2521262
21
140.3965187
0
LINE
8
DEFAULT_255_2_778
10
36.2521262
20
140.3965187
11
36.2534262
21
140.3409187
0
LINE
8
DEFAULT_255_2_778
10
36.2534262
20
140.3409187
11
36.2561262
21
140.2856187
0
LINE
8
DEFAULT_255_2_778
10
36.2561262
20
140.2856187
11
36.2680262
21
140.1755187
0
LINE
8
DEFAULT_255_2_778
10
36.2921262
20
140.0671187
11
36.3101262
21
140.0147187
0
LINE
8
DEFAULT_255_2_778
10
36.3101262
20
140.0147187
11
36.3209262
21
139.9893187
0
LINE
8
DEFAULT_255_2_778
10
36.3209262
20
139.9893187
11
36.3336262
21
139.9644187
0
LINE
8
DEFAULT_255_2_778
10
36.4561262
20
139.8318187
11
36.4871262
21
139.8146187
0
LINE
8
DEFAULT_255_2_778
10
36.4871262
20
139.8146187
11
36.5199262
21
139.8009187
0
LINE
8
DEFAULT_255_2_778
10
36.5199262
20
139.8009187
11
36.5887262
21
139.7839187
0
LINE
8
DEFAULT_255_2_778
10
36.5887262
20
139.7839187
11
36.6593262
21
139.7787187
0
LINE
8
DEFAULT_255_2_778
10
36.6593262
20
139.7787187
11
36.7297262
21
139.7834187
0
LINE
8
DEFAULT_255_2_778
10
36.7297262
20
139.7834187
11
36.7649262
21
139.7903187
0
LINE
8
DEFAULT_255_2_778
10
36.7649262
20
139.7903187
11
36.7990262
21
139.8004187
0
LINE
8
DEFAULT_255_2_778
10
36.7990262
20
139.8004187
11
36.8318262
21
139.8138187
0
LINE
8
DEFAULT_255_2_778
10
36.8318262
20
139.8138187
11
36.8630262
21
139.8313187
0
LINE
8
DEFAULT_255_2_778
10
36.9183262
20
139.8760187
11
36.9183262
21
139.8763187
0
LINE
8
DEFAULT_255_2_778
10
26.8856262
20
141.3894187
11
26.8856262
21
141.2913187
0
LINE
8
DEFAULT_255_2_778
10
26.8856262
20
141.2913187
11
27.5730262
21
141.2913187
0
LINE
8
DEFAULT_255_2_778
10
27.5730262
20
141.2913187
11
27.1311262
21
139.8347187
0
LINE
8
DEFAULT_255_2_778
10
27.1311262
20
139.8347187
11
27.2293262
21
139.8019187
0
LINE
8
DEFAULT_255_2_778
10
27.2293262
20
139.8019187
11
27.6793262
21
141.2257187
0
LINE
8
DEFAULT_255_2_778
10
27.6793262
20
141.2257187
11
27.6793262
21
141.3894187
0
LINE
8
DEFAULT_255_2_778
10
27.6793262
20
141.3894187
11
26.8856262
21
141.3894187
0
LINE
8
DEFAULT_255_2_778
10
28.6665262
20
140.8558187
11
28.6662262
21
140.8560187
0
LINE
8
DEFAULT_255_2_778
10
28.1866262
20
139.7779187
11
28.8316262
21
139.7779187
0
LINE
8
DEFAULT_255_2_778
10
28.8316262
20
139.7779187
11
28.8316262
21
139.8792187
0
LINE
8
DEFAULT_255_2_778
10
28.8316262
20
139.8792187
11
28.6332262
21
139.8792187
0
LINE
8
DEFAULT_255_2_778
10
28.7819262
20
140.6050187
11
28.7819262
21
140.6052187
0
ENDSEC
0
EOF