0
SECTION
2
HEADER
9
$MEASUREMENT
70
1
0
ENDSEC
0
SECTION
2
TABLES
0
TABLE
2
LTYPE
0
LTYPE
72
65
70
64
2
CONTINUOUS
3
______
73
0
40
0
0
ENDTAB
0
TABLE
2
LAYER
0
LAYER
2
DEFAULT_255_2_778
70
0
62
255
6
CONTINUOUS
0
ENDTAB
0
ENDSEC
0
SECTION
2
ENTITIES
0
ARC
8
DEFAULT_255_2_778
10
7.9019207
20
124.9125265
40
7.9989713
50
269.9979769
51
290.000063
0
ARC
8
DEFAULT_255_2_778
10
7.9017903
20
86.9121891
40
8.0012661
50
70.004925
51
90.0010888
0
LINE
8
DEFAULT_255_2_778
10
7.4624383
20
35.5134553
11
7.4605373
21
35.5134552
0
ARC
8
DEFAULT_255_2_778
10
7.4608879
20
82.0018846
40
46.4884294
50
260.9673589
51
269.9995679
0
ARC
8
DEFAULT_255_2_778
10
78.8151943
20
11.4143996
40
7.0019152
50
224.270277
51
235.9073045
0
ARC
8
DEFAULT_255_2_778
10
78.8108829
20
11.4109168
40
6.9966145
50
235.9205567
51
254.6157722
0
ARC
8
DEFAULT_255_2_778
10
78.815447
20
11.4229369
40
7.0094147
50
254.6058667
51
269.9955137
0
ARC
8
DEFAULT_255_2_778
10
78.8149367
20
11.4054488
40
6.9919266
50
269.9996845
51
273.7849633
0
ARC
8
DEFAULT_255_2_778
10
78.8154151
20
11.3983898
40
6.9848515
50
273.7848695
51
282.1991532
0
ARC
8
DEFAULT_255_2_778
10
78.8110176
20
11.4173512
40
7.0043139
50
282.2015376
51
289.1169672
0
ARC
8
DEFAULT_255_2_778
10
78.8004138
20
11.449306
40
7.0379791
50
289.1133357
51
290.7180674
0
ARC
8
DEFAULT_255_2_778
10
86.2130776
20
7.2635577
40
0.5000607
50
290.7247156
51
0.011173
0
ARC
8
DEFAULT_255_2_778
10
86.2130878
20
12.2637012
40
0.5000505
50
0.0061975
51
52.0016552
0
ARC
8
DEFAULT_255_2_778
10
86.2130424
20
12.2637658
40
0.5000276
50
51.9929889
51
90.0031287
0
ARC
8
DEFAULT_255_2_778
10
86.2130152
20
12.2640229
40
0.4997706
50
90.0000217
51
93.8052551
0
ARC
8
DEFAULT_255_2_778
10
86.2130433
20
12.2638423
40
0.4999526
50
93.8070893
51
103.9947462
0
ARC
8
DEFAULT_255_2_778
10
78.8121662
20
11.4151465
40
2.0003033
50
281.7734419
51
344.7396366
0
ARC
8
DEFAULT_255_2_778
10
78.8103057
20
11.4248098
40
2.010143
50
280.488785
51
281.7691565
0
ARC
8
DEFAULT_255_2_778
10
78.8109202
20
11.4229313
40
2.008184
50
277.8241127
51
280.4813036
0
ARC
8
DEFAULT_255_2_778
10
78.8120494
20
11.413993
40
1.9991751
50
270.0021911
51
277.8269245
0
ARC
8
DEFAULT_255_2_778
10
78.8125329
20
11.4155625
40
2.0007446
50
216.230388
51
269.9883438
0
ARC
8
DEFAULT_255_2_778
10
121.5993955
20
58.416532
40
39.1032768
50
270.0000627
51
281.1431605
0
ARC
8
DEFAULT_255_2_778
10
104.1123959
20
27.562906
40
39.9997983
50
198.5869163
51
220.5159381
0
ARC
8
DEFAULT_255_2_778
10
77.503752
20
4.8238985
40
4.9986211
50
220.5135455
51
246.4205257
0
ARC
8
DEFAULT_255_2_778
10
77.5045477
20
4.8240299
40
4.9990599
50
246.4127697
51
270.0035644
0
ARC
8
DEFAULT_255_2_778
10
77.5048947
20
4.8270704
40
5.0021003
50
269.999588
51
270.4930424
0
ARC
8
DEFAULT_255_2_778
10
119.444654
20
4.5068187
40
1.5000469
50
278.1858827
51
323.2095433
0
ARC
8
DEFAULT_255_2_778
10
88.641491
20
27.5443714
40
39.9651439
50
323.2074266
51
327.0306981
0
ARC
8
DEFAULT_255_2_778
10
120.9121931
20
6.6119657
40
1.5000451
50
327.0351844
51
359.9996011
0
ARC
8
DEFAULT_255_2_778
10
121.2112414
20
8.0131862
40
1.2009969
50
0.0128347
51
44.9687004
0
ARC
8
DEFAULT_255_2_778
10
121.2131219
20
8.0149005
40
1.198455
50
44.9742528
51
90.0013996
0
LINE
8
DEFAULT_255_2_778
10
121.2130926
20
9.2133555
11
121.2123383
21
9.2133553
0
LINE
8
DEFAULT_255_2_778
10
12.3122383
20
130.6134553
11
11.8569383
21
130.6134553
0
LINE
8
DEFAULT_255_2_778
10
11.8569383
20
130.6134553
11
11.1872383
21
130.3192553
0
LINE
8
DEFAULT_255_2_778
10
11.1872383
20
130.3192553
11
11.1467383
21
130.3009553
0
LINE
8
DEFAULT_255_2_778
10
11.1467383
20
130.3009553
11
11.1068383
21
130.2819553
0
LINE
8
DEFAULT_255_2_778
10
11.1068383
20
130.2819553
11
11.0671383
21
130.2620553
0
LINE
8
DEFAULT_255_2_778
10
11.0671383
20
130.2620553
11
11.0279383
21
130.2414553
0
LINE
8
DEFAULT_255_2_778
10
11.0279383
20
130.2414553
11
10.9890383
21
130.2202553
0
LINE
8
DEFAULT_255_2_778
10
10.9890383
20
130.2202553
11
10.9507383
21
130.1982553
0
LINE
8
DEFAULT_255_2_778
10
10.9507383
20
130.1982553
11
10.9126383
21
130.1755553
0
LINE
8
DEFAULT_255_2_778
10
10.9126383
20
130.1755553
11
10.8750383
21
130.1519553
0
LINE
8
DEFAULT_255_2_778
10
10.8750383
20
130.1519553
11
10.8380383
21
130.1279553
0
LINE
8
DEFAULT_255_2_778
10
10.8380383
20
130.1279553
11
10.8015383
21
130.1030553
0
LINE
8
DEFAULT_255_2_778
10
10.8015383
20
130.1030553
11
10.7652383
21
130.0773553
0
LINE
8
DEFAULT_255_2_778
10
10.7652383
20
130.0773553
11
10.7295383
21
130.0511553
0
LINE
8
DEFAULT_255_2_778
10
10.7295383
20
130.0511553
11
10.6943383
21
130.0241553
0
LINE
8
DEFAULT_255_2_778
10
10.6943383
20
130.0241553
11
10.6596383
21
129.9966553
0
LINE
8
DEFAULT_255_2_778
10
10.6596383
20
129.9966553
11
10.6255383
21
129.9683553
0
LINE
8
DEFAULT_255_2_778
10
10.6255383
20
129.9683553
11
10.5919383
21
129.9395553
0
LINE
8
DEFAULT_255_2_778
10
10.5919383
20
129.9395553
11
10.5588383
21
129.9098553
0
LINE
8
DEFAULT_255_2_778
10
10.5588383
20
129.9098553
11
10.5266383
21
129.8797553
0
LINE
8
DEFAULT_255_2_778
10
10.5266383
20
129.8797553
11
10.4948383
21
129.8490553
0
LINE
8
DEFAULT_255_2_778
10
10.4948383
20
129.8490553
11
10.4636383
21
129.8175553
0
LINE
8
DEFAULT_255_2_778
10
10.4636383
20
129.8175553
11
10.4329383
21
129.7855553
0
LINE
8
DEFAULT_255_2_778
10
10.4329383
20
129.7855553
11
10.4030383
21
129.7530553
0
LINE
8
DEFAULT_255_2_778
10
10.4030383
20
129.7530553
11
10.3736383
21
129.7199553
0
LINE
8
DEFAULT_255_2_778
10
10.3736383
20
129.7199553
11
10.3448383
21
129.6863553
0
LINE
8
DEFAULT_255_2_778
10
10.3448383
20
129.6863553
11
10.3167383
21
129.6521553
0
LINE
8
DEFAULT_255_2_778
10
10.3167383
20
129.6521553
11
10.2892383
21
129.6175553
0
LINE
8
DEFAULT_255_2_778
10
10.2892383
20
129.6175553
11
10.2625383
21
129.5823553
0
LINE
8
DEFAULT_255_2_778
10
10.2625383
20
129.5823553
11
10.2366383
21
129.5466553
0
LINE
8
DEFAULT_255_2_778
10
10.2366383
20
129.5466553
11
10.2112383
21
129.5103553
0
LINE
8
DEFAULT_255_2_778
10
10.2112383
20
129.5103553
11
10.1866383
21
129.4736553
0
LINE
8
DEFAULT_255_2_778
10
10.1866383
20
129.4736553
11
10.1628383
21
129.4362553
0
LINE
8
DEFAULT_255_2_778
10
10.1628383
20
129.4362553
11
10.1397383
21
129.3984553
0
LINE
8
DEFAULT_255_2_778
10
10.1397383
20
129.3984553
11
10.1172383
21
129.3603553
0
LINE
8
DEFAULT_255_2_778
10
10.1172383
20
129.3603553
11
10.0956383
21
129.3217553
0
LINE
8
DEFAULT_255_2_778
10
10.0956383
20
129.3217553
11
10.0746383
21
129.2828553
0
LINE
8
DEFAULT_255_2_778
10
10.0746383
20
129.2828553
11
10.0545383
21
129.2434553
0
LINE
8
DEFAULT_255_2_778
10
10.0545383
20
129.2434553
11
10.0352383
21
129.2037553
0
LINE
8
DEFAULT_255_2_778
10
10.0352383
20
129.2037553
11
10.0167383
21
129.1635553
0
LINE
8
DEFAULT_255_2_778
10
10.0167383
20
129.1635553
11
9.9990383
21
129.1230553
0
LINE
8
DEFAULT_255_2_778
10
9.9990383
20
129.1230553
11
9.9820383
21
129.0822553
0
LINE
8
DEFAULT_255_2_778
10
9.9820383
20
129.0822553
11
9.9659383
21
129.0410553
0
LINE
8
DEFAULT_255_2_778
10
9.9659383
20
129.0410553
11
9.9506383
21
128.9994553
0
LINE
8
DEFAULT_255_2_778
10
9.9506383
20
128.9994553
11
9.9360383
21
128.9576553
0
LINE
8
DEFAULT_255_2_778
10
9.9360383
20
128.9576553
11
9.9222383
21
128.9155553
0
LINE
8
DEFAULT_255_2_778
10
9.9222383
20
128.9155553
11
9.9093383
21
128.8732553
0
LINE
8
DEFAULT_255_2_778
10
9.9093383
20
128.8732553
11
9.8971383
21
128.8306553
0
LINE
8
DEFAULT_255_2_778
10
9.8971383
20
128.8306553
11
9.8857383
21
128.7878553
0
LINE
8
DEFAULT_255_2_778
10
9.8857383
20
128.7878553
11
9.8752383
21
128.7449553
0
LINE
8
DEFAULT_255_2_778
10
9.8752383
20
128.7449553
11
9.8654383
21
128.7018553
0
LINE
8
DEFAULT_255_2_778
10
9.8654383
20
128.7018553
11
9.8564383
21
128.6584553
0
LINE
8
DEFAULT_255_2_778
10
9.8564383
20
128.6584553
11
9.8482383
21
128.6150553
0
LINE
8
DEFAULT_255_2_778
10
9.8482383
20
128.6150553
11
9.8408383
21
128.5713553
0
LINE
8
DEFAULT_255_2_778
10
9.8408383
20
128.5713553
11
9.8341383
21
128.5274553
0
LINE
8
DEFAULT_255_2_778
10
9.8341383
20
128.5274553
11
9.8286383
21
128.4835553
0
LINE
8
DEFAULT_255_2_778
10
9.8286383
20
128.4835553
11
9.8238383
21
128.4396553
0
LINE
8
DEFAULT_255_2_778
10
9.8238383
20
128.4396553
11
9.8199383
21
128.3954553
0
LINE
8
DEFAULT_255_2_778
10
9.8199383
20
128.3954553
11
9.8167383
21
128.3512553
0
LINE
8
DEFAULT_255_2_778
10
9.8167383
20
128.3512553
11
9.8146383
21
128.3070553
0
LINE
8
DEFAULT_255_2_778
10
9.8146383
20
128.3070553
11
9.8132383
21
128.2628553
0
LINE
8
DEFAULT_255_2_778
10
9.8132383
20
128.2628553
11
9.8127383
21
128.2186553
0
LINE
8
DEFAULT_255_2_778
10
9.8127383
20
128.2186553
11
9.8127383
21
127.8143553
0
LINE
8
DEFAULT_255_2_778
10
9.8127383
20
127.8143553
11
2.6123383
21
124.8134553
0
LINE
8
DEFAULT_255_2_778
10
2.6123383
20
124.8134553
11
2.6123383
21
124.4176553
0
LINE
8
DEFAULT_255_2_778
10
12.3122383
20
118.0052553
11
10.6377383
21
117.3959553
0
LINE
8
DEFAULT_255_2_778
10
7.9016383
20
116.9135553
11
5.8122383
21
116.9135553
0
LINE
8
DEFAULT_255_2_778
10
5.8122383
20
116.9135553
11
5.8122383
21
94.9134553
0
LINE
8
DEFAULT_255_2_778
10
5.8122383
20
94.9134553
11
7.9016383
21
94.9134553
0
LINE
8
DEFAULT_255_2_778
10
10.6377383
20
94.4311553
11
12.3122383
21
93.8217553
0
LINE
8
DEFAULT_255_2_778
10
12.3122383
20
78.8781553
11
12.3117383
21
78.8220553
0
LINE
8
DEFAULT_255_2_778
10
12.3117383
20
78.8220553
11
12.3101383
21
78.7656553
0
LINE
8
DEFAULT_255_2_778
10
12.3101383
20
78.7656553
11
12.3075383
21
78.7087553
0
LINE
8
DEFAULT_255_2_778
10
12.3075383
20
78.7087553
11
12.3038383
21
78.6516553
0
LINE
8
DEFAULT_255_2_778
10
12.3038383
20
78.6516553
11
12.2987383
21
78.5942553
0
LINE
8
DEFAULT_255_2_778
10
12.2987383
20
78.5942553
11
12.2927383
21
78.5365553
0
LINE
8
DEFAULT_255_2_778
10
12.2927383
20
78.5365553
11
12.2855383
21
78.4786553
0
LINE
8
DEFAULT_255_2_778
10
12.2855383
20
78.4786553
11
12.2770383
21
78.4206553
0
LINE
8
DEFAULT_255_2_778
10
12.2770383
20
78.4206553
11
12.2675383
21
78.3624553
0
LINE
8
DEFAULT_255_2_778
10
12.2675383
20
78.3624553
11
12.2567383
21
78.3042553
0
LINE
8
DEFAULT_255_2_778
10
12.2567383
20
78.3042553
11
12.2448383
21
78.2457553
0
LINE
8
DEFAULT_255_2_778
10
12.2448383
20
78.2457553
11
12.2315383
21
78.1872553
0
LINE
8
DEFAULT_255_2_778
10
12.2315383
20
78.1872553
11
12.2172383
21
78.1288553
0
LINE
8
DEFAULT_255_2_778
10
12.2172383
20
78.1288553
11
12.2016383
21
78.0703553
0
LINE
8
DEFAULT_255_2_778
10
12.2016383
20
78.0703553
11
12.1847383
21
78.0118553
0
LINE
8
DEFAULT_255_2_778
10
12.1847383
20
78.0118553
11
12.1664383
21
77.9534553
0
LINE
8
DEFAULT_255_2_778
10
12.1664383
20
77.9534553
11
12.1469383
21
77.8951553
0
LINE
8
DEFAULT_255_2_778
10
12.1469383
20
77.8951553
11
12.1262383
21
77.8369553
0
LINE
8
DEFAULT_255_2_778
10
12.1262383
20
77.8369553
11
12.1043383
21
77.7790553
0
LINE
8
DEFAULT_255_2_778
10
12.1043383
20
77.7790553
11
12.0810383
21
77.7211553
0
LINE
8
DEFAULT_255_2_778
10
12.0810383
20
77.7211553
11
12.0561383
21
77.6634553
0
LINE
8
DEFAULT_255_2_778
10
12.0561383
20
77.6634553
11
12.0299383
21
77.6060553
0
LINE
8
DEFAULT_255_2_778
10
12.0299383
20
77.6060553
11
12.0024383
21
77.5488553
0
LINE
8
DEFAULT_255_2_778
10
12.0024383
20
77.5488553
11
11.9736383
21
77.4919553
0
LINE
8
DEFAULT_255_2_778
10
11.9736383
20
77.4919553
11
11.9434383
21
77.4353553
0
LINE
8
DEFAULT_255_2_778
10
11.9434383
20
77.4353553
11
11.9117383
21
77.3792553
0
LINE
8
DEFAULT_255_2_778
10
11.9117383
20
77.3792553
11
11.8786383
21
77.3234553
0
LINE
8
DEFAULT_255_2_778
10
11.8786383
20
77.3234553
11
11.8439383
21
77.2681553
0
LINE
8
DEFAULT_255_2_778
10
11.8439383
20
77.2681553
11
11.8079383
21
77.2133553
0
LINE
8
DEFAULT_255_2_778
10
11.8079383
20
77.2133553
11
11.7706383
21
77.1588553
0
LINE
8
DEFAULT_255_2_778
10
11.7706383
20
77.1588553
11
11.7317383
21
77.1048553
0
LINE
8
DEFAULT_255_2_778
10
11.7317383
20
77.1048553
11
11.6915383
21
77.0517553
0
LINE
8
DEFAULT_255_2_778
10
11.6915383
20
77.0517553
11
11.6500383
21
76.9990553
0
LINE
8
DEFAULT_255_2_778
10
11.6500383
20
76.9990553
11
11.6069383
21
76.9469553
0
LINE
8
DEFAULT_255_2_778
10
11.6069383
20
76.9469553
11
11.5624383
21
76.8956553
0
LINE
8
DEFAULT_255_2_778
10
11.5624383
20
76.8956553
11
11.5166383
21
76.8450553
0
LINE
8
DEFAULT_255_2_778
10
11.5166383
20
76.8450553
11
11.4695383
21
76.7953553
0
LINE
8
DEFAULT_255_2_778
10
11.4695383
20
76.7953553
11
11.4211383
21
76.7463553
0
LINE
8
DEFAULT_255_2_778
10
11.4211383
20
76.7463553
11
11.3714383
21
76.6982553
0
LINE
8
DEFAULT_255_2_778
10
11.3714383
20
76.6982553
11
11.3203383
21
76.6511553
0
LINE
8
DEFAULT_255_2_778
10
11.3203383
20
76.6511553
11
11.2679383
21
76.6050553
0
LINE
8
DEFAULT_255_2_778
10
11.2679383
20
76.6050553
11
11.2142383
21
76.5598553
0
LINE
8
DEFAULT_255_2_778
10
11.2142383
20
76.5598553
11
11.1594383
21
76.5156553
0
LINE
8
DEFAULT_255_2_778
10
11.1594383
20
76.5156553
11
11.1033383
21
76.4727553
0
LINE
8
DEFAULT_255_2_778
10
11.1033383
20
76.4727553
11
11.0459383
21
76.4309553
0
LINE
8
DEFAULT_255_2_778
10
11.0459383
20
76.4309553
11
10.9875383
21
76.3902553
0
LINE
8
DEFAULT_255_2_778
10
10.9875383
20
76.3902553
11
10.9277383
21
76.3508553
0
LINE
8
DEFAULT_255_2_778
10
10.9277383
20
76.3508553
11
10.8668383
21
76.3127553
0
LINE
8
DEFAULT_255_2_778
10
10.8668383
20
76.3127553
11
10.8046383
21
76.2759553
0
LINE
8
DEFAULT_255_2_778
10
10.8046383
20
76.2759553
11
10.7414383
21
76.2404553
0
LINE
8
DEFAULT_255_2_778
10
10.7414383
20
76.2404553
11
10.6768383
21
76.2063553
0
LINE
8
DEFAULT_255_2_778
10
10.6768383
20
76.2063553
11
10.6112383
21
76.1738553
0
LINE
8
DEFAULT_255_2_778
10
10.6112383
20
76.1738553
11
10.5445383
21
76.1425553
0
LINE
8
DEFAULT_255_2_778
10
10.5445383
20
76.1425553
11
10.4768383
21
76.1129553
0
LINE
8
DEFAULT_255_2_778
10
10.4768383
20
76.1129553
11
10.4080383
21
76.0849553
0
LINE
8
DEFAULT_255_2_778
10
10.4080383
20
76.0849553
11
10.3382383
21
76.0584553
0
LINE
8
DEFAULT_255_2_778
10
10.3382383
20
76.0584553
11
5.4122383
21
74.2656553
0
LINE
8
DEFAULT_255_2_778
10
5.4122383
20
74.2656553
11
5.4122383
21
36.9133553
0
LINE
8
DEFAULT_255_2_778
10
5.4122383
20
36.9133553
11
12.2122383
21
36.8540553
0
LINE
8
DEFAULT_255_2_778
10
12.2122383
20
36.8540553
11
12.2122383
21
35.5134553
0
LINE
8
DEFAULT_255_2_778
10
12.2122383
20
35.5134553
11
7.4624383
21
35.5134553
0
LINE
8
DEFAULT_255_2_778
10
0.1623383
20
36.0899553
11
0.1623383
21
36.9435553
0
LINE
8
DEFAULT_255_2_778
10
0.1623383
20
36.9435553
11
0.6624383
21
36.9522553
0
LINE
8
DEFAULT_255_2_778
10
0.6624383
20
36.9522553
11
0.6624383
21
76.7133553
0
LINE
8
DEFAULT_255_2_778
10
0.6624383
20
76.7133553
11
5.6625383
21
77.2133553
0
LINE
8
DEFAULT_255_2_778
10
5.6625383
20
77.2133553
11
7.6624383
21
77.2133553
0
LINE
8
DEFAULT_255_2_778
10
7.6624383
20
77.2133553
11
10.5125383
21
78.2507553
0
LINE
8
DEFAULT_255_2_778
10
10.5125383
20
78.2507553
11
10.5125383
21
91.1132553
0
LINE
8
DEFAULT_255_2_778
10
10.5125383
20
91.1132553
11
5.6625383
21
93.1132553
0
LINE
8
DEFAULT_255_2_778
10
5.6625383
20
93.1132553
11
0.6624383
21
94.1133553
0
LINE
8
DEFAULT_255_2_778
10
0.6624383
20
94.1133553
11
0.6624383
21
123.6133553
0
LINE
8
DEFAULT_255_2_778
10
0.6624383
20
123.6133553
11
8.6623383
21
126.9132553
0
LINE
8
DEFAULT_255_2_778
10
8.6623383
20
126.9132553
11
9.8124383
21
126.9132553
0
LINE
8
DEFAULT_255_2_778
10
9.8124383
20
126.9132553
11
9.8124383
21
118.9132553
0
LINE
8
DEFAULT_255_2_778
10
9.8124383
20
118.9132553
11
12.3125383
21
118.9132553
0
LINE
8
DEFAULT_255_2_778
10
78.8123383
20
9.4133553
11
75.0177383
21
9.4133553
0
LINE
8
DEFAULT_255_2_778
10
75.0177383
20
9.4133553
11
74.9788383
21
9.4128553
0
LINE
8
DEFAULT_255_2_778
10
74.9788383
20
9.4128553
11
74.9399383
21
9.4115553
0
LINE
8
DEFAULT_255_2_778
10
74.9399383
20
9.4115553
11
74.9010383
21
9.4091553
0
LINE
8
DEFAULT_255_2_778
10
74.9010383
20
9.4091553
11
74.8621383
21
9.4059553
0
LINE
8
DEFAULT_255_2_778
10
74.8621383
20
9.4059553
11
74.8232383
21
9.4019553
0
LINE
8
DEFAULT_255_2_778
10
74.8232383
20
9.4019553
11
74.7843383
21
9.3969553
0
LINE
8
DEFAULT_255_2_778
10
74.7843383
20
9.3969553
11
74.7457383
21
9.3911553
0
LINE
8
DEFAULT_255_2_778
10
74.7457383
20
9.3911553
11
74.7071383
21
9.3845553
0
LINE
8
DEFAULT_255_2_778
10
74.7071383
20
9.3845553
11
74.6687383
21
9.3768553
0
LINE
8
DEFAULT_255_2_778
10
74.6687383
20
9.3768553
11
74.6303383
21
9.3683553
0
LINE
8
DEFAULT_255_2_778
10
74.6303383
20
9.3683553
11
74.5922383
21
9.3591553
0
LINE
8
DEFAULT_255_2_778
10
74.5922383
20
9.3591553
11
74.5544383
21
9.3488553
0
LINE
8
DEFAULT_255_2_778
10
74.5544383
20
9.3488553
11
74.5168383
21
9.3376553
0
LINE
8
DEFAULT_255_2_778
10
74.5168383
20
9.3376553
11
74.4798383
21
9.3257553
0
LINE
8
DEFAULT_255_2_778
10
74.4798383
20
9.3257553
11
74.4430383
21
9.3130553
0
LINE
8
DEFAULT_255_2_778
10
74.4430383
20
9.3130553
11
74.4065383
21
9.2995553
0
LINE
8
DEFAULT_255_2_778
10
74.4065383
20
9.2995553
11
74.3703383
21
9.2850553
0
LINE
8
DEFAULT_255_2_778
10
74.3703383
20
9.2850553
11
74.3343383
21
9.2696553
0
LINE
8
DEFAULT_255_2_778
10
74.3343383
20
9.2696553
11
74.2985383
21
9.2535553
0
LINE
8
DEFAULT_255_2_778
10
74.2985383
20
9.2535553
11
74.2634383
21
9.2366553
0
LINE
8
DEFAULT_255_2_778
10
74.2634383
20
9.2366553
11
74.2284383
21
9.2188553
0
LINE
8
DEFAULT_255_2_778
10
74.2284383
20
9.2188553
11
74.1940383
21
9.2003553
0
LINE
8
DEFAULT_255_2_778
10
74.1940383
20
9.2003553
11
74.1599383
21
9.1810553
0
LINE
8
DEFAULT_255_2_778
10
74.1599383
20
9.1810553
11
74.1263383
21
9.1609553
0
LINE
8
DEFAULT_255_2_778
10
74.1263383
20
9.1609553
11
74.0932383
21
9.1400553
0
LINE
8
DEFAULT_255_2_778
10
74.0932383
20
9.1400553
11
74.0607383
21
9.1183553
0
LINE
8
DEFAULT_255_2_778
10
74.0607383
20
9.1183553
11
74.0287383
21
9.0961553
0
LINE
8
DEFAULT_255_2_778
10
74.0287383
20
9.0961553
11
73.9972383
21
9.0731553
0
LINE
8
DEFAULT_255_2_778
10
73.9972383
20
9.0731553
11
73.9662383
21
9.0492553
0
LINE
8
DEFAULT_255_2_778
10
73.9662383
20
9.0492553
11
73.9358383
21
9.0249553
0
LINE
8
DEFAULT_255_2_778
10
73.9358383
20
9.0249553
11
73.9062383
21
8.9998553
0
LINE
8
DEFAULT_255_2_778
10
73.9062383
20
8.9998553
11
73.8771383
21
8.9738553
0
LINE
8
DEFAULT_255_2_778
10
73.8771383
20
8.9738553
11
73.8485383
21
8.9474553
0
LINE
8
DEFAULT_255_2_778
10
73.8485383
20
8.9474553
11
73.8204383
21
8.9201553
0
LINE
8
DEFAULT_255_2_778
10
73.8204383
20
8.9201553
11
73.7929383
21
8.8923553
0
LINE
8
DEFAULT_255_2_778
10
73.7929383
20
8.8923553
11
73.7662383
21
8.8638553
0
LINE
8
DEFAULT_255_2_778
10
73.7662383
20
8.8638553
11
73.7400383
21
8.8347553
0
LINE
8
DEFAULT_255_2_778
10
73.7400383
20
8.8347553
11
73.7146383
21
8.8050553
0
LINE
8
DEFAULT_255_2_778
10
73.7146383
20
8.8050553
11
73.6897383
21
8.7749553
0
LINE
8
DEFAULT_255_2_778
10
73.6897383
20
8.7749553
11
73.6657383
21
8.7439553
0
LINE
8
DEFAULT_255_2_778
10
73.6657383
20
8.7439553
11
73.6424383
21
8.7127553
0
LINE
8
DEFAULT_255_2_778
10
73.6424383
20
8.7127553
11
73.6199383
21
8.6809553
0
LINE
8
DEFAULT_255_2_778
10
73.6199383
20
8.6809553
11
73.5982383
21
8.6487553
0
LINE
8
DEFAULT_255_2_778
10
73.5982383
20
8.6487553
11
73.5773383
21
8.6159553
0
LINE
8
DEFAULT_255_2_778
10
73.5773383
20
8.6159553
11
73.5569383
21
8.5825553
0
LINE
8
DEFAULT_255_2_778
10
73.5569383
20
8.5825553
11
73.5373383
21
8.5487553
0
LINE
8
DEFAULT_255_2_778
10
73.5373383
20
8.5487553
11
73.5186383
21
8.5145553
0
LINE
8
DEFAULT_255_2_778
10
73.5186383
20
8.5145553
11
73.5006383
21
8.4799553
0
LINE
8
DEFAULT_255_2_778
10
73.5006383
20
8.4799553
11
73.4834383
21
8.4447553
0
LINE
8
DEFAULT_255_2_778
10
73.4834383
20
8.4447553
11
73.4670383
21
8.4092553
0
LINE
8
DEFAULT_255_2_778
10
73.4670383
20
8.4092553
11
73.4514383
21
8.3732553
0
LINE
8
DEFAULT_255_2_778
10
73.4514383
20
8.3732553
11
73.4365383
21
8.3370553
0
LINE
8
DEFAULT_255_2_778
10
73.4365383
20
8.3370553
11
73.4225383
21
8.3005553
0
LINE
8
DEFAULT_255_2_778
10
73.4225383
20
8.3005553
11
73.4095383
21
8.2637553
0
LINE
8
DEFAULT_255_2_778
10
73.4095383
20
8.2637553
11
73.3974383
21
8.2267553
0
LINE
8
DEFAULT_255_2_778
10
73.3974383
20
8.2267553
11
73.3860383
21
8.1893553
0
LINE
8
DEFAULT_255_2_778
10
73.3860383
20
8.1893553
11
73.3754383
21
8.1518553
0
LINE
8
DEFAULT_255_2_778
10
73.3754383
20
8.1518553
11
73.3659383
21
8.1139553
0
LINE
8
DEFAULT_255_2_778
10
73.3659383
20
8.1139553
11
73.3572383
21
8.0761553
0
LINE
8
DEFAULT_255_2_778
10
73.3572383
20
8.0761553
11
73.3492383
21
8.0380553
0
LINE
8
DEFAULT_255_2_778
10
73.3492383
20
8.0380553
11
73.3423383
21
7.9996553
0
LINE
8
DEFAULT_255_2_778
10
73.3423383
20
7.9996553
11
73.3363383
21
7.9610553
0
LINE
8
DEFAULT_255_2_778
10
73.3363383
20
7.9610553
11
73.3310383
21
7.9224553
0
LINE
8
DEFAULT_255_2_778
10
73.3310383
20
7.9224553
11
73.3267383
21
7.8835553
0
LINE
8
DEFAULT_255_2_778
10
73.3267383
20
7.8835553
11
73.3233383
21
7.8446553
0
LINE
8
DEFAULT_255_2_778
10
73.3233383
20
7.8446553
11
73.3206383
21
7.8057553
0
LINE
8
DEFAULT_255_2_778
10
73.3206383
20
7.8057553
11
73.3191383
21
7.7665553
0
LINE
8
DEFAULT_255_2_778
10
73.3191383
20
7.7665553
11
73.3183383
21
7.7274553
0
LINE
8
DEFAULT_255_2_778
10
73.3183383
20
7.7274553
11
73.3183383
21
7.6882553
0
LINE
8
DEFAULT_255_2_778
10
73.3183383
20
7.6882553
11
73.3193383
21
7.6491553
0
LINE
8
DEFAULT_255_2_778
10
73.3193383
20
7.6491553
11
73.3212383
21
7.6102553
0
LINE
8
DEFAULT_255_2_778
10
73.3212383
20
7.6102553
11
73.3241383
21
7.5713553
0
LINE
8
DEFAULT_255_2_778
10
73.3241383
20
7.5713553
11
73.3278383
21
7.5327553
0
LINE
8
DEFAULT_255_2_778
10
73.3278383
20
7.5327553
11
73.3323383
21
7.4940553
0
LINE
8
DEFAULT_255_2_778
10
73.3323383
20
7.4940553
11
73.3378383
21
7.4554553
0
LINE
8
DEFAULT_255_2_778
10
73.3378383
20
7.4554553
11
73.3442383
21
7.4170553
0
LINE
8
DEFAULT_255_2_778
10
73.3442383
20
7.4170553
11
73.3516383
21
7.3787553
0
LINE
8
DEFAULT_255_2_778
10
73.3516383
20
7.3787553
11
73.3598383
21
7.3406553
0
LINE
8
DEFAULT_255_2_778
10
73.3598383
20
7.3406553
11
73.3688383
21
7.3025553
0
LINE
8
DEFAULT_255_2_778
10
73.3688383
20
7.3025553
11
73.3786383
21
7.2646553
0
LINE
8
DEFAULT_255_2_778
10
73.3786383
20
7.2646553
11
73.3894383
21
7.2271553
0
LINE
8
DEFAULT_255_2_778
10
73.3894383
20
7.2271553
11
73.4011383
21
7.1898553
0
LINE
8
DEFAULT_255_2_778
10
73.4011383
20
7.1898553
11
73.4135383
21
7.1527553
0
LINE
8
DEFAULT_255_2_778
10
73.4135383
20
7.1527553
11
73.4267383
21
7.1159553
0
LINE
8
DEFAULT_255_2_778
10
73.4267383
20
7.1159553
11
73.4408383
21
7.0794553
0
LINE
8
DEFAULT_255_2_778
10
73.4408383
20
7.0794553
11
73.4556383
21
7.0434553
0
LINE
8
DEFAULT_255_2_778
10
73.4556383
20
7.0434553
11
73.4715383
21
7.0077553
0
LINE
8
DEFAULT_255_2_778
10
73.4715383
20
7.0077553
11
73.4881383
21
6.9725553
0
LINE
8
DEFAULT_255_2_778
10
73.4881383
20
6.9725553
11
73.5056383
21
6.9376553
0
LINE
8
DEFAULT_255_2_778
10
73.5056383
20
6.9376553
11
73.5238383
21
6.9032553
0
LINE
8
DEFAULT_255_2_778
10
73.5238383
20
6.9032553
11
73.5429383
21
6.8691553
0
LINE
8
DEFAULT_255_2_778
10
73.5429383
20
6.8691553
11
73.5627383
21
6.8355553
0
LINE
8
DEFAULT_255_2_778
10
73.5627383
20
6.8355553
11
73.5834383
21
6.8021553
0
LINE
8
DEFAULT_255_2_778
10
73.5834383
20
6.8021553
11
73.6048383
21
6.7693553
0
LINE
8
DEFAULT_255_2_778
10
73.6048383
20
6.7693553
11
73.6270383
21
6.7370553
0
LINE
8
DEFAULT_255_2_778
10
73.6270383
20
6.7370553
11
73.6498383
21
6.7053553
0
LINE
8
DEFAULT_255_2_778
10
73.6498383
20
6.7053553
11
73.6733383
21
6.6741553
0
LINE
8
DEFAULT_255_2_778
10
73.6733383
20
6.6741553
11
73.6977383
21
6.6434553
0
LINE
8
DEFAULT_255_2_778
10
73.6977383
20
6.6434553
11
73.7226383
21
6.6132553
0
LINE
8
DEFAULT_255_2_778
10
73.7226383
20
6.6132553
11
73.7482383
21
6.5839553
0
LINE
8
DEFAULT_255_2_778
10
73.7482383
20
6.5839553
11
73.7744383
21
6.5550553
0
LINE
8
DEFAULT_255_2_778
10
73.7744383
20
6.5550553
11
73.8014383
21
6.5267553
0
LINE
8
DEFAULT_255_2_778
10
81.2902383
20
4.8664553
11
86.3900383
21
6.7958553
0
LINE
8
DEFAULT_255_2_778
10
86.7131383
20
7.2636553
11
86.7131383
21
12.2637553
0
LINE
8
DEFAULT_255_2_778
10
86.0921383
20
12.7489553
11
81.4656383
21
11.5953553
0
LINE
8
DEFAULT_255_2_778
10
81.4656383
20
11.5953553
11
81.4465383
21
11.5903553
0
LINE
8
DEFAULT_255_2_778
10
81.4465383
20
11.5903553
11
81.4277383
21
11.5850553
0
LINE
8
DEFAULT_255_2_778
10
81.4277383
20
11.5850553
11
81.4090383
21
11.5795553
0
LINE
8
DEFAULT_255_2_778
10
81.4090383
20
11.5795553
11
81.3902383
21
11.5734553
0
LINE
8
DEFAULT_255_2_778
10
81.3902383
20
11.5734553
11
81.3717383
21
11.5670553
0
LINE
8
DEFAULT_255_2_778
10
81.3717383
20
11.5670553
11
81.3531383
21
11.5601553
0
LINE
8
DEFAULT_255_2_778
10
81.3531383
20
11.5601553
11
81.3349383
21
11.5530553
0
LINE
8
DEFAULT_255_2_778
10
81.3349383
20
11.5530553
11
81.3166383
21
11.5456553
0
LINE
8
DEFAULT_255_2_778
10
81.3166383
20
11.5456553
11
81.2986383
21
11.5376553
0
LINE
8
DEFAULT_255_2_778
10
81.2986383
20
11.5376553
11
81.2806383
21
11.5294553
0
LINE
8
DEFAULT_255_2_778
10
81.2806383
20
11.5294553
11
81.2629383
21
11.5210553
0
LINE
8
DEFAULT_255_2_778
10
81.2629383
20
11.5210553
11
81.2454383
21
11.5120553
0
LINE
8
DEFAULT_255_2_778
10
81.2454383
20
11.5120553
11
81.2280383
21
11.5027553
0
LINE
8
DEFAULT_255_2_778
10
81.2280383
20
11.5027553
11
81.2108383
21
11.4932553
0
LINE
8
DEFAULT_255_2_778
10
81.2108383
20
11.4932553
11
81.1939383
21
11.4834553
0
LINE
8
DEFAULT_255_2_778
10
81.1939383
20
11.4834553
11
81.1772383
21
11.4731553
0
LINE
8
DEFAULT_255_2_778
10
81.1772383
20
11.4731553
11
81.1608383
21
11.4625553
0
LINE
8
DEFAULT_255_2_778
10
81.1608383
20
11.4625553
11
81.1446383
21
11.4517553
0
LINE
8
DEFAULT_255_2_778
10
81.1446383
20
11.4517553
11
81.1285383
21
11.4405553
0
LINE
8
DEFAULT_255_2_778
10
81.1285383
20
11.4405553
11
81.1126383
21
11.4289553
0
LINE
8
DEFAULT_255_2_778
10
81.1126383
20
11.4289553
11
81.0970383
21
11.4170553
0
LINE
8
DEFAULT_255_2_778
10
81.0970383
20
11.4170553
11
81.0817383
21
11.4048553
0
LINE
8
DEFAULT_255_2_778
10
81.0817383
20
11.4048553
11
81.0666383
21
11.3924553
0
LINE
8
DEFAULT_255_2_778
10
81.0666383
20
11.3924553
11
81.0515383
21
11.3797553
0
LINE
8
DEFAULT_255_2_778
10
81.0515383
20
11.3797553
11
81.0367383
21
11.3667553
0
LINE
8
DEFAULT_255_2_778
10
81.0367383
20
11.3667553
11
81.0221383
21
11.3535553
0
LINE
8
DEFAULT_255_2_778
10
81.0221383
20
11.3535553
11
81.0079383
21
11.3400553
0
LINE
8
DEFAULT_255_2_778
10
81.0079383
20
11.3400553
11
80.9938383
21
11.3262553
0
LINE
8
DEFAULT_255_2_778
10
80.9938383
20
11.3262553
11
80.9801383
21
11.3122553
0
LINE
8
DEFAULT_255_2_778
10
80.9801383
20
11.3122553
11
80.9666383
21
11.2979553
0
LINE
8
DEFAULT_255_2_778
10
80.9666383
20
11.2979553
11
80.9536383
21
11.2834553
0
LINE
8
DEFAULT_255_2_778
10
80.9536383
20
11.2834553
11
80.9409383
21
11.2686553
0
LINE
8
DEFAULT_255_2_778
10
80.9409383
20
11.2686553
11
80.9285383
21
11.2535553
0
LINE
8
DEFAULT_255_2_778
10
80.9285383
20
11.2535553
11
80.9163383
21
11.2381553
0
LINE
8
DEFAULT_255_2_778
10
80.9163383
20
11.2381553
11
80.9044383
21
11.2225553
0
LINE
8
DEFAULT_255_2_778
10
80.9044383
20
11.2225553
11
80.8928383
21
11.2067553
0
LINE
8
DEFAULT_255_2_778
10
80.8928383
20
11.2067553
11
80.8816383
21
11.1905553
0
LINE
8
DEFAULT_255_2_778
10
80.8816383
20
11.1905553
11
80.8708383
21
11.1741553
0
LINE
8
DEFAULT_255_2_778
10
80.8708383
20
11.1741553
11
80.8602383
21
11.1577553
0
LINE
8
DEFAULT_255_2_778
10
80.8602383
20
11.1577553
11
80.8499383
21
11.1410553
0
LINE
8
DEFAULT_255_2_778
10
80.8499383
20
11.1410553
11
80.8398383
21
11.1241553
0
LINE
8
DEFAULT_255_2_778
10
80.8398383
20
11.1241553
11
80.8303383
21
11.1069553
0
LINE
8
DEFAULT_255_2_778
10
80.8303383
20
11.1069553
11
80.8211383
21
11.0894553
0
LINE
8
DEFAULT_255_2_778
10
80.8211383
20
11.0894553
11
80.8121383
21
11.0720553
0
LINE
8
DEFAULT_255_2_778
10
80.8121383
20
11.0720553
11
80.8033383
21
11.0543553
0
LINE
8
DEFAULT_255_2_778
10
80.8033383
20
11.0543553
11
80.7951383
21
11.0365553
0
LINE
8
DEFAULT_255_2_778
10
80.7951383
20
11.0365553
11
80.7872383
21
11.0185553
0
LINE
8
DEFAULT_255_2_778
10
80.7872383
20
11.0185553
11
80.7795383
21
11.0003553
0
LINE
8
DEFAULT_255_2_778
10
80.7795383
20
11.0003553
11
80.7724383
21
10.9820553
0
LINE
8
DEFAULT_255_2_778
10
80.7724383
20
10.9820553
11
80.7655383
21
10.9635553
0
LINE
8
DEFAULT_255_2_778
10
80.7655383
20
10.9635553
11
80.7591383
21
10.9450553
0
LINE
8
DEFAULT_255_2_778
10
80.7591383
20
10.9450553
11
80.7531383
21
10.9265553
0
LINE
8
DEFAULT_255_2_778
10
80.7531383
20
10.9265553
11
80.7472383
21
10.9077553
0
LINE
8
DEFAULT_255_2_778
10
80.7472383
20
10.9077553
11
80.7419383
21
10.8886553
0
LINE
8
DEFAULT_255_2_778
10
77.1986383
20
10.2330553
11
77.1873383
21
10.2499553
0
LINE
8
DEFAULT_255_2_778
10
77.1873383
20
10.2499553
11
77.1762383
21
10.2669553
0
LINE
8
DEFAULT_255_2_778
10
77.1762383
20
10.2669553
11
77.1653383
21
10.2841553
0
LINE
8
DEFAULT_255_2_778
10
77.1653383
20
10.2841553
11
77.1545383
21
10.3013553
0
LINE
8
DEFAULT_255_2_778
10
77.1545383
20
10.3013553
11
77.1439383
21
10.3184553
0
LINE
8
DEFAULT_255_2_778
10
77.1439383
20
10.3184553
11
77.1336383
21
10.3359553
0
LINE
8
DEFAULT_255_2_778
10
77.1336383
20
10.3359553
11
77.1232383
21
10.3534553
0
LINE
8
DEFAULT_255_2_778
10
77.1232383
20
10.3534553
11
77.1132383
21
10.3711553
0
LINE
8
DEFAULT_255_2_778
10
77.1132383
20
10.3711553
11
77.1034383
21
10.3888553
0
LINE
8
DEFAULT_255_2_778
10
77.1034383
20
10.3888553
11
77.0936383
21
10.4068553
0
LINE
8
DEFAULT_255_2_778
10
77.0936383
20
10.4068553
11
77.0841383
21
10.4248553
0
LINE
8
DEFAULT_255_2_778
10
77.0841383
20
10.4248553
11
77.0748383
21
10.4428553
0
LINE
8
DEFAULT_255_2_778
10
77.0748383
20
10.4428553
11
77.0656383
21
10.4611553
0
LINE
8
DEFAULT_255_2_778
10
77.0656383
20
10.4611553
11
77.0566383
21
10.4793553
0
LINE
8
DEFAULT_255_2_778
10
77.0566383
20
10.4793553
11
77.0478383
21
10.4976553
0
LINE
8
DEFAULT_255_2_778
10
77.0478383
20
10.4976553
11
77.0391383
21
10.5161553
0
LINE
8
DEFAULT_255_2_778
10
77.0391383
20
10.5161553
11
77.0306383
21
10.5346553
0
LINE
8
DEFAULT_255_2_778
10
77.0306383
20
10.5346553
11
77.0224383
21
10.5531553
0
LINE
8
DEFAULT_255_2_778
10
77.0224383
20
10.5531553
11
77.0145383
21
10.5719553
0
LINE
8
DEFAULT_255_2_778
10
77.0145383
20
10.5719553
11
77.0066383
21
10.5907553
0
LINE
8
DEFAULT_255_2_778
10
77.0066383
20
10.5907553
11
76.9989383
21
10.6095553
0
LINE
8
DEFAULT_255_2_778
10
76.9989383
20
10.6095553
11
76.9915383
21
10.6285553
0
LINE
8
DEFAULT_255_2_778
10
76.9915383
20
10.6285553
11
76.9841383
21
10.6476553
0
LINE
8
DEFAULT_255_2_778
10
76.9841383
20
10.6476553
11
76.9769383
21
10.6666553
0
LINE
8
DEFAULT_255_2_778
10
76.9769383
20
10.6666553
11
76.9700383
21
10.6857553
0
LINE
8
DEFAULT_255_2_778
10
76.9700383
20
10.6857553
11
76.9634383
21
10.7050553
0
LINE
8
DEFAULT_255_2_778
10
76.9634383
20
10.7050553
11
76.9568383
21
10.7243553
0
LINE
8
DEFAULT_255_2_778
10
76.9568383
20
10.7243553
11
76.9505383
21
10.7436553
0
LINE
8
DEFAULT_255_2_778
10
76.9505383
20
10.7436553
11
76.9444383
21
10.7629553
0
LINE
8
DEFAULT_255_2_778
10
76.9444383
20
10.7629553
11
76.9386383
21
10.7823553
0
LINE
8
DEFAULT_255_2_778
10
76.9386383
20
10.7823553
11
76.9330383
21
10.8018553
0
LINE
8
DEFAULT_255_2_778
10
76.9330383
20
10.8018553
11
76.9274383
21
10.8214553
0
LINE
8
DEFAULT_255_2_778
10
76.9274383
20
10.8214553
11
76.9222383
21
10.8410553
0
LINE
8
DEFAULT_255_2_778
10
76.9222383
20
10.8410553
11
76.9171383
21
10.8608553
0
LINE
8
DEFAULT_255_2_778
10
76.9171383
20
10.8608553
11
76.9121383
21
10.8807553
0
LINE
8
DEFAULT_255_2_778
10
76.9121383
20
10.8807553
11
76.9073383
21
10.9005553
0
LINE
8
DEFAULT_255_2_778
10
76.9073383
20
10.9005553
11
76.9028383
21
10.9204553
0
LINE
8
DEFAULT_255_2_778
10
76.9028383
20
10.9204553
11
76.8986383
21
10.9402553
0
LINE
8
DEFAULT_255_2_778
10
76.8986383
20
10.9402553
11
76.8946383
21
10.9603553
0
LINE
8
DEFAULT_255_2_778
10
76.8946383
20
10.9603553
11
76.8907383
21
10.9804553
0
LINE
8
DEFAULT_255_2_778
10
76.8907383
20
10.9804553
11
76.8870383
21
11.0005553
0
LINE
8
DEFAULT_255_2_778
10
76.8870383
20
11.0005553
11
76.8835383
21
11.0207553
0
LINE
8
DEFAULT_255_2_778
10
76.8835383
20
11.0207553
11
76.8804383
21
11.0408553
0
LINE
8
DEFAULT_255_2_778
10
76.8804383
20
11.0408553
11
76.8772383
21
11.0609553
0
LINE
8
DEFAULT_255_2_778
10
131.5798383
20
21.0727553
11
131.5822383
21
20.6623553
0
LINE
8
DEFAULT_255_2_778
10
131.5822383
20
20.6623553
11
129.1565383
21
20.0504553
0
LINE
8
DEFAULT_255_2_778
10
121.5994383
20
19.3132553
11
111.6995383
21
19.3132553
0
LINE
8
DEFAULT_255_2_778
10
111.6995383
20
19.3132553
11
111.6995383
21
14.8132553
0
LINE
8
DEFAULT_255_2_778
10
111.6995383
20
14.8132553
11
122.5996383
21
14.8132553
0
LINE
8
DEFAULT_255_2_778
10
122.5996383
20
14.8132553
11
122.7829383
21
14.8124553
0
LINE
8
DEFAULT_255_2_778
10
122.7829383
20
14.8124553
11
122.9612383
21
14.8098553
0
LINE
8
DEFAULT_255_2_778
10
122.9612383
20
14.8098553
11
123.1345383
21
14.8055553
0
LINE
8
DEFAULT_255_2_778
10
123.1345383
20
14.8055553
11
123.3026383
21
14.8000553
0
LINE
8
DEFAULT_255_2_778
10
123.3026383
20
14.8000553
11
123.4655383
21
14.7928553
0
LINE
8
DEFAULT_255_2_778
10
123.4655383
20
14.7928553
11
123.6238383
21
14.7844553
0
LINE
8
DEFAULT_255_2_778
10
123.6238383
20
14.7844553
11
123.7775383
21
14.7746553
0
LINE
8
DEFAULT_255_2_778
10
123.7775383
20
14.7746553
11
123.9270383
21
14.7634553
0
LINE
8
DEFAULT_255_2_778
10
123.9270383
20
14.7634553
11
124.0722383
21
14.7513553
0
LINE
8
DEFAULT_255_2_778
10
124.0722383
20
14.7513553
11
124.2135383
21
14.7378553
0
LINE
8
DEFAULT_255_2_778
10
124.2135383
20
14.7378553
11
124.3508383
21
14.7232553
0
LINE
8
DEFAULT_255_2_778
10
124.3508383
20
14.7232553
11
124.4844383
21
14.7076553
0
LINE
8
DEFAULT_255_2_778
10
124.4844383
20
14.7076553
11
124.6144383
21
14.6912553
0
LINE
8
DEFAULT_255_2_778
10
124.6144383
20
14.6912553
11
124.7408383
21
14.6738553
0
LINE
8
DEFAULT_255_2_778
10
124.7408383
20
14.6738553
11
124.8639383
21
14.6555553
0
LINE
8
DEFAULT_255_2_778
10
124.8639383
20
14.6555553
11
124.9837383
21
14.6364553
0
LINE
8
DEFAULT_255_2_778
10
124.9837383
20
14.6364553
11
125.1004383
21
14.6166553
0
LINE
8
DEFAULT_255_2_778
10
125.1004383
20
14.6166553
11
125.2139383
21
14.5960553
0
LINE
8
DEFAULT_255_2_778
10
125.2139383
20
14.5960553
11
125.3245383
21
14.5745553
0
LINE
8
DEFAULT_255_2_778
10
125.3245383
20
14.5745553
11
125.4322383
21
14.5523553
0
LINE
8
DEFAULT_255_2_778
10
125.4322383
20
14.5523553
11
125.5372383
21
14.5296553
0
LINE
8
DEFAULT_255_2_778
10
125.5372383
20
14.5296553
11
125.6396383
21
14.5060553
0
LINE
8
DEFAULT_255_2_778
10
125.6396383
20
14.5060553
11
125.7394383
21
14.4819553
0
LINE
8
DEFAULT_255_2_778
10
125.7394383
20
14.4819553
11
125.8365383
21
14.4573553
0
LINE
8
DEFAULT_255_2_778
10
125.8365383
20
14.4573553
11
125.9312383
21
14.4322553
0
LINE
8
DEFAULT_255_2_778
10
125.9312383
20
14.4322553
11
126.0238383
21
14.4065553
0
LINE
8
DEFAULT_255_2_778
10
126.0238383
20
14.4065553
11
126.1140383
21
14.3803553
0
LINE
8
DEFAULT_255_2_778
10
126.1140383
20
14.3803553
11
126.2021383
21
14.3536553
0
LINE
8
DEFAULT_255_2_778
10
126.2021383
20
14.3536553
11
126.2881383
21
14.3264553
0
LINE
8
DEFAULT_255_2_778
10
126.2881383
20
14.3264553
11
126.3720383
21
14.2986553
0
LINE
8
DEFAULT_255_2_778
10
126.3720383
20
14.2986553
11
126.4537383
21
14.2703553
0
LINE
8
DEFAULT_255_2_778
10
126.4537383
20
14.2703553
11
126.5336383
21
14.2417553
0
LINE
8
DEFAULT_255_2_778
10
126.5336383
20
14.2417553
11
126.6117383
21
14.2126553
0
LINE
8
DEFAULT_255_2_778
10
126.6117383
20
14.2126553
11
126.6879383
21
14.1832553
0
LINE
8
DEFAULT_255_2_778
10
126.6879383
20
14.1832553
11
126.7625383
21
14.1533553
0
LINE
8
DEFAULT_255_2_778
10
126.7625383
20
14.1533553
11
126.8353383
21
14.1232553
0
LINE
8
DEFAULT_255_2_778
10
126.8353383
20
14.1232553
11
126.9064383
21
14.0925553
0
LINE
8
DEFAULT_255_2_778
10
126.9064383
20
14.0925553
11
126.9760383
21
14.0615553
0
LINE
8
DEFAULT_255_2_778
10
126.9760383
20
14.0615553
11
127.0440383
21
14.0303553
0
LINE
8
DEFAULT_255_2_778
10
127.0440383
20
14.0303553
11
127.1104383
21
13.9985553
0
LINE
8
DEFAULT_255_2_778
10
127.1104383
20
13.9985553
11
127.1755383
21
13.9665553
0
LINE
8
DEFAULT_255_2_778
10
127.1755383
20
13.9665553
11
127.2390383
21
13.9342553
0
LINE
8
DEFAULT_255_2_778
10
127.2390383
20
13.9342553
11
127.3012383
21
13.9017553
0
LINE
8
DEFAULT_255_2_778
10
127.3012383
20
13.9017553
11
127.3621383
21
13.8689553
0
LINE
8
DEFAULT_255_2_778
10
127.3621383
20
13.8689553
11
127.4216383
21
13.8356553
0
LINE
8
DEFAULT_255_2_778
10
127.4216383
20
13.8356553
11
127.4798383
21
13.8020553
0
LINE
8
DEFAULT_255_2_778
10
127.4798383
20
13.8020553
11
127.5369383
21
13.7681553
0
LINE
8
DEFAULT_255_2_778
10
127.5369383
20
13.7681553
11
127.5928383
21
13.7340553
0
LINE
8
DEFAULT_255_2_778
10
127.5928383
20
13.7340553
11
127.6475383
21
13.6996553
0
LINE
8
DEFAULT_255_2_778
10
127.6475383
20
13.6996553
11
127.7013383
21
13.6649553
0
LINE
8
DEFAULT_255_2_778
10
127.7013383
20
13.6649553
11
127.7536383
21
13.6300553
0
LINE
8
DEFAULT_255_2_778
10
127.7536383
20
13.6300553
11
127.8050383
21
13.5948553
0
LINE
8
DEFAULT_255_2_778
10
127.8050383
20
13.5948553
11
127.8552383
21
13.5591553
0
LINE
8
DEFAULT_255_2_778
10
127.8552383
20
13.5591553
11
127.9047383
21
13.5231553
0
LINE
8
DEFAULT_255_2_778
10
127.9047383
20
13.5231553
11
127.9531383
21
13.4868553
0
LINE
8
DEFAULT_255_2_778
10
127.9531383
20
13.4868553
11
128.0005383
21
13.4503553
0
LINE
8
DEFAULT_255_2_778
10
128.0005383
20
13.4503553
11
128.0471383
21
13.4135553
0
LINE
8
DEFAULT_255_2_778
10
128.0471383
20
13.4135553
11
128.0926383
21
13.3765553
0
LINE
8
DEFAULT_255_2_778
10
128.0926383
20
13.3765553
11
128.1373383
21
13.3392553
0
LINE
8
DEFAULT_255_2_778
10
128.1373383
20
13.3392553
11
128.1812383
21
13.3014553
0
LINE
8
DEFAULT_255_2_778
10
128.1812383
20
13.3014553
11
128.2241383
21
13.2633553
0
LINE
8
DEFAULT_255_2_778
10
128.2241383
20
13.2633553
11
128.2661383
21
13.2249553
0
LINE
8
DEFAULT_255_2_778
10
128.2661383
20
13.2249553
11
128.3074383
21
13.1863553
0
LINE
8
DEFAULT_255_2_778
10
128.3074383
20
13.1863553
11
128.3479383
21
13.1474553
0
LINE
8
DEFAULT_255_2_778
10
128.3479383
20
13.1474553
11
128.3876383
21
13.1080553
0
LINE
8
DEFAULT_255_2_778
10
128.3876383
20
13.1080553
11
128.4265383
21
13.0683553
0
LINE
8
DEFAULT_255_2_778
10
128.4265383
20
13.0683553
11
128.4648383
21
13.0283553
0
LINE
8
DEFAULT_255_2_778
10
128.4648383
20
13.0283553
11
128.5024383
21
12.9878553
0
LINE
8
DEFAULT_255_2_778
10
128.5024383
20
12.9878553
11
128.5392383
21
12.9471553
0
LINE
8
DEFAULT_255_2_778
10
128.5392383
20
12.9471553
11
128.5752383
21
12.9061553
0
LINE
8
DEFAULT_255_2_778
10
128.5752383
20
12.9061553
11
128.6106383
21
12.8645553
0
LINE
8
DEFAULT_255_2_778
10
128.6106383
20
12.8645553
11
128.6453383
21
12.8227553
0
LINE
8
DEFAULT_255_2_778
10
128.6453383
20
12.8227553
11
128.6794383
21
12.7804553
0
LINE
8
DEFAULT_255_2_778
10
128.6794383
20
12.7804553
11
128.7128383
21
12.7378553
0
LINE
8
DEFAULT_255_2_778
10
128.7128383
20
12.7378553
11
128.7456383
21
12.6947553
0
LINE
8
DEFAULT_255_2_778
10
128.7456383
20
12.6947553
11
128.7778383
21
12.6513553
0
LINE
8
DEFAULT_255_2_778
10
128.7778383
20
12.6513553
11
128.8093383
21
12.6074553
0
LINE
8
DEFAULT_255_2_778
10
128.8093383
20
12.6074553
11
128.8403383
21
12.5629553
0
LINE
8
DEFAULT_255_2_778
10
128.8403383
20
12.5629553
11
128.8707383
21
12.5182553
0
LINE
8
DEFAULT_255_2_778
10
128.8707383
20
12.5182553
11
128.9003383
21
12.4730553
0
LINE
8
DEFAULT_255_2_778
10
128.9003383
20
12.4730553
11
128.9294383
21
12.4272553
0
LINE
8
DEFAULT_255_2_778
10
128.9294383
20
12.4272553
11
128.9580383
21
12.3809553
0
LINE
8
DEFAULT_255_2_778
10
128.9580383
20
12.3809553
11
128.9861383
21
12.3340553
0
LINE
8
DEFAULT_255_2_778
10
128.9861383
20
12.3340553
11
129.0133383
21
12.2867553
0
LINE
8
DEFAULT_255_2_778
10
129.0133383
20
12.2867553
11
129.0400383
21
12.2388553
0
LINE
8
DEFAULT_255_2_778
10
129.0400383
20
12.2388553
11
129.0662383
21
12.1904553
0
LINE
8
DEFAULT_255_2_778
10
129.0662383
20
12.1904553
11
129.0919383
21
12.1414553
0
LINE
8
DEFAULT_255_2_778
10
129.0919383
20
12.1414553
11
129.1170383
21
12.0920553
0
LINE
8
DEFAULT_255_2_778
10
129.1170383
20
12.0920553
11
129.1416383
21
12.0419553
0
LINE
8
DEFAULT_255_2_778
10
129.1416383
20
12.0419553
11
129.1657383
21
11.9911553
0
LINE
8
DEFAULT_255_2_778
10
129.1657383
20
11.9911553
11
129.1890383
21
11.9398553
0
LINE
8
DEFAULT_255_2_778
10
129.1890383
20
11.9398553
11
129.2118383
21
11.8877553
0
LINE
8
DEFAULT_255_2_778
10
129.2118383
20
11.8877553
11
129.2340383
21
11.8350553
0
LINE
8
DEFAULT_255_2_778
10
129.2340383
20
11.8350553
11
129.2557383
21
11.7816553
0
LINE
8
DEFAULT_255_2_778
10
129.2557383
20
11.7816553
11
129.2768383
21
11.7274553
0
LINE
8
DEFAULT_255_2_778
10
129.2768383
20
11.7274553
11
129.2975383
21
11.6726553
0
LINE
8
DEFAULT_255_2_778
10
129.2975383
20
11.6726553
11
129.3173383
21
11.6170553
0
LINE
8
DEFAULT_255_2_778
10
129.3173383
20
11.6170553
11
129.3366383
21
11.5607553
0
LINE
8
DEFAULT_255_2_778
10
129.3366383
20
11.5607553
11
129.3554383
21
11.5035553
0
LINE
8
DEFAULT_255_2_778
10
129.3554383
20
11.5035553
11
129.3737383
21
11.4456553
0
LINE
8
DEFAULT_255_2_778
10
129.3737383
20
11.4456553
11
129.3911383
21
11.3866553
0
LINE
8
DEFAULT_255_2_778
10
129.3911383
20
11.3866553
11
129.4081383
21
11.3268553
0
LINE
8
DEFAULT_255_2_778
10
129.4081383
20
11.3268553
11
129.4245383
21
11.2662553
0
LINE
8
DEFAULT_255_2_778
10
129.4245383
20
11.2662553
11
129.4401383
21
11.2045553
0
LINE
8
DEFAULT_255_2_778
10
129.4401383
20
11.2045553
11
129.4552383
21
11.1421553
0
LINE
8
DEFAULT_255_2_778
10
129.4552383
20
11.1421553
11
129.4695383
21
11.0786553
0
LINE
8
DEFAULT_255_2_778
10
129.4695383
20
11.0786553
11
129.4832383
21
11.0140553
0
LINE
8
DEFAULT_255_2_778
10
129.4832383
20
11.0140553
11
129.4962383
21
10.9484553
0
LINE
8
DEFAULT_255_2_778
10
129.4962383
20
10.9484553
11
129.5086383
21
10.8817553
0
LINE
8
DEFAULT_255_2_778
10
129.5086383
20
10.8817553
11
129.5203383
21
10.8140553
0
LINE
8
DEFAULT_255_2_778
10
129.5203383
20
10.8140553
11
129.5311383
21
10.7450553
0
LINE
8
DEFAULT_255_2_778
10
129.5311383
20
10.7450553
11
129.5414383
21
10.6748553
0
LINE
8
DEFAULT_255_2_778
10
129.5414383
20
10.6748553
11
129.5510383
21
10.6034553
0
LINE
8
DEFAULT_255_2_778
10
129.5510383
20
10.6034553
11
129.5597383
21
10.5306553
0
LINE
8
DEFAULT_255_2_778
10
129.5597383
20
10.5306553
11
129.5676383
21
10.4568553
0
LINE
8
DEFAULT_255_2_778
10
129.5676383
20
10.4568553
11
129.5748383
21
10.3817553
0
LINE
8
DEFAULT_255_2_778
10
129.5748383
20
10.3817553
11
129.5809383
21
10.3050553
0
LINE
8
DEFAULT_255_2_778
10
129.5809383
20
10.3050553
11
129.5861383
21
10.2269553
0
LINE
8
DEFAULT_255_2_778
10
129.5861383
20
10.2269553
11
129.5906383
21
10.1473553
0
LINE
8
DEFAULT_255_2_778
10
129.5906383
20
10.1473553
11
129.5941383
21
10.0660553
0
LINE
8
DEFAULT_255_2_778
10
129.5941383
20
10.0660553
11
129.5967383
21
9.9832553
0
LINE
8
DEFAULT_255_2_778
10
129.5967383
20
9.9832553
11
129.5983383
21
9.8988553
0
LINE
8
DEFAULT_255_2_778
10
129.5983383
20
9.8988553
11
129.5988383
21
9.8128553
0
LINE
8
DEFAULT_255_2_778
10
129.5988383
20
9.8128553
11
129.5988383
21
4.8133553
0
LINE
8
DEFAULT_255_2_778
10
129.5988383
20
4.8133553
11
131.5988383
21
4.8133553
0
LINE
8
DEFAULT_255_2_778
10
131.5988383
20
4.8133553
11
131.5988383
21
6.2542553
0
LINE
8
DEFAULT_255_2_778
10
131.5988383
20
6.2542553
11
131.5988383
21
7.6951553
0
LINE
8
DEFAULT_255_2_778
10
131.5988383
20
7.6951553
11
131.5988383
21
9.1360553
0
LINE
8
DEFAULT_255_2_778
10
131.5988383
20
9.1360553
11
131.5988383
21
10.5769553
0
LINE
8
DEFAULT_255_2_778
10
131.5988383
20
10.5769553
11
131.5994383
21
12.0179553
0
LINE
8
DEFAULT_255_2_778
10
131.5994383
20
12.0179553
11
131.5996383
21
13.4588553
0
LINE
8
DEFAULT_255_2_778
10
131.5996383
20
13.4588553
11
131.5994383
21
14.8997553
0
LINE
8
DEFAULT_255_2_778
10
131.5994383
20
14.8997553
11
131.5978383
21
16.3406553
0
LINE
8
DEFAULT_255_2_778
10
131.5978383
20
16.3406553
11
131.5943383
21
17.7816553
0
LINE
8
DEFAULT_255_2_778
10
131.5943383
20
17.7816553
11
131.5890383
21
19.2225553
0
LINE
8
DEFAULT_255_2_778
10
131.5890383
20
19.2225553
11
131.5816383
21
20.6631553
0
LINE
8
DEFAULT_255_2_778
10
12.3122383
20
94.6552553
11
15.3121383
21
94.3133553
0
LINE
8
DEFAULT_255_2_778
10
15.3121383
20
94.3133553
11
15.3121383
21
76.2468553
0
LINE
8
DEFAULT_255_2_778
10
15.3121383
20
76.2468553
11
9.4624383
21
71.3382553
0
LINE
8
DEFAULT_255_2_778
10
9.9990383
20
71.3382553
11
15.3150383
21
75.7922553
0
LINE
8
DEFAULT_255_2_778
10
15.3150383
20
75.7922553
11
15.3150383
21
94.4895553
0
LINE
8
DEFAULT_255_2_778
10
15.3150383
20
94.4895553
11
12.3122383
21
94.8129553
0
LINE
8
DEFAULT_255_2_778
10
78.4298383
20
13.2895553
11
78.4649383
21
13.2961553
0
LINE
8
DEFAULT_255_2_778
10
78.4649383
20
13.2961553
11
78.5004383
21
13.3022553
0
LINE
8
DEFAULT_255_2_778
10
78.5004383
20
13.3022553
11
78.5361383
21
13.3074553
0
LINE
8
DEFAULT_255_2_778
10
78.5361383
20
13.3074553
11
78.5718383
21
13.3122553
0
LINE
8
DEFAULT_255_2_778
10
78.5718383
20
13.3122553
11
78.6078383
21
13.3162553
0
LINE
8
DEFAULT_255_2_778
10
78.6078383
20
13.3162553
11
78.6441383
21
13.3194553
0
LINE
8
DEFAULT_255_2_778
10
78.6441383
20
13.3194553
11
78.6803383
21
13.3220553
0
LINE
8
DEFAULT_255_2_778
10
78.6803383
20
13.3220553
11
78.7168383
21
13.3239553
0
LINE
8
DEFAULT_255_2_778
10
78.7168383
20
13.3239553
11
78.7533383
21
13.3252553
0
LINE
8
DEFAULT_255_2_778
10
78.7533383
20
13.3252553
11
78.7898383
21
13.3257553
0
LINE
8
DEFAULT_255_2_778
10
78.7898383
20
13.3257553
11
78.8266383
21
13.3254553
0
LINE
8
DEFAULT_255_2_778
10
78.8266383
20
13.3254553
11
78.8634383
21
13.3246553
0
LINE
8
DEFAULT_255_2_778
10
78.8634383
20
13.3246553
11
78.9002383
21
13.3231553
0
LINE
8
DEFAULT_255_2_778
10
78.9002383
20
13.3231553
11
78.9370383
21
13.3209553
0
LINE
8
DEFAULT_255_2_778
10
78.9370383
20
13.3209553
11
78.9737383
21
13.3180553
0
LINE
8
DEFAULT_255_2_778
10
78.9737383
20
13.3180553
11
79.0105383
21
13.3143553
0
LINE
8
DEFAULT_255_2_778
10
79.0105383
20
13.3143553
11
79.0473383
21
13.3101553
0
LINE
8
DEFAULT_255_2_778
10
79.0473383
20
13.3101553
11
79.0841383
21
13.3051553
0
LINE
8
DEFAULT_255_2_778
10
79.0841383
20
13.3051553
11
79.1208383
21
13.2995553
0
LINE
8
DEFAULT_255_2_778
10
79.1208383
20
13.2995553
11
79.1576383
21
13.2932553
0
LINE
8
DEFAULT_255_2_778
10
79.1576383
20
13.2932553
11
79.1944383
21
13.2860553
0
LINE
8
DEFAULT_255_2_778
10
79.1944383
20
13.2860553
11
79.2312383
21
13.2783553
0
LINE
8
DEFAULT_255_2_778
10
79.2312383
20
13.2783553
11
79.2677383
21
13.2699553
0
LINE
8
DEFAULT_255_2_778
10
79.2677383
20
13.2699553
11
79.3042383
21
13.2606553
0
LINE
8
DEFAULT_255_2_778
10
79.3042383
20
13.2606553
11
79.3404383
21
13.2508553
0
LINE
8
DEFAULT_255_2_778
10
79.3404383
20
13.2508553
11
79.3767383
21
13.2402553
0
LINE
8
DEFAULT_255_2_778
10
79.3767383
20
13.2402553
11
79.4127383
21
13.2291553
0
LINE
8
DEFAULT_255_2_778
10
79.4127383
20
13.2291553
11
79.4487383
21
13.2172553
0
LINE
8
DEFAULT_255_2_778
10
79.4487383
20
13.2172553
11
79.4844383
21
13.2045553
0
LINE
8
DEFAULT_255_2_778
10
79.4844383
20
13.2045553
11
79.5198383
21
13.1913553
0
LINE
8
DEFAULT_255_2_778
10
79.5198383
20
13.1913553
11
79.5553383
21
13.1773553
0
LINE
8
DEFAULT_255_2_778
10
79.5553383
20
13.1773553
11
79.5905383
21
13.1625553
0
LINE
8
DEFAULT_255_2_778
10
79.5905383
20
13.1625553
11
79.6254383
21
13.1471553
0
LINE
8
DEFAULT_255_2_778
10
79.6254383
20
13.1471553
11
79.6601383
21
13.1310553
0
LINE
8
DEFAULT_255_2_778
10
79.6601383
20
13.1310553
11
79.6945383
21
13.1140553
0
LINE
8
DEFAULT_255_2_778
10
79.6945383
20
13.1140553
11
79.7286383
21
13.0966553
0
LINE
8
DEFAULT_255_2_778
10
79.7286383
20
13.0966553
11
79.7625383
21
13.0783553
0
LINE
8
DEFAULT_255_2_778
10
79.7625383
20
13.0783553
11
79.7961383
21
13.0593553
0
LINE
8
DEFAULT_255_2_778
10
79.7961383
20
13.0593553
11
79.8291383
21
13.0397553
0
LINE
8
DEFAULT_255_2_778
10
79.8291383
20
13.0397553
11
79.8619383
21
13.0193553
0
LINE
8
DEFAULT_255_2_778
10
79.8619383
20
13.0193553
11
79.8945383
21
12.9981553
0
LINE
8
DEFAULT_255_2_778
10
79.8945383
20
12.9981553
11
79.9268383
21
12.9765553
0
LINE
8
DEFAULT_255_2_778
10
79.9268383
20
12.9765553
11
79.9585383
21
12.9540553
0
LINE
8
DEFAULT_255_2_778
10
79.9585383
20
12.9540553
11
79.9900383
21
12.9307553
0
LINE
8
DEFAULT_255_2_778
10
79.9900383
20
12.9307553
11
80.0210383
21
12.9069553
0
LINE
8
DEFAULT_255_2_778
10
80.0210383
20
12.9069553
11
80.0516383
21
12.8823553
0
LINE
8
DEFAULT_255_2_778
10
80.0516383
20
12.8823553
11
80.0818383
21
12.8569553
0
LINE
8
DEFAULT_255_2_778
10
80.0818383
20
12.8569553
11
80.1114383
21
12.8309553
0
LINE
8
DEFAULT_255_2_778
10
80.1114383
20
12.8309553
11
80.1202383
21
12.8230553
0
LINE
8
DEFAULT_255_2_778
10
80.1202383
20
12.8230553
11
80.1289383
21
12.8151553
0
LINE
8
DEFAULT_255_2_778
10
80.1289383
20
12.8151553
11
80.1376383
21
12.8069553
0
LINE
8
DEFAULT_255_2_778
10
80.1376383
20
12.8069553
11
80.1464383
21
12.7987553
0
LINE
8
DEFAULT_255_2_778
10
80.1464383
20
12.7987553
11
80.1551383
21
12.7905553
0
LINE
8
DEFAULT_255_2_778
10
80.1551383
20
12.7905553
11
80.1636383
21
12.7822553
0
LINE
8
DEFAULT_255_2_778
10
80.1636383
20
12.7822553
11
80.1720383
21
12.7740553
0
LINE
8
DEFAULT_255_2_778
10
80.1720383
20
12.7740553
11
80.1805383
21
12.7656553
0
LINE
8
DEFAULT_255_2_778
10
80.1805383
20
12.7656553
11
80.1890383
21
12.7571553
0
LINE
8
DEFAULT_255_2_778
10
80.1890383
20
12.7571553
11
80.1974383
21
12.7486553
0
LINE
8
DEFAULT_255_2_778
10
80.1974383
20
12.7486553
11
80.2056383
21
12.7402553
0
LINE
8
DEFAULT_255_2_778
10
80.2056383
20
12.7402553
11
80.2138383
21
12.7317553
0
LINE
8
DEFAULT_255_2_778
10
77.5479383
20
-0.1748447
11
79.4645383
21
-0.1523447
0
LINE
8
DEFAULT_255_2_778
10
79.4645383
20
-0.1523447
11
81.3814383
21
-0.1182447
0
LINE
8
DEFAULT_255_2_778
10
81.3814383
20
-0.1182447
11
83.2986383
21
-0.0724447
0
LINE
8
DEFAULT_255_2_778
10
83.2986383
20
-0.0724447
11
85.2158383
21
-0.0150447
0
LINE
8
DEFAULT_255_2_778
10
85.2158383
20
-0.0150447
11
87.1330383
21
0.0542553
0
LINE
8
DEFAULT_255_2_778
10
87.1330383
20
0.0542553
11
89.0501383
21
0.1352553
0
LINE
8
DEFAULT_255_2_778
10
89.0501383
20
0.1352553
11
90.9670383
21
0.2278553
0
LINE
8
DEFAULT_255_2_778
10
90.9670383
20
0.2278553
11
92.8837383
21
0.3320553
0
LINE
8
DEFAULT_255_2_778
10
92.8837383
20
0.3320553
11
94.8001383
21
0.4479553
0
LINE
8
DEFAULT_255_2_778
10
94.8001383
20
0.4479553
11
96.7162383
21
0.5757553
0
LINE
8
DEFAULT_255_2_778
10
96.7162383
20
0.5757553
11
98.6317383
21
0.7151553
0
LINE
8
DEFAULT_255_2_778
10
98.6317383
20
0.7151553
11
100.5468383
21
0.8662553
0
LINE
8
DEFAULT_255_2_778
10
100.5468383
20
0.8662553
11
102.4613383
21
1.0289553
0
LINE
8
DEFAULT_255_2_778
10
102.4613383
20
1.0289553
11
104.3753383
21
1.2036553
0
LINE
8
DEFAULT_255_2_778
10
104.3753383
20
1.2036553
11
106.2888383
21
1.3898553
0
LINE
8
DEFAULT_255_2_778
10
106.2888383
20
1.3898553
11
108.2015383
21
1.5877553
0
LINE
8
DEFAULT_255_2_778
10
108.2015383
20
1.5877553
11
110.1133383
21
1.7975553
0
LINE
8
DEFAULT_255_2_778
10
110.1133383
20
1.7975553
11
112.0244383
21
2.0190553
0
LINE
8
DEFAULT_255_2_778
10
112.0244383
20
2.0190553
11
113.9345383
21
2.2521553
0
LINE
8
DEFAULT_255_2_778
10
113.9345383
20
2.2521553
11
115.8434383
21
2.4971553
0
LINE
8
DEFAULT_255_2_778
10
115.8434383
20
2.4971553
11
117.7513383
21
2.7537553
0
LINE
8
DEFAULT_255_2_778
10
117.7513383
20
2.7537553
11
119.6582383
21
3.0220553
0
LINE
8
DEFAULT_255_2_778
10
122.4122383
20
6.6119553
11
122.4122383
21
8.0134553
0
LINE
8
DEFAULT_255_2_778
10
19.5123383
20
2.4852553
11
19.5123383
21
2.2132553
0
LINE
8
DEFAULT_255_2_778
10
19.5123383
20
2.2132553
11
20.6122383
21
2.2132553
0
LINE
8
DEFAULT_255_2_778
10
20.6122383
20
2.2132553
11
20.6122383
21
3.2131553
0
LINE
8
DEFAULT_255_2_778
10
119.2727383
20
136.6300553
11
118.5885383
21
136.0559553
0
LINE
8
DEFAULT_255_2_778
10
12.3125383
20
16.3306553
11
7.5532383
21
16.9571553
0
LINE
8
DEFAULT_255_2_778
10
7.5532383
20
16.9571553
11
5.5259383
21
16.1144553
0
LINE
8
DEFAULT_255_2_778
10
5.5259383
20
16.1144553
11
5.2910383
21
14.3298553
0
LINE
8
DEFAULT_255_2_778
10
5.2910383
20
14.3298553
11
7.0311383
21
12.9913553
0
LINE
8
DEFAULT_255_2_778
10
131.4882383
20
30.5742553
11
131.5845383
21
30.5802553
0
LINE
8
DEFAULT_255_2_778
10
131.5845383
20
30.5802553
11
131.5509383
21
32.5821553
0
LINE
8
DEFAULT_255_2_778
10
131.5509383
20
32.5821553
11
131.4546383
21
32.5760553
0
ARC
8
DEFAULT_255_2_778
10
33.2724992
20
8.6449987
40
2.998569
50
275.9906052
51
291.9449219
0
ARC
8
DEFAULT_255_2_778
10
33.2724352
20
8.6462882
40
2.9998581
50
271.5747398
51
275.9892504
0
ARC
8
DEFAULT_255_2_778
10
33.2723829
20
8.6473516
40
3.0009225
50
269.9999481
51
271.5751798
0
ARC
8
DEFAULT_255_2_778
10
33.2721122
20
8.6466548
40
3.0002256
50
240.6579075
51
270.0051189
0
ARC
8
DEFAULT_255_2_778
10
33.2753282
20
8.6520923
40
3.0065415
50
237.5676519
51
240.655261
0
ARC
8
DEFAULT_255_2_778
10
33.2722063
20
8.6468674
40
3.0004571
50
183.1939168
51
237.5644593
0
LINE
8
DEFAULT_255_2_778
10
131.5507098
20
32.5815954
11
131.5507098
21
32.5839954
0
LINE
8
DEFAULT_255_2_778
10
131.5507098
20
32.5839954
11
131.4544098
21
32.5778954
0
LINE
8
DEFAULT_255_2_778
10
56.0662098
20
10.6891954
11
55.2417098
21
10.6386954
0
LINE
8
DEFAULT_255_2_778
10
55.2417098
20
10.6386954
11
54.4178098
21
10.5780954
0
LINE
8
DEFAULT_255_2_778
10
54.4178098
20
10.5780954
11
53.5947098
21
10.5073954
0
LINE
8
DEFAULT_255_2_778
10
53.5947098
20
10.5073954
11
52.7724098
21
10.4269954
0
LINE
8
DEFAULT_255_2_778
10
52.7724098
20
10.4269954
11
51.9511098
21
10.3364954
0
LINE
8
DEFAULT_255_2_778
10
51.9511098
20
10.3364954
11
51.1311098
21
10.2359954
0
LINE
8
DEFAULT_255_2_778
10
51.1311098
20
10.2359954
11
50.3125098
21
10.1255954
0
LINE
8
DEFAULT_255_2_778
10
50.3125098
20
10.1255954
11
49.4952098
21
10.0052954
0
LINE
8
DEFAULT_255_2_778
10
49.4952098
20
10.0052954
11
48.6795098
21
9.8750954
0
LINE
8
DEFAULT_255_2_778
10
48.6795098
20
9.8750954
11
47.8654098
21
9.7347954
0
LINE
8
DEFAULT_255_2_778
10
47.8654098
20
9.7347954
11
47.0531098
21
9.5847954
0
LINE
8
DEFAULT_255_2_778
10
47.0531098
20
9.5847954
11
46.2427098
21
9.4249954
0
LINE
8
DEFAULT_255_2_778
10
46.2427098
20
9.4249954
11
45.4344098
21
9.2553954
0
LINE
8
DEFAULT_255_2_778
10
45.4344098
20
9.2553954
11
44.6282098
21
9.0757954
0
LINE
8
DEFAULT_255_2_778
10
44.6282098
20
9.0757954
11
43.8241098
21
8.8865954
0
LINE
8
DEFAULT_255_2_778
10
43.8241098
20
8.8865954
11
43.0225098
21
8.6875954
0
LINE
8
DEFAULT_255_2_778
10
43.0225098
20
8.6875954
11
42.2232098
21
8.4788954
0
LINE
8
DEFAULT_255_2_778
10
42.2232098
20
8.4788954
11
41.4265098
21
8.2602954
0
LINE
8
DEFAULT_255_2_778
10
41.4265098
20
8.2602954
11
40.6325098
21
8.0322954
0
LINE
8
DEFAULT_255_2_778
10
40.6325098
20
8.0322954
11
39.8414098
21
7.7943954
0
LINE
8
DEFAULT_255_2_778
10
39.8414098
20
7.7943954
11
39.0532098
21
7.5469954
0
LINE
8
DEFAULT_255_2_778
10
39.0532098
20
7.5469954
11
38.2682098
21
7.2900954
0
LINE
8
DEFAULT_255_2_778
10
38.2682098
20
7.2900954
11
37.4863098
21
7.0236954
0
LINE
8
DEFAULT_255_2_778
10
37.4863098
20
7.0236954
11
36.7077098
21
6.7476954
0
LINE
8
DEFAULT_255_2_778
10
36.7077098
20
6.7476954
11
35.9324098
21
6.4624954
0
LINE
8
DEFAULT_255_2_778
10
35.9324098
20
6.4624954
11
35.1609098
21
6.1676954
0
LINE
8
DEFAULT_255_2_778
10
35.1609098
20
6.1676954
11
34.3931098
21
5.8636954
0
LINE
8
DEFAULT_255_2_778
10
116.0570098
20
9.2133954
11
116.0242098
21
9.2130954
0
LINE
8
DEFAULT_255_2_778
10
116.0242098
20
9.2130954
11
115.9914098
21
9.2119954
0
LINE
8
DEFAULT_255_2_778
10
115.9914098
20
9.2119954
11
115.9586098
21
9.2101954
0
LINE
8
DEFAULT_255_2_778
10
115.9586098
20
9.2101954
11
115.9260098
21
9.2074954
0
LINE
8
DEFAULT_255_2_778
10
115.9260098
20
9.2074954
11
115.8935098
21
9.2040954
0
LINE
8
DEFAULT_255_2_778
10
115.8935098
20
9.2040954
11
115.8609098
21
9.1998954
0
LINE
8
DEFAULT_255_2_778
10
115.8609098
20
9.1998954
11
115.8286098
21
9.1950954
0
LINE
8
DEFAULT_255_2_778
10
115.8286098
20
9.1950954
11
115.7964098
21
9.1894954
0
LINE
8
DEFAULT_255_2_778
10
115.7964098
20
9.1894954
11
115.7644098
21
9.1831954
0
LINE
8
DEFAULT_255_2_778
10
115.7644098
20
9.1831954
11
115.7323098
21
9.1759954
0
LINE
8
DEFAULT_255_2_778
10
115.7323098
20
9.1759954
11
115.7006098
21
9.1683954
0
LINE
8
DEFAULT_255_2_778
10
115.7006098
20
9.1683954
11
115.6691098
21
9.1598954
0
LINE
8
DEFAULT_255_2_778
10
115.6691098
20
9.1598954
11
115.6376098
21
9.1508954
0
LINE
8
DEFAULT_255_2_778
10
115.6376098
20
9.1508954
11
115.6064098
21
9.1410954
0
LINE
8
DEFAULT_255_2_778
10
115.6064098
20
9.1410954
11
115.5754098
21
9.1307954
0
LINE
8
DEFAULT_255_2_778
10
115.5754098
20
9.1307954
11
115.5448098
21
9.1196954
0
LINE
8
DEFAULT_255_2_778
10
115.5448098
20
9.1196954
11
115.5143098
21
9.1080954
0
LINE
8
DEFAULT_255_2_778
10
115.5143098
20
9.1080954
11
115.4842098
21
9.0955954
0
LINE
8
DEFAULT_255_2_778
10
115.4842098
20
9.0955954
11
115.4543098
21
9.0826954
0
LINE
8
DEFAULT_255_2_778
10
115.4543098
20
9.0826954
11
115.4246098
21
9.0688954
0
LINE
8
DEFAULT_255_2_778
10
115.4246098
20
9.0688954
11
115.3953098
21
9.0545954
0
LINE
8
DEFAULT_255_2_778
10
115.3953098
20
9.0545954
11
115.3662098
21
9.0397954
0
LINE
8
DEFAULT_255_2_778
10
115.3662098
20
9.0397954
11
115.3373098
21
9.0241954
0
LINE
8
DEFAULT_255_2_778
10
115.3373098
20
9.0241954
11
115.3087098
21
9.0079954
0
LINE
8
DEFAULT_255_2_778
10
115.3087098
20
9.0079954
11
115.2807098
21
8.9913954
0
LINE
8
DEFAULT_255_2_778
10
115.2807098
20
8.9913954
11
115.2529098
21
8.9741954
0
LINE
8
DEFAULT_255_2_778
10
115.2529098
20
8.9741954
11
115.2254098
21
8.9563954
0
LINE
8
DEFAULT_255_2_778
10
115.2254098
20
8.9563954
11
115.1984098
21
8.9381954
0
LINE
8
DEFAULT_255_2_778
10
115.1984098
20
8.9381954
11
115.1717098
21
8.9190954
0
LINE
8
DEFAULT_255_2_778
10
115.1717098
20
8.9190954
11
115.1455098
21
8.8995954
0
LINE
8
DEFAULT_255_2_778
10
115.1455098
20
8.8995954
11
115.1196098
21
8.8794954
0
LINE
8
DEFAULT_255_2_778
10
115.1196098
20
8.8794954
11
115.0942098
21
8.8587954
0
LINE
8
DEFAULT_255_2_778
10
115.0942098
20
8.8587954
11
115.0693098
21
8.8375954
0
LINE
8
DEFAULT_255_2_778
10
115.0693098
20
8.8375954
11
115.0450098
21
8.8159954
0
LINE
8
DEFAULT_255_2_778
10
115.0450098
20
8.8159954
11
115.0209098
21
8.7936954
0
LINE
8
DEFAULT_255_2_778
10
115.0209098
20
8.7936954
11
114.9973098
21
8.7709954
0
LINE
8
DEFAULT_255_2_778
10
114.9973098
20
8.7709954
11
114.9743098
21
8.7479954
0
LINE
8
DEFAULT_255_2_778
10
114.9743098
20
8.7479954
11
114.9518098
21
8.7243954
0
LINE
8
DEFAULT_255_2_778
10
114.9518098
20
8.7243954
11
114.9299098
21
8.7002954
0
LINE
8
DEFAULT_255_2_778
10
114.9299098
20
8.7002954
11
114.9084098
21
8.6756954
0
LINE
8
DEFAULT_255_2_778
10
114.9084098
20
8.6756954
11
114.8875098
21
8.6505954
0
LINE
8
DEFAULT_255_2_778
10
114.8875098
20
8.6505954
11
114.8672098
21
8.6251954
0
LINE
8
DEFAULT_255_2_778
10
114.8672098
20
8.6251954
11
114.8473098
21
8.5992954
0
LINE
8
DEFAULT_255_2_778
10
114.8473098
20
8.5992954
11
114.8283098
21
8.5727954
0
LINE
8
DEFAULT_255_2_778
10
114.8283098
20
8.5727954
11
114.8097098
21
8.5460954
0
LINE
8
DEFAULT_255_2_778
10
114.8097098
20
8.5460954
11
114.7917098
21
8.5187954
0
LINE
8
DEFAULT_255_2_778
10
114.7917098
20
8.5187954
11
114.7745098
21
8.4909954
0
LINE
8
DEFAULT_255_2_778
10
114.7745098
20
8.4909954
11
114.7579098
21
8.4629954
0
LINE
8
DEFAULT_255_2_778
10
131.5647098
20
24.5633954
11
131.8648098
21
24.5662954
0
LINE
8
DEFAULT_255_2_778
10
26.0124098
20
6.3907954
11
26.0124098
21
3.8131954
0
LINE
8
DEFAULT_255_2_778
10
26.0124098
20
3.8131954
11
27.1123098
21
3.8131954
0
LINE
8
DEFAULT_255_2_778
10
27.1123098
20
3.8131954
11
27.1123098
21
6.9632954
0
ARC
8
DEFAULT_255_2_778
10
74.5129077
20
8.7495482
40
0.2360074
50
269.8629874
51
270.0457003
0
ARC
8
DEFAULT_255_2_778
10
74.5130846
20
8.9125092
40
0.3989684
50
270.0016188
51
315.0295429
0
ARC
8
DEFAULT_255_2_778
10
74.5133756
20
8.9128002
40
0.3989684
50
314.9704571
51
359.9983812
0
ARC
8
DEFAULT_255_2_778
10
74.5581447
20
8.9127887
40
0.3541993
50
0.0000258
51
0.1217696
0
ARC
8
DEFAULT_255_2_778
10
90.7562118
20
16.9634235
40
3.010282
50
269.9986966
51
295.8668904
0
ARC
8
DEFAULT_255_2_778
10
86.3728904
20
10.9585579
40
2.9945837
50
90.0162074
51
103.9958934
0
ARC
8
DEFAULT_255_2_778
10
80.6454531
20
13.1435218
40
0.5112443
50
275.3907715
51
283.9433006
0
ARC
8
DEFAULT_255_2_778
10
80.6455821
20
13.1424037
40
0.510119
50
269.9996497
51
275.3881371
0
ARC
8
DEFAULT_255_2_778
10
80.6455781
20
13.1432971
40
0.5110124
50
223.3761442
51
270.0001058
0
ARC
8
DEFAULT_255_2_778
10
80.5131657
20
13.273716
40
0.5110224
50
180.0419906
51
227.5181443
0
ARC
8
DEFAULT_255_2_778
10
80.5127823
20
15.9126025
40
0.5106393
50
90.0604743
51
179.9395233
0
ARC
8
DEFAULT_255_2_778
10
92.8667041
20
15.9126023
40
0.5106395
50
0.0605054
51
89.9395025
0
LINE
8
DEFAULT_255_2_778
10
28.8370433
20
7.8134415
11
30.3052433
21
7.8134415
0
LINE
8
DEFAULT_255_2_778
10
30.3052433
20
7.8134415
11
30.3052433
21
5.1993415
0
LINE
8
DEFAULT_255_2_778
10
30.3052433
20
5.1993415
11
30.3345433
21
4.0809415
0
LINE
8
DEFAULT_255_2_778
10
30.3345433
20
4.0809415
11
31.3992433
21
4.0809415
0
LINE
8
DEFAULT_255_2_778
10
31.3992433
20
4.0809415
11
31.6326433
21
5.8531415
0
LINE
8
DEFAULT_255_2_778
10
31.6326433
20
5.8531415
11
32.1774433
21
5.8531415
0
LINE
8
DEFAULT_255_2_778
10
73.5185433
20
8.5135415
11
74.5123433
21
8.5135415
0
LINE
8
DEFAULT_255_2_778
10
74.9123433
20
8.9135415
11
74.9123433
21
9.4102415
0
LINE
8
DEFAULT_255_2_778
10
93.3773433
20
14.8632415
11
92.0695433
21
14.2547415
0
LINE
8
DEFAULT_255_2_778
10
90.7561433
20
13.9531415
11
86.3720433
21
13.9531415
0
LINE
8
DEFAULT_255_2_778
10
85.6486433
20
13.8642415
11
80.7686433
21
12.6473415
0
LINE
8
DEFAULT_255_2_778
10
80.2741433
20
12.7923415
11
80.1680433
21
12.8968415
0
LINE
8
DEFAULT_255_2_778
10
80.0021433
20
13.2733415
11
80.0021433
21
15.9131415
0
LINE
8
DEFAULT_255_2_778
10
80.5122433
20
16.4232415
11
92.8672433
21
16.4232415
0
LINE
8
DEFAULT_255_2_778
10
93.3773433
20
15.9131415
11
93.3773433
21
14.8630415
0
LINE
8
DEFAULT_255_2_778
10
59.8124337
20
14.8133526
11
59.81198
21
14.8133526
0
ARC
8
DEFAULT_255_2_778
10
59.8112739
20
-57.2235296
40
72.0368822
50
89.9994384
51
95.8754819
0
ARC
8
DEFAULT_255_2_778
10
59.8103054
20
-57.2079516
40
72.0212871
50
95.8759841
51
103.8182573
0
ARC
8
DEFAULT_255_2_778
10
59.8142826
20
-57.2260511
40
72.0398127
50
103.8178908
51
118.6718955
0
ARC
8
DEFAULT_255_2_778
10
59.8041725
20
-57.2055475
40
72.0169725
50
118.6726649
51
125.1165319
0
ARC
8
DEFAULT_255_2_778
10
59.8271009
20
-57.2383898
40
72.0570263
50
125.1164228
51
127.6496156
0
LINE
8
DEFAULT_255_2_778
10
111.6122337
20
14.8133526
11
93.2658337
21
14.8133526
0
LINE
8
DEFAULT_255_2_778
10
80.0022337
20
14.8133526
11
78.8224337
21
14.8133526
0
LINE
8
DEFAULT_255_2_778
10
72.6820337
20
14.8133526
11
59.8124337
21
14.8133526
0
LINE
8
DEFAULT_255_2_778
10
15.8124337
20
-0.1864474
11
12.3123337
21
-0.1864474
0
LINE
8
DEFAULT_255_2_778
10
12.3123337
20
-0.1864474
11
12.3123337
21
37.0531526
0
LINE
8
DEFAULT_255_2_778
10
12.3123337
20
37.0531526
11
8.4123337
21
37.0872526
0
ARC
8
DEFAULT_255_2_778
10
119.6107537
20
74.5286184
40
54.8655137
50
270.0003755
51
277.3154711
0
ARC
8
DEFAULT_255_2_778
10
3.887407
20
38.3133201
40
2.2000063
50
359.9995982
51
46.1138091
0
LINE
8
DEFAULT_255_2_778
10
111.3675133
20
10.1650047
11
111.3786133
21
10.1915047
0
LINE
8
DEFAULT_255_2_778
10
111.3786133
20
10.1915047
11
111.3895133
21
10.2180047
0
LINE
8
DEFAULT_255_2_778
10
111.3895133
20
10.2180047
11
111.4000133
21
10.2444047
0
LINE
8
DEFAULT_255_2_778
10
111.4000133
20
10.2444047
11
111.4104133
21
10.2706047
0
LINE
8
DEFAULT_255_2_778
10
111.4104133
20
10.2706047
11
111.4204133
21
10.2968047
0
LINE
8
DEFAULT_255_2_778
10
111.4204133
20
10.2968047
11
111.4302133
21
10.3230047
0
LINE
8
DEFAULT_255_2_778
10
111.4302133
20
10.3230047
11
111.4397133
21
10.3492047
0
LINE
8
DEFAULT_255_2_778
10
111.4397133
20
10.3492047
11
111.4490133
21
10.3754047
0
LINE
8
DEFAULT_255_2_778
10
111.4490133
20
10.3754047
11
111.4577133
21
10.4016047
0
LINE
8
DEFAULT_255_2_778
10
111.4577133
20
10.4016047
11
111.4662133
21
10.4275047
0
LINE
8
DEFAULT_255_2_778
10
111.4662133
20
10.4275047
11
111.4744133
21
10.4534047
0
LINE
8
DEFAULT_255_2_778
10
111.4744133
20
10.4534047
11
111.4823133
21
10.4794047
0
LINE
8
DEFAULT_255_2_778
10
111.4823133
20
10.4794047
11
111.4900133
21
10.5053047
0
LINE
8
DEFAULT_255_2_778
10
111.4900133
20
10.5053047
11
111.4974133
21
10.5310047
0
LINE
8
DEFAULT_255_2_778
10
111.4974133
20
10.5310047
11
111.5046133
21
10.5566047
0
LINE
8
DEFAULT_255_2_778
10
111.5046133
20
10.5566047
11
111.5114133
21
10.5823047
0
LINE
8
DEFAULT_255_2_778
10
111.5114133
20
10.5823047
11
111.5181133
21
10.6080047
0
LINE
8
DEFAULT_255_2_778
10
111.5181133
20
10.6080047
11
111.5244133
21
10.6334047
0
LINE
8
DEFAULT_255_2_778
10
111.5244133
20
10.6334047
11
111.5305133
21
10.6588047
0
LINE
8
DEFAULT_255_2_778
10
111.5305133
20
10.6588047
11
111.5363133
21
10.6842047
0
LINE
8
DEFAULT_255_2_778
10
111.5363133
20
10.6842047
11
111.5419133
21
10.7096047
0
LINE
8
DEFAULT_255_2_778
10
111.5419133
20
10.7096047
11
111.5472133
21
10.7347047
0
LINE
8
DEFAULT_255_2_778
10
111.5472133
20
10.7347047
11
111.5524133
21
10.7598047
0
LINE
8
DEFAULT_255_2_778
10
111.5524133
20
10.7598047
11
111.5575133
21
10.7850047
0
LINE
8
DEFAULT_255_2_778
10
111.5575133
20
10.7850047
11
111.5622133
21
10.8098047
0
LINE
8
DEFAULT_255_2_778
10
111.5622133
20
10.8098047
11
111.5667133
21
10.8347047
0
LINE
8
DEFAULT_255_2_778
10
111.5667133
20
10.8347047
11
111.5710133
21
10.8596047
0
LINE
8
DEFAULT_255_2_778
10
111.5710133
20
10.8596047
11
111.5749133
21
10.8842047
0
LINE
8
DEFAULT_255_2_778
10
111.5749133
20
10.8842047
11
111.5786133
21
10.9088047
0
LINE
8
DEFAULT_255_2_778
10
111.5786133
20
10.9088047
11
111.5821133
21
10.9331047
0
LINE
8
DEFAULT_255_2_778
10
111.5821133
20
10.9331047
11
111.5884133
21
10.9818047
0
LINE
8
DEFAULT_255_2_778
10
111.5884133
20
10.9818047
11
111.5940133
21
11.0300047
0
LINE
8
DEFAULT_255_2_778
10
111.5940133
20
11.0300047
11
111.5987133
21
11.0776047
0
LINE
8
DEFAULT_255_2_778
10
111.5987133
20
11.0776047
11
111.6027133
21
11.1247047
0
LINE
8
DEFAULT_255_2_778
10
111.6027133
20
11.1247047
11
111.6059133
21
11.1713047
0
LINE
8
DEFAULT_255_2_778
10
111.6059133
20
11.1713047
11
111.6083133
21
11.2173047
0
LINE
8
DEFAULT_255_2_778
10
111.6083133
20
11.2173047
11
111.6099133
21
11.2628047
0
LINE
8
DEFAULT_255_2_778
10
111.6099133
20
11.2628047
11
111.6109133
21
11.3078047
0
LINE
8
DEFAULT_255_2_778
10
111.6109133
20
11.3078047
11
111.6112133
21
11.3522047
0
LINE
8
DEFAULT_255_2_778
10
111.6112133
20
11.3522047
11
111.6112133
21
19.6631047
0
LINE
8
DEFAULT_255_2_778
10
111.6112133
20
19.6631047
11
119.6111133
21
19.6631047
0
LINE
8
DEFAULT_255_2_778
10
111.6996133
20
17.5567047
11
111.6122133
21
17.5586047
0
LINE
8
DEFAULT_255_2_778
10
27.1260133
20
6.9705047
11
30.3053133
21
6.5519047
0
LINE
8
DEFAULT_255_2_778
10
7.5532133
20
16.9572047
11
7.0312133
21
12.9913047
0
LINE
8
DEFAULT_255_2_778
10
7.0312133
20
12.9913047
11
12.3125133
21
12.2960047
0
LINE
8
DEFAULT_255_2_778
10
131.3734133
20
36.6705047
11
131.4698133
21
36.6766047
0
LINE
8
DEFAULT_255_2_778
10
131.4698133
20
36.6766047
11
131.4708133
21
36.6321047
0
LINE
8
DEFAULT_255_2_778
10
131.4708133
20
36.6321047
11
131.3745133
21
36.6260047
0
LINE
8
DEFAULT_255_2_778
10
131.4698133
20
36.6768047
11
131.4692133
21
36.6983047
0
LINE
8
DEFAULT_255_2_778
10
131.4692133
20
36.6983047
11
131.4687133
21
36.7197047
0
LINE
8
DEFAULT_255_2_778
10
131.4687133
20
36.7197047
11
131.4650133
21
36.8919047
0
LINE
8
DEFAULT_255_2_778
10
131.4650133
20
36.8919047
11
131.4528133
21
37.4306047
0
LINE
8
DEFAULT_255_2_778
10
131.4528133
20
37.4306047
11
131.4409133
21
37.9476047
0
LINE
8
DEFAULT_255_2_778
10
131.4409133
20
37.9476047
11
131.4287133
21
38.4638047
0
LINE
8
DEFAULT_255_2_778
10
131.4287133
20
38.4638047
11
131.3324133
21
38.4577047
0
LINE
8
DEFAULT_255_2_778
10
131.4282133
20
38.5027047
11
131.3319133
21
38.4966047
0
LINE
8
DEFAULT_255_2_778
10
131.4290133
20
38.4638047
11
131.4248133
21
38.6443047
0
LINE
8
DEFAULT_255_2_778
10
131.4248133
20
38.6443047
11
131.3285133
21
38.6382047
0
LINE
8
DEFAULT_255_2_778
10
131.0787133
20
47.4805047
11
131.1747133
21
47.4866047
0
LINE
8
DEFAULT_255_2_778
10
131.1747133
20
47.4869047
11
131.1552133
21
48.0833047
0
LINE
8
DEFAULT_255_2_778
10
131.1552133
20
48.0833047
11
131.1435133
21
48.4286047
0
LINE
8
DEFAULT_255_2_778
10
131.1435133
20
48.4286047
11
131.1319133
21
48.7746047
0
LINE
8
DEFAULT_255_2_778
10
131.1319133
20
48.7746047
11
131.1197133
21
49.1278047
0
LINE
8
DEFAULT_255_2_778
10
131.1197133
20
49.1278047
11
131.1059133
21
49.5239047
0
LINE
8
DEFAULT_255_2_778
10
131.1059133
20
49.5239047
11
131.0099133
21
49.5178047
0
LINE
8
DEFAULT_255_2_778
10
131.0890133
20
47.1630047
11
131.3888133
21
47.1728047
0
LINE
8
DEFAULT_255_2_778
10
131.3888133
20
47.1728047
11
131.2978133
21
49.8740047
0
LINE
8
DEFAULT_255_2_778
10
131.2978133
20
49.8740047
11
130.9980133
21
49.8634047
0
LINE
8
DEFAULT_255_2_778
10
131.2491133
20
41.7632047
11
131.5489133
21
41.7714047
0
LINE
8
DEFAULT_255_2_778
10
131.5489133
20
41.7714047
11
131.4724133
21
44.4725047
0
LINE
8
DEFAULT_255_2_778
10
131.4724133
20
44.4725047
11
131.1726133
21
44.4635047
0
LINE
8
DEFAULT_255_2_778
10
131.3801133
20
36.3633047
11
131.6801133
21
36.3696047
0
LINE
8
DEFAULT_255_2_778
10
131.6801133
20
36.3696047
11
131.6182133
21
39.0705047
0
LINE
8
DEFAULT_255_2_778
10
131.6182133
20
39.0705047
11
131.3181133
21
39.0634047
0
LINE
8
DEFAULT_255_2_778
10
131.4901133
20
30.4631047
11
131.7902133
21
30.4678047
0
LINE
8
DEFAULT_255_2_778
10
131.7902133
20
30.4678047
11
131.7441133
21
33.1687047
0
LINE
8
DEFAULT_255_2_778
10
131.7441133
20
33.1687047
11
131.4441133
21
33.1632047
0
LINE
8
DEFAULT_255_2_778
10
131.8648133
20
24.5663047
11
131.8349133
21
27.2672047
0
LINE
8
DEFAULT_255_2_778
10
131.8349133
20
27.2672047
11
131.5348133
21
27.2635047
0
LINE
8
DEFAULT_255_2_778
10
12.4623133
20
70.1384047
11
12.4623133
21
40.1884047
0
LINE
8
DEFAULT_255_2_778
10
12.4623133
20
40.1884047
11
5.4122133
21
40.1884047
0
LINE
8
DEFAULT_255_2_778
10
0.6624133
20
94.9132047
11
4.3123133
21
94.9132047
0
LINE
8
DEFAULT_255_2_778
10
4.3123133
20
94.9132047
11
4.3123133
21
116.9133047
0
LINE
8
DEFAULT_255_2_778
10
4.3123133
20
116.9133047
11
0.6624133
21
116.9133047
0
LINE
8
DEFAULT_255_2_778
10
6.0874133
20
36.9073047
11
6.0874133
21
38.3133047
0
ARC
8
DEFAULT_255_2_778
10
11.8124655
20
25.9558583
40
0.7502175
50
165.0134295
51
175.992071
0
ARC
8
DEFAULT_255_2_778
10
11.8120819
20
25.9559166
40
0.7498307
50
175.994469
51
180.0002954
0
ARC
8
DEFAULT_255_2_778
10
11.8116491
20
25.9557112
40
0.7493981
50
179.9845859
51
220.4956804
0
ARC
8
DEFAULT_255_2_778
10
11.8123437
20
25.9564332
40
0.9999754
50
179.9979484
51
220.4655102
0
ARC
8
DEFAULT_255_2_778
10
11.8113133
20
25.9564697
40
0.998945
50
175.9210055
51
180.0000366
0
ARC
8
DEFAULT_255_2_778
10
11.8121042
20
25.9563679
40
0.9997413
50
164.9917485
51
175.9184086
0
LINE
8
DEFAULT_255_2_778
10
8.4122656
20
40.188659
11
8.4122656
21
36.887159
0
LINE
8
DEFAULT_255_2_778
10
9.9622656
20
78.050559
11
9.9622656
21
91.340059
0
LINE
8
DEFAULT_255_2_778
10
12.3122656
20
30.719459
11
11.0877656
21
26.149859
0
LINE
8
DEFAULT_255_2_778
10
11.2417656
20
25.469059
11
11.2475656
21
25.462459
0
LINE
8
DEFAULT_255_2_778
10
11.2475656
20
25.462459
11
11.2533656
21
25.455859
0
LINE
8
DEFAULT_255_2_778
10
11.2533656
20
25.455859
11
11.2594656
21
25.449259
0
LINE
8
DEFAULT_255_2_778
10
11.2594656
20
25.449259
11
11.2655656
21
25.442659
0
LINE
8
DEFAULT_255_2_778
10
11.2655656
20
25.442659
11
11.2716656
21
25.436259
0
LINE
8
DEFAULT_255_2_778
10
11.2716656
20
25.436259
11
11.2777656
21
25.429959
0
LINE
8
DEFAULT_255_2_778
10
11.2777656
20
25.429959
11
11.2840656
21
25.423559
0
LINE
8
DEFAULT_255_2_778
10
11.2840656
20
25.423559
11
11.2904656
21
25.417459
0
LINE
8
DEFAULT_255_2_778
10
11.2904656
20
25.417459
11
11.2967656
21
25.411459
0
LINE
8
DEFAULT_255_2_778
10
11.2967656
20
25.411459
11
11.3031656
21
25.405359
0
LINE
8
DEFAULT_255_2_778
10
11.3031656
20
25.405359
11
11.3097656
21
25.399259
0
LINE
8
DEFAULT_255_2_778
10
11.3097656
20
25.399259
11
11.3163656
21
25.393459
0
LINE
8
DEFAULT_255_2_778
10
11.3163656
20
25.393459
11
11.3229656
21
25.387659
0
LINE
8
DEFAULT_255_2_778
10
11.3229656
20
25.387659
11
11.3295656
21
25.381759
0
LINE
8
DEFAULT_255_2_778
10
11.3295656
20
25.381759
11
11.3364656
21
25.376259
0
LINE
8
DEFAULT_255_2_778
10
11.3364656
20
25.376259
11
11.3433656
21
25.370659
0
LINE
8
DEFAULT_255_2_778
10
11.3433656
20
25.370659
11
11.3502656
21
25.365159
0
LINE
8
DEFAULT_255_2_778
10
11.3502656
20
25.365159
11
11.3573656
21
25.359859
0
LINE
8
DEFAULT_255_2_778
10
11.3573656
20
25.359859
11
11.3645656
21
25.354559
0
LINE
8
DEFAULT_255_2_778
10
11.3645656
20
25.354559
11
11.3716656
21
25.349259
0
LINE
8
DEFAULT_255_2_778
10
11.3716656
20
25.349259
11
11.3788656
21
25.343959
0
LINE
8
DEFAULT_255_2_778
10
11.3788656
20
25.343959
11
11.3859656
21
25.338959
0
LINE
8
DEFAULT_255_2_778
10
11.3859656
20
25.338959
11
11.3933656
21
25.333859
0
LINE
8
DEFAULT_255_2_778
10
11.3933656
20
25.333859
11
11.4007656
21
25.328859
0
LINE
8
DEFAULT_255_2_778
10
11.4007656
20
25.328859
11
11.4081656
21
25.324159
0
LINE
8
DEFAULT_255_2_778
10
11.4081656
20
25.324159
11
11.4155656
21
25.319359
0
LINE
8
DEFAULT_255_2_778
10
11.4155656
20
25.319359
11
11.4232656
21
25.314559
0
LINE
8
DEFAULT_255_2_778
10
11.4232656
20
25.314559
11
11.4309656
21
25.310059
0
LINE
8
DEFAULT_255_2_778
10
11.4309656
20
25.310059
11
11.4385656
21
25.305559
0
LINE
8
DEFAULT_255_2_778
10
11.4385656
20
25.305559
11
11.4462656
21
25.301059
0
LINE
8
DEFAULT_255_2_778
10
11.4462656
20
25.301059
11
11.4539656
21
25.296859
0
LINE
8
DEFAULT_255_2_778
10
11.4539656
20
25.296859
11
11.4618656
21
25.292659
0
LINE
8
DEFAULT_255_2_778
10
11.4618656
20
25.292659
11
11.4698656
21
25.288659
0
LINE
8
DEFAULT_255_2_778
10
11.4698656
20
25.288659
11
11.4777656
21
25.284659
0
LINE
8
DEFAULT_255_2_778
10
11.4777656
20
25.284659
11
11.4856656
21
25.280759
0
LINE
8
DEFAULT_255_2_778
10
11.4856656
20
25.280759
11
11.4936656
21
25.277059
0
LINE
8
DEFAULT_255_2_778
10
11.4936656
20
25.277059
11
11.5015656
21
25.273359
0
LINE
8
DEFAULT_255_2_778
10
11.5015656
20
25.273359
11
11.5097656
21
25.269559
0
LINE
8
DEFAULT_255_2_778
10
11.5097656
20
25.269559
11
11.5179656
21
25.266159
0
LINE
8
DEFAULT_255_2_778
10
11.5179656
20
25.266159
11
11.5261656
21
25.262759
0
LINE
8
DEFAULT_255_2_778
10
11.5261656
20
25.262759
11
11.5343656
21
25.259259
0
LINE
8
DEFAULT_255_2_778
10
11.5343656
20
25.259259
11
11.5425656
21
25.256159
0
LINE
8
DEFAULT_255_2_778
10
11.5425656
20
25.256159
11
11.5507656
21
25.252959
0
LINE
8
DEFAULT_255_2_778
10
11.5507656
20
25.252959
11
11.5589656
21
25.250059
0
LINE
8
DEFAULT_255_2_778
10
11.5589656
20
25.250059
11
11.5674656
21
25.247159
0
LINE
8
DEFAULT_255_2_778
10
11.5674656
20
25.247159
11
11.5759656
21
25.244159
0
LINE
8
DEFAULT_255_2_778
10
11.5759656
20
25.244159
11
11.5843656
21
25.241559
0
LINE
8
DEFAULT_255_2_778
10
11.5843656
20
25.241559
11
11.5928656
21
25.238959
0
LINE
8
DEFAULT_255_2_778
10
11.5928656
20
25.238959
11
11.6013656
21
25.236259
0
LINE
8
DEFAULT_255_2_778
10
11.6013656
20
25.236259
11
11.6097656
21
25.233859
0
LINE
8
DEFAULT_255_2_778
10
11.6097656
20
25.233859
11
11.6182656
21
25.231459
0
LINE
8
DEFAULT_255_2_778
10
11.6182656
20
25.231459
11
11.5534656
21
24.989959
0
LINE
8
DEFAULT_255_2_778
10
11.5534656
20
24.989959
11
11.5367656
21
24.994459
0
LINE
8
DEFAULT_255_2_778
10
11.5367656
20
24.994459
11
11.5203656
21
24.999159
0
LINE
8
DEFAULT_255_2_778
10
11.5203656
20
24.999159
11
11.5039656
21
25.004459
0
LINE
8
DEFAULT_255_2_778
10
11.5039656
20
25.004459
11
11.4875656
21
25.010059
0
LINE
8
DEFAULT_255_2_778
10
11.4875656
20
25.010059
11
11.4714656
21
25.015859
0
LINE
8
DEFAULT_255_2_778
10
11.4714656
20
25.015859
11
11.4552656
21
25.021959
0
LINE
8
DEFAULT_255_2_778
10
11.4552656
20
25.021959
11
11.4391656
21
25.028259
0
LINE
8
DEFAULT_255_2_778
10
11.4391656
20
25.028259
11
11.4232656
21
25.034959
0
LINE
8
DEFAULT_255_2_778
10
11.4232656
20
25.034959
11
11.4073656
21
25.041759
0
LINE
8
DEFAULT_255_2_778
10
11.4073656
20
25.041759
11
11.3917656
21
25.048959
0
LINE
8
DEFAULT_255_2_778
10
11.3917656
20
25.048959
11
11.3761656
21
25.056359
0
LINE
8
DEFAULT_255_2_778
10
11.3761656
20
25.056359
11
11.3608656
21
25.064059
0
LINE
8
DEFAULT_255_2_778
10
11.3608656
20
25.064059
11
11.3454656
21
25.071959
0
LINE
8
DEFAULT_255_2_778
10
11.3454656
20
25.071959
11
11.3303656
21
25.080159
0
LINE
8
DEFAULT_255_2_778
10
11.3303656
20
25.080159
11
11.3153656
21
25.088659
0
LINE
8
DEFAULT_255_2_778
10
11.3153656
20
25.088659
11
11.3004656
21
25.097359
0
LINE
8
DEFAULT_255_2_778
10
11.3004656
20
25.097359
11
11.2856656
21
25.106359
0
LINE
8
DEFAULT_255_2_778
10
11.2856656
20
25.106359
11
11.2711656
21
25.115659
0
LINE
8
DEFAULT_255_2_778
10
11.2711656
20
25.115659
11
11.2568656
21
25.125159
0
LINE
8
DEFAULT_255_2_778
10
11.2568656
20
25.125159
11
11.2425656
21
25.134959
0
LINE
8
DEFAULT_255_2_778
10
11.2425656
20
25.134959
11
11.2285656
21
25.144959
0
LINE
8
DEFAULT_255_2_778
10
11.2285656
20
25.144959
11
11.2144656
21
25.155059
0
LINE
8
DEFAULT_255_2_778
10
11.2144656
20
25.155059
11
11.2007656
21
25.165359
0
LINE
8
DEFAULT_255_2_778
10
11.2007656
20
25.165359
11
11.1872656
21
25.175959
0
LINE
8
DEFAULT_255_2_778
10
11.1872656
20
25.175959
11
11.1740656
21
25.186759
0
LINE
8
DEFAULT_255_2_778
10
11.1740656
20
25.186759
11
11.1607656
21
25.197859
0
LINE
8
DEFAULT_255_2_778
10
11.1607656
20
25.197859
11
11.1478656
21
25.209259
0
LINE
8
DEFAULT_255_2_778
10
11.1478656
20
25.209259
11
11.1351656
21
25.220959
0
LINE
8
DEFAULT_255_2_778
10
11.1351656
20
25.220959
11
11.1224656
21
25.232559
0
LINE
8
DEFAULT_255_2_778
10
11.1224656
20
25.232559
11
11.1099656
21
25.244459
0
LINE
8
DEFAULT_255_2_778
10
11.1099656
20
25.244459
11
11.0978656
21
25.256659
0
LINE
8
DEFAULT_255_2_778
10
11.0978656
20
25.256659
11
11.0859656
21
25.269059
0
LINE
8
DEFAULT_255_2_778
10
11.0859656
20
25.269059
11
11.0742656
21
25.281759
0
LINE
8
DEFAULT_255_2_778
10
11.0742656
20
25.281759
11
11.0628656
21
25.294459
0
LINE
8
DEFAULT_255_2_778
10
11.0628656
20
25.294459
11
11.0515656
21
25.307459
0
LINE
8
DEFAULT_255_2_778
10
10.8464656
20
26.215259
11
12.3122656
21
31.686059
0
LINE
8
DEFAULT_255_2_778
10
9.8124656
20
126.913259
11
12.3125656
21
126.913259
0
LINE
8
DEFAULT_255_2_778
10
12.3125656
20
126.913259
11
12.3125656
21
74.042059
0
LINE
8
DEFAULT_255_2_778
10
12.3125656
20
74.042059
11
8.4742656
21
73.365259
0
LINE
8
DEFAULT_255_2_778
10
8.4742656
20
73.365259
11
8.3961656
21
73.351759
0
LINE
8
DEFAULT_255_2_778
10
8.3961656
20
73.351759
11
8.3178656
21
73.338859
0
LINE
8
DEFAULT_255_2_778
10
8.3178656
20
73.338859
11
8.2395656
21
73.326659
0
LINE
8
DEFAULT_255_2_778
10
8.2395656
20
73.326659
11
8.1609656
21
73.315059
0
LINE
8
DEFAULT_255_2_778
10
8.1609656
20
73.315059
11
8.0823656
21
73.304159
0
LINE
8
DEFAULT_255_2_778
10
8.0823656
20
73.304159
11
8.0037656
21
73.293859
0
LINE
8
DEFAULT_255_2_778
10
8.0037656
20
73.293859
11
7.9249656
21
73.284059
0
LINE
8
DEFAULT_255_2_778
10
7.9249656
20
73.284059
11
7.8460656
21
73.275059
0
LINE
8
DEFAULT_255_2_778
10
7.8460656
20
73.275059
11
7.7672656
21
73.266559
0
LINE
8
DEFAULT_255_2_778
10
7.7672656
20
73.266559
11
7.6883656
21
73.258659
0
LINE
8
DEFAULT_255_2_778
10
7.6883656
20
73.258659
11
7.6092656
21
73.251559
0
LINE
8
DEFAULT_255_2_778
10
7.6092656
20
73.251559
11
7.5301656
21
73.244959
0
LINE
8
DEFAULT_255_2_778
10
7.5301656
20
73.244959
11
7.4510656
21
73.238859
0
LINE
8
DEFAULT_255_2_778
10
7.4510656
20
73.238859
11
7.3719656
21
73.233559
0
LINE
8
DEFAULT_255_2_778
10
7.3719656
20
73.233559
11
7.2928656
21
73.228759
0
LINE
8
DEFAULT_255_2_778
10
7.2928656
20
73.228759
11
7.2137656
21
73.224759
0
LINE
8
DEFAULT_255_2_778
10
7.2137656
20
73.224759
11
7.1343656
21
73.221359
0
LINE
8
DEFAULT_255_2_778
10
7.1343656
20
73.221359
11
7.0549656
21
73.218459
0
LINE
8
DEFAULT_255_2_778
10
7.0549656
20
73.218459
11
6.9756656
21
73.216359
0
LINE
8
DEFAULT_255_2_778
10
6.9756656
20
73.216359
11
6.8962656
21
73.214759
0
LINE
8
DEFAULT_255_2_778
10
6.8962656
20
73.214759
11
6.8168656
21
73.213659
0
LINE
8
DEFAULT_255_2_778
10
6.8168656
20
73.213659
11
6.7374656
21
73.213459
0
LINE
8
DEFAULT_255_2_778
10
6.7374656
20
73.213459
11
5.4124656
21
73.213459
0
LINE
8
DEFAULT_255_2_778
10
130.6680656
20
58.260259
11
130.7641656
21
58.266359
0
LINE
8
DEFAULT_255_2_778
10
130.7641656
20
58.266359
11
130.7527656
21
58.524059
0
LINE
8
DEFAULT_255_2_778
10
130.7527656
20
58.524059
11
130.6566656
21
58.517959
0
LINE
8
DEFAULT_255_2_778
10
130.7530656
20
58.524059
11
130.7503656
21
58.582259
0
LINE
8
DEFAULT_255_2_778
10
130.7503656
20
58.582259
11
130.6542656
21
58.576159
0
LINE
8
DEFAULT_255_2_778
10
130.6278656
20
59.174859
11
130.7238656
21
59.180959
0
LINE
8
DEFAULT_255_2_778
10
130.7238656
20
59.180959
11
130.6743656
21
60.278459
0
LINE
8
DEFAULT_255_2_778
10
130.6743656
20
60.278459
11
130.5783656
21
60.272359
0
LINE
8
DEFAULT_255_2_778
10
130.2060656
20
69.611159
11
130.1100656
21
69.605259
0
LINE
8
DEFAULT_255_2_778
10
130.1391656
20
69.076159
11
130.2351656
21
69.082259
0
LINE
8
DEFAULT_255_2_778
10
130.2351656
20
69.082259
11
130.1949656
21
69.816159
0
LINE
8
DEFAULT_255_2_778
10
130.1949656
20
69.816159
11
130.0989656
21
69.810359
0
LINE
8
DEFAULT_255_2_778
10
130.1243656
20
71.079059
11
130.0285656
21
71.073259
0
LINE
8
DEFAULT_255_2_778
10
129.8496656
20
74.163059
11
130.1492656
21
74.180759
0
LINE
8
DEFAULT_255_2_778
10
130.1492656
20
74.180759
11
129.9848656
21
76.882359
0
LINE
8
DEFAULT_255_2_778
10
129.9848656
20
76.882359
11
129.6853656
21
76.863859
0
LINE
8
DEFAULT_255_2_778
10
130.3058656
20
71.480659
11
130.0063656
21
71.463759
0
LINE
8
DEFAULT_255_2_778
10
130.1560656
20
68.763159
11
130.4555656
21
68.779259
0
LINE
8
DEFAULT_255_2_778
10
130.4555656
20
68.779259
11
130.3060656
21
71.480659
0
LINE
8
DEFAULT_255_2_778
10
130.7328656
20
63.377559
11
130.5979656
21
66.079159
0
LINE
8
DEFAULT_255_2_778
10
130.5979656
20
66.079159
11
130.2984656
21
66.063859
0
ARC
8
DEFAULT_255_2_778
10
8.8124767
20
139.3161949
40
3.5000532
50
359.9553692
51
17.0753122
0
ARC
8
DEFAULT_255_2_778
10
8.8064064
20
139.3073167
40
3.5084693
50
17.1847999
51
72.261854
0
ARC
8
DEFAULT_255_2_778
10
8.8158899
20
139.3164413
40
3.4968948
50
72.3643038
51
89.4849547
0
ARC
8
DEFAULT_255_2_778
10
8.8120933
20
139.2433558
40
3.5700128
50
89.4345691
51
89.9914053
0
ARC
8
DEFAULT_255_2_778
10
8.3126116
20
141.8132015
40
1.000167
50
89.9990097
51
134.9965874
0
ARC
8
DEFAULT_255_2_778
10
8.3126201
20
141.8131757
40
1.0001912
50
134.9958871
51
179.9946851
0
ARC
8
DEFAULT_255_2_778
10
5.1056376
20
144.51626
40
2.2932106
50
157.7998888
51
180.0722441
0
ARC
8
DEFAULT_255_2_778
10
5.1146269
20
144.5103532
40
2.3037661
50
100.5193928
51
157.7483484
0
ARC
8
DEFAULT_255_2_778
10
5.1113988
20
144.5004283
40
2.3129402
50
89.9744827
51
100.3958844
0
LINE
8
DEFAULT_255_2_778
10
130.4331289
20
63.3629685
11
130.7329289
21
63.3775685
0
LINE
8
DEFAULT_255_2_778
10
130.6810289
20
57.9630685
11
130.9808289
21
57.9760685
0
LINE
8
DEFAULT_255_2_778
10
130.9808289
20
57.9760685
11
130.8604289
21
60.6774685
0
LINE
8
DEFAULT_255_2_778
10
130.8604289
20
60.6774685
11
130.5606289
21
60.6636685
0
LINE
8
DEFAULT_255_2_778
10
131.0938289
20
55.2757685
11
130.7940289
21
55.2635685
0
LINE
8
DEFAULT_255_2_778
10
130.8996289
20
52.5632685
11
131.1993289
21
52.5745685
0
LINE
8
DEFAULT_255_2_778
10
131.1993289
20
52.5745685
11
131.0938289
21
55.2759685
0
LINE
8
DEFAULT_255_2_778
10
12.3125289
20
126.9135685
11
12.3125289
21
139.3134685
0
LINE
8
DEFAULT_255_2_778
10
8.8126289
20
142.8133685
11
8.3126289
21
142.8133685
0
LINE
8
DEFAULT_255_2_778
10
7.3124289
20
141.8132685
11
7.3124289
21
139.9132685
0
LINE
8
DEFAULT_255_2_778
10
7.3124289
20
139.9132685
11
2.8124289
21
139.9132685
0
LINE
8
DEFAULT_255_2_778
10
2.8124289
20
139.9132685
11
2.8124289
21
144.5133685
0
LINE
8
DEFAULT_255_2_778
10
5.1124289
20
146.8133685
11
120.9531289
21
146.8133685
0
LINE
8
DEFAULT_255_2_778
10
5.4125289
20
71.3383685
11
13.7624289
21
71.3383685
0
LINE
8
DEFAULT_255_2_778
10
13.7624289
20
71.3383685
11
13.7624289
21
70.1384685
0
LINE
8
DEFAULT_255_2_778
10
13.7624289
20
70.1384685
11
5.4125289
21
70.1384685
0
LINE
8
DEFAULT_255_2_778
10
127.8772289
20
101.1624685
11
128.1762289
21
101.1883685
0
LINE
8
DEFAULT_255_2_778
10
128.1762289
20
101.1883685
11
127.9384289
21
103.8907685
0
LINE
8
DEFAULT_255_2_778
10
127.9384289
20
103.8907685
11
127.6396289
21
103.8640685
0
LINE
8
DEFAULT_255_2_778
10
128.3305289
20
95.7625685
11
128.6295289
21
95.7868685
0
LINE
8
DEFAULT_255_2_778
10
128.6295289
20
95.7868685
11
128.4064289
21
98.4890685
0
LINE
8
DEFAULT_255_2_778
10
128.4064289
20
98.4890685
11
128.1074289
21
98.4639685
0
LINE
8
DEFAULT_255_2_778
10
128.7543289
20
90.3626685
11
129.0536289
21
90.3853685
0
LINE
8
DEFAULT_255_2_778
10
129.0536289
20
90.3853685
11
128.8451289
21
93.0873685
0
LINE
8
DEFAULT_255_2_778
10
128.8451289
20
93.0873685
11
128.5461289
21
93.0637685
0
LINE
8
DEFAULT_255_2_778
10
129.4481289
20
84.9836685
11
129.2544289
21
87.6855685
0
LINE
8
DEFAULT_255_2_778
10
129.2544289
20
87.6855685
11
128.9551289
21
87.6636685
0
LINE
8
DEFAULT_255_2_778
10
129.1488289
20
84.9627685
11
129.4481289
21
84.9839685
0
LINE
8
DEFAULT_255_2_778
10
129.5137289
20
79.5628685
11
129.8129289
21
79.5821685
0
LINE
8
DEFAULT_255_2_778
10
129.8129289
20
79.5821685
11
129.6341289
21
82.2838685
0
LINE
8
DEFAULT_255_2_778
10
129.6341289
20
82.2838685
11
129.3348289
21
82.2637685
0
LINE
8
DEFAULT_255_2_778
10
128.7242289
20
90.7605685
11
128.8199289
21
90.7663685
0
LINE
8
DEFAULT_255_2_778
10
128.8199289
20
90.7663685
11
128.7453289
21
91.7400685
0
LINE
8
DEFAULT_255_2_778
10
128.8006289
20
91.0182685
11
128.7049289
21
91.0124685
0
LINE
8
DEFAULT_255_2_778
10
128.7964289
20
91.0762685
11
128.7006289
21
91.0704685
0
LINE
8
DEFAULT_255_2_778
10
128.5678289
20
92.7854685
11
128.6636289
21
92.7912685
0
LINE
8
DEFAULT_255_2_778
10
128.6636289
20
92.7912685
11
128.6980289
21
92.3504685
0
LINE
8
DEFAULT_255_2_778
10
128.6980289
20
92.3504685
11
128.7250289
21
92.0041685
0
LINE
8
DEFAULT_255_2_778
10
128.7250289
20
92.0041685
11
128.7453289
21
91.7403685
0
LINE
8
DEFAULT_255_2_778
10
128.7453289
20
91.7403685
11
128.6496289
21
91.7345685
0
LINE
8
DEFAULT_255_2_778
10
128.7347469
20
91.8784506
11
128.6389469
21
91.8726506
0
LINE
8
DEFAULT_255_2_778
10
128.6881469
20
92.4788506
11
128.5924469
21
92.4729506
0
LINE
8
DEFAULT_255_2_778
10
128.6831469
20
92.5423506
11
128.5873469
21
92.5364506
0
LINE
8
DEFAULT_255_2_778
10
125.7698469
20
125.4977506
11
125.4716469
21
125.4646506
0
LINE
8
DEFAULT_255_2_778
10
125.7687469
20
122.7622506
11
126.0669469
21
122.7945506
0
LINE
8
DEFAULT_255_2_778
10
126.3402469
20
117.3620506
11
126.6387469
21
117.3927506
0
LINE
8
DEFAULT_255_2_778
10
126.6387469
20
117.3927506
11
126.3564469
21
120.0960506
0
LINE
8
DEFAULT_255_2_778
10
126.3564469
20
120.0960506
11
126.0579469
21
120.0645506
0
LINE
8
DEFAULT_255_2_778
10
126.8821469
20
111.9621506
11
127.1805469
21
111.9913506
0
LINE
8
DEFAULT_255_2_778
10
127.1805469
20
111.9913506
11
126.9130469
21
114.6942506
0
LINE
8
DEFAULT_255_2_778
10
126.9130469
20
114.6942506
11
126.6146469
21
114.6643506
0
LINE
8
DEFAULT_255_2_778
10
127.3946469
20
106.5623506
11
127.6933469
21
106.5898506
0
LINE
8
DEFAULT_255_2_778
10
127.6933469
20
106.5898506
11
127.4406469
21
109.2925506
0
LINE
8
DEFAULT_255_2_778
10
127.4406469
20
109.2925506
11
127.1419469
21
109.2642506
0
LINE
8
DEFAULT_255_2_778
10
127.9211469
20
101.7643506
11
127.9433469
21
101.5100506
0
LINE
8
DEFAULT_255_2_778
10
127.9433469
20
101.5100506
11
127.8476469
21
101.5042506
0
LINE
8
DEFAULT_255_2_778
10
127.7954469
20
103.1936506
11
127.6999469
21
103.1878506
0
LINE
8
DEFAULT_255_2_778
10
127.7899469
20
103.2571506
11
127.6941469
21
103.2513506
0
LINE
8
DEFAULT_255_2_778
10
127.7669469
20
103.5140506
11
127.6711469
21
103.5082506
0
LINE
8
DEFAULT_255_2_778
10
126.7892469
20
113.8809506
11
126.9366469
21
112.3892506
0
LINE
8
DEFAULT_255_2_778
10
126.9366469
20
112.3892506
11
126.8411469
21
112.3834506
0
LINE
8
DEFAULT_255_2_778
10
126.7744469
20
114.0277506
11
126.6789469
21
114.0219506
0
ARC
8
DEFAULT_255_2_778
10
11.8129041
20
138.3708778
40
0.7506454
50
184.0147084
51
194.9871904
0
ARC
8
DEFAULT_255_2_778
10
11.8123472
20
138.3708069
40
0.7500848
50
180.0001717
51
184.0122803
0
ARC
8
DEFAULT_255_2_778
10
11.8111611
20
138.3710722
40
0.7488987
50
139.4883632
51
180.0204738
0
ARC
8
DEFAULT_255_2_778
10
11.8128634
20
138.3702171
40
1.0004698
50
139.5535752
51
179.9978233
0
ARC
8
DEFAULT_255_2_778
10
11.8111752
20
138.3702475
40
0.9987815
50
179.9995667
51
184.1010434
0
ARC
8
DEFAULT_255_2_778
10
11.8121569
20
138.3703617
40
0.9997688
50
184.1035464
51
195.0085376
0
ARC
8
DEFAULT_255_2_778
10
55.905873
20
13.6822793
40
2.995021
50
340.640952
51
0.0474297
0
ARC
8
DEFAULT_255_2_778
10
55.8979816
20
13.6884526
40
3.0045143
50
283.5902366
51
340.5797686
0
ARC
8
DEFAULT_255_2_778
10
55.9008945
20
13.6995573
40
3.0146285
50
273.1413221
51
283.4868315
0
LINE
8
DEFAULT_255_2_778
10
126.693493
20
113.8748586
11
126.788993
21
113.8806586
0
LINE
8
DEFAULT_255_2_778
10
126.788993
20
113.8806586
11
126.740093
21
114.3722586
0
LINE
8
DEFAULT_255_2_778
10
126.740093
20
114.3722586
11
126.644493
21
114.3664586
0
LINE
8
DEFAULT_255_2_778
10
80.211193
20
12.7293586
11
80.237693
21
12.7015586
0
LINE
8
DEFAULT_255_2_778
10
80.237693
20
12.7015586
11
80.263593
21
12.6732586
0
LINE
8
DEFAULT_255_2_778
10
80.263593
20
12.6732586
11
80.288993
21
12.6444586
0
LINE
8
DEFAULT_255_2_778
10
80.288993
20
12.6444586
11
80.313893
21
12.6150586
0
LINE
8
DEFAULT_255_2_778
10
80.313893
20
12.6150586
11
80.338193
21
12.5851586
0
LINE
8
DEFAULT_255_2_778
10
80.338193
20
12.5851586
11
80.361793
21
12.5547586
0
LINE
8
DEFAULT_255_2_778
10
80.361793
20
12.5547586
11
80.384793
21
12.5237586
0
LINE
8
DEFAULT_255_2_778
10
80.384793
20
12.5237586
11
80.407293
21
12.4925586
0
LINE
8
DEFAULT_255_2_778
10
80.407293
20
12.4925586
11
80.429193
21
12.4608586
0
LINE
8
DEFAULT_255_2_778
10
80.429193
20
12.4608586
11
80.450393
21
12.4288586
0
LINE
8
DEFAULT_255_2_778
10
80.450393
20
12.4288586
11
80.471093
21
12.3962586
0
LINE
8
DEFAULT_255_2_778
10
80.471093
20
12.3962586
11
80.490893
21
12.3634586
0
LINE
8
DEFAULT_255_2_778
10
80.490893
20
12.3634586
11
80.510193
21
12.3301586
0
LINE
8
DEFAULT_255_2_778
10
80.510193
20
12.3301586
11
80.528693
21
12.2965586
0
LINE
8
DEFAULT_255_2_778
10
80.528693
20
12.2965586
11
80.546693
21
12.2626586
0
LINE
8
DEFAULT_255_2_778
10
80.546693
20
12.2626586
11
80.563893
21
12.2285586
0
LINE
8
DEFAULT_255_2_778
10
80.563893
20
12.2285586
11
80.580593
21
12.1938586
0
LINE
8
DEFAULT_255_2_778
10
80.580593
20
12.1938586
11
80.596493
21
12.1589586
0
LINE
8
DEFAULT_255_2_778
10
80.596493
20
12.1589586
11
80.611793
21
12.1237586
0
LINE
8
DEFAULT_255_2_778
10
80.611793
20
12.1237586
11
80.626393
21
12.0882586
0
LINE
8
DEFAULT_255_2_778
10
80.626393
20
12.0882586
11
80.640393
21
12.0523586
0
LINE
8
DEFAULT_255_2_778
10
80.640393
20
12.0523586
11
80.653593
21
12.0160586
0
LINE
8
DEFAULT_255_2_778
10
80.653593
20
12.0160586
11
80.665993
21
11.9795586
0
LINE
8
DEFAULT_255_2_778
10
80.665993
20
11.9795586
11
80.677993
21
11.9427586
0
LINE
8
DEFAULT_255_2_778
10
80.677993
20
11.9427586
11
80.689093
21
11.9059586
0
LINE
8
DEFAULT_255_2_778
10
80.689093
20
11.9059586
11
80.699393
21
11.8689586
0
LINE
8
DEFAULT_255_2_778
10
80.699393
20
11.8689586
11
80.709193
21
11.8316586
0
LINE
8
DEFAULT_255_2_778
10
80.709193
20
11.8316586
11
80.718193
21
11.7943586
0
LINE
8
DEFAULT_255_2_778
10
80.718193
20
11.7943586
11
80.726393
21
11.7567586
0
LINE
8
DEFAULT_255_2_778
10
80.726393
20
11.7567586
11
80.733793
21
11.7191586
0
LINE
8
DEFAULT_255_2_778
10
80.733793
20
11.7191586
11
80.740693
21
11.6813586
0
LINE
8
DEFAULT_255_2_778
10
80.740693
20
11.6813586
11
80.746793
21
11.6435586
0
LINE
8
DEFAULT_255_2_778
10
80.746793
20
11.6435586
11
80.751993
21
11.6054586
0
LINE
8
DEFAULT_255_2_778
10
80.751993
20
11.6054586
11
80.756593
21
11.5673586
0
LINE
8
DEFAULT_255_2_778
10
80.756593
20
11.5673586
11
80.760493
21
11.5289586
0
LINE
8
DEFAULT_255_2_778
10
80.760493
20
11.5289586
11
80.763693
21
11.4903586
0
LINE
8
DEFAULT_255_2_778
10
80.763693
20
11.4903586
11
80.766093
21
11.4516586
0
LINE
8
DEFAULT_255_2_778
10
80.766093
20
11.4516586
11
80.767693
21
11.4130586
0
LINE
8
DEFAULT_255_2_778
10
80.767693
20
11.4130586
11
80.768393
21
11.3847586
0
LINE
8
DEFAULT_255_2_778
10
80.768393
20
11.3847586
11
80.768693
21
11.3564586
0
LINE
8
DEFAULT_255_2_778
10
80.768693
20
11.3564586
11
80.768693
21
11.3281586
0
LINE
8
DEFAULT_255_2_778
10
80.768693
20
11.3281586
11
80.768193
21
11.2998586
0
LINE
8
DEFAULT_255_2_778
10
80.768193
20
11.2998586
11
80.767393
21
11.2715586
0
LINE
8
DEFAULT_255_2_778
10
80.767393
20
11.2715586
11
80.766093
21
11.2432586
0
LINE
8
DEFAULT_255_2_778
10
80.766093
20
11.2432586
11
80.764193
21
11.2148586
0
LINE
8
DEFAULT_255_2_778
10
80.764193
20
11.2148586
11
80.762093
21
11.1865586
0
LINE
8
DEFAULT_255_2_778
10
80.762093
20
11.1865586
11
80.759393
21
11.1582586
0
LINE
8
DEFAULT_255_2_778
10
80.759393
20
11.1582586
11
80.756593
21
11.1299586
0
LINE
8
DEFAULT_255_2_778
10
80.756593
20
11.1299586
11
80.753093
21
11.1016586
0
LINE
8
DEFAULT_255_2_778
10
80.753093
20
11.1016586
11
80.749393
21
11.0733586
0
LINE
8
DEFAULT_255_2_778
10
80.749393
20
11.0733586
11
80.745193
21
11.0452586
0
LINE
8
DEFAULT_255_2_778
10
80.745193
20
11.0452586
11
80.740693
21
11.0172586
0
LINE
8
DEFAULT_255_2_778
10
80.740693
20
11.0172586
11
80.735593
21
10.9892586
0
LINE
8
DEFAULT_255_2_778
10
80.735593
20
10.9892586
11
80.730393
21
10.9611586
0
LINE
8
DEFAULT_255_2_778
10
80.730393
20
10.9611586
11
80.724493
21
10.9333586
0
LINE
8
DEFAULT_255_2_778
10
80.724493
20
10.9333586
11
80.718393
21
10.9055586
0
LINE
8
DEFAULT_255_2_778
10
80.718393
20
10.9055586
11
80.711793
21
10.8780586
0
LINE
8
DEFAULT_255_2_778
10
80.711793
20
10.8780586
11
80.704893
21
10.8505586
0
LINE
8
DEFAULT_255_2_778
10
80.704893
20
10.8505586
11
80.697493
21
10.8233586
0
LINE
8
DEFAULT_255_2_778
10
80.697493
20
10.8233586
11
80.689893
21
10.7960586
0
LINE
8
DEFAULT_255_2_778
10
80.689893
20
10.7960586
11
80.681693
21
10.7688586
0
LINE
8
DEFAULT_255_2_778
10
80.681693
20
10.7688586
11
80.673193
21
10.7418586
0
LINE
8
DEFAULT_255_2_778
10
80.673193
20
10.7418586
11
80.664193
21
10.7148586
0
LINE
8
DEFAULT_255_2_778
10
80.664193
20
10.7148586
11
80.654893
21
10.6878586
0
LINE
8
DEFAULT_255_2_778
10
80.654893
20
10.6878586
11
80.645393
21
10.6611586
0
LINE
8
DEFAULT_255_2_778
10
80.645393
20
10.6611586
11
80.635393
21
10.6343586
0
LINE
8
DEFAULT_255_2_778
10
80.635393
20
10.6343586
11
80.624993
21
10.6079586
0
LINE
8
DEFAULT_255_2_778
10
80.624993
20
10.6079586
11
80.614193
21
10.5814586
0
LINE
8
DEFAULT_255_2_778
10
80.614193
20
10.5814586
11
80.603093
21
10.5552586
0
LINE
8
DEFAULT_255_2_778
10
80.603093
20
10.5552586
11
80.591393
21
10.5293586
0
LINE
8
DEFAULT_255_2_778
10
80.591393
20
10.5293586
11
80.579493
21
10.5034586
0
LINE
8
DEFAULT_255_2_778
10
80.579493
20
10.5034586
11
80.567393
21
10.4777586
0
LINE
8
DEFAULT_255_2_778
10
80.567393
20
10.4777586
11
80.554693
21
10.4523586
0
LINE
8
DEFAULT_255_2_778
10
80.554693
20
10.4523586
11
80.541693
21
10.4269586
0
LINE
8
DEFAULT_255_2_778
10
80.541693
20
10.4269586
11
80.528493
21
10.4018586
0
LINE
8
DEFAULT_255_2_778
10
80.528493
20
10.4018586
11
80.514693
21
10.3769586
0
LINE
8
DEFAULT_255_2_778
10
80.514693
20
10.3769586
11
80.500693
21
10.3523586
0
LINE
8
DEFAULT_255_2_778
10
80.500693
20
10.3523586
11
80.486393
21
10.3280586
0
LINE
8
DEFAULT_255_2_778
10
80.486393
20
10.3280586
11
80.471593
21
10.3036586
0
LINE
8
DEFAULT_255_2_778
10
80.471593
20
10.3036586
11
80.456493
21
10.2795586
0
LINE
8
DEFAULT_255_2_778
10
80.456493
20
10.2795586
11
80.441193
21
10.2557586
0
LINE
8
DEFAULT_255_2_778
10
80.441193
20
10.2557586
11
80.425493
21
10.2322586
0
LINE
8
DEFAULT_255_2_778
10
12.312293
20
133.6071586
11
11.087793
21
138.1767586
0
LINE
8
DEFAULT_255_2_778
10
11.241793
20
138.8575586
11
11.247593
21
138.8641586
0
LINE
8
DEFAULT_255_2_778
10
11.247593
20
138.8641586
11
11.253393
21
138.8707586
0
LINE
8
DEFAULT_255_2_778
10
11.253393
20
138.8707586
11
11.259493
21
138.8774586
0
LINE
8
DEFAULT_255_2_778
10
11.259493
20
138.8774586
11
11.265593
21
138.8840586
0
LINE
8
DEFAULT_255_2_778
10
11.265593
20
138.8840586
11
11.271693
21
138.8903586
0
LINE
8
DEFAULT_255_2_778
10
11.271693
20
138.8903586
11
11.277693
21
138.8967586
0
LINE
8
DEFAULT_255_2_778
10
11.277693
20
138.8967586
11
11.284093
21
138.9030586
0
LINE
8
DEFAULT_255_2_778
10
11.284093
20
138.9030586
11
11.290393
21
138.9091586
0
LINE
8
DEFAULT_255_2_778
10
11.290393
20
138.9091586
11
11.296793
21
138.9152586
0
LINE
8
DEFAULT_255_2_778
10
11.296793
20
138.9152586
11
11.303093
21
138.9213586
0
LINE
8
DEFAULT_255_2_778
10
11.303093
20
138.9213586
11
11.309793
21
138.9274586
0
LINE
8
DEFAULT_255_2_778
10
11.309793
20
138.9274586
11
11.316393
21
138.9332586
0
LINE
8
DEFAULT_255_2_778
10
11.316393
20
138.9332586
11
11.322993
21
138.9390586
0
LINE
8
DEFAULT_255_2_778
10
11.322993
20
138.9390586
11
11.329593
21
138.9448586
0
LINE
8
DEFAULT_255_2_778
10
11.329593
20
138.9448586
11
11.336493
21
138.9504586
0
LINE
8
DEFAULT_255_2_778
10
11.336493
20
138.9504586
11
11.343393
21
138.9559586
0
LINE
8
DEFAULT_255_2_778
10
11.343393
20
138.9559586
11
11.350193
21
138.9615586
0
LINE
8
DEFAULT_255_2_778
10
11.350193
20
138.9615586
11
11.357393
21
138.9668586
0
LINE
8
DEFAULT_255_2_778
10
11.357393
20
138.9668586
11
11.364493
21
138.9721586
0
LINE
8
DEFAULT_255_2_778
10
11.364493
20
138.9721586
11
11.371693
21
138.9774586
0
LINE
8
DEFAULT_255_2_778
10
11.371693
20
138.9774586
11
11.378793
21
138.9827586
0
LINE
8
DEFAULT_255_2_778
10
11.378793
20
138.9827586
11
11.385993
21
138.9877586
0
LINE
8
DEFAULT_255_2_778
10
11.385993
20
138.9877586
11
11.393393
21
138.9927586
0
LINE
8
DEFAULT_255_2_778
10
11.393393
20
138.9927586
11
11.400793
21
138.9977586
0
LINE
8
DEFAULT_255_2_778
10
11.400793
20
138.9977586
11
11.408193
21
139.0025586
0
LINE
8
DEFAULT_255_2_778
10
11.408193
20
139.0025586
11
11.415593
21
139.0073586
0
LINE
8
DEFAULT_255_2_778
10
11.415593
20
139.0073586
11
11.423293
21
139.0120586
0
LINE
8
DEFAULT_255_2_778
10
11.423293
20
139.0120586
11
11.430893
21
139.0165586
0
LINE
8
DEFAULT_255_2_778
10
11.430893
20
139.0165586
11
11.438593
21
139.0210586
0
LINE
8
DEFAULT_255_2_778
10
11.438593
20
139.0210586
11
11.446293
21
139.0255586
0
LINE
8
DEFAULT_255_2_778
10
11.446293
20
139.0255586
11
11.453993
21
139.0298586
0
LINE
8
DEFAULT_255_2_778
10
11.453993
20
139.0298586
11
11.461893
21
139.0340586
0
LINE
8
DEFAULT_255_2_778
10
11.461893
20
139.0340586
11
11.469793
21
139.0380586
0
LINE
8
DEFAULT_255_2_778
10
11.469793
20
139.0380586
11
11.477793
21
139.0419586
0
LINE
8
DEFAULT_255_2_778
10
11.477793
20
139.0419586
11
11.485693
21
139.0459586
0
LINE
8
DEFAULT_255_2_778
10
11.485693
20
139.0459586
11
11.493593
21
139.0496586
0
LINE
8
DEFAULT_255_2_778
10
11.493593
20
139.0496586
11
11.501593
21
139.0533586
0
LINE
8
DEFAULT_255_2_778
10
11.501593
20
139.0533586
11
11.509793
21
139.0570586
0
LINE
8
DEFAULT_255_2_778
10
11.509793
20
139.0570586
11
11.517993
21
139.0605586
0
LINE
8
DEFAULT_255_2_778
10
11.517993
20
139.0605586
11
11.526193
21
139.0639586
0
LINE
8
DEFAULT_255_2_778
10
11.526193
20
139.0639586
11
11.534393
21
139.0673586
0
LINE
8
DEFAULT_255_2_778
10
11.534393
20
139.0673586
11
11.542593
21
139.0705586
0
LINE
8
DEFAULT_255_2_778
10
11.542593
20
139.0705586
11
11.550793
21
139.0737586
0
LINE
8
DEFAULT_255_2_778
10
11.550793
20
139.0737586
11
11.558993
21
139.0766586
0
LINE
8
DEFAULT_255_2_778
10
11.558993
20
139.0766586
11
11.567493
21
139.0795586
0
LINE
8
DEFAULT_255_2_778
10
11.567493
20
139.0795586
11
11.575893
21
139.0824586
0
LINE
8
DEFAULT_255_2_778
10
11.575893
20
139.0824586
11
11.584393
21
139.0851586
0
LINE
8
DEFAULT_255_2_778
10
11.584393
20
139.0851586
11
11.592893
21
139.0877586
0
LINE
8
DEFAULT_255_2_778
10
11.592893
20
139.0877586
11
11.601293
21
139.0903586
0
LINE
8
DEFAULT_255_2_778
10
11.601293
20
139.0903586
11
11.609793
21
139.0927586
0
LINE
8
DEFAULT_255_2_778
10
11.609793
20
139.0927586
11
11.618293
21
139.0951586
0
LINE
8
DEFAULT_255_2_778
10
11.618293
20
139.0951586
11
11.553393
21
139.3367586
0
LINE
8
DEFAULT_255_2_778
10
11.553393
20
139.3367586
11
11.536793
21
139.3322586
0
LINE
8
DEFAULT_255_2_778
10
11.536793
20
139.3322586
11
11.520393
21
139.3274586
0
LINE
8
DEFAULT_255_2_778
10
11.520393
20
139.3274586
11
11.503993
21
139.3221586
0
LINE
8
DEFAULT_255_2_778
10
11.503993
20
139.3221586
11
11.487593
21
139.3166586
0
LINE
8
DEFAULT_255_2_778
10
11.487593
20
139.3166586
11
11.471393
21
139.3107586
0
LINE
8
DEFAULT_255_2_778
10
11.471393
20
139.3107586
11
11.455293
21
139.3047586
0
LINE
8
DEFAULT_255_2_778
10
11.455293
20
139.3047586
11
11.439093
21
139.2983586
0
LINE
8
DEFAULT_255_2_778
10
11.439093
20
139.2983586
11
11.423293
21
139.2917586
0
LINE
8
DEFAULT_255_2_778
10
11.423293
20
139.2917586
11
11.407393
21
139.2848586
0
LINE
8
DEFAULT_255_2_778
10
11.407393
20
139.2848586
11
11.391793
21
139.2777586
0
LINE
8
DEFAULT_255_2_778
10
11.391793
20
139.2777586
11
11.376193
21
139.2703586
0
LINE
8
DEFAULT_255_2_778
10
11.376193
20
139.2703586
11
11.360793
21
139.2626586
0
LINE
8
DEFAULT_255_2_778
10
11.360793
20
139.2626586
11
11.345493
21
139.2547586
0
LINE
8
DEFAULT_255_2_778
10
11.345493
20
139.2547586
11
11.330393
21
139.2465586
0
LINE
8
DEFAULT_255_2_778
10
11.330393
20
139.2465586
11
11.315293
21
139.2380586
0
LINE
8
DEFAULT_255_2_778
10
11.315293
20
139.2380586
11
11.300493
21
139.2293586
0
LINE
8
DEFAULT_255_2_778
10
11.300493
20
139.2293586
11
11.285693
21
139.2203586
0
LINE
8
DEFAULT_255_2_778
10
11.285693
20
139.2203586
11
11.271093
21
139.2110586
0
LINE
8
DEFAULT_255_2_778
10
11.271093
20
139.2110586
11
11.256793
21
139.2015586
0
LINE
8
DEFAULT_255_2_778
10
11.256793
20
139.2015586
11
11.242593
21
139.1917586
0
LINE
8
DEFAULT_255_2_778
10
11.242593
20
139.1917586
11
11.228493
21
139.1816586
0
LINE
8
DEFAULT_255_2_778
10
11.228493
20
139.1816586
11
11.214493
21
139.1716586
0
LINE
8
DEFAULT_255_2_778
10
11.214493
20
139.1716586
11
11.200793
21
139.1613586
0
LINE
8
DEFAULT_255_2_778
10
11.200793
20
139.1613586
11
11.187293
21
139.1507586
0
LINE
8
DEFAULT_255_2_778
10
11.187293
20
139.1507586
11
11.173993
21
139.1398586
0
LINE
8
DEFAULT_255_2_778
10
11.173993
20
139.1398586
11
11.160793
21
139.1287586
0
LINE
8
DEFAULT_255_2_778
10
11.160793
20
139.1287586
11
11.147793
21
139.1173586
0
LINE
8
DEFAULT_255_2_778
10
11.147793
20
139.1173586
11
11.135093
21
139.1057586
0
LINE
8
DEFAULT_255_2_778
10
11.135093
20
139.1057586
11
11.122393
21
139.0941586
0
LINE
8
DEFAULT_255_2_778
10
11.122393
20
139.0941586
11
11.109993
21
139.0821586
0
LINE
8
DEFAULT_255_2_778
10
11.109993
20
139.0821586
11
11.097793
21
139.0700586
0
LINE
8
DEFAULT_255_2_778
10
11.097793
20
139.0700586
11
11.085893
21
139.0575586
0
LINE
8
DEFAULT_255_2_778
10
11.085893
20
139.0575586
11
11.074293
21
139.0448586
0
LINE
8
DEFAULT_255_2_778
10
11.074293
20
139.0448586
11
11.062893
21
139.0321586
0
LINE
8
DEFAULT_255_2_778
10
11.062893
20
139.0321586
11
11.051493
21
139.0192586
0
LINE
8
DEFAULT_255_2_778
10
10.846493
20
138.1114586
11
12.312293
21
132.6406586
0
LINE
8
DEFAULT_255_2_778
10
58.900893
20
14.8076586
11
58.900893
21
13.6847586
0
LINE
8
DEFAULT_255_2_778
10
123.782293
20
139.6253586
11
123.881493
21
139.6380586
0
LINE
8
DEFAULT_255_2_778
10
123.782293
20
139.6256586
11
123.881493
21
139.6383586
0
LINE
8
DEFAULT_255_2_778
10
123.881493
20
139.6383586
11
123.676693
21
141.2385586
0
LINE
8
DEFAULT_255_2_778
10
123.676693
20
141.2385586
11
123.577493
21
141.2258586
0
LINE
8
DEFAULT_255_2_778
10
123.845793
20
139.9180586
11
123.746593
21
139.9053586
0
LINE
8
DEFAULT_255_2_778
10
123.8013125
20
140.2651864
11
123.7021125
21
140.2524864
0
LINE
8
DEFAULT_255_2_778
10
123.2464125
20
143.8108864
11
123.5441125
21
143.8489864
0
LINE
8
DEFAULT_255_2_778
10
123.5441125
20
143.8489864
11
123.8000125
21
141.8502864
0
LINE
8
DEFAULT_255_2_778
10
123.8000125
20
141.8502864
11
123.5023125
21
141.8121864
0
LINE
8
DEFAULT_255_2_778
10
123.3147125
20
144.0656864
11
123.3150125
21
144.0635864
0
LINE
8
DEFAULT_255_2_778
10
123.3150125
20
144.0635864
11
123.2158125
21
144.0508864
0
LINE
8
DEFAULT_255_2_778
10
123.2155125
20
144.0532864
11
123.3147125
21
144.0659864
0
LINE
8
DEFAULT_255_2_778
10
123.3147125
20
144.0659864
11
123.3136125
21
144.0743864
0
LINE
8
DEFAULT_255_2_778
10
123.3123125
20
144.0828864
11
123.3131125
21
144.0765864
0
LINE
8
DEFAULT_255_2_778
10
123.3131125
20
144.0765864
11
123.2139125
21
144.0638864
0
LINE
8
DEFAULT_255_2_778
10
123.3125906
20
144.08105
11
123.2133906
21
144.06835
0
LINE
8
DEFAULT_255_2_778
10
123.2131844
20
144.0705177
11
123.3123844
21
144.0832177
0
LINE
8
DEFAULT_255_2_778
10
123.3123844
20
144.0832177
11
123.1112844
21
145.6535177
0
LINE
8
DEFAULT_255_2_778
10
123.1112844
20
145.6535177
11
123.0120844
21
145.6408177
0
LINE
8
DEFAULT_255_2_778
10
123.1112844
20
145.6535177
11
123.1107844
21
145.6577177
0
LINE
8
DEFAULT_255_2_778
10
123.1107844
20
145.6577177
11
123.0115844
21
145.6450177
0
ARC
8
DEFAULT_255_2_778
10
78.3119968
20
13.8749934
40
0.5107077
50
280.1850665
51
359.948409
0
ARC
8
DEFAULT_255_2_778
10
78.3119796
20
15.913109
40
0.510725
50
0.0588393
51
89.9299159
0
ARC
8
DEFAULT_255_2_778
10
74.3407407
20
15.4131224
40
1.0107112
50
90.0190673
51
138.1894059
0
ARC
8
DEFAULT_255_2_778
10
78.8098104
20
11.4148358
40
7.0072835
50
138.1833731
51
153.3318008
0
ARC
8
DEFAULT_255_2_778
10
78.8143079
20
11.4130118
40
7.0121211
50
153.3349757
51
179.9948583
0
ARC
8
DEFAULT_255_2_778
10
78.8051597
20
11.4136494
40
7.0029728
50
180.0000684
51
185.0580139
0
ARC
8
DEFAULT_255_2_778
10
78.8142028
20
11.4145449
40
7.0120598
50
185.0587875
51
190.4899134
0
ARC
8
DEFAULT_255_2_778
10
78.8296417
20
11.4172623
40
7.0277353
50
190.4887817
51
191.7474056
0
ARC
8
DEFAULT_255_2_778
10
72.4488463
20
10.091383
40
0.5106431
50
191.8601821
51
254.4908608
0
ARC
8
DEFAULT_255_2_778
10
72.4489642
20
10.0906401
40
0.5099589
50
254.4557826
51
264.9030616
0
ARC
8
DEFAULT_255_2_778
10
72.4488462
20
10.0897779
40
0.5090896
50
264.9076673
51
270.0004795
0
ARC
8
DEFAULT_255_2_778
10
72.4487685
20
10.0914865
40
0.5107983
50
270.0091839
51
317.1089039
0
ARC
8
DEFAULT_255_2_778
10
75.0153541
20
7.7171708
40
2.9855919
50
117.976937
51
137.2489378
0
ARC
8
DEFAULT_255_2_778
10
75.0187008
20
7.7092248
40
2.9941794
50
90.0054804
51
117.9621628
0
ARC
8
DEFAULT_255_2_778
10
75.0184342
20
7.7176165
40
2.9857875
50
86.1091111
51
90.0003799
0
ARC
8
DEFAULT_255_2_778
10
75.0185609
20
7.7200806
40
2.9833206
50
73.8810973
51
86.1083268
0
ARC
8
DEFAULT_255_2_778
10
75.0138202
20
7.7034612
40
3.0006029
50
68.6546693
51
73.8822377
0
LINE
8
DEFAULT_255_2_778
10
123.1108044
20
145.6576335
11
123.1105044
21
145.6598335
0
LINE
8
DEFAULT_255_2_778
10
123.1105044
20
145.6598335
11
123.0113044
21
145.6471335
0
LINE
8
DEFAULT_255_2_778
10
123.1103044
20
145.6616335
11
123.1097044
21
145.6661335
0
LINE
8
DEFAULT_255_2_778
10
123.1097044
20
145.6661335
11
123.0105044
21
145.6534335
0
LINE
8
DEFAULT_255_2_778
10
125.1677044
20
128.1618335
11
125.4658044
21
128.1959335
0
LINE
8
DEFAULT_255_2_778
10
125.4658044
20
128.1959335
11
125.1536044
21
130.8997335
0
LINE
8
DEFAULT_255_2_778
10
125.1536044
20
130.8997335
11
124.9507044
21
130.8759335
0
LINE
8
DEFAULT_255_2_778
10
125.7659044
20
122.7905335
11
125.8614044
21
122.7963335
0
LINE
8
DEFAULT_255_2_778
10
78.8227044
20
13.8745335
11
78.8227044
21
15.9136335
0
LINE
8
DEFAULT_255_2_778
10
78.3126044
20
16.4238335
11
74.3404044
21
16.4238335
0
LINE
8
DEFAULT_255_2_778
10
76.8748044
20
11.0773335
11
76.8730044
21
11.0913335
0
LINE
8
DEFAULT_255_2_778
10
76.8730044
20
11.0913335
11
76.8711044
21
11.1054335
0
LINE
8
DEFAULT_255_2_778
10
76.8711044
20
11.1054335
11
76.8696044
21
11.1194335
0
LINE
8
DEFAULT_255_2_778
10
76.8696044
20
11.1194335
11
76.8680044
21
11.1334335
0
LINE
8
DEFAULT_255_2_778
10
76.8680044
20
11.1334335
11
76.8664044
21
11.1474335
0
LINE
8
DEFAULT_255_2_778
10
76.8664044
20
11.1474335
11
76.8651044
21
11.1615335
0
LINE
8
DEFAULT_255_2_778
10
76.8651044
20
11.1615335
11
76.8637044
21
11.1755335
0
LINE
8
DEFAULT_255_2_778
10
76.8637044
20
11.1755335
11
76.8627044
21
11.1895335
0
LINE
8
DEFAULT_255_2_778
10
76.8627044
20
11.1895335
11
76.8616044
21
11.2035335
0
LINE
8
DEFAULT_255_2_778
10
76.8616044
20
11.2035335
11
76.8606044
21
11.2176335
0
LINE
8
DEFAULT_255_2_778
10
76.8606044
20
11.2176335
11
76.8598044
21
11.2316335
0
LINE
8
DEFAULT_255_2_778
10
76.8598044
20
11.2316335
11
76.8590044
21
11.2456335
0
LINE
8
DEFAULT_255_2_778
10
76.8590044
20
11.2456335
11
76.8582044
21
11.2596335
0
LINE
8
DEFAULT_255_2_778
10
76.8582044
20
11.2596335
11
76.8576044
21
11.2736335
0
LINE
8
DEFAULT_255_2_778
10
76.8576044
20
11.2736335
11
76.8571044
21
11.2877335
0
LINE
8
DEFAULT_255_2_778
10
76.8571044
20
11.2877335
11
76.8569044
21
11.3017335
0
LINE
8
DEFAULT_255_2_778
10
76.8569044
20
11.3017335
11
76.8566044
21
11.3157335
0
LINE
8
DEFAULT_255_2_778
10
76.8566044
20
11.3157335
11
76.8563044
21
11.3297335
0
LINE
8
DEFAULT_255_2_778
10
76.8563044
20
11.3297335
11
76.8563044
21
11.3438335
0
LINE
8
DEFAULT_255_2_778
10
76.8563044
20
11.3438335
11
76.8563044
21
11.3578335
0
LINE
8
DEFAULT_255_2_778
10
76.8563044
20
11.3578335
11
76.8563044
21
11.3718335
0
LINE
8
DEFAULT_255_2_778
10
76.8563044
20
11.3718335
11
76.8566044
21
11.3858335
0
LINE
8
DEFAULT_255_2_778
10
76.8566044
20
11.3858335
11
76.8569044
21
11.3999335
0
LINE
8
DEFAULT_255_2_778
10
76.8569044
20
11.3999335
11
76.8574044
21
11.4139335
0
LINE
8
DEFAULT_255_2_778
10
76.8574044
20
11.4139335
11
76.8600044
21
11.4692335
0
LINE
8
DEFAULT_255_2_778
10
76.8600044
20
11.4692335
11
76.8643044
21
11.5242335
0
LINE
8
DEFAULT_255_2_778
10
76.8643044
20
11.5242335
11
76.8701044
21
11.5790335
0
LINE
8
DEFAULT_255_2_778
10
76.8701044
20
11.5790335
11
76.8775044
21
11.6335335
0
LINE
8
DEFAULT_255_2_778
10
76.8775044
20
11.6335335
11
76.8865044
21
11.6877335
0
LINE
8
DEFAULT_255_2_778
10
76.8865044
20
11.6877335
11
76.8971044
21
11.7417335
0
LINE
8
DEFAULT_255_2_778
10
76.8971044
20
11.7417335
11
76.9092044
21
11.7951335
0
LINE
8
DEFAULT_255_2_778
10
76.9092044
20
11.7951335
11
76.9230044
21
11.8483335
0
LINE
8
DEFAULT_255_2_778
10
76.9230044
20
11.8483335
11
76.9381044
21
11.9010335
0
LINE
8
DEFAULT_255_2_778
10
76.9381044
20
11.9010335
11
76.9547044
21
11.9531335
0
LINE
8
DEFAULT_255_2_778
10
76.9547044
20
11.9531335
11
76.9727044
21
12.0047335
0
LINE
8
DEFAULT_255_2_778
10
76.9727044
20
12.0047335
11
76.9923044
21
12.0558335
0
LINE
8
DEFAULT_255_2_778
10
76.9923044
20
12.0558335
11
77.0132044
21
12.1063335
0
LINE
8
DEFAULT_255_2_778
10
77.0132044
20
12.1063335
11
77.0354044
21
12.1563335
0
LINE
8
DEFAULT_255_2_778
10
77.0354044
20
12.1563335
11
77.0590044
21
12.2058335
0
LINE
8
DEFAULT_255_2_778
10
77.0590044
20
12.2058335
11
77.0839044
21
12.2545335
0
LINE
8
DEFAULT_255_2_778
10
77.0839044
20
12.2545335
11
77.1101044
21
12.3026335
0
LINE
8
DEFAULT_255_2_778
10
77.1101044
20
12.3026335
11
77.1376044
21
12.3500335
0
LINE
8
DEFAULT_255_2_778
10
77.1376044
20
12.3500335
11
77.1664044
21
12.3965335
0
LINE
8
DEFAULT_255_2_778
10
77.1664044
20
12.3965335
11
77.1963044
21
12.4423335
0
LINE
8
DEFAULT_255_2_778
10
77.1963044
20
12.4423335
11
77.2275044
21
12.4873335
0
LINE
8
DEFAULT_255_2_778
10
77.2275044
20
12.4873335
11
77.2598044
21
12.5315335
0
LINE
8
DEFAULT_255_2_778
10
77.2598044
20
12.5315335
11
77.2932044
21
12.5749335
0
LINE
8
DEFAULT_255_2_778
10
77.2932044
20
12.5749335
11
77.3278044
21
12.6172335
0
LINE
8
DEFAULT_255_2_778
10
77.3278044
20
12.6172335
11
77.3635044
21
12.6587335
0
LINE
8
DEFAULT_255_2_778
10
77.3635044
20
12.6587335
11
77.4003044
21
12.6992335
0
LINE
8
DEFAULT_255_2_778
10
77.4003044
20
12.6992335
11
77.4381044
21
12.7386335
0
LINE
8
DEFAULT_255_2_778
10
77.4381044
20
12.7386335
11
77.4770044
21
12.7770335
0
LINE
8
DEFAULT_255_2_778
10
77.4770044
20
12.7770335
11
77.5167044
21
12.8146335
0
LINE
8
DEFAULT_255_2_778
10
77.5167044
20
12.8146335
11
77.5575044
21
12.8508335
0
LINE
8
DEFAULT_255_2_778
10
77.5575044
20
12.8508335
11
77.5993044
21
12.8860335
0
LINE
8
DEFAULT_255_2_778
10
77.5993044
20
12.8860335
11
77.6419044
21
12.9201335
0
LINE
8
DEFAULT_255_2_778
10
77.6419044
20
12.9201335
11
77.6855044
21
12.9532335
0
LINE
8
DEFAULT_255_2_778
10
77.6855044
20
12.9532335
11
77.7300044
21
12.9850335
0
LINE
8
DEFAULT_255_2_778
10
77.7300044
20
12.9850335
11
77.7752044
21
13.0154335
0
LINE
8
DEFAULT_255_2_778
10
77.7752044
20
13.0154335
11
77.8213044
21
13.0448335
0
LINE
8
DEFAULT_255_2_778
10
77.8213044
20
13.0448335
11
77.8681044
21
13.0728335
0
LINE
8
DEFAULT_255_2_778
10
77.8681044
20
13.0728335
11
77.9157044
21
13.0995335
0
LINE
8
DEFAULT_255_2_778
10
77.9157044
20
13.0995335
11
77.9641044
21
13.1249335
0
LINE
8
DEFAULT_255_2_778
10
77.9641044
20
13.1249335
11
78.0133044
21
13.1487335
0
LINE
8
DEFAULT_255_2_778
10
78.0133044
20
13.1487335
11
78.0633044
21
13.1712335
0
LINE
8
DEFAULT_255_2_778
10
78.0633044
20
13.1712335
11
78.1139044
21
13.1924335
0
LINE
8
DEFAULT_255_2_778
10
78.1139044
20
13.1924335
11
78.1652044
21
13.2120335
0
LINE
8
DEFAULT_255_2_778
10
78.1652044
20
13.2120335
11
78.2171044
21
13.2300335
0
LINE
8
DEFAULT_255_2_778
10
78.2171044
20
13.2300335
11
78.2695044
21
13.2466335
0
LINE
8
DEFAULT_255_2_778
10
78.2695044
20
13.2466335
11
78.3226044
21
13.2617335
0
LINE
8
DEFAULT_255_2_778
10
78.3226044
20
13.2617335
11
78.3764044
21
13.2752335
0
LINE
8
DEFAULT_255_2_778
10
78.3764044
20
13.2752335
11
78.4306044
21
13.2869335
0
LINE
8
DEFAULT_255_2_778
10
114.7576044
20
8.4635335
11
114.7333044
21
8.4225335
0
LINE
8
DEFAULT_255_2_778
10
114.7333044
20
8.4225335
11
114.7076044
21
8.3820335
0
LINE
8
DEFAULT_255_2_778
10
114.7076044
20
8.3820335
11
114.6812044
21
8.3423335
0
LINE
8
DEFAULT_255_2_778
10
114.6812044
20
8.3423335
11
114.6536044
21
8.3032335
0
LINE
8
DEFAULT_255_2_778
10
114.6536044
20
8.3032335
11
114.6251044
21
8.2648335
0
LINE
8
DEFAULT_255_2_778
10
114.6251044
20
8.2648335
11
114.5954044
21
8.2272335
0
LINE
8
DEFAULT_255_2_778
10
114.5954044
20
8.2272335
11
114.5650044
21
8.1905335
0
LINE
8
DEFAULT_255_2_778
10
114.5650044
20
8.1905335
11
114.5335044
21
8.1545335
0
LINE
8
DEFAULT_255_2_778
10
114.5335044
20
8.1545335
11
114.5012044
21
8.1190335
0
LINE
8
DEFAULT_255_2_778
10
114.5012044
20
8.1190335
11
114.4679044
21
8.0846335
0
LINE
8
DEFAULT_255_2_778
10
114.4679044
20
8.0846335
11
114.4338044
21
8.0510335
0
LINE
8
DEFAULT_255_2_778
10
114.4338044
20
8.0510335
11
114.3988044
21
8.0182335
0
LINE
8
DEFAULT_255_2_778
10
114.3988044
20
8.0182335
11
114.3631044
21
7.9862335
0
LINE
8
DEFAULT_255_2_778
10
114.3631044
20
7.9862335
11
114.3266044
21
7.9552335
0
LINE
8
DEFAULT_255_2_778
10
114.3266044
20
7.9552335
11
114.2893044
21
7.9251335
0
LINE
8
DEFAULT_255_2_778
10
114.2893044
20
7.9251335
11
114.2515044
21
7.8957335
0
LINE
8
DEFAULT_255_2_778
10
114.2515044
20
7.8957335
11
114.2128044
21
7.8674335
0
LINE
8
DEFAULT_255_2_778
10
114.2128044
20
7.8674335
11
114.1734044
21
7.8401335
0
LINE
8
DEFAULT_255_2_778
10
114.1734044
20
7.8401335
11
114.1335044
21
7.8137335
0
LINE
8
DEFAULT_255_2_778
10
114.1335044
20
7.8137335
11
114.0927044
21
7.7883335
0
LINE
8
DEFAULT_255_2_778
10
114.0927044
20
7.7883335
11
114.0514044
21
7.7639335
0
LINE
8
DEFAULT_255_2_778
10
114.0514044
20
7.7639335
11
114.0096044
21
7.7407335
0
LINE
8
DEFAULT_255_2_778
10
114.0096044
20
7.7407335
11
113.9673044
21
7.7184335
0
LINE
8
DEFAULT_255_2_778
10
113.9673044
20
7.7184335
11
113.9244044
21
7.6973335
0
LINE
8
DEFAULT_255_2_778
10
113.9244044
20
7.6973335
11
113.8811044
21
7.6772335
0
LINE
8
DEFAULT_255_2_778
10
113.8811044
20
7.6772335
11
113.8371044
21
7.6581335
0
LINE
8
DEFAULT_255_2_778
10
113.8371044
20
7.6581335
11
113.7927044
21
7.6404335
0
LINE
8
DEFAULT_255_2_778
10
113.7927044
20
7.6404335
11
113.7480044
21
7.6237335
0
LINE
8
DEFAULT_255_2_778
10
113.7480044
20
7.6237335
11
113.7027044
21
7.6081335
0
LINE
8
DEFAULT_255_2_778
10
113.7027044
20
7.6081335
11
113.6572044
21
7.5938335
0
LINE
8
DEFAULT_255_2_778
10
113.6572044
20
7.5938335
11
113.6112044
21
7.5809335
0
LINE
8
DEFAULT_255_2_778
10
113.6112044
20
7.5809335
11
113.5649044
21
7.5689335
0
LINE
8
DEFAULT_255_2_778
10
113.5649044
20
7.5689335
11
113.5183044
21
7.5584335
0
LINE
8
DEFAULT_255_2_778
10
113.5183044
20
7.5584335
11
113.4715044
21
7.5488335
0
LINE
8
DEFAULT_255_2_778
10
113.4715044
20
7.5488335
11
113.4244044
21
7.5406335
0
LINE
8
DEFAULT_255_2_778
10
113.4244044
20
7.5406335
11
113.3770044
21
7.5335335
0
LINE
8
DEFAULT_255_2_778
10
113.3770044
20
7.5335335
11
113.3294044
21
7.5277335
0
LINE
8
DEFAULT_255_2_778
10
113.3294044
20
7.5277335
11
113.2818044
21
7.5229335
0
LINE
8
DEFAULT_255_2_778
10
113.2818044
20
7.5229335
11
113.2339044
21
7.5195335
0
LINE
8
DEFAULT_255_2_778
10
113.2339044
20
7.5195335
11
113.1860044
21
7.5171335
0
LINE
8
DEFAULT_255_2_778
10
113.1860044
20
7.5171335
11
113.1381044
21
7.5160335
0
LINE
8
DEFAULT_255_2_778
10
113.1381044
20
7.5160335
11
113.0902044
21
7.5160335
0
LINE
8
DEFAULT_255_2_778
10
113.0902044
20
7.5160335
11
113.0423044
21
7.5174335
0
LINE
8
DEFAULT_255_2_778
10
113.0423044
20
7.5174335
11
112.9944044
21
7.5197335
0
LINE
8
DEFAULT_255_2_778
10
112.9944044
20
7.5197335
11
112.9465044
21
7.5234335
0
LINE
8
DEFAULT_255_2_778
10
112.9465044
20
7.5234335
11
112.8989044
21
7.5282335
0
LINE
8
DEFAULT_255_2_778
10
112.8989044
20
7.5282335
11
112.8513044
21
7.5340335
0
LINE
8
DEFAULT_255_2_778
10
112.8513044
20
7.5340335
11
112.8039044
21
7.5412335
0
LINE
8
DEFAULT_255_2_778
10
112.8039044
20
7.5412335
11
112.7566044
21
7.5494335
0
LINE
8
DEFAULT_255_2_778
10
112.7566044
20
7.5494335
11
112.7095044
21
7.5589335
0
LINE
8
DEFAULT_255_2_778
10
112.7095044
20
7.5589335
11
112.6626044
21
7.5695335
0
LINE
8
DEFAULT_255_2_778
10
112.6626044
20
7.5695335
11
112.6161044
21
7.5811335
0
LINE
8
DEFAULT_255_2_778
10
112.6161044
20
7.5811335
11
112.5700044
21
7.5941335
0
LINE
8
DEFAULT_255_2_778
10
112.5700044
20
7.5941335
11
112.5243044
21
7.6081335
0
LINE
8
DEFAULT_255_2_778
10
112.5243044
20
7.6081335
11
112.4788044
21
7.6232335
0
LINE
8
DEFAULT_255_2_778
10
112.4788044
20
7.6232335
11
112.4338044
21
7.6396335
0
LINE
8
DEFAULT_255_2_778
10
112.4338044
20
7.6396335
11
112.3893044
21
7.6571335
0
LINE
8
DEFAULT_255_2_778
10
112.3893044
20
7.6571335
11
112.3454044
21
7.6756335
0
LINE
8
DEFAULT_255_2_778
10
112.3454044
20
7.6756335
11
112.3018044
21
7.6954335
0
LINE
8
DEFAULT_255_2_778
10
112.3018044
20
7.6954335
11
112.2586044
21
7.7163335
0
LINE
8
DEFAULT_255_2_778
10
112.2586044
20
7.7163335
11
112.2163044
21
7.7383335
0
LINE
8
DEFAULT_255_2_778
10
112.2163044
20
7.7383335
11
112.1745044
21
7.7613335
0
LINE
8
DEFAULT_255_2_778
10
112.1745044
20
7.7613335
11
112.1332044
21
7.7856335
0
LINE
8
DEFAULT_255_2_778
10
112.1332044
20
7.7856335
11
112.0927044
21
7.8110335
0
LINE
8
DEFAULT_255_2_778
10
112.0927044
20
7.8110335
11
112.0528044
21
7.8375335
0
LINE
8
DEFAULT_255_2_778
10
112.0528044
20
7.8375335
11
112.0136044
21
7.8648335
0
LINE
8
DEFAULT_255_2_778
10
112.0136044
20
7.8648335
11
111.9750044
21
7.8931335
0
LINE
8
DEFAULT_255_2_778
10
111.9750044
20
7.8931335
11
111.9372044
21
7.9224335
0
LINE
8
DEFAULT_255_2_778
10
111.9372044
20
7.9224335
11
111.9001044
21
7.9526335
0
LINE
8
DEFAULT_255_2_778
10
111.9001044
20
7.9526335
11
111.8638044
21
7.9838335
0
LINE
8
DEFAULT_255_2_778
10
111.8638044
20
7.9838335
11
111.8284044
21
8.0158335
0
LINE
8
DEFAULT_255_2_778
10
111.8284044
20
8.0158335
11
111.7938044
21
8.0486335
0
LINE
8
DEFAULT_255_2_778
10
111.7938044
20
8.0486335
11
111.7599044
21
8.0825335
0
LINE
8
DEFAULT_255_2_778
10
111.7599044
20
8.0825335
11
111.7268044
21
8.1172335
0
LINE
8
DEFAULT_255_2_778
10
111.7268044
20
8.1172335
11
111.6945044
21
8.1526335
0
LINE
8
DEFAULT_255_2_778
10
111.6945044
20
8.1526335
11
111.6631044
21
8.1889335
0
LINE
8
DEFAULT_255_2_778
10
111.6631044
20
8.1889335
11
111.6326044
21
8.2259335
0
LINE
8
DEFAULT_255_2_778
10
111.6326044
20
8.2259335
11
111.6030044
21
8.2635335
0
LINE
8
DEFAULT_255_2_778
10
111.6030044
20
8.2635335
11
111.5744044
21
8.3018335
0
LINE
8
DEFAULT_255_2_778
10
111.5744044
20
8.3018335
11
111.5469044
21
8.3410335
0
LINE
8
DEFAULT_255_2_778
10
111.5469044
20
8.3410335
11
111.5202044
21
8.3807335
0
LINE
8
DEFAULT_255_2_778
10
111.5202044
20
8.3807335
11
111.4945044
21
8.4212335
0
LINE
8
DEFAULT_255_2_778
10
111.4945044
20
8.4212335
11
111.4699044
21
8.4622335
0
LINE
8
DEFAULT_255_2_778
10
111.4699044
20
8.4622335
11
111.4464044
21
8.5037335
0
LINE
8
DEFAULT_255_2_778
10
111.4464044
20
8.5037335
11
111.4239044
21
8.5458335
0
LINE
8
DEFAULT_255_2_778
10
111.4239044
20
8.5458335
11
111.4024044
21
8.5884335
0
LINE
8
DEFAULT_255_2_778
10
111.4024044
20
8.5884335
11
111.3821044
21
8.6315335
0
LINE
8
DEFAULT_255_2_778
10
111.3821044
20
8.6315335
11
111.3628044
21
8.6752335
0
LINE
8
DEFAULT_255_2_778
10
111.3628044
20
8.6752335
11
111.3448044
21
8.7194335
0
LINE
8
DEFAULT_255_2_778
10
111.3448044
20
8.7194335
11
111.3278044
21
8.7641335
0
LINE
8
DEFAULT_255_2_778
10
111.3278044
20
8.7641335
11
111.3122044
21
8.8091335
0
LINE
8
DEFAULT_255_2_778
10
111.3122044
20
8.8091335
11
111.2977044
21
8.8546335
0
LINE
8
DEFAULT_255_2_778
10
111.2977044
20
8.8546335
11
111.2842044
21
8.9003335
0
LINE
8
DEFAULT_255_2_778
10
111.2842044
20
8.9003335
11
111.2720044
21
8.9466335
0
LINE
8
DEFAULT_255_2_778
10
111.2720044
20
8.9466335
11
111.2609044
21
8.9932335
0
LINE
8
DEFAULT_255_2_778
10
111.2609044
20
8.9932335
11
111.2511044
21
9.0400335
0
LINE
8
DEFAULT_255_2_778
10
111.2511044
20
9.0400335
11
111.2423044
21
9.0871335
0
LINE
8
DEFAULT_255_2_778
10
111.2423044
20
9.0871335
11
111.2350044
21
9.1342335
0
LINE
8
DEFAULT_255_2_778
10
111.2350044
20
9.1342335
11
111.2286044
21
9.1816335
0
LINE
8
DEFAULT_255_2_778
10
111.2286044
20
9.1816335
11
111.2236044
21
9.2292335
0
LINE
8
DEFAULT_255_2_778
10
111.2236044
20
9.2292335
11
111.2196044
21
9.2768335
0
LINE
8
DEFAULT_255_2_778
10
111.2196044
20
9.2768335
11
111.2170044
21
9.3247335
0
LINE
8
DEFAULT_255_2_778
10
111.2170044
20
9.3247335
11
111.2154044
21
9.3726335
0
LINE
8
DEFAULT_255_2_778
10
111.2154044
20
9.3726335
11
111.2151044
21
9.4205335
0
LINE
8
DEFAULT_255_2_778
10
111.2151044
20
9.4205335
11
111.2159044
21
9.4684335
0
LINE
8
DEFAULT_255_2_778
10
111.2159044
20
9.4684335
11
111.2178044
21
9.5163335
0
LINE
8
DEFAULT_255_2_778
10
111.2178044
20
9.5163335
11
111.2209044
21
9.5642335
0
LINE
8
DEFAULT_255_2_778
10
111.2209044
20
9.5642335
11
111.2252044
21
9.6118335
0
LINE
8
DEFAULT_255_2_778
10
111.2252044
20
9.6118335
11
111.2307044
21
9.6594335
0
LINE
8
DEFAULT_255_2_778
10
111.2307044
20
9.6594335
11
111.2373044
21
9.7068335
0
LINE
8
DEFAULT_255_2_778
10
111.2373044
20
9.7068335
11
111.2453044
21
9.7539335
0
LINE
8
DEFAULT_255_2_778
10
111.2453044
20
9.7539335
11
111.2543044
21
9.8010335
0
LINE
8
DEFAULT_255_2_778
10
111.2543044
20
9.8010335
11
111.2643044
21
9.8478335
0
LINE
8
DEFAULT_255_2_778
10
111.2643044
20
9.8478335
11
111.2757044
21
9.8944335
0
LINE
8
DEFAULT_255_2_778
10
111.2757044
20
9.8944335
11
111.2881044
21
9.9407335
0
LINE
8
DEFAULT_255_2_778
10
111.2881044
20
9.9407335
11
111.3019044
21
9.9864335
0
LINE
8
DEFAULT_255_2_778
10
111.3019044
20
9.9864335
11
111.3167044
21
10.0320335
0
LINE
8
DEFAULT_255_2_778
10
111.3167044
20
10.0320335
11
111.3329044
21
10.0769335
0
LINE
8
DEFAULT_255_2_778
10
111.3329044
20
10.0769335
11
111.3501044
21
10.1216335
0
LINE
8
DEFAULT_255_2_778
10
111.3501044
20
10.1216335
11
111.3683044
21
10.1658335
0
LINE
8
DEFAULT_255_2_778
10
124.8655044
20
130.7796335
11
124.9618044
21
130.7796335
0
LINE
8
DEFAULT_255_2_778
10
124.8335044
20
131.8739335
11
124.7372044
21
131.8739335
0
LINE
8
DEFAULT_255_2_778
10
124.8033044
20
132.1300335
11
124.7070044
21
132.1300335
0
LINE
8
DEFAULT_255_2_778
10
124.7478044
20
132.5973335
11
124.6514044
21
132.5973335
0
ARC
8
DEFAULT_255_2_778
10
102.1128892
20
18.2466615
40
0.5106372
50
180.0781724
51
231.0458504
0
ARC
8
DEFAULT_255_2_778
10
102.1129002
20
18.2467876
40
0.5107422
50
231.0537886
51
269.9945868
0
ARC
8
DEFAULT_255_2_778
10
102.1128558
20
18.2459423
40
0.5098967
50
269.9995677
51
274.476959
0
ARC
8
DEFAULT_255_2_778
10
102.1127917
20
18.2466353
40
0.5105927
50
274.4780607
51
282.0347206
0
ARC
8
DEFAULT_255_2_778
10
111.6123143
20
-26.0488227
40
44.7920405
50
92.1507088
51
102.1049956
0
ARC
8
DEFAULT_255_2_778
10
109.9117819
20
19.2218605
40
0.5105709
50
272.196731
51
359.9556012
0
ARC
8
DEFAULT_255_2_778
10
109.9116921
20
20.1129046
40
0.5106606
50
0.0516331
51
89.9371278
0
ARC
8
DEFAULT_255_2_778
10
102.1129128
20
20.1129045
40
0.5106606
50
90.0628642
51
179.948359
0
ARC
8
DEFAULT_255_2_778
10
128.8824429
20
20.7101603
40
0.6998546
50
280.9141943
51
348.9201764
0
LINE
8
DEFAULT_255_2_778
10
124.7736525
20
132.3784648
11
124.7180525
21
132.8465648
0
LINE
8
DEFAULT_255_2_778
10
124.7180525
20
132.8465648
11
124.6622525
21
133.3145648
0
LINE
8
DEFAULT_255_2_778
10
124.6622525
20
133.3145648
11
124.5659525
21
133.3145648
0
LINE
8
DEFAULT_255_2_778
10
122.8490525
20
146.8133648
11
122.9930525
21
145.7282648
0
LINE
8
DEFAULT_255_2_778
10
122.9930525
20
145.7282648
11
123.1356525
21
144.6429648
0
LINE
8
DEFAULT_255_2_778
10
123.1356525
20
144.6429648
11
123.2771525
21
143.5576648
0
LINE
8
DEFAULT_255_2_778
10
123.2771525
20
143.5576648
11
123.4174525
21
142.4720648
0
LINE
8
DEFAULT_255_2_778
10
123.4174525
20
142.4720648
11
123.5565525
21
141.3864648
0
LINE
8
DEFAULT_255_2_778
10
123.5565525
20
141.3864648
11
123.6944525
21
140.3006648
0
LINE
8
DEFAULT_255_2_778
10
123.6944525
20
140.3006648
11
123.8312525
21
139.2145648
0
LINE
8
DEFAULT_255_2_778
10
123.8312525
20
139.2145648
11
123.9666525
21
138.1284648
0
LINE
8
DEFAULT_255_2_778
10
123.9666525
20
138.1284648
11
124.1010525
21
137.0420648
0
LINE
8
DEFAULT_255_2_778
10
124.1010525
20
137.0420648
11
124.2341525
21
135.9556648
0
LINE
8
DEFAULT_255_2_778
10
124.2341525
20
135.9556648
11
124.3662525
21
134.8690648
0
LINE
8
DEFAULT_255_2_778
10
124.3662525
20
134.8690648
11
115.3378525
21
134.8690648
0
LINE
8
DEFAULT_255_2_778
10
115.3378525
20
134.8690648
11
115.3431525
21
134.7938648
0
LINE
8
DEFAULT_255_2_778
10
115.3431525
20
134.7938648
11
115.3481525
21
134.7187648
0
LINE
8
DEFAULT_255_2_778
10
115.3481525
20
134.7187648
11
115.3528525
21
134.6435648
0
LINE
8
DEFAULT_255_2_778
10
115.3528525
20
134.6435648
11
115.3574525
21
134.5684648
0
LINE
8
DEFAULT_255_2_778
10
115.3574525
20
134.5684648
11
115.3619525
21
134.4932648
0
LINE
8
DEFAULT_255_2_778
10
118.7303525
20
136.6300648
11
120.9620525
21
136.6300648
0
LINE
8
DEFAULT_255_2_778
10
114.6271525
20
136.6300648
11
115.1412525
21
136.6300648
0
LINE
8
DEFAULT_255_2_778
10
110.4223525
20
19.2214648
11
110.4223525
21
20.1133648
0
LINE
8
DEFAULT_255_2_778
10
109.9122525
20
20.6235648
11
102.1123525
21
20.6235648
0
LINE
8
DEFAULT_255_2_778
10
101.6022525
20
20.1133648
11
101.6022525
21
18.2459648
0
LINE
8
DEFAULT_255_2_778
10
130.1245525
20
71.0790648
11
130.1388525
21
70.8263648
0
LINE
8
DEFAULT_255_2_778
10
130.1388525
20
70.8263648
11
130.1529525
21
70.5736648
0
LINE
8
DEFAULT_255_2_778
10
130.1529525
20
70.5736648
11
130.1669525
21
70.3209648
0
LINE
8
DEFAULT_255_2_778
10
130.1669525
20
70.3209648
11
130.1809525
21
70.0683648
0
LINE
8
DEFAULT_255_2_778
10
130.1809525
20
70.0683648
11
130.1949525
21
69.8156648
0
LINE
8
DEFAULT_255_2_778
10
130.7119525
20
59.4471648
11
130.7286525
21
59.0714648
0
LINE
8
DEFAULT_255_2_778
10
130.7286525
20
59.0714648
11
130.7577525
21
58.4073648
0
LINE
8
DEFAULT_255_2_778
10
129.5692525
20
20.5756648
11
129.5692525
21
20.6367648
0
LINE
8
DEFAULT_255_2_778
10
125.8611525
20
122.7963648
11
125.8611525
21
122.7963648
0
LINE
8
DEFAULT_255_2_778
10
125.8611525
20
122.7963648
11
125.8603525
21
122.8034648
0
LINE
8
DEFAULT_255_2_778
10
125.8603525
20
122.8034648
11
125.8603525
21
122.8050648
0
LINE
8
DEFAULT_255_2_778
10
125.8603525
20
122.8050648
11
125.8600525
21
122.8069648
0
LINE
8
DEFAULT_255_2_778
10
125.8600525
20
122.8069648
11
125.8597525
21
122.8090648
0
LINE
8
DEFAULT_255_2_778
10
125.8597525
20
122.8090648
11
125.8595525
21
122.8114648
0
LINE
8
DEFAULT_255_2_778
10
125.8595525
20
122.8114648
11
125.8592525
21
122.8137648
0
LINE
8
DEFAULT_255_2_778
10
125.8592525
20
122.8137648
11
125.8589525
21
122.8164648
0
LINE
8
DEFAULT_255_2_778
10
125.8589525
20
122.8164648
11
125.8587525
21
122.8193648
0
LINE
8
DEFAULT_255_2_778
10
125.8587525
20
122.8193648
11
125.8584525
21
122.8222648
0
LINE
8
DEFAULT_255_2_778
10
125.8584525
20
122.8222648
11
125.8581525
21
122.8254648
0
LINE
8
DEFAULT_255_2_778
10
125.8581525
20
122.8254648
11
125.8579525
21
122.8288648
0
LINE
8
DEFAULT_255_2_778
10
125.8579525
20
122.8288648
11
125.8576525
21
122.8325648
0
LINE
8
DEFAULT_255_2_778
10
125.8576525
20
122.8325648
11
125.8571525
21
122.8362648
0
LINE
8
DEFAULT_255_2_778
10
125.8571525
20
122.8362648
11
125.8566525
21
122.8402648
0
LINE
8
DEFAULT_255_2_778
10
125.8566525
20
122.8402648
11
125.8560525
21
122.8444648
0
LINE
8
DEFAULT_255_2_778
10
125.8560525
20
122.8444648
11
125.8555525
21
122.8489648
0
LINE
8
DEFAULT_255_2_778
10
125.8555525
20
122.8489648
11
125.8549525
21
122.8534648
0
LINE
8
DEFAULT_255_2_778
10
125.8549525
20
122.8534648
11
125.8544525
21
122.8582648
0
LINE
8
DEFAULT_255_2_778
10
125.8544525
20
122.8582648
11
125.8539525
21
122.8632648
0
LINE
8
DEFAULT_255_2_778
10
125.8539525
20
122.8632648
11
125.8534525
21
122.8685648
0
LINE
8
DEFAULT_255_2_778
10
125.8534525
20
122.8685648
11
125.8528525
21
122.8738648
0
LINE
8
DEFAULT_255_2_778
10
125.8528525
20
122.8738648
11
125.8523525
21
122.8794648
0
LINE
8
DEFAULT_255_2_778
10
125.8523525
20
122.8794648
11
125.8518525
21
122.8852648
0
LINE
8
DEFAULT_255_2_778
10
125.8518525
20
122.8852648
11
125.8513525
21
122.8913648
0
LINE
8
DEFAULT_255_2_778
10
125.8513525
20
122.8913648
11
125.8505525
21
122.8976648
0
LINE
8
DEFAULT_255_2_778
10
125.8505525
20
122.8976648
11
125.8497525
21
122.9042648
0
LINE
8
DEFAULT_255_2_778
10
125.8497525
20
122.9042648
11
125.8489525
21
122.9108648
0
LINE
8
DEFAULT_255_2_778
10
125.8489525
20
122.9108648
11
125.8481525
21
122.9177648
0
LINE
8
DEFAULT_255_2_778
10
125.8481525
20
122.9177648
11
125.8473525
21
122.9246648
0
LINE
8
DEFAULT_255_2_778
10
125.8473525
20
122.9246648
11
125.8465525
21
122.9317648
0
LINE
8
DEFAULT_255_2_778
10
125.8465525
20
122.9317648
11
125.8272525
21
123.1082648
0
LINE
8
DEFAULT_255_2_778
10
125.8272525
20
123.1082648
11
125.7711525
21
123.6220648
0
LINE
8
DEFAULT_255_2_778
10
125.7711525
20
123.6220648
11
125.7121525
21
124.1605648
0
LINE
8
DEFAULT_255_2_778
10
125.7121525
20
124.1605648
11
125.7110525
21
124.1703648
0
LINE
8
DEFAULT_255_2_778
10
125.7110525
20
124.1703648
11
125.7100525
21
124.1800648
0
LINE
8
DEFAULT_255_2_778
10
125.7100525
20
124.1800648
11
125.7089525
21
124.1898648
0
LINE
8
DEFAULT_255_2_778
10
125.7089525
20
124.1898648
11
125.7079525
21
124.1996648
0
LINE
8
DEFAULT_255_2_778
10
125.7079525
20
124.1996648
11
125.7068525
21
124.2094648
0
LINE
8
DEFAULT_255_2_778
10
125.7068525
20
124.2094648
11
125.7057525
21
124.2192648
0
LINE
8
DEFAULT_255_2_778
10
125.7057525
20
124.2192648
11
125.7047525
21
124.2290648
0
LINE
8
DEFAULT_255_2_778
10
125.7047525
20
124.2290648
11
125.7036525
21
124.2388648
0
LINE
8
DEFAULT_255_2_778
10
125.7036525
20
124.2388648
11
125.7026525
21
124.2486648
0
LINE
8
DEFAULT_255_2_778
10
125.7026525
20
124.2486648
11
125.7015525
21
124.2584648
0
LINE
8
DEFAULT_255_2_778
10
125.7015525
20
124.2584648
11
125.7004525
21
124.2682648
0
LINE
8
DEFAULT_255_2_778
10
125.7004525
20
124.2682648
11
125.6994525
21
124.2779648
0
LINE
8
DEFAULT_255_2_778
10
125.6994525
20
124.2779648
11
125.6983525
21
124.2877648
0
LINE
8
DEFAULT_255_2_778
10
125.6983525
20
124.2877648
11
125.6973525
21
124.2975648
0
LINE
8
DEFAULT_255_2_778
10
125.6973525
20
124.2975648
11
125.6962525
21
124.3073648
0
LINE
8
DEFAULT_255_2_778
10
125.6962525
20
124.3073648
11
125.6951525
21
124.3171648
0
LINE
8
DEFAULT_255_2_778
10
125.6951525
20
124.3171648
11
125.6401525
21
124.8150648
0
LINE
8
DEFAULT_255_2_778
10
125.6401525
20
124.8150648
11
125.5446525
21
124.8092648
0
LINE
8
DEFAULT_255_2_778
10
127.7668525
20
103.5140648
11
127.8007525
21
103.1335648
0
LINE
8
DEFAULT_255_2_778
10
127.8007525
20
103.1335648
11
127.8317525
21
102.7829648
0
LINE
8
DEFAULT_255_2_778
10
127.8317525
20
102.7829648
11
127.8621525
21
102.4371648
0
LINE
8
DEFAULT_255_2_778
10
127.8621525
20
102.4371648
11
127.9211525
21
101.7643648
0
LINE
8
DEFAULT_255_2_778
10
127.9211525
20
101.7643648
11
127.8253525
21
101.7585648
0
LINE
8
DEFAULT_255_2_778
10
124.4119525
20
134.4940648
11
124.3667525
21
134.8692648
0
LINE
8
DEFAULT_255_2_778
10
124.747776
20
132.5973437
11
124.828976
21
131.9102437
0
LINE
8
DEFAULT_255_2_778
10
124.811576
20
132.0589437
11
124.857076
21
131.6731437
0
LINE
8
DEFAULT_255_2_778
10
124.857076
20
131.6731437
11
124.961776
21
130.7796437
0
LINE
8
DEFAULT_255_2_778
10
124.8429854
20
131.791924
11
124.8437854
21
131.785024
0
LINE
8
DEFAULT_255_2_778
10
124.8437854
20
131.785024
11
124.8442854
21
131.781324
0
LINE
8
DEFAULT_255_2_778
10
124.8442854
20
131.781324
11
124.8448854
21
131.777624
0
LINE
8
DEFAULT_255_2_778
10
124.8448854
20
131.777624
11
124.8453854
21
131.773924
0
LINE
8
DEFAULT_255_2_778
10
124.8453854
20
131.773924
11
124.8458854
21
131.769924
0
LINE
8
DEFAULT_255_2_778
10
124.8458854
20
131.769924
11
124.8463854
21
131.766024
0
LINE
8
DEFAULT_255_2_778
10
124.8463854
20
131.766024
11
124.8469854
21
131.761724
0
LINE
8
DEFAULT_255_2_778
10
124.8469854
20
131.761724
11
124.8474854
21
131.757524
0
LINE
8
DEFAULT_255_2_778
10
124.8474854
20
131.757524
11
124.8479854
21
131.753324
0
LINE
8
DEFAULT_255_2_778
10
124.8479854
20
131.753324
11
124.8485854
21
131.748824
0
LINE
8
DEFAULT_255_2_778
10
124.8485854
20
131.748824
11
124.8490854
21
131.744324
0
LINE
8
DEFAULT_255_2_778
10
124.8490854
20
131.744324
11
124.8495854
21
131.739524
0
LINE
8
DEFAULT_255_2_778
10
124.8495854
20
131.739524
11
124.8500854
21
131.734824
0
LINE
8
DEFAULT_255_2_778
10
124.8500854
20
131.734824
11
124.8506854
21
131.729724
0
LINE
8
DEFAULT_255_2_778
10
124.8506854
20
131.729724
11
124.8511854
21
131.724724
0
LINE
8
DEFAULT_255_2_778
10
124.8511854
20
131.724724
11
124.8516854
21
131.719424
0
LINE
8
DEFAULT_255_2_778
10
124.8516854
20
131.719424
11
124.8522854
21
131.714124
0
LINE
8
DEFAULT_255_2_778
10
124.8522854
20
131.714124
11
124.8527854
21
131.708624
0
LINE
8
DEFAULT_255_2_778
10
124.8527854
20
131.708624
11
124.8532854
21
131.703024
0
LINE
8
DEFAULT_255_2_778
10
124.8532854
20
131.703024
11
124.8540854
21
131.697224
0
LINE
8
DEFAULT_255_2_778
10
124.8540854
20
131.697224
11
124.8561854
21
131.679524
0
LINE
8
DEFAULT_255_2_778
10
109.8122413
20
146.813397
11
109.812794
21
146.8133971
0
ARC
8
DEFAULT_255_2_778
10
109.8127308
20
145.413677
40
1.3997201
50
29.0010379
51
89.9974134
0
ARC
8
DEFAULT_255_2_778
10
109.8135929
20
145.4140759
40
1.3987727
50
0.4308088
51
29.0038693
0
ARC
8
DEFAULT_255_2_778
10
109.8051733
20
145.413799
40
1.4071944
50
0.0010672
51
0.4395049
0
ARC
8
DEFAULT_255_2_778
10
109.8132584
20
145.4135384
40
1.3991093
50
327.9745777
51
0.0117469
0
ARC
8
DEFAULT_255_2_778
10
91.2507433
20
131.2063648
40
23.9973808
50
7.8745057
51
21.6596063
0
ARC
8
DEFAULT_255_2_778
10
-868.3924446
20
14.8144736
40
1000.0044892
50
0.3587596
51
6.8735821
0
ARC
8
DEFAULT_255_2_778
10
120.110321
20
69.1290316
40
49.4058015
50
277.5451169
51
283.4386639
0
ARC
8
DEFAULT_255_2_778
10
78.809631
20
11.4109494
40
2.9962974
50
221.810847
51
239.9860321
0
ARC
8
DEFAULT_255_2_778
10
78.812891
20
11.4191326
40
3.005014
50
240.0102576
51
269.9963548
0
ARC
8
DEFAULT_255_2_778
10
78.8127193
20
11.4107089
40
2.9965904
50
269.9996267
51
273.6212254
0
ARC
8
DEFAULT_255_2_778
10
78.8130807
20
11.4056767
40
2.9915455
50
273.6204054
51
286.5653254
0
ARC
8
DEFAULT_255_2_778
10
78.8078097
20
11.4230093
40
3.0096615
50
286.5674291
51
293.448774
0
ARC
8
DEFAULT_255_2_778
10
78.8153225
20
11.4102063
40
2.9949268
50
293.4143834
51
315.8983671
0
ARC
8
DEFAULT_255_2_778
10
78.8108327
20
11.4150058
40
3.0014911
50
315.8922208
51
357.8537171
0
ARC
8
DEFAULT_255_2_778
10
78.8125164
20
11.413387
40
2.9997484
50
357.8834112
51
0.0003655
0
ARC
8
DEFAULT_255_2_778
10
78.7988233
20
11.4132429
40
3.0134415
50
0.0031033
51
5.0158886
0
ARC
8
DEFAULT_255_2_778
10
76.3356426
20
11.1965383
40
5.4861364
50
5.0212558
51
5.0430936
0
ARC
8
DEFAULT_255_2_778
10
34.3076549
20
-43.6156141
40
48.9785947
50
99.7509649
51
105.5701225
0
ARC
8
DEFAULT_255_2_778
10
116.0572569
20
7.7128533
40
1.5005007
50
93.8333519
51
142.3990176
0
ARC
8
DEFAULT_255_2_778
10
3.8879931
20
73.9126422
40
2.1989534
50
313.8779429
51
341.4613362
0
ARC
8
DEFAULT_255_2_778
10
114.4601962
20
145.2765605
40
0.5001059
50
47.5033511
51
89.9913776
0
ARC
8
DEFAULT_255_2_778
10
114.4602748
20
145.2775094
40
0.4991569
50
90.0003855
51
95.424986
0
ARC
8
DEFAULT_255_2_778
10
114.4603496
20
145.2768239
40
0.4998465
50
95.4260868
51
100.5021524
0
ARC
8
DEFAULT_255_2_778
10
114.4600153
20
145.2766849
40
0.4999224
50
100.4615814
51
153.4682556
0
ARC
8
DEFAULT_255_2_778
10
118.3950909
20
143.3125197
40
4.8979634
50
153.4736349
51
170.7345349
0
ARC
8
DEFAULT_255_2_778
10
118.3989946
20
143.3118655
40
4.9019213
50
170.7343348
51
180.0001223
0
ARC
8
DEFAULT_255_2_778
10
118.3988792
20
143.3118577
40
4.901806
50
180.0000311
51
180.8064957
0
ARC
8
DEFAULT_255_2_778
10
118.3953029
20
143.3116327
40
4.8982269
50
180.8044536
51
198.0387017
0
ARC
8
DEFAULT_255_2_778
10
118.4015708
20
143.313686
40
4.9048225
50
198.0388351
51
201.2662288
0
ARC
8
DEFAULT_255_2_778
10
92.3972891
20
133.1922808
40
22.9997561
50
4.1774087
51
21.267187
0
ARC
8
DEFAULT_255_2_778
10
34.303746
20
-43.5701206
40
48.9328583
50
94.6870993
51
98.4511877
0
LINE
8
DEFAULT_255_2_778
10
110.9994413
20
144.671597
11
113.5537413
21
140.063597
0
LINE
8
DEFAULT_255_2_778
10
115.0218413
20
134.494097
11
124.4246413
21
134.494097
0
LINE
8
DEFAULT_255_2_778
10
126.5976413
20
20.150997
11
126.6000413
21
19.634497
0
LINE
8
DEFAULT_255_2_778
10
128.3888413
20
19.907297
11
127.2821413
21
20.246297
0
LINE
8
DEFAULT_255_2_778
10
116.0566413
20
9.213397
11
116.0267413
21
9.213097
0
LINE
8
DEFAULT_255_2_778
10
121.2123413
20
9.213397
11
116.0569413
21
9.213397
0
LINE
8
DEFAULT_255_2_778
10
114.7951413
20
8.524397
11
114.7578413
21
8.463297
0
LINE
8
DEFAULT_255_2_778
10
124.1513413
20
136.630397
11
124.1658413
21
136.630397
0
LINE
8
DEFAULT_255_2_778
10
124.1658413
20
136.630397
11
122.8620413
21
146.813397
0
LINE
8
DEFAULT_255_2_778
10
122.8620413
20
146.813397
11
120.9530413
21
146.813397
0
LINE
8
DEFAULT_255_2_778
10
120.9530413
20
146.813397
11
120.9085413
21
146.811297
0
LINE
8
DEFAULT_255_2_778
10
120.9085413
20
146.811297
11
120.8652413
21
146.805497
0
LINE
8
DEFAULT_255_2_778
10
120.8652413
20
146.805497
11
120.8228413
21
146.795897
0
LINE
8
DEFAULT_255_2_778
10
120.8228413
20
146.795897
11
120.7813413
21
146.782697
0
LINE
8
DEFAULT_255_2_778
10
120.7813413
20
146.782697
11
120.7408413
21
146.765797
0
LINE
8
DEFAULT_255_2_778
10
120.7408413
20
146.765797
11
120.7019413
21
146.745397
0
LINE
8
DEFAULT_255_2_778
10
120.7019413
20
146.745397
11
120.6649413
21
146.721897
0
LINE
8
DEFAULT_255_2_778
10
120.6649413
20
146.721897
11
120.6302413
21
146.695097
0
LINE
8
DEFAULT_255_2_778
10
120.6302413
20
146.695097
11
120.5982413
21
146.665497
0
LINE
8
DEFAULT_255_2_778
10
120.5982413
20
146.665497
11
120.5688413
21
146.632997
0
LINE
8
DEFAULT_255_2_778
10
120.5688413
20
146.632997
11
120.5424413
21
146.597997
0
LINE
8
DEFAULT_255_2_778
10
120.5424413
20
146.597997
11
120.5188413
21
146.560997
0
LINE
8
DEFAULT_255_2_778
10
120.5188413
20
146.560997
11
120.4979413
21
146.522397
0
LINE
8
DEFAULT_255_2_778
10
120.4979413
20
146.522397
11
120.4799413
21
146.482697
0
LINE
8
DEFAULT_255_2_778
10
120.4799413
20
146.482697
11
120.4646413
21
146.441697
0
LINE
8
DEFAULT_255_2_778
10
120.4646413
20
146.441697
11
120.4516413
21
146.399897
0
LINE
8
DEFAULT_255_2_778
10
120.4516413
20
146.399897
11
120.4413413
21
146.357297
0
LINE
8
DEFAULT_255_2_778
10
120.4413413
20
146.357297
11
120.4334413
21
146.314097
0
LINE
8
DEFAULT_255_2_778
10
120.4334413
20
146.314097
11
120.4283413
21
146.270497
0
LINE
8
DEFAULT_255_2_778
10
120.4283413
20
146.270497
11
120.4259413
21
146.226797
0
LINE
8
DEFAULT_255_2_778
10
120.4259413
20
146.226797
11
120.4267413
21
146.182897
0
LINE
8
DEFAULT_255_2_778
10
120.4267413
20
146.182897
11
120.4304413
21
146.139197
0
LINE
8
DEFAULT_255_2_778
10
120.4304413
20
146.139197
11
120.4373413
21
146.095897
0
LINE
8
DEFAULT_255_2_778
10
120.4373413
20
146.095897
11
120.4471413
21
146.052997
0
LINE
8
DEFAULT_255_2_778
10
120.4471413
20
146.052997
11
120.4598413
21
146.010897
0
LINE
8
DEFAULT_255_2_778
10
120.4598413
20
146.010897
11
120.4752413
21
145.969897
0
LINE
8
DEFAULT_255_2_778
10
120.4752413
20
145.969897
11
120.4931413
21
145.929997
0
LINE
8
DEFAULT_255_2_778
10
120.4931413
20
145.929997
11
120.5138413
21
145.891597
0
LINE
8
DEFAULT_255_2_778
10
120.5138413
20
145.891597
11
120.5371413
21
145.854797
0
LINE
8
DEFAULT_255_2_778
10
120.5371413
20
145.854797
11
120.5627413
21
145.819597
0
LINE
8
DEFAULT_255_2_778
10
120.5627413
20
145.819597
11
120.6204413
21
145.753497
0
LINE
8
DEFAULT_255_2_778
10
120.6204413
20
145.753497
11
120.6842413
21
145.692397
0
LINE
8
DEFAULT_255_2_778
10
120.6842413
20
145.692397
11
120.7493413
21
145.633097
0
LINE
8
DEFAULT_255_2_778
10
120.7493413
20
145.633097
11
120.7630413
21
145.616397
0
LINE
8
DEFAULT_255_2_778
10
120.7630413
20
145.616397
11
120.7747413
21
145.597897
0
LINE
8
DEFAULT_255_2_778
10
120.7747413
20
145.597897
11
120.7839413
21
145.578097
0
LINE
8
DEFAULT_255_2_778
10
120.7839413
20
145.578097
11
120.7908413
21
145.557197
0
LINE
8
DEFAULT_255_2_778
10
120.7908413
20
145.557197
11
120.7972413
21
145.513997
0
LINE
8
DEFAULT_255_2_778
10
120.7972413
20
145.513997
11
120.7969413
21
145.470397
0
LINE
8
DEFAULT_255_2_778
10
120.7969413
20
145.470397
11
120.7956413
21
145.382797
0
LINE
8
DEFAULT_255_2_778
10
120.7956413
20
145.382797
11
120.7993413
21
145.295797
0
LINE
8
DEFAULT_255_2_778
10
120.7993413
20
145.295797
11
120.7990413
21
145.208197
0
LINE
8
DEFAULT_255_2_778
10
120.7990413
20
145.208197
11
120.7977413
21
145.163997
0
LINE
8
DEFAULT_255_2_778
10
120.7977413
20
145.163997
11
120.8006413
21
145.142597
0
LINE
8
DEFAULT_255_2_778
10
120.8006413
20
145.142597
11
120.8077413
21
145.122197
0
LINE
8
DEFAULT_255_2_778
10
120.8077413
20
145.122197
11
120.8188413
21
145.102897
0
LINE
8
DEFAULT_255_2_778
10
120.8188413
20
145.102897
11
120.8334413
21
145.085397
0
LINE
8
DEFAULT_255_2_778
10
120.8334413
20
145.085397
11
120.8506413
21
145.069797
0
LINE
8
DEFAULT_255_2_778
10
120.8506413
20
145.069797
11
120.8699413
21
145.056797
0
LINE
8
DEFAULT_255_2_778
10
120.8699413
20
145.056797
11
120.8906413
21
145.046497
0
LINE
8
DEFAULT_255_2_778
10
120.8906413
20
145.046497
11
120.9117413
21
145.039597
0
LINE
8
DEFAULT_255_2_778
10
120.9117413
20
145.039597
11
120.9548413
21
145.032997
0
LINE
8
DEFAULT_255_2_778
10
120.9548413
20
145.032997
11
121.0414413
21
145.021397
0
LINE
8
DEFAULT_255_2_778
10
121.0414413
20
145.021397
11
121.1274413
21
145.006297
0
LINE
8
DEFAULT_255_2_778
10
121.1274413
20
145.006297
11
121.1707413
21
145.000497
0
LINE
8
DEFAULT_255_2_778
10
121.1707413
20
145.000497
11
121.1922413
21
144.996797
0
LINE
8
DEFAULT_255_2_778
10
121.1922413
20
144.996797
11
121.2128413
21
144.989597
0
LINE
8
DEFAULT_255_2_778
10
121.2128413
20
144.989597
11
121.2319413
21
144.978497
0
LINE
8
DEFAULT_255_2_778
10
121.2319413
20
144.978497
11
121.2493413
21
144.964497
0
LINE
8
DEFAULT_255_2_778
10
121.2493413
20
144.964497
11
121.2647413
21
144.948397
0
LINE
8
DEFAULT_255_2_778
10
121.2647413
20
144.948397
11
121.2779413
21
144.930597
0
LINE
8
DEFAULT_255_2_778
10
121.2779413
20
144.930597
11
121.2991413
21
144.892497
0
LINE
8
DEFAULT_255_2_778
10
121.2991413
20
144.892497
11
121.3170413
21
144.852597
0
LINE
8
DEFAULT_255_2_778
10
121.3170413
20
144.852597
11
121.3528413
21
144.772397
0
LINE
8
DEFAULT_255_2_778
10
121.3528413
20
144.772397
11
121.3887413
21
144.692497
0
LINE
8
DEFAULT_255_2_778
10
121.3887413
20
144.692497
11
121.4245413
21
144.612597
0
LINE
8
DEFAULT_255_2_778
10
121.4245413
20
144.612597
11
121.4591413
21
144.532397
0
LINE
8
DEFAULT_255_2_778
10
121.4591413
20
144.532397
11
121.4922413
21
144.451697
0
LINE
8
DEFAULT_255_2_778
10
121.4922413
20
144.451697
11
121.5232413
21
144.370197
0
LINE
8
DEFAULT_255_2_778
10
121.5232413
20
144.370197
11
121.5515413
21
144.287697
0
LINE
8
DEFAULT_255_2_778
10
121.5515413
20
144.287697
11
121.5766413
21
144.204097
0
LINE
8
DEFAULT_255_2_778
10
121.5766413
20
144.204097
11
121.5988413
21
144.119697
0
LINE
8
DEFAULT_255_2_778
10
121.5988413
20
144.119697
11
121.6187413
21
144.034497
0
LINE
8
DEFAULT_255_2_778
10
121.6187413
20
144.034497
11
121.6367413
21
143.948997
0
LINE
8
DEFAULT_255_2_778
10
121.6367413
20
143.948997
11
121.6526413
21
143.862997
0
LINE
8
DEFAULT_255_2_778
10
121.6526413
20
143.862997
11
121.6658413
21
143.776797
0
LINE
8
DEFAULT_255_2_778
10
121.6658413
20
143.776797
11
121.6766413
21
143.689997
0
LINE
8
DEFAULT_255_2_778
10
121.6766413
20
143.689997
11
121.6864413
21
143.603197
0
LINE
8
DEFAULT_255_2_778
10
121.6864413
20
143.603197
11
121.6949413
21
143.516397
0
LINE
8
DEFAULT_255_2_778
10
121.6949413
20
143.516397
11
121.7012413
21
143.429397
0
LINE
8
DEFAULT_255_2_778
10
121.7012413
20
143.429397
11
121.7041413
21
143.342097
0
LINE
8
DEFAULT_255_2_778
10
121.7041413
20
143.342097
11
121.7031413
21
143.298397
0
LINE
8
DEFAULT_255_2_778
10
121.7031413
20
143.298397
11
121.6994413
21
143.254997
0
LINE
8
DEFAULT_255_2_778
10
121.6994413
20
143.254997
11
121.6925413
21
143.211897
0
LINE
8
DEFAULT_255_2_778
10
121.6925413
20
143.211897
11
121.6827413
21
143.169297
0
LINE
8
DEFAULT_255_2_778
10
121.6827413
20
143.169297
11
121.6703413
21
143.127197
0
LINE
8
DEFAULT_255_2_778
10
121.6703413
20
143.127197
11
121.6555413
21
143.085997
0
LINE
8
DEFAULT_255_2_778
10
121.6555413
20
143.085997
11
121.6380413
21
143.045697
0
LINE
8
DEFAULT_255_2_778
10
121.6380413
20
143.045697
11
121.6182413
21
143.006597
0
LINE
8
DEFAULT_255_2_778
10
121.6182413
20
143.006597
11
121.5959413
21
142.968997
0
LINE
8
DEFAULT_255_2_778
10
121.5959413
20
142.968997
11
121.5713413
21
142.932797
0
LINE
8
DEFAULT_255_2_778
10
121.5713413
20
142.932797
11
121.5446413
21
142.898397
0
LINE
8
DEFAULT_255_2_778
10
121.5446413
20
142.898397
11
121.5158413
21
142.865597
0
LINE
8
DEFAULT_255_2_778
10
121.5158413
20
142.865597
11
121.4848413
21
142.834097
0
LINE
8
DEFAULT_255_2_778
10
121.4848413
20
142.834097
11
121.4703413
21
142.817697
0
LINE
8
DEFAULT_255_2_778
10
121.4703413
20
142.817697
11
121.4586413
21
142.799397
0
LINE
8
DEFAULT_255_2_778
10
121.4586413
20
142.799397
11
121.4515413
21
142.778797
0
LINE
8
DEFAULT_255_2_778
10
121.4515413
20
142.778797
11
121.4496413
21
142.756797
0
LINE
8
DEFAULT_255_2_778
10
121.4496413
20
142.756797
11
121.4528413
21
142.735097
0
LINE
8
DEFAULT_255_2_778
10
121.4528413
20
142.735097
11
121.4602413
21
142.714197
0
LINE
8
DEFAULT_255_2_778
10
121.4602413
20
142.714197
11
121.4705413
21
142.694597
0
LINE
8
DEFAULT_255_2_778
10
121.4705413
20
142.694597
11
121.4830413
21
142.676597
0
LINE
8
DEFAULT_255_2_778
10
121.4830413
20
142.676597
11
121.5107413
21
142.642797
0
LINE
8
DEFAULT_255_2_778
10
121.5107413
20
142.642797
11
121.5361413
21
142.607597
0
LINE
8
DEFAULT_255_2_778
10
121.5361413
20
142.607597
11
121.5578413
21
142.569497
0
LINE
8
DEFAULT_255_2_778
10
121.5578413
20
142.569497
11
121.6009413
21
142.493497
0
LINE
8
DEFAULT_255_2_778
10
121.6009413
20
142.493497
11
121.6391413
21
142.415497
0
LINE
8
DEFAULT_255_2_778
10
121.6391413
20
142.415497
11
121.6692413
21
142.333997
0
LINE
8
DEFAULT_255_2_778
10
121.6692413
20
142.333997
11
121.6930413
21
142.249897
0
LINE
8
DEFAULT_255_2_778
10
121.6930413
20
142.249897
11
121.7116413
21
142.163597
0
LINE
8
DEFAULT_255_2_778
10
121.7116413
20
142.163597
11
121.7261413
21
142.076297
0
LINE
8
DEFAULT_255_2_778
10
121.7261413
20
142.076297
11
121.7383413
21
141.988497
0
LINE
8
DEFAULT_255_2_778
10
121.7383413
20
141.988497
11
121.7489413
21
141.900897
0
LINE
8
DEFAULT_255_2_778
10
121.7489413
20
141.900897
11
121.7584413
21
141.813797
0
LINE
8
DEFAULT_255_2_778
10
121.7584413
20
141.813797
11
121.7663413
21
141.727097
0
LINE
8
DEFAULT_255_2_778
10
121.7663413
20
141.727097
11
121.7729413
21
141.640297
0
LINE
8
DEFAULT_255_2_778
10
121.7729413
20
141.640297
11
121.7777413
21
141.553497
0
LINE
8
DEFAULT_255_2_778
10
121.7777413
20
141.553497
11
121.7806413
21
141.466397
0
LINE
8
DEFAULT_255_2_778
10
121.7806413
20
141.466397
11
121.7819413
21
141.379097
0
LINE
8
DEFAULT_255_2_778
10
121.7819413
20
141.379097
11
121.7819413
21
141.291797
0
LINE
8
DEFAULT_255_2_778
10
121.7819413
20
141.291797
11
121.7811413
21
141.204497
0
LINE
8
DEFAULT_255_2_778
10
121.7811413
20
141.204497
11
121.7796413
21
141.116897
0
LINE
8
DEFAULT_255_2_778
10
121.7796413
20
141.116897
11
121.7774413
21
141.029297
0
LINE
8
DEFAULT_255_2_778
10
121.7774413
20
141.029297
11
121.7729413
21
140.854497
0
LINE
8
DEFAULT_255_2_778
10
121.7729413
20
140.854497
11
121.7706413
21
140.767097
0
LINE
8
DEFAULT_255_2_778
10
121.7706413
20
140.767097
11
121.7682413
21
140.679797
0
LINE
8
DEFAULT_255_2_778
10
121.7682413
20
140.679797
11
121.7655413
21
140.592497
0
LINE
8
DEFAULT_255_2_778
10
121.7655413
20
140.592497
11
121.7626413
21
140.505197
0
LINE
8
DEFAULT_255_2_778
10
121.7626413
20
140.505197
11
121.7594413
21
140.417897
0
LINE
8
DEFAULT_255_2_778
10
121.7594413
20
140.417897
11
121.7560413
21
140.330597
0
LINE
8
DEFAULT_255_2_778
10
121.7560413
20
140.330597
11
121.7523413
21
140.243297
0
LINE
8
DEFAULT_255_2_778
10
121.7523413
20
140.243297
11
121.7481413
21
140.155997
0
LINE
8
DEFAULT_255_2_778
10
121.7481413
20
140.155997
11
121.7436413
21
140.068597
0
LINE
8
DEFAULT_255_2_778
10
121.7436413
20
140.068597
11
121.7388413
21
139.981297
0
LINE
8
DEFAULT_255_2_778
10
121.7388413
20
139.981297
11
121.7335413
21
139.893997
0
LINE
8
DEFAULT_255_2_778
10
121.7335413
20
139.893997
11
121.7280413
21
139.806697
0
LINE
8
DEFAULT_255_2_778
10
121.7280413
20
139.806697
11
121.7221413
21
139.719697
0
LINE
8
DEFAULT_255_2_778
10
121.7221413
20
139.719697
11
121.7158413
21
139.632597
0
LINE
8
DEFAULT_255_2_778
10
121.7158413
20
139.632597
11
121.7092413
21
139.545597
0
LINE
8
DEFAULT_255_2_778
10
121.7092413
20
139.545597
11
121.7023413
21
139.458497
0
LINE
8
DEFAULT_255_2_778
10
121.7023413
20
139.458497
11
121.6951413
21
139.371497
0
LINE
8
DEFAULT_255_2_778
10
121.6951413
20
139.371497
11
121.6875413
21
139.284397
0
LINE
8
DEFAULT_255_2_778
10
121.6875413
20
139.284397
11
121.6795413
21
139.197397
0
LINE
8
DEFAULT_255_2_778
10
121.6795413
20
139.197397
11
121.6713413
21
139.110297
0
LINE
8
DEFAULT_255_2_778
10
121.6713413
20
139.110297
11
121.6631413
21
139.023297
0
LINE
8
DEFAULT_255_2_778
10
121.6631413
20
139.023297
11
121.6546413
21
138.936197
0
LINE
8
DEFAULT_255_2_778
10
121.6546413
20
138.936197
11
121.6462413
21
138.849197
0
LINE
8
DEFAULT_255_2_778
10
121.6462413
20
138.849197
11
121.6375413
21
138.762097
0
LINE
8
DEFAULT_255_2_778
10
121.6375413
20
138.762097
11
121.6287413
21
138.675097
0
LINE
8
DEFAULT_255_2_778
10
121.6287413
20
138.675097
11
121.6197413
21
138.588297
0
LINE
8
DEFAULT_255_2_778
10
121.6197413
20
138.588297
11
121.6102413
21
138.501497
0
LINE
8
DEFAULT_255_2_778
10
121.6102413
20
138.501497
11
121.5999413
21
138.414697
0
LINE
8
DEFAULT_255_2_778
10
121.5999413
20
138.414697
11
121.5885413
21
138.328197
0
LINE
8
DEFAULT_255_2_778
10
121.5885413
20
138.328197
11
121.5758413
21
138.241697
0
LINE
8
DEFAULT_255_2_778
10
121.5758413
20
138.241697
11
121.5615413
21
138.155397
0
LINE
8
DEFAULT_255_2_778
10
121.5615413
20
138.155397
11
121.5457413
21
138.069497
0
LINE
8
DEFAULT_255_2_778
10
121.5457413
20
138.069497
11
121.5279413
21
137.983697
0
LINE
8
DEFAULT_255_2_778
10
121.5279413
20
137.983697
11
121.5086413
21
137.898497
0
LINE
8
DEFAULT_255_2_778
10
121.5086413
20
137.898497
11
121.4875413
21
137.813597
0
LINE
8
DEFAULT_255_2_778
10
121.4875413
20
137.813597
11
121.4644413
21
137.729197
0
LINE
8
DEFAULT_255_2_778
10
121.4644413
20
137.729197
11
121.4396413
21
137.645297
0
LINE
8
DEFAULT_255_2_778
10
121.4396413
20
137.645297
11
121.4128413
21
137.561997
0
LINE
8
DEFAULT_255_2_778
10
121.4128413
20
137.561997
11
121.3845413
21
137.479197
0
LINE
8
DEFAULT_255_2_778
10
121.3845413
20
137.479197
11
121.3544413
21
137.397097
0
LINE
8
DEFAULT_255_2_778
10
121.3544413
20
137.397097
11
121.3224413
21
137.315897
0
LINE
8
DEFAULT_255_2_778
10
121.3224413
20
137.315897
11
121.2885413
21
137.235497
0
LINE
8
DEFAULT_255_2_778
10
121.2885413
20
137.235497
11
121.2528413
21
137.155797
0
LINE
8
DEFAULT_255_2_778
10
121.2528413
20
137.155797
11
121.2155413
21
137.076997
0
LINE
8
DEFAULT_255_2_778
10
121.2155413
20
137.076997
11
121.1763413
21
136.998897
0
LINE
8
DEFAULT_255_2_778
10
121.1763413
20
136.998897
11
121.1356413
21
136.921697
0
LINE
8
DEFAULT_255_2_778
10
121.1356413
20
136.921697
11
121.0930413
21
136.845197
0
LINE
8
DEFAULT_255_2_778
10
121.0930413
20
136.845197
11
121.0488413
21
136.769797
0
LINE
8
DEFAULT_255_2_778
10
121.0488413
20
136.769797
11
121.0030413
21
136.695197
0
LINE
8
DEFAULT_255_2_778
10
121.0030413
20
136.695197
11
120.9556413
21
136.621697
0
LINE
8
DEFAULT_255_2_778
10
120.9556413
20
136.621697
11
120.9067413
21
136.549197
0
LINE
8
DEFAULT_255_2_778
10
120.9067413
20
136.549197
11
120.8562413
21
136.477697
0
LINE
8
DEFAULT_255_2_778
10
120.8562413
20
136.477697
11
120.8040413
21
136.407297
0
LINE
8
DEFAULT_255_2_778
10
120.8040413
20
136.407297
11
120.7503413
21
136.337997
0
LINE
8
DEFAULT_255_2_778
10
120.7503413
20
136.337997
11
120.6953413
21
136.269997
0
LINE
8
DEFAULT_255_2_778
10
120.6953413
20
136.269997
11
120.6387413
21
136.203297
0
LINE
8
DEFAULT_255_2_778
10
120.6387413
20
136.203297
11
120.5807413
21
136.137997
0
LINE
8
DEFAULT_255_2_778
10
120.5807413
20
136.137997
11
120.5212413
21
136.073997
0
LINE
8
DEFAULT_255_2_778
10
120.5212413
20
136.073997
11
120.4603413
21
136.011497
0
LINE
8
DEFAULT_255_2_778
10
120.4603413
20
136.011497
11
120.3982413
21
135.950697
0
LINE
8
DEFAULT_255_2_778
10
120.3982413
20
135.950697
11
120.3347413
21
135.891397
0
LINE
8
DEFAULT_255_2_778
10
120.3347413
20
135.891397
11
120.2698413
21
135.833197
0
LINE
8
DEFAULT_255_2_778
10
120.2698413
20
135.833197
11
120.2037413
21
135.775997
0
LINE
8
DEFAULT_255_2_778
10
120.2037413
20
135.775997
11
120.1365413
21
135.719397
0
LINE
8
DEFAULT_255_2_778
10
120.1365413
20
135.719397
11
120.0680413
21
135.663297
0
LINE
8
DEFAULT_255_2_778
10
120.0680413
20
135.663297
11
119.9981413
21
135.607997
0
LINE
8
DEFAULT_255_2_778
10
119.9981413
20
135.607997
11
119.9267413
21
135.554897
0
LINE
8
DEFAULT_255_2_778
10
119.9267413
20
135.554897
11
119.8534413
21
135.505397
0
LINE
8
DEFAULT_255_2_778
10
119.8534413
20
135.505397
11
119.7777413
21
135.460697
0
LINE
8
DEFAULT_255_2_778
10
119.7777413
20
135.460697
11
119.6994413
21
135.422297
0
LINE
8
DEFAULT_255_2_778
10
119.6994413
20
135.422297
11
119.6182413
21
135.391597
0
LINE
8
DEFAULT_255_2_778
10
119.6182413
20
135.391597
11
119.5340413
21
135.369897
0
LINE
8
DEFAULT_255_2_778
10
119.5340413
20
135.369897
11
119.4472413
21
135.357697
0
LINE
8
DEFAULT_255_2_778
10
119.4472413
20
135.357697
11
119.3591413
21
135.355397
0
LINE
8
DEFAULT_255_2_778
10
119.3591413
20
135.355397
11
119.2710413
21
135.362497
0
LINE
8
DEFAULT_255_2_778
10
119.2710413
20
135.362497
11
119.1840413
21
135.379697
0
LINE
8
DEFAULT_255_2_778
10
119.1840413
20
135.379697
11
119.0993413
21
135.406397
0
LINE
8
DEFAULT_255_2_778
10
119.0993413
20
135.406397
11
119.0181413
21
135.442097
0
LINE
8
DEFAULT_255_2_778
10
119.0181413
20
135.442097
11
118.9413413
21
135.486597
0
LINE
8
DEFAULT_255_2_778
10
118.9413413
20
135.486597
11
118.8699413
21
135.538997
0
LINE
8
DEFAULT_255_2_778
10
118.8699413
20
135.538997
11
118.8051413
21
135.598797
0
LINE
8
DEFAULT_255_2_778
10
118.8051413
20
135.598797
11
118.7474413
21
135.665197
0
LINE
8
DEFAULT_255_2_778
10
118.7474413
20
135.665197
11
118.6974413
21
135.737397
0
LINE
8
DEFAULT_255_2_778
10
118.6974413
20
135.737397
11
118.6556413
21
135.814697
0
LINE
8
DEFAULT_255_2_778
10
118.6556413
20
135.814697
11
118.6225413
21
135.896197
0
LINE
8
DEFAULT_255_2_778
10
118.6225413
20
135.896197
11
118.5985413
21
135.980797
0
LINE
8
DEFAULT_255_2_778
10
118.5985413
20
135.980797
11
118.5839413
21
136.067597
0
LINE
8
DEFAULT_255_2_778
10
118.5839413
20
136.067597
11
118.5792413
21
136.155497
0
LINE
8
DEFAULT_255_2_778
10
118.5792413
20
136.155497
11
118.5847413
21
136.242997
0
LINE
8
DEFAULT_255_2_778
10
118.5847413
20
136.242997
11
118.6001413
21
136.329597
0
LINE
8
DEFAULT_255_2_778
10
118.6001413
20
136.329597
11
118.6241413
21
136.414197
0
LINE
8
DEFAULT_255_2_778
10
118.6241413
20
136.414197
11
118.6561413
21
136.495997
0
LINE
8
DEFAULT_255_2_778
10
118.6561413
20
136.495997
11
118.6953413
21
136.574297
0
LINE
8
DEFAULT_255_2_778
10
118.6953413
20
136.574297
11
118.7398413
21
136.649397
0
LINE
8
DEFAULT_255_2_778
10
118.7398413
20
136.649397
11
118.7871413
21
136.722697
0
LINE
8
DEFAULT_255_2_778
10
118.7871413
20
136.722697
11
118.8355413
21
136.795697
0
LINE
8
DEFAULT_255_2_778
10
118.8355413
20
136.795697
11
118.8824413
21
136.869597
0
LINE
8
DEFAULT_255_2_778
10
118.8824413
20
136.869597
11
118.9265413
21
136.944997
0
LINE
8
DEFAULT_255_2_778
10
118.9265413
20
136.944997
11
118.9681413
21
137.021697
0
LINE
8
DEFAULT_255_2_778
10
118.9681413
20
137.021697
11
119.0072413
21
137.099797
0
LINE
8
DEFAULT_255_2_778
10
119.0072413
20
137.099797
11
119.0440413
21
137.179097
0
LINE
8
DEFAULT_255_2_778
10
119.0440413
20
137.179097
11
119.0787413
21
137.259597
0
LINE
8
DEFAULT_255_2_778
10
119.0787413
20
137.259597
11
119.1112413
21
137.341097
0
LINE
8
DEFAULT_255_2_778
10
119.1112413
20
137.341097
11
119.1419413
21
137.423297
0
LINE
8
DEFAULT_255_2_778
10
119.1419413
20
137.423297
11
119.1708413
21
137.506197
0
LINE
8
DEFAULT_255_2_778
10
119.1708413
20
137.506197
11
119.1980413
21
137.589497
0
LINE
8
DEFAULT_255_2_778
10
119.1980413
20
137.589497
11
119.2234413
21
137.673397
0
LINE
8
DEFAULT_255_2_778
10
119.2234413
20
137.673397
11
119.2472413
21
137.757797
0
LINE
8
DEFAULT_255_2_778
10
119.2472413
20
137.757797
11
119.2694413
21
137.842697
0
LINE
8
DEFAULT_255_2_778
10
119.2694413
20
137.842697
11
119.2901413
21
137.927897
0
LINE
8
DEFAULT_255_2_778
10
119.2901413
20
137.927897
11
119.3089413
21
138.013597
0
LINE
8
DEFAULT_255_2_778
10
119.3089413
20
138.013597
11
119.3261413
21
138.099597
0
LINE
8
DEFAULT_255_2_778
10
119.3261413
20
138.099597
11
119.3414413
21
138.185897
0
LINE
8
DEFAULT_255_2_778
10
119.3414413
20
138.185897
11
119.3552413
21
138.272397
0
LINE
8
DEFAULT_255_2_778
10
119.3552413
20
138.272397
11
119.3671413
21
138.359197
0
LINE
8
DEFAULT_255_2_778
10
119.3671413
20
138.359197
11
119.3774413
21
138.445997
0
LINE
8
DEFAULT_255_2_778
10
119.3774413
20
138.445997
11
119.3859413
21
138.532997
0
LINE
8
DEFAULT_255_2_778
10
119.3859413
20
138.532997
11
119.3925413
21
138.619997
0
LINE
8
DEFAULT_255_2_778
10
119.3925413
20
138.619997
11
119.3975413
21
138.707097
0
LINE
8
DEFAULT_255_2_778
10
119.3975413
20
138.707097
11
119.4007413
21
138.794397
0
LINE
8
DEFAULT_255_2_778
10
119.4007413
20
138.794397
11
119.4017413
21
138.881697
0
LINE
8
DEFAULT_255_2_778
10
119.4017413
20
138.881697
11
119.4007413
21
138.968997
0
LINE
8
DEFAULT_255_2_778
10
119.4007413
20
138.968997
11
119.3972413
21
139.056297
0
LINE
8
DEFAULT_255_2_778
10
119.3972413
20
139.056297
11
119.3914413
21
139.143697
0
LINE
8
DEFAULT_255_2_778
10
119.3914413
20
139.143697
11
119.3830413
21
139.230997
0
LINE
8
DEFAULT_255_2_778
10
119.3830413
20
139.230997
11
119.3716413
21
139.318297
0
LINE
8
DEFAULT_255_2_778
10
119.3716413
20
139.318297
11
119.3573413
21
139.405597
0
LINE
8
DEFAULT_255_2_778
10
119.3573413
20
139.405597
11
119.3395413
21
139.492397
0
LINE
8
DEFAULT_255_2_778
10
119.3395413
20
139.492397
11
119.3176413
21
139.578097
0
LINE
8
DEFAULT_255_2_778
10
119.3176413
20
139.578097
11
119.2909413
21
139.661997
0
LINE
8
DEFAULT_255_2_778
10
119.2909413
20
139.661997
11
119.2583413
21
139.743497
0
LINE
8
DEFAULT_255_2_778
10
119.2583413
20
139.743497
11
119.2194413
21
139.821797
0
LINE
8
DEFAULT_255_2_778
10
119.2194413
20
139.821797
11
119.1734413
21
139.896097
0
LINE
8
DEFAULT_255_2_778
10
119.1734413
20
139.896097
11
119.1197413
21
139.965997
0
LINE
8
DEFAULT_255_2_778
10
119.1197413
20
139.965997
11
119.0591413
21
140.030797
0
LINE
8
DEFAULT_255_2_778
10
119.0591413
20
140.030797
11
118.9924413
21
140.090097
0
LINE
8
DEFAULT_255_2_778
10
118.9924413
20
140.090097
11
118.9205413
21
140.142997
0
LINE
8
DEFAULT_255_2_778
10
118.9205413
20
140.142997
11
118.8443413
21
140.189297
0
LINE
8
DEFAULT_255_2_778
10
118.8443413
20
140.189297
11
118.7646413
21
140.228197
0
LINE
8
DEFAULT_255_2_778
10
118.7646413
20
140.228197
11
118.6826413
21
140.259097
0
LINE
8
DEFAULT_255_2_778
10
118.6826413
20
140.259097
11
118.5987413
21
140.282397
0
LINE
8
DEFAULT_255_2_778
10
118.5987413
20
140.282397
11
118.5135413
21
140.299097
0
LINE
8
DEFAULT_255_2_778
10
118.5135413
20
140.299097
11
118.4270413
21
140.310497
0
LINE
8
DEFAULT_255_2_778
10
118.4270413
20
140.310497
11
118.3397413
21
140.318397
0
LINE
8
DEFAULT_255_2_778
10
118.3397413
20
140.318397
11
118.2519413
21
140.323997
0
LINE
8
DEFAULT_255_2_778
10
118.2519413
20
140.323997
11
118.1638413
21
140.328697
0
LINE
8
DEFAULT_255_2_778
10
118.1638413
20
140.328697
11
118.0759413
21
140.333997
0
LINE
8
DEFAULT_255_2_778
10
118.0759413
20
140.333997
11
117.9883413
21
140.341397
0
LINE
8
DEFAULT_255_2_778
10
117.9883413
20
140.341397
11
117.9013413
21
140.352297
0
LINE
8
DEFAULT_255_2_778
10
117.9013413
20
140.352297
11
117.8150413
21
140.367097
0
LINE
8
DEFAULT_255_2_778
10
117.8150413
20
140.367097
11
117.7296413
21
140.385297
0
LINE
8
DEFAULT_255_2_778
10
117.7296413
20
140.385297
11
117.6449413
21
140.406797
0
LINE
8
DEFAULT_255_2_778
10
117.6449413
20
140.406797
11
117.5608413
21
140.430897
0
LINE
8
DEFAULT_255_2_778
10
117.5608413
20
140.430897
11
117.4774413
21
140.457097
0
LINE
8
DEFAULT_255_2_778
10
117.4774413
20
140.457097
11
117.3946413
21
140.485397
0
LINE
8
DEFAULT_255_2_778
10
117.3946413
20
140.485397
11
117.3126413
21
140.515797
0
LINE
8
DEFAULT_255_2_778
10
117.3126413
20
140.515797
11
117.2314413
21
140.548597
0
LINE
8
DEFAULT_255_2_778
10
117.2314413
20
140.548597
11
117.1512413
21
140.583497
0
LINE
8
DEFAULT_255_2_778
10
117.1512413
20
140.583497
11
117.0721413
21
140.620797
0
LINE
8
DEFAULT_255_2_778
10
117.0721413
20
140.620797
11
116.9940413
21
140.660297
0
LINE
8
DEFAULT_255_2_778
10
116.9940413
20
140.660297
11
116.9173413
21
140.702097
0
LINE
8
DEFAULT_255_2_778
10
116.9173413
20
140.702097
11
116.8419413
21
140.746197
0
LINE
8
DEFAULT_255_2_778
10
116.8419413
20
140.746197
11
116.7678413
21
140.792497
0
LINE
8
DEFAULT_255_2_778
10
116.7678413
20
140.792497
11
116.6951413
21
140.841197
0
LINE
8
DEFAULT_255_2_778
10
116.6951413
20
140.841197
11
116.6236413
21
140.891997
0
LINE
8
DEFAULT_255_2_778
10
116.6236413
20
140.891997
11
116.5538413
21
140.944897
0
LINE
8
DEFAULT_255_2_778
10
116.5538413
20
140.944897
11
116.4855413
21
140.999697
0
LINE
8
DEFAULT_255_2_778
10
116.4855413
20
140.999697
11
116.4188413
21
141.056597
0
LINE
8
DEFAULT_255_2_778
10
116.4188413
20
141.056597
11
116.3537413
21
141.115297
0
LINE
8
DEFAULT_255_2_778
10
116.3537413
20
141.115297
11
116.2905413
21
141.175897
0
LINE
8
DEFAULT_255_2_778
10
116.2905413
20
141.175897
11
116.2291413
21
141.238397
0
LINE
8
DEFAULT_255_2_778
10
116.2291413
20
141.238397
11
116.1696413
21
141.302397
0
LINE
8
DEFAULT_255_2_778
10
116.1696413
20
141.302397
11
116.1119413
21
141.368297
0
LINE
8
DEFAULT_255_2_778
10
116.1119413
20
141.368297
11
116.0561413
21
141.435697
0
LINE
8
DEFAULT_255_2_778
10
116.0561413
20
141.435697
11
116.0024413
21
141.504797
0
LINE
8
DEFAULT_255_2_778
10
116.0024413
20
141.504797
11
115.9508413
21
141.575397
0
LINE
8
DEFAULT_255_2_778
10
115.9508413
20
141.575397
11
115.9010413
21
141.647397
0
LINE
8
DEFAULT_255_2_778
10
115.9010413
20
141.647397
11
115.8537413
21
141.720997
0
LINE
8
DEFAULT_255_2_778
10
115.8537413
20
141.720997
11
115.8084413
21
141.795797
0
LINE
8
DEFAULT_255_2_778
10
115.8084413
20
141.795797
11
115.7653413
21
141.871997
0
LINE
8
DEFAULT_255_2_778
10
115.7653413
20
141.871997
11
115.7246413
21
141.949297
0
LINE
8
DEFAULT_255_2_778
10
115.7246413
20
141.949297
11
115.6859413
21
142.027897
0
LINE
8
DEFAULT_255_2_778
10
115.6859413
20
142.027897
11
115.6497413
21
142.107497
0
LINE
8
DEFAULT_255_2_778
10
115.6497413
20
142.107497
11
115.6158413
21
142.188197
0
LINE
8
DEFAULT_255_2_778
10
115.6158413
20
142.188197
11
115.5841413
21
142.269697
0
LINE
8
DEFAULT_255_2_778
10
115.5841413
20
142.269697
11
115.5550413
21
142.352297
0
LINE
8
DEFAULT_255_2_778
10
115.5550413
20
142.352297
11
115.5282413
21
142.435597
0
LINE
8
DEFAULT_255_2_778
10
115.5282413
20
142.435597
11
115.5039413
21
142.519697
0
LINE
8
DEFAULT_255_2_778
10
115.5039413
20
142.519697
11
115.4819413
21
142.604397
0
LINE
8
DEFAULT_255_2_778
10
115.4819413
20
142.604397
11
115.4626413
21
142.689597
0
LINE
8
DEFAULT_255_2_778
10
115.4626413
20
142.689597
11
115.4460413
21
142.775297
0
LINE
8
DEFAULT_255_2_778
10
115.4460413
20
142.775297
11
115.4317413
21
142.861597
0
LINE
8
DEFAULT_255_2_778
10
115.4317413
20
142.861597
11
115.4200413
21
142.948097
0
LINE
8
DEFAULT_255_2_778
10
115.4200413
20
142.948097
11
115.4108413
21
143.035197
0
LINE
8
DEFAULT_255_2_778
10
115.4108413
20
143.035197
11
115.4039413
21
143.122497
0
LINE
8
DEFAULT_255_2_778
10
115.4039413
20
143.122497
11
115.3997413
21
143.209797
0
LINE
8
DEFAULT_255_2_778
10
115.3997413
20
143.209797
11
115.3978413
21
143.297397
0
LINE
8
DEFAULT_255_2_778
10
115.3978413
20
143.297397
11
115.3983413
21
143.384897
0
LINE
8
DEFAULT_255_2_778
10
115.3983413
20
143.384897
11
115.4012413
21
143.472497
0
LINE
8
DEFAULT_255_2_778
10
115.4012413
20
143.472497
11
115.4068413
21
143.559797
0
LINE
8
DEFAULT_255_2_778
10
115.4068413
20
143.559797
11
115.4150413
21
143.646897
0
LINE
8
DEFAULT_255_2_778
10
115.4150413
20
143.646897
11
115.4264413
21
143.733697
0
LINE
8
DEFAULT_255_2_778
10
115.4264413
20
143.733697
11
115.4409413
21
143.819597
0
LINE
8
DEFAULT_255_2_778
10
115.4409413
20
143.819597
11
115.4587413
21
143.905097
0
LINE
8
DEFAULT_255_2_778
10
115.4587413
20
143.905097
11
115.4790413
21
143.989997
0
LINE
8
DEFAULT_255_2_778
10
115.4790413
20
143.989997
11
115.5010413
21
144.074697
0
LINE
8
DEFAULT_255_2_778
10
115.5010413
20
144.074697
11
115.5237413
21
144.159097
0
LINE
8
DEFAULT_255_2_778
10
115.5237413
20
144.159097
11
115.5465413
21
144.243497
0
LINE
8
DEFAULT_255_2_778
10
115.5465413
20
144.243497
11
115.5682413
21
144.328197
0
LINE
8
DEFAULT_255_2_778
10
115.5682413
20
144.328197
11
115.5894413
21
144.412797
0
LINE
8
DEFAULT_255_2_778
10
115.5894413
20
144.412797
11
115.6100413
21
144.497797
0
LINE
8
DEFAULT_255_2_778
10
115.6100413
20
144.497797
11
115.6309413
21
144.582697
0
LINE
8
DEFAULT_255_2_778
10
115.6309413
20
144.582697
11
115.6309413
21
144.592797
0
LINE
8
DEFAULT_255_2_778
10
115.6309413
20
144.592797
11
115.6309413
21
144.602797
0
LINE
8
DEFAULT_255_2_778
10
115.6309413
20
144.602797
11
115.6306413
21
144.612897
0
LINE
8
DEFAULT_255_2_778
10
115.6306413
20
144.612897
11
115.6304413
21
144.622897
0
LINE
8
DEFAULT_255_2_778
10
115.6304413
20
144.622897
11
115.6298413
21
144.632997
0
LINE
8
DEFAULT_255_2_778
10
115.6298413
20
144.632997
11
115.6293413
21
144.642997
0
LINE
8
DEFAULT_255_2_778
10
115.6293413
20
144.642997
11
115.6285413
21
144.653097
0
LINE
8
DEFAULT_255_2_778
10
115.6285413
20
144.653097
11
115.6275413
21
144.662897
0
LINE
8
DEFAULT_255_2_778
10
115.6275413
20
144.662897
11
115.6264413
21
144.672697
0
LINE
8
DEFAULT_255_2_778
10
115.6264413
20
144.672697
11
115.6251413
21
144.682397
0
LINE
8
DEFAULT_255_2_778
10
115.6251413
20
144.682397
11
115.6238413
21
144.692197
0
LINE
8
DEFAULT_255_2_778
10
115.6238413
20
144.692197
11
115.6222413
21
144.701797
0
LINE
8
DEFAULT_255_2_778
10
115.6222413
20
144.701797
11
115.6206413
21
144.711297
0
LINE
8
DEFAULT_255_2_778
10
115.6206413
20
144.711297
11
115.6187413
21
144.720797
0
LINE
8
DEFAULT_255_2_778
10
115.6187413
20
144.720797
11
115.6169413
21
144.730297
0
LINE
8
DEFAULT_255_2_778
10
115.6169413
20
144.730297
11
115.6147413
21
144.739897
0
LINE
8
DEFAULT_255_2_778
10
115.6147413
20
144.739897
11
115.6126413
21
144.749097
0
LINE
8
DEFAULT_255_2_778
10
115.6126413
20
144.749097
11
115.6103413
21
144.758397
0
LINE
8
DEFAULT_255_2_778
10
115.6103413
20
144.758397
11
115.6079413
21
144.767597
0
LINE
8
DEFAULT_255_2_778
10
115.6079413
20
144.767597
11
115.6052413
21
144.776597
0
LINE
8
DEFAULT_255_2_778
10
115.6052413
20
144.776597
11
115.6026413
21
144.785597
0
LINE
8
DEFAULT_255_2_778
10
115.6026413
20
144.785597
11
115.5997413
21
144.794597
0
LINE
8
DEFAULT_255_2_778
10
115.5997413
20
144.794597
11
115.5968413
21
144.803597
0
LINE
8
DEFAULT_255_2_778
10
115.5968413
20
144.803597
11
115.5939413
21
144.812397
0
LINE
8
DEFAULT_255_2_778
10
115.5939413
20
144.812397
11
115.5907413
21
144.821097
0
LINE
8
DEFAULT_255_2_778
10
115.5907413
20
144.821097
11
115.5875413
21
144.829797
0
LINE
8
DEFAULT_255_2_778
10
115.5875413
20
144.829797
11
115.5841413
21
144.838297
0
LINE
8
DEFAULT_255_2_778
10
115.5841413
20
144.838297
11
115.5806413
21
144.846797
0
LINE
8
DEFAULT_255_2_778
10
115.5806413
20
144.846797
11
115.5772413
21
144.855197
0
LINE
8
DEFAULT_255_2_778
10
115.5772413
20
144.855197
11
115.5735413
21
144.863397
0
LINE
8
DEFAULT_255_2_778
10
115.5735413
20
144.863397
11
115.5698413
21
144.871597
0
LINE
8
DEFAULT_255_2_778
10
115.5698413
20
144.871597
11
115.5658413
21
144.879797
0
LINE
8
DEFAULT_255_2_778
10
115.5658413
20
144.879797
11
115.5618413
21
144.887997
0
LINE
8
DEFAULT_255_2_778
10
115.5618413
20
144.887997
11
115.5579413
21
144.895997
0
LINE
8
DEFAULT_255_2_778
10
115.5579413
20
144.895997
11
115.5536413
21
144.903897
0
LINE
8
DEFAULT_255_2_778
10
115.5536413
20
144.903897
11
115.5494413
21
144.911797
0
LINE
8
DEFAULT_255_2_778
10
115.5494413
20
144.911797
11
115.5449413
21
144.919497
0
LINE
8
DEFAULT_255_2_778
10
115.5449413
20
144.919497
11
115.5404413
21
144.927197
0
LINE
8
DEFAULT_255_2_778
10
115.5404413
20
144.927197
11
115.5359413
21
144.934897
0
LINE
8
DEFAULT_255_2_778
10
115.5359413
20
144.934897
11
115.5312413
21
144.942297
0
LINE
8
DEFAULT_255_2_778
10
115.5312413
20
144.942297
11
115.5264413
21
144.949697
0
LINE
8
DEFAULT_255_2_778
10
115.5264413
20
144.949697
11
115.5216413
21
144.957097
0
LINE
8
DEFAULT_255_2_778
10
115.5216413
20
144.957097
11
115.5166413
21
144.964197
0
LINE
8
DEFAULT_255_2_778
10
115.5166413
20
144.964197
11
115.5116413
21
144.971397
0
LINE
8
DEFAULT_255_2_778
10
115.5116413
20
144.971397
11
115.5065413
21
144.978497
0
LINE
8
DEFAULT_255_2_778
10
115.5065413
20
144.978497
11
115.5013413
21
144.985697
0
LINE
8
DEFAULT_255_2_778
10
115.5013413
20
144.985697
11
115.4960413
21
144.992497
0
LINE
8
DEFAULT_255_2_778
10
115.4960413
20
144.992497
11
115.4907413
21
144.999397
0
LINE
8
DEFAULT_255_2_778
10
115.4907413
20
144.999397
11
115.4851413
21
145.006297
0
LINE
8
DEFAULT_255_2_778
10
115.4851413
20
145.006297
11
115.4796413
21
145.012897
0
LINE
8
DEFAULT_255_2_778
10
115.4796413
20
145.012897
11
115.4740413
21
145.019497
0
LINE
8
DEFAULT_255_2_778
10
115.4740413
20
145.019497
11
115.4682413
21
145.026097
0
LINE
8
DEFAULT_255_2_778
10
115.4682413
20
145.026097
11
115.4624413
21
145.032497
0
LINE
8
DEFAULT_255_2_778
10
115.4624413
20
145.032497
11
115.4565413
21
145.038797
0
LINE
8
DEFAULT_255_2_778
10
115.4565413
20
145.038797
11
115.4507413
21
145.045197
0
LINE
8
DEFAULT_255_2_778
10
115.4507413
20
145.045197
11
115.4446413
21
145.051497
0
LINE
8
DEFAULT_255_2_778
10
115.4446413
20
145.051497
11
115.4385413
21
145.057597
0
LINE
8
DEFAULT_255_2_778
10
115.4385413
20
145.057597
11
115.4325413
21
145.063697
0
LINE
8
DEFAULT_255_2_778
10
115.4325413
20
145.063697
11
115.4261413
21
145.069797
0
LINE
8
DEFAULT_255_2_778
10
115.4261413
20
145.069797
11
115.4198413
21
145.075597
0
LINE
8
DEFAULT_255_2_778
10
115.4198413
20
145.075597
11
114.7980413
21
145.645297
0
ARC
8
DEFAULT_255_2_778
10
118.4123513
20
143.3134481
40
1.9857673
50
119.9994562
51
179.9990087
0
ARC
8
DEFAULT_255_2_778
10
118.4116643
20
143.3156287
40
1.9835354
50
96.4836398
51
120.0137643
0
ARC
8
DEFAULT_255_2_778
10
118.412286
20
143.3114025
40
1.9878048
50
89.9996995
51
96.4876912
0
LINE
8
DEFAULT_255_2_778
10
118.4122964
20
145.2992074
11
118.412657
21
145.2992074
0
ARC
8
DEFAULT_255_2_778
10
118.4126264
20
143.3146004
40
1.984607
50
62.8610677
51
89.9991151
0
ARC
8
DEFAULT_255_2_778
10
118.4094601
20
143.3084737
40
1.9915034
50
60.000927
51
62.8604055
0
ARC
8
DEFAULT_255_2_778
10
118.4120999
20
143.3134385
40
1.985884
50
0.0012684
51
59.9952669
0
ARC
8
DEFAULT_255_2_778
10
118.4121
20
143.3135264
40
1.9858839
50
300.0047297
51
359.9987316
0
ARC
8
DEFAULT_255_2_778
10
118.4128632
20
143.3118248
40
1.9840287
50
276.4921728
51
300.0102165
0
ARC
8
DEFAULT_255_2_778
10
118.4123052
20
143.3156335
40
1.9878761
50
270.0101399
51
276.4957404
0
LINE
8
DEFAULT_255_2_778
10
118.412657
20
141.3277575
11
118.4122964
21
141.3277574
0
ARC
8
DEFAULT_255_2_778
10
118.4119328
20
143.3119674
40
1.98421
50
242.3821528
51
270.0104994
0
ARC
8
DEFAULT_255_2_778
10
118.4152403
20
143.3182955
40
1.9913505
50
239.9973026
51
242.382237
0
ARC
8
DEFAULT_255_2_778
10
118.4123512
20
143.3135167
40
1.9857672
50
180.0009899
51
240.0005443
0
ARC
8
DEFAULT_255_2_778
10
118.4227961
20
143.3077401
40
3.0118713
50
155.4782629
51
164.5821948
0
ARC
8
DEFAULT_255_2_778
10
118.3980367
20
143.3149991
40
2.9860732
50
164.5901644
51
175.4107338
0
ARC
8
DEFAULT_255_2_778
10
118.4029891
20
143.3146268
40
2.9910393
50
175.4112163
51
180.0009417
0
ARC
8
DEFAULT_255_2_778
10
118.4166028
20
143.3145909
40
3.0046531
50
180.0002517
51
222.9187049
0
ARC
8
DEFAULT_255_2_778
10
118.4131676
20
143.3163115
40
3.0033114
50
222.9873693
51
236.0194838
0
ARC
8
DEFAULT_255_2_778
10
118.4164805
20
143.316845
40
3.0056065
50
235.9727996
51
247.8231664
0
ARC
8
DEFAULT_255_2_778
10
118.4094493
20
143.3023412
40
2.9895219
50
247.8430287
51
265.0841833
0
ARC
8
DEFAULT_255_2_778
10
118.4113143
20
143.3173598
40
3.0046449
50
265.0732931
51
268.4037055
0
ARC
8
DEFAULT_255_2_778
10
118.4114194
20
143.3203839
40
3.0076707
50
268.4033079
51
270.0001719
0
ARC
8
DEFAULT_255_2_778
10
118.4124514
20
143.3162043
40
3.0034913
50
269.9804853
51
300.8653384
0
ARC
8
DEFAULT_255_2_778
10
118.4128055
20
143.3104805
40
2.9983976
50
300.9156426
51
316.0347179
0
ARC
8
DEFAULT_255_2_778
10
118.3901694
20
143.3344744
40
3.0313477
50
316.0053197
51
316.4986994
0
ARC
8
DEFAULT_255_2_778
10
118.4130041
20
143.3148958
40
3.0013074
50
316.4697354
51
330.7238701
0
ARC
8
DEFAULT_255_2_778
10
118.4149134
20
143.3115067
40
2.9979853
50
330.7625227
51
355.4412472
0
ARC
8
DEFAULT_255_2_778
10
118.4008269
20
143.3138239
40
3.0122118
50
355.4186077
51
359.9997887
0
ARC
8
DEFAULT_255_2_778
10
118.402499
20
143.3138252
40
3.0105397
50
359.9997624
51
0.812371
0
ARC
8
DEFAULT_255_2_778
10
118.416786
20
143.3150117
40
2.9962374
50
0.7935594
51
22.3150006
0
ARC
8
DEFAULT_255_2_778
10
118.4162106
20
143.313135
40
2.9974824
50
22.34401
51
35.6383299
0
ARC
8
DEFAULT_255_2_778
10
118.3839143
20
143.291333
40
3.0364336
50
35.6175867
51
37.0042056
0
ARC
8
DEFAULT_255_2_778
10
118.4126861
20
143.3151846
40
2.9991017
50
36.9711424
51
53.0921726
0
ARC
8
DEFAULT_255_2_778
10
118.4111157
20
143.307924
40
3.0058519
50
53.151349
51
90.0037093
0
ARC
8
DEFAULT_255_2_778
10
118.4108933
20
143.3173595
40
2.9964164
50
89.9994686
51
93.5259892
0
ARC
8
DEFAULT_255_2_778
10
118.4100773
20
143.3274117
40
2.9863332
50
93.5222249
51
106.9026668
0
ARC
8
DEFAULT_255_2_778
10
118.416412
20
143.3085254
40
3.0062456
50
106.9135272
51
116.856225
0
ARC
8
DEFAULT_255_2_778
10
118.431245
20
143.2774513
40
3.0406689
50
116.8410624
51
117.507146
0
ARC
8
DEFAULT_255_2_778
10
116.9806692
20
146.063682
40
0.1005496
50
270.012257
51
297.3626876
0
ARC
8
DEFAULT_255_2_778
10
116.9806857
20
146.0633637
40
0.1002313
50
268.0273299
51
270.0028724
0
ARC
8
DEFAULT_255_2_778
10
116.980708
20
146.0636701
40
0.1005382
50
252.5050115
51
268.0206359
0
ARC
8
DEFAULT_255_2_778
10
116.6230922
20
145.9677707
40
0.0985846
50
72.2885847
51
87.4008414
0
ARC
8
DEFAULT_255_2_778
10
116.6230315
20
145.9672083
40
0.0991491
50
87.3805327
51
90.0040586
0
ARC
8
DEFAULT_255_2_778
10
116.6230641
20
145.9660537
40
0.1003037
50
90.0226017
51
123.9249998
0
ARC
8
DEFAULT_255_2_778
10
116.6227506
20
145.9666265
40
0.0996533
50
123.9592581
51
175.6515215
0
ARC
8
DEFAULT_255_2_778
10
115.9933665
20
145.6090926
40
0.5001411
50
277.4579306
51
355.5264814
0
ARC
8
DEFAULT_255_2_778
10
115.6693262
20
144.9616767
40
0.0996113
50
97.291428
51
149.0656505
0
ARC
8
DEFAULT_255_2_778
10
115.6699467
20
144.9614612
40
0.1002544
50
149.1423346
51
180.0206095
0
ARC
8
DEFAULT_255_2_778
10
115.6702063
20
144.9614199
40
0.1005139
50
179.9970184
51
181.9160562
0
ARC
8
DEFAULT_255_2_778
10
115.6705139
20
144.9614416
40
0.1008219
50
181.9225263
51
200.3487671
0
ARC
8
DEFAULT_255_2_778
10
115.5896352
20
144.5987766
40
0.1022137
50
1.2105379
51
20.3264629
0
ARC
8
DEFAULT_255_2_778
10
115.5909435
20
144.5988971
40
0.1009033
50
0.0057035
51
1.1578168
0
ARC
8
DEFAULT_255_2_778
10
115.5936665
20
144.5987656
40
0.0981804
50
335.3276874
51
0.08258
0
ARC
8
DEFAULT_255_2_778
10
78.8097946
20
11.4154996
40
0.8414133
50
132.9541667
51
180.1441701
0
ARC
8
DEFAULT_255_2_778
10
78.8102514
20
11.4160984
40
0.8412868
50
89.8547661
51
133.0047274
0
ARC
8
DEFAULT_255_2_778
10
78.8145011
20
11.4159718
40
0.8414133
50
42.9541667
51
90.1441701
0
ARC
8
DEFAULT_255_2_778
10
78.8150999
20
11.4155149
40
0.8412868
50
359.8547661
51
43.0047274
0
ARC
8
DEFAULT_255_2_778
10
78.8149733
20
11.4112652
40
0.8414133
50
312.9541667
51
0.1441701
0
ARC
8
DEFAULT_255_2_778
10
78.8145164
20
11.4106664
40
0.8412868
50
269.8547661
51
313.0047274
0
ARC
8
DEFAULT_255_2_778
10
78.8102667
20
11.4107931
40
0.8414133
50
222.9541667
51
270.1441701
0
ARC
8
DEFAULT_255_2_778
10
78.8096679
20
11.4112499
40
0.8412868
50
179.8547661
51
223.0047274
0
ARC
8
DEFAULT_255_2_778
10
78.8092646
20
11.4159994
40
0.9980841
50
141.1751997
51
180.1502289
0
ARC
8
DEFAULT_255_2_778
10
78.8094408
20
11.4166553
40
0.9978103
50
93.2135685
51
141.210881
0
ARC
8
DEFAULT_255_2_778
10
78.8123208
20
11.3877461
40
1.0268363
50
89.9964796
51
93.283594
0
ARC
8
DEFAULT_255_2_778
10
78.8148626
20
11.4165777
40
0.9980078
50
50.484279
51
90.1422998
0
ARC
8
DEFAULT_255_2_778
10
78.8156405
20
11.4161598
40
0.9978355
50
3.1769827
51
50.5340045
0
ARC
8
DEFAULT_255_2_778
10
78.7877648
20
11.4134492
40
1.0258192
50
359.9962722
51
3.241861
0
ARC
8
DEFAULT_255_2_778
10
78.8156269
20
11.4109258
40
0.99796
50
320.4803783
51
0.1410402
0
ARC
8
DEFAULT_255_2_778
10
78.8150952
20
11.4101891
40
0.9979017
50
273.1800055
51
320.5324366
0
ARC
8
DEFAULT_255_2_778
10
78.8124502
20
11.4376755
40
1.0254931
50
269.9963001
51
273.2423726
0
ARC
8
DEFAULT_255_2_778
10
78.8098907
20
11.4101515
40
0.9979722
50
230.5667877
51
270.1431442
0
ARC
8
DEFAULT_255_2_778
10
78.8091805
20
11.4106277
40
0.9978893
50
183.1833029
51
230.615648
0
ARC
8
DEFAULT_255_2_778
10
78.8369379
20
11.4133188
40
1.025754
50
179.9964471
51
183.2472916
0
LINE
8
DEFAULT_255_2_778
10
116.4265839
20
143.3134824
11
116.4265839
21
143.3134824
0
LINE
8
DEFAULT_255_2_778
10
116.9504839
20
145.9677824
11
116.6530839
21
146.0616824
0
LINE
8
DEFAULT_255_2_778
10
116.5233839
20
145.9741824
11
116.4919839
21
145.5700824
0
LINE
8
DEFAULT_255_2_778
10
116.0582839
20
145.1131824
11
115.6566839
21
145.0604824
0
LINE
8
DEFAULT_255_2_778
10
115.5759839
20
144.9263824
11
115.6854839
21
144.6342824
0
LINE
8
DEFAULT_255_2_778
10
77.9683839
20
11.4133824
11
77.9683839
21
11.4133824
0
LINE
8
DEFAULT_255_2_778
10
77.8111839
20
11.4133824
11
77.8111839
21
11.4133824
0
ARC
8
DEFAULT_255_2_778
10
76.2906447
20
10.973933
40
0.510492
50
248.7527996
51
267.3040408
0
ARC
8
DEFAULT_255_2_778
10
76.2906576
20
10.9743158
40
0.5108751
50
267.3046146
51
269.9998323
0
ARC
8
DEFAULT_255_2_778
10
76.2908229
20
10.9737073
40
0.5102665
50
269.981268
51
309.4060422
0
ARC
8
DEFAULT_255_2_778
10
76.2905729
20
10.9741674
40
0.5107807
50
309.3949511
51
359.9931199
0
ARC
8
DEFAULT_255_2_778
10
76.2909551
20
10.9740938
40
0.5103985
50
0.0013706
51
7.1634968
0
ARC
8
DEFAULT_255_2_778
10
76.2894404
20
10.9739212
40
0.5119229
50
7.1615276
51
10.0256535
0
ARC
8
DEFAULT_255_2_778
10
78.7533408
20
11.4134768
40
1.9908792
50
184.1555215
51
190.1380455
0
ARC
8
DEFAULT_255_2_778
10
78.751661
20
11.4133253
40
1.9891926
50
180.0001411
51
184.1546768
0
ARC
8
DEFAULT_255_2_778
10
78.752516
20
11.4132893
40
1.9900475
50
145.1366857
51
179.999104
0
ARC
8
DEFAULT_255_2_778
10
78.7518553
20
11.4137794
40
1.9892251
50
100.1223887
51
145.1373913
0
LINE
8
DEFAULT_255_2_778
10
126.0671462
20
122.7942414
11
125.7697462
21
125.4977414
0
ENDSEC
0
EOF