0
SECTION
2
HEADER
9
$MEASUREMENT
70
1
0
ENDSEC
0
SECTION
2
TABLES
0
TABLE
2
LTYPE
0
LTYPE
72
65
70
64
2
CONTINUOUS
3
______
73
0
40
0
0
ENDTAB
0
TABLE
2
LAYER
0
LAYER
2
DEFAULT_255_2_778
70
0
62
255
6
CONTINUOUS
0
LAYER
2
DEFAULT_255_2_778_2
70
0
62
255
6
CONTINUOUS
0
ENDTAB
0
ENDSEC
0
SECTION
2
ENTITIES
0
LINE
8
DEFAULT_255_2_778
10
2.0817802
20
15.5228478
11
2.0817802
21
9.6840478
0
LINE
8
DEFAULT_255_2_778
10
2.0817802
20
9.6840478
11
4.1425802
21
8.5161478
0
LINE
8
DEFAULT_255_2_778
10
4.1425802
20
8.5161478
11
4.1425802
21
14.3549478
0
LINE
8
DEFAULT_255_2_778
10
4.1425802
20
14.3549478
11
2.0817802
21
15.5228478
0
LINE
8
DEFAULT_255_2_778
10
6.2036084
20
17.8585739
11
8.2645084
21
16.6906739
0
LINE
8
DEFAULT_255_2_778
10
8.2645084
20
16.6906739
11
4.1425084
21
14.3552739
0
LINE
8
DEFAULT_255_2_778
10
4.1425084
20
14.3552739
11
2.0817084
21
15.5230739
0
LINE
8
DEFAULT_255_2_778
10
2.0817084
20
15.5230739
11
6.2036084
21
17.8585739
0
LINE
8
DEFAULT_255_2_778
10
8.2647282
20
16.6907509
11
8.2647282
21
10.8519509
0
LINE
8
DEFAULT_255_2_778
10
8.2647282
20
10.8519509
11
4.1428282
21
8.5164509
0
LINE
8
DEFAULT_255_2_778
10
4.1428282
20
8.5164509
11
4.1428282
21
14.3552509
0
LINE
8
DEFAULT_255_2_778
10
4.1428282
20
14.3552509
11
8.2647282
21
16.6907509
0
LINE
8
DEFAULT_255_2_778
10
3.8777604
20
13.6837989
11
2.3468604
21
14.5595989
0
LINE
8
DEFAULT_255_2_778
10
2.3468604
20
14.5595989
11
2.3468604
21
14.7931989
0
LINE
8
DEFAULT_255_2_778
10
2.3468604
20
14.7931989
11
3.8777604
21
13.9173989
0
LINE
8
DEFAULT_255_2_778
10
3.8777604
20
13.9173989
11
3.8777604
21
13.6837989
0
LINE
8
DEFAULT_255_2_778
10
3.8777604
20
13.3040989
11
2.3468604
21
14.1798989
0
LINE
8
DEFAULT_255_2_778
10
2.3468604
20
14.1798989
11
2.3468604
21
14.4134989
0
LINE
8
DEFAULT_255_2_778
10
2.3468604
20
14.4134989
11
3.8777604
21
13.5376989
0
LINE
8
DEFAULT_255_2_778
10
3.8777604
20
13.5376989
11
3.8777604
21
13.3040989
0
LINE
8
DEFAULT_255_2_778
10
3.8777604
20
12.9246989
11
2.3468604
21
13.8004989
0
LINE
8
DEFAULT_255_2_778
10
2.3468604
20
13.8004989
11
2.3468604
21
14.0340989
0
LINE
8
DEFAULT_255_2_778
10
2.3468604
20
14.0340989
11
3.8777604
21
13.1582989
0
LINE
8
DEFAULT_255_2_778
10
3.8777604
20
13.1582989
11
3.8777604
21
12.9246989
0
ARC
8
DEFAULT_255_2_778
10
11.3219674
20
7.4283143
40
1.3172523
50
106.0763913
51
111.5429417
0
ARC
8
DEFAULT_255_2_778
10
11.0707129
20
8.0567007
40
0.6405098
50
111.2781522
51
120.6601222
0
ARC
8
DEFAULT_255_2_778
10
10.8718259
20
8.3852758
40
0.2564702
50
119.8717041
51
139.095278
0
ARC
8
DEFAULT_255_2_778
10
10.7557671
20
8.4844728
40
0.1038035
50
138.5308369
51
178.6024783
0
ARC
8
DEFAULT_255_2_778
10
10.7769723
20
8.4923199
40
0.1250908
50
182.4353879
51
218.8099185
0
ARC
8
DEFAULT_255_2_778
10
10.9403097
20
8.611676
40
0.3273072
50
217.1704785
51
231.4925756
0
ARC
8
DEFAULT_255_2_778
10
11.1899931
20
8.915891
40
0.7208455
50
231.0176604
51
238.7261669
0
ARC
8
DEFAULT_255_2_778
10
11.4281986
20
9.2941087
40
1.1677884
50
238.3704726
51
240.9075119
0
ARC
8
DEFAULT_255_2_778
10
12.6820077
20
7.9668926
40
0.6100494
50
241.1122238
51
257.1873116
0
ARC
8
DEFAULT_255_2_778
10
12.6562834
20
7.866114
40
0.5060826
50
257.496926
51
269.9437085
0
ARC
8
DEFAULT_255_2_778
10
12.6490535
20
7.9152566
40
0.5552658
50
270.6947378
51
298.7646716
0
ARC
8
DEFAULT_255_2_778
10
12.4881334
20
8.2236839
40
0.9031011
50
298.2979604
51
311.7600525
0
ARC
8
DEFAULT_255_2_778
10
12.2325277
20
8.5254606
40
1.2984862
50
311.3046615
51
315.7600982
0
LINE
8
DEFAULT_255_2_778
10
12.5775956
20
9.1861532
11
10.9571956
21
8.6940532
0
LINE
8
DEFAULT_255_2_778
10
10.8603956
20
8.2736532
11
12.3872956
21
7.4327532
0
LINE
8
DEFAULT_255_2_778
10
13.1627956
20
7.6195532
11
13.9681956
21
8.4548532
0
LINE
8
DEFAULT_255_2_778
10
13.9681956
20
8.4548532
11
12.5775956
21
9.1861532
0
ARC
8
DEFAULT_255_2_778
10
12.3863257
20
8.3612556
40
1.0740047
50
302.3614421
51
316.3173763
0
ARC
8
DEFAULT_255_2_778
10
12.6395252
20
7.9505392
40
0.5915802
50
274.3718482
51
302.9391586
0
ARC
8
DEFAULT_255_2_778
10
12.6388064
20
7.7505946
40
0.5895971
50
274.4566467
51
303.8006325
0
ARC
8
DEFAULT_255_2_778
10
12.3745911
20
8.1693703
40
1.0846578
50
303.0922588
51
316.6265158
0
LINE
8
DEFAULT_255_2_778
10
13.9684209
20
8.4547802
11
13.1630209
21
7.6194802
0
LINE
8
DEFAULT_255_2_778
10
12.6846209
20
7.3606802
11
12.6846209
21
7.1627802
0
LINE
8
DEFAULT_255_2_778
10
13.1630209
20
7.4244802
11
13.9684209
21
8.2597802
0
LINE
8
DEFAULT_255_2_778
10
13.9684209
20
8.2597802
11
13.9684209
21
8.4547802
0
ARC
8
DEFAULT_255_2_778
10
10.7416169
20
8.4868691
40
0.0896305
50
169.2842531
51
180.0098878
0
ARC
8
DEFAULT_255_2_778
10
10.7963814
20
8.4976392
40
0.1447972
50
184.271796
51
227.0516248
0
ARC
8
DEFAULT_255_2_778
10
11.0724342
20
8.7543525
40
0.521496
50
224.0670322
51
238.0889095
0
ARC
8
DEFAULT_255_2_778
10
11.3894751
20
9.2274776
40
1.090872
50
237.0892887
51
240.9723506
0
ARC
8
DEFAULT_255_2_778
10
12.6626126
20
7.9177554
40
0.5578353
50
240.3970429
51
269.2394252
0
ARC
8
DEFAULT_255_2_778
10
12.6551949
20
7.8548724
40
0.494903
50
270.0015034
51
273.3888237
0
ARC
8
DEFAULT_255_2_778
10
12.6561129
20
7.6414956
40
0.4793992
50
270.001516
51
273.3886343
0
ARC
8
DEFAULT_255_2_778
10
12.6640993
20
7.7068883
40
0.5448501
50
239.4368205
51
269.1614663
0
ARC
8
DEFAULT_255_2_778
10
11.2618211
20
8.820638
40
0.8437471
50
231.5728848
51
241.5718065
0
ARC
8
DEFAULT_255_2_778
10
10.9000033
20
8.3751103
40
0.2699237
50
209.0339118
51
232.9621238
0
ARC
8
DEFAULT_255_2_778
10
10.7597019
20
8.2935734
40
0.1077291
50
180.9147368
51
207.3326498
0
ARC
8
DEFAULT_255_2_778
10
10.7416169
20
8.2918691
40
0.0896304
50
169.2842531
51
180.0098878
0
LINE
8
DEFAULT_255_2_778
10
10.8601494
20
8.2736347
11
12.3870494
21
7.4327347
0
LINE
8
DEFAULT_255_2_778
10
12.6844494
20
7.3608347
11
12.6844494
21
7.1629347
0
LINE
8
DEFAULT_255_2_778
10
12.3870494
20
7.2377347
11
10.8601494
21
8.0786347
0
LINE
8
DEFAULT_255_2_778
10
10.6535494
20
8.3085347
11
10.6521494
21
8.5035347
0
ARC
8
DEFAULT_255_2_778
10
16.1501517
20
7.0444959
40
0.4707862
50
277.8511975
51
299.9176918
0
ARC
8
DEFAULT_255_2_778
10
16.2532707
20
6.8557764
40
0.2558278
50
300.9809601
51
3.3493405
0
ARC
8
DEFAULT_255_2_778
10
16.1300796
20
12.2412704
40
0.3786717
50
358.7519784
51
33.1106669
0
LINE
8
DEFAULT_255_2_778
10
16.5086615
20
6.8707228
11
16.5086615
21
12.2330228
0
LINE
8
DEFAULT_255_2_778
10
16.4472615
20
12.4481228
11
16.0273615
21
12.2330228
0
LINE
8
DEFAULT_255_2_778
10
16.0273615
20
12.2330228
11
16.2146615
21
6.5781228
0
ARC
8
DEFAULT_255_2_778
10
9.134528
20
15.9036744
40
0.4098465
50
114.3634339
51
137.2898521
0
ARC
8
DEFAULT_255_2_778
10
9.0838629
20
16.0048082
40
0.2968515
50
89.9689814
51
113.5077387
0
ARC
8
DEFAULT_255_2_778
10
9.0794688
20
15.9379714
40
0.3637167
50
67.5706581
51
89.2824745
0
ARC
8
DEFAULT_255_2_778
10
9.0291198
20
15.798534
40
0.5118595
50
63.0406972
51
68.3163227
0
ARC
8
DEFAULT_255_2_778
10
16.0732097
20
12.1849432
40
0.4573253
50
35.1860105
51
64.8075108
0
LINE
8
DEFAULT_255_2_778
10
9.2611751
20
16.2547691
11
16.2678751
21
12.5987691
0
LINE
8
DEFAULT_255_2_778
10
16.4469751
20
12.4484691
11
16.0271751
21
12.2333691
0
LINE
8
DEFAULT_255_2_778
10
16.0271751
20
12.2333691
11
8.8333751
21
16.1819691
0
ARC
8
DEFAULT_255_2_778
10
9.0926447
20
10.5938628
40
0.3127192
50
178.9173727
51
246.3666974
0
ARC
8
DEFAULT_255_2_778
10
16.2448091
20
6.9088917
40
0.3475136
50
241.8542553
51
252.6027887
0
ARC
8
DEFAULT_255_2_778
10
16.187907
20
6.7254175
40
0.1554201
50
252.3968502
51
268.8840089
0
ARC
8
DEFAULT_255_2_778
10
16.1852609
20
6.6483327
40
0.0783067
50
269.7212765
51
358.1964505
0
ARC
8
DEFAULT_255_2_778
10
15.9871288
20
6.6968946
40
0.2810706
50
349.5403434
51
0.6475937
0
LINE
8
DEFAULT_255_2_778
10
16.2679814
20
7.4797714
11
8.7799814
21
11.3797714
0
LINE
8
DEFAULT_255_2_778
10
8.7799814
20
11.3797714
11
8.7799814
21
10.5997714
0
LINE
8
DEFAULT_255_2_778
10
8.9672814
20
10.3073714
11
16.0808814
21
6.6024714
0
LINE
8
DEFAULT_255_2_778
10
16.2681814
20
6.7000714
11
16.2679814
21
7.4797714
0
ARC
8
DEFAULT_255_2_778
10
8.9986261
20
16.0675574
40
0.2187865
50
160.2567432
51
182.062652
0
ARC
8
DEFAULT_255_2_778
10
8.8600132
20
16.1188352
40
0.0710145
50
87.3151234
51
161.4179984
0
ARC
8
DEFAULT_255_2_778
10
8.8588691
20
16.0224519
40
0.1673796
50
69.7874262
51
88.469476
0
ARC
8
DEFAULT_255_2_778
10
8.7930718
20
15.8282441
40
0.3723992
50
62.1082139
51
70.6112375
0
ARC
8
DEFAULT_255_2_778
10
15.955518
20
12.1658914
40
0.3127192
50
358.9173727
51
66.3666974
0
LINE
8
DEFAULT_255_2_778
10
8.7799814
20
11.3797828
11
8.7799814
21
16.0596828
0
LINE
8
DEFAULT_255_2_778
10
8.9672814
20
16.1573828
11
16.0808814
21
12.4523828
0
LINE
8
DEFAULT_255_2_778
10
16.2681814
20
12.1599828
11
16.2681814
21
7.4797828
0
LINE
8
DEFAULT_255_2_778
10
16.2681814
20
7.4797828
11
8.7799814
21
11.3797828
0
LINE
8
DEFAULT_255_2_778
10
16.0274522
20
7.8454988
11
16.0274522
21
12.2327988
0
LINE
8
DEFAULT_255_2_778
10
16.0274522
20
12.2327988
11
9.0207522
21
15.8890988
0
LINE
8
DEFAULT_255_2_778
10
9.0207522
20
15.8890988
11
9.0207522
21
11.5017988
0
LINE
8
DEFAULT_255_2_778
10
9.0207522
20
11.5017988
11
16.0274522
21
7.8454988
0
ARC
8
DEFAULT_255_2_778
10
14.5831818
20
4.3394499
40
0.0059405
50
93.3449389
51
130.4583757
0
ARC
8
DEFAULT_255_2_778
10
14.5754908
20
4.3313518
40
0.0158347
50
354.2036689
51
62.3660962
0
ARC
8
DEFAULT_255_2_778
10
14.2981061
20
4.2850392
40
0.2965288
50
359.5808397
51
8.6726934
0
ARC
8
DEFAULT_255_2_778
10
-201.924631
20
-14.4722571
40
218.0268812
50
5.0408814
51
5.0440208
0
ARC
8
DEFAULT_255_2_778
10
232.4425878
20
23.8422695
40
218.0268812
50
185.0408814
51
185.0440208
0
ARC
8
DEFAULT_255_2_778
10
13.9231179
20
3.9960812
40
0.5631762
50
173.4505261
51
179.7997896
0
ARC
8
DEFAULT_255_2_778
10
13.6443543
20
3.9873206
40
0.2846113
50
177.8397171
51
206.5966579
0
ARC
8
DEFAULT_255_2_778
10
13.5429457
20
3.9430375
40
0.1742047
50
208.506009
51
240.6336649
0
ARC
8
DEFAULT_255_2_778
10
14.0516737
20
3.836838
40
0.2910461
50
248.4602489
51
269.7990566
0
ARC
8
DEFAULT_255_2_778
10
14.0433164
20
3.8841071
40
0.3383928
50
271.242308
51
302.6586611
0
ARC
8
DEFAULT_255_2_778
10
13.9442453
20
4.0648519
40
0.5442073
50
301.1710691
51
307.5370814
0
ARC
8
DEFAULT_255_2_778
10
15.4601659
20
4.8804155
40
0.3431088
50
303.6557014
51
312.6722026
0
ARC
8
DEFAULT_255_2_778
10
15.601832
20
4.729446
40
0.1361001
50
311.9011399
51
329.8709105
0
ARC
8
DEFAULT_255_2_778
10
15.6717182
20
4.6890117
40
0.0553598
50
329.7593065
51
358.559762
0
ARC
8
DEFAULT_255_2_778
10
15.6768051
20
4.6854465
40
0.0503024
50
2.4766839
51
49.2554174
0
ARC
8
DEFAULT_255_2_778
10
15.6388125
20
4.6508664
40
0.1014889
50
45.744995
51
47.017103
0
ARC
8
DEFAULT_255_2_778
10
15.6299708
20
4.6413778
40
0.1144584
50
47.017561
51
48.0477125
0
ARC
8
DEFAULT_255_2_778
10
15.6180749
20
4.6281428
40
0.1322538
50
48.0480135
51
48.8605148
0
ARC
8
DEFAULT_255_2_778
10
15.5972922
20
4.604297
40
0.1638851
50
48.8732292
51
49.7606322
0
ARC
8
DEFAULT_255_2_778
10
15.73855
20
4.7788537
40
0.0608135
50
220.7665472
51
234.4115193
0
ARC
8
DEFAULT_255_2_778
10
15.6943327
20
4.7401973
40
0.0021214
50
182.3997735
51
209.7747431
0
ARC
8
DEFAULT_255_2_778
10
15.6949192
20
4.739252
40
0.0028382
50
84.072428
51
162.4371229
0
ARC
8
DEFAULT_255_2_778
10
15.6997689
20
4.7180888
40
0.0244153
50
94.8206168
51
100.7560568
0
LINE
8
DEFAULT_255_2_778
10
13.4575171
20
3.7912177
11
13.9448171
21
3.5661177
0
LINE
8
DEFAULT_255_2_778
10
14.2758171
20
3.6333177
11
15.6503171
21
4.5948177
0
LINE
8
DEFAULT_255_2_778
10
15.6977171
20
4.7424177
11
13.3636171
21
4.0603177
0
ARC
8
DEFAULT_255_2_778
10
16.6189286
20
9.4167264
40
6.4247608
50
242.5183084
51
243.0059668
0
ARC
8
DEFAULT_255_2_778
10
14.1253963
20
4.4745117
40
0.8894302
50
241.6280176
51
256.81769
0
ARC
8
DEFAULT_255_2_778
10
14.0425076
20
4.1732461
40
0.5773253
50
258.0087808
51
269.9588637
0
ARC
8
DEFAULT_255_2_778
10
14.0411501
20
4.1925222
40
0.596602
50
270.0905581
51
281.0317085
0
ARC
8
DEFAULT_255_2_778
10
14.0257828
20
4.2757172
40
0.6812008
50
280.9613781
51
286.6115352
0
ARC
8
DEFAULT_255_2_778
10
13.4248645
20
4.9553646
40
1.5519068
50
300.8437671
51
316.7797075
0
ARC
8
DEFAULT_255_2_778
10
12.40767
20
5.974283
40
2.9912763
50
315.8998722
51
319.8330451
0
ARC
8
DEFAULT_255_2_778
10
11.7339699
20
6.5560534
40
3.8813612
50
319.6850968
51
319.7774041
0
ARC
8
DEFAULT_255_2_778
10
11.6386307
20
6.6368939
40
4.0063602
50
319.7751309
51
319.8639575
0
ARC
8
DEFAULT_255_2_778
10
11.3496424
20
6.8804044
40
4.3842643
50
319.8654681
51
319.9460366
0
ARC
8
DEFAULT_255_2_778
10
11.7063904
20
6.5805552
40
3.91824
50
319.9452415
51
320.0332923
0
ARC
8
DEFAULT_255_2_778
10
11.2124464
20
6.9946677
40
4.5628096
50
320.0320109
51
320.105856
0
ARC
8
DEFAULT_255_2_778
10
11.3566501
20
6.8741836
40
4.3748972
50
320.1052149
51
320.1804265
0
ARC
8
DEFAULT_255_2_778
10
11.2566137
20
6.9578772
40
4.5053267
50
320.177608
51
320.2489255
0
ARC
8
DEFAULT_255_2_778
10
10.7487852
20
7.3798328
40
5.1655812
50
320.2524823
51
320.313218
0
ARC
8
DEFAULT_255_2_778
10
11.2674834
20
6.9495742
40
4.4916598
50
320.3115405
51
320.3797383
0
ARC
8
DEFAULT_255_2_778
10
10.6741953
20
7.4408503
40
5.2619473
50
320.3787986
51
320.4356339
0
ARC
8
DEFAULT_255_2_778
10
10.8952307
20
7.2585048
40
4.975405
50
320.4331535
51
320.4918347
0
ARC
8
DEFAULT_255_2_778
10
9.9902694
20
8.0043829
40
6.1481321
50
320.4942151
51
320.5405728
0
ARC
8
DEFAULT_255_2_778
10
10.7530645
20
7.3765172
40
5.1601686
50
320.5403384
51
320.5942544
0
ARC
8
DEFAULT_255_2_778
10
10.2611758
20
7.7808152
40
5.7968876
50
320.5929295
51
320.6397764
0
ARC
8
DEFAULT_255_2_778
10
9.8749666
20
8.0975387
40
6.2963587
50
320.6402234
51
320.6823212
0
ARC
8
DEFAULT_255_2_778
10
9.9900466
20
8.0032505
40
6.1475848
50
320.6825881
51
320.7246702
0
ARC
8
DEFAULT_255_2_778
10
9.2291087
20
8.6254566
40
7.1305227
50
320.7250899
51
320.7604992
0
ARC
8
DEFAULT_255_2_778
10
9.3132319
20
8.556566
40
7.0217909
50
320.7616667
51
320.7967586
0
ARC
8
DEFAULT_255_2_778
10
9.3841615
20
8.4987954
40
6.9303117
50
320.7962144
51
320.8309123
0
ARC
8
DEFAULT_255_2_778
10
7.9946161
20
9.6307513
40
8.722562
50
320.831329
51
320.8715949
0
ARC
8
DEFAULT_255_2_778
10
8.2054414
20
9.4595431
40
8.4509751
50
320.8700254
51
320.9100802
0
ARC
8
DEFAULT_255_2_778
10
7.1940352
20
10.2815942
40
9.754321
50
320.9082609
51
320.9417045
0
ARC
8
DEFAULT_255_2_778
10
5.4426658
20
11.7028122
40
12.0097932
50
320.9415783
51
320.9677539
0
ARC
8
DEFAULT_255_2_778
10
20.5211042
20
-0.4839928
40
7.3778034
50
140.4870097
51
141.1941616
0
ARC
8
DEFAULT_255_2_778
10
15.1891564
20
3.9210403
40
0.4616323
50
134.7545361
51
141.222773
0
ARC
8
DEFAULT_255_2_778
10
14.916054
20
4.1935958
40
0.0758265
50
127.7560015
51
133.2131671
0
ARC
8
DEFAULT_255_2_778
10
14.4831625
20
4.704909
40
0.5942069
50
310.5705839
51
311.0073718
0
ARC
8
DEFAULT_255_2_778
10
14.2863757
20
4.931345
40
0.8942042
50
311.0024343
51
311.3015181
0
ARC
8
DEFAULT_255_2_778
10
91.441174
20
-81.9874903
40
115.3286404
50
131.5727642
51
131.5966098
0
ARC
8
DEFAULT_255_2_778
10
16.1991863
20
2.8355956
40
1.9429627
50
129.0371069
51
131.4712365
0
ARC
8
DEFAULT_255_2_778
10
15.9579217
20
3.1320878
40
1.5607118
50
124.7701003
51
129.0128145
0
ARC
8
DEFAULT_255_2_778
10
15.8924992
20
3.2245658
40
1.4474369
50
123.0115929
51
124.7304241
0
ARC
8
DEFAULT_255_2_778
10
15.8296293
20
3.3247839
40
1.3291472
50
115.0320034
51
123.0926119
0
ARC
8
DEFAULT_255_2_778
10
15.7614057
20
3.4721319
40
1.1667726
50
103.5312852
51
115.0580825
0
ARC
8
DEFAULT_255_2_778
10
15.7411463
20
3.5492992
40
1.0870083
50
95.0149177
51
103.4447495
0
ARC
8
DEFAULT_255_2_778
10
15.6127078
20
4.7502015
40
0.1226938
50
285.805046
51
317.3139669
0
ARC
8
DEFAULT_255_2_778
10
15.6647537
20
4.7006043
40
0.0508234
50
318.6351993
51
354.8533603
0
ARC
8
DEFAULT_255_2_778
10
15.6744646
20
4.6986429
40
0.0409899
50
356.3663962
51
359.9983023
0
ARC
8
DEFAULT_255_2_778
10
15.6611764
20
4.6950806
40
0.0543949
50
3.7536642
51
60.4216549
0
ARC
8
DEFAULT_255_2_778
10
15.6242485
20
4.6491167
40
0.1129909
50
55.6357599
51
62.7264578
0
ARC
8
DEFAULT_255_2_778
10
11.7220443
20
-1.7585355
40
7.6150571
50
58.719253
51
59.1049874
0
ARC
8
DEFAULT_255_2_778
10
13.786615
20
1.6912033
40
3.594715
50
59.1098085
51
60.4562533
0
ARC
8
DEFAULT_255_2_778
10
14.2067488
20
2.4337464
40
2.7415549
50
60.4430588
51
63.0794356
0
ARC
8
DEFAULT_255_2_778
10
14.3616504
20
2.7339465
40
2.4037544
50
63.1318435
51
63.2359776
0
ARC
8
DEFAULT_255_2_778
10
14.5538049
20
3.1323263
40
1.9615386
50
63.0073115
51
69.9119744
0
ARC
8
DEFAULT_255_2_778
10
14.7966043
20
3.7973483
40
1.25358
50
69.8945265
51
78.6114041
0
ARC
8
DEFAULT_255_2_778
10
14.8841577
20
4.2328599
40
0.809355
50
78.5995402
51
89.6000971
0
ARC
8
DEFAULT_255_2_778
10
14.889652
20
4.4059032
40
0.6362921
50
89.9860729
51
92.3803078
0
ARC
8
DEFAULT_255_2_778
10
15.4617353
20
1.4936888
40
3.5980851
50
99.5751596
51
101.7862634
0
ARC
8
DEFAULT_255_2_778
10
15.2873317
20
2.3254999
40
2.7481878
50
101.769174
51
104.576687
0
ARC
8
DEFAULT_255_2_778
10
15.1192025
20
2.9709453
40
2.0812042
50
104.5691281
51
107.8436179
0
ARC
8
DEFAULT_255_2_778
10
15.0015833
20
3.3409799
40
1.6929295
50
107.891838
51
109.9970366
0
ARC
8
DEFAULT_255_2_778
10
14.8944346
20
3.6294379
40
1.3852221
50
109.9124772
51
115.1186693
0
ARC
8
DEFAULT_255_2_778
10
14.8686025
20
3.6922827
40
1.3173592
50
115.2616774
51
120.1252006
0
ARC
8
DEFAULT_255_2_778
10
18.6342212
20
-2.7019061
40
8.7379515
50
120.438713
51
121.0207952
0
ARC
8
DEFAULT_255_2_778
10
16.2179923
20
1.0586577
40
4.272081
50
119.241353
51
122.7561513
0
ARC
8
DEFAULT_255_2_778
10
15.460289
20
2.2318653
40
2.8754702
50
122.7076763
51
127.3436673
0
ARC
8
DEFAULT_255_2_778
10
14.820972
20
3.066183
40
1.8243732
50
127.2754622
51
133.4054237
0
ARC
8
DEFAULT_255_2_778
10
14.3089771
20
3.60395
40
1.0818625
50
133.2762406
51
141.8369951
0
ARC
8
DEFAULT_255_2_778
10
13.9173849
20
3.9081836
40
0.585991
50
141.5671656
51
154.4022305
0
ARC
8
DEFAULT_255_2_778
10
13.644275
20
4.0361433
40
0.2844137
50
153.8790725
51
173.7540016
0
ARC
8
DEFAULT_255_2_778
10
13.5323336
20
4.0523069
40
0.1714223
50
175.0538618
51
179.9258843
0
ARC
8
DEFAULT_255_2_778
10
13.5033582
20
4.0523379
40
0.1424469
50
179.9232746
51
184.8693969
0
ARC
8
DEFAULT_255_2_778
10
14.1372857
20
4.0950356
40
0.7777925
50
184.0393738
51
192.4431478
0
ARC
8
DEFAULT_255_2_778
10
13.5539281
20
3.9593857
40
0.1790372
50
190.2770433
51
223.8088593
0
ARC
8
DEFAULT_255_2_778
10
13.704663
20
4.1711071
40
0.4370735
50
230.1722369
51
238.0526302
0
ARC
8
DEFAULT_255_2_778
10
13.6439189
20
4.0780906
40
0.326012
50
238.461194
51
244.9798263
0
ARC
8
DEFAULT_255_2_778
10
13.7305777
20
4.266202
40
0.5331232
50
245.0908101
51
248.1491355
0
ARC
8
DEFAULT_255_2_778
10
12.908362
20
2.1643938
40
1.7238106
50
66.369957
51
68.7850495
0
ARC
8
DEFAULT_255_2_778
10
13.2204864
20
2.901926
40
0.9230605
50
62.0008244
51
65.7696488
0
LINE
8
DEFAULT_255_2_778
10
13.6538253
20
3.7169463
11
13.6541253
21
3.7169463
0
ARC
8
DEFAULT_255_2_778
10
14.054787
20
4.4221005
40
0.7898869
50
238.4186257
51
267.4589451
0
ARC
8
DEFAULT_255_2_778
10
14.0193232
20
4.1686642
40
0.535674
50
270.0474812
51
287.8980376
0
ARC
8
DEFAULT_255_2_778
10
14.0027383
20
4.2258441
40
0.5951864
50
287.725677
51
291.0290857
0
ARC
8
DEFAULT_255_2_778
10
13.6796871
20
4.6817002
40
1.1449476
50
297.949494
51
314.490203
0
ARC
8
DEFAULT_255_2_778
10
13.0756921
20
5.3479267
40
2.0438032
50
313.480623
51
316.8436405
0
ARC
8
DEFAULT_255_2_778
10
12.4024706
20
5.9730541
40
2.9624967
50
316.9297802
51
320.564492
0
ARC
8
DEFAULT_255_2_778
10
11.6268105
20
6.6247582
40
3.9755527
50
320.4112814
51
320.4960328
0
ARC
8
DEFAULT_255_2_778
10
11.3039779
20
6.8908078
40
4.3938866
50
320.4971456
51
320.572669
0
ARC
8
DEFAULT_255_2_778
10
11.2021437
20
6.9741349
40
4.5254674
50
320.5765985
51
320.6482365
0
ARC
8
DEFAULT_255_2_778
10
11.0727523
20
7.0798628
40
4.6925615
50
320.651759
51
320.7192488
0
ARC
8
DEFAULT_255_2_778
10
11.20576
20
6.9709668
40
4.5206623
50
320.7202799
51
320.7887111
0
ARC
8
DEFAULT_255_2_778
10
10.6963203
20
7.3862626
40
5.1779288
50
320.7917994
51
320.850154
0
ARC
8
DEFAULT_255_2_778
10
11.2370633
20
6.9460458
40
4.4806528
50
320.850008
51
320.9158698
0
ARC
8
DEFAULT_255_2_778
10
11.0387712
20
7.1075534
40
4.7363955
50
320.9116329
51
320.9724801
0
ARC
8
DEFAULT_255_2_778
10
10.1870124
20
7.7980666
40
5.8328908
50
320.9717566
51
321.0200058
0
ARC
8
DEFAULT_255_2_778
10
10.8956637
20
7.2246914
40
4.9213285
50
321.0193737
51
321.0752142
0
ARC
8
DEFAULT_255_2_778
10
10.5469135
20
7.5069897
40
5.370014
50
321.0698756
51
321.1198432
0
ARC
8
DEFAULT_255_2_778
10
10.6539358
20
7.4208776
40
5.2326493
50
321.118285
51
321.1683516
0
ARC
8
DEFAULT_255_2_778
10
10.1640187
20
7.8158475
40
5.8619503
50
321.1636252
51
321.2072577
0
ARC
8
DEFAULT_255_2_778
10
9.4451867
20
8.3941587
40
6.7845354
50
321.2039321
51
321.2407358
0
ARC
8
DEFAULT_255_2_778
10
10.4906883
20
7.5549713
40
5.4438977
50
321.2391403
51
321.2839158
0
ARC
8
DEFAULT_255_2_778
10
9.7940073
20
8.1144761
40
6.3374353
50
321.2766017
51
321.3141468
0
ARC
8
DEFAULT_255_2_778
10
8.6801504
20
9.0066899
40
7.7645732
50
321.3124327
51
321.3423449
0
ARC
8
DEFAULT_255_2_778
10
8.6556685
20
9.0265027
40
7.7960674
50
321.3410314
51
321.3701096
0
ARC
8
DEFAULT_255_2_778
10
7.8921775
20
9.6372238
40
8.7737682
50
321.3671418
51
321.4048884
0
ARC
8
DEFAULT_255_2_778
10
6.5853191
20
10.6805943
40
10.4460423
50
321.4035952
51
321.4341588
0
ARC
8
DEFAULT_255_2_778
10
22.1740293
20
-1.7075134
40
9.4656184
50
141.0979227
51
141.6281439
0
ARC
8
DEFAULT_255_2_778
10
15.2649475
20
3.8752008
40
0.5829626
50
136.3613247
51
141.6619715
0
ARC
8
DEFAULT_255_2_778
10
14.9068341
20
4.2151041
40
0.0892311
50
128.229983
51
135.6248798
0
ARC
8
DEFAULT_255_2_778
10
18.7814103
20
-0.2601596
40
6.0086237
50
130.3978955
51
130.8458131
0
ARC
8
DEFAULT_255_2_778
10
16.09993
20
2.8848586
40
1.8756551
50
127.8941094
51
130.2801994
0
ARC
8
DEFAULT_255_2_778
10
15.9857537
20
3.0309301
40
1.6902557
50
124.2437055
51
127.8810888
0
ARC
8
DEFAULT_255_2_778
10
15.9356147
20
3.1040418
40
1.6016039
50
121.5711157
51
124.2327387
0
ARC
8
DEFAULT_255_2_778
10
15.8673874
20
3.2183468
40
1.4684971
50
114.1096134
51
121.6380706
0
ARC
8
DEFAULT_255_2_778
10
15.7833082
20
3.409862
40
1.2593446
50
102.5999457
51
114.177231
0
ARC
8
DEFAULT_255_2_778
10
15.752315
20
3.5376027
40
1.1279219
50
95.020091
51
102.4789892
0
ARC
8
DEFAULT_255_2_778
10
15.623959
20
4.7662762
40
0.1091831
50
285.7611284
51
310.8582452
0
ARC
8
DEFAULT_255_2_778
10
15.6728794
20
4.7096147
40
0.0343251
50
310.970681
51
358.224735
0
ARC
8
DEFAULT_255_2_778
10
15.6725442
20
4.7081252
40
0.0346464
50
0.704762
51
24.9172604
0
ARC
8
DEFAULT_255_2_778
10
15.6271254
20
4.6814103
40
0.0872416
50
28.2639059
51
59.9657962
0
ARC
8
DEFAULT_255_2_778
10
15.5671515
20
4.5973171
40
0.1903153
50
57.004809
51
62.7418076
0
ARC
8
DEFAULT_255_2_778
10
16.4053593
20
6.0074923
40
1.4505629
50
238.7046835
51
238.8178941
0
ARC
8
DEFAULT_255_2_778
10
16.5742407
20
6.2861101
40
1.7763675
50
238.6256227
51
238.7181788
0
ARC
8
DEFAULT_255_2_778
10
16.8363469
20
6.7157098
40
2.2796125
50
238.5504384
51
238.6225975
0
ARC
8
DEFAULT_255_2_778
10
16.8939434
20
6.809877
40
2.3899975
50
238.4815262
51
238.5503419
0
ARC
8
DEFAULT_255_2_778
10
17.0181744
20
7.0120517
40
2.6272903
50
238.4143528
51
238.476905
0
ARC
8
DEFAULT_255_2_778
10
17.3172989
20
7.4985308
40
3.1983749
50
238.3629092
51
238.4142231
0
ARC
8
DEFAULT_255_2_778
10
17.5295659
20
7.8427913
40
3.6028161
50
238.315151
51
238.360618
0
ARC
8
DEFAULT_255_2_778
10
17.4184791
20
7.6630093
40
3.3914827
50
238.2686473
51
238.3168307
0
ARC
8
DEFAULT_255_2_778
10
17.6487296
20
8.0357545
40
3.8296085
50
238.2291992
51
238.2717459
0
ARC
8
DEFAULT_255_2_778
10
19.3048693
20
10.7096593
40
6.9748536
50
238.2049785
51
238.2282602
0
ARC
8
DEFAULT_255_2_778
10
18.8643416
20
9.99847
40
6.1382804
50
238.1759057
51
238.2022593
0
ARC
8
DEFAULT_255_2_778
10
7.1092281
20
-8.8691761
40
16.0916846
50
58.037679
51
58.3069571
0
ARC
8
DEFAULT_255_2_778
10
13.8278413
20
2.0115376
40
3.3038117
50
58.3124529
51
60.2982767
0
ARC
8
DEFAULT_255_2_778
10
14.2572004
20
2.7568776
40
2.4436588
50
60.383712
51
61.367125
0
ARC
8
DEFAULT_255_2_778
10
14.6321201
20
3.4723148
40
1.6361119
50
60.8851025
51
70.8927921
0
ARC
8
DEFAULT_255_2_778
10
14.8655291
20
4.141136
40
0.9277357
50
70.9928559
51
83.8315059
0
ARC
8
DEFAULT_255_2_778
10
14.8982507
20
4.3900925
40
0.6767293
50
84.3209735
51
89.9311498
0
ARC
8
DEFAULT_255_2_778
10
14.8989515
20
4.4531533
40
0.6136681
50
89.9895042
51
92.3661394
0
ARC
8
DEFAULT_255_2_778
10
15.4514785
20
1.6462862
40
3.4684876
50
99.5904012
51
101.7128697
0
ARC
8
DEFAULT_255_2_778
10
15.2898259
20
2.4225339
40
2.6755869
50
101.6978246
51
104.3754651
0
ARC
8
DEFAULT_255_2_778
10
15.1362758
20
3.0208569
40
2.0578751
50
104.3700711
51
107.4602126
0
ARC
8
DEFAULT_255_2_778
10
15.0312982
20
3.3589103
40
1.7039001
50
107.5035888
51
109.4654394
0
ARC
8
DEFAULT_255_2_778
10
14.9391921
20
3.6145404
40
1.4321889
50
109.3991935
51
114.3878441
0
ARC
8
DEFAULT_255_2_778
10
15.0113892
20
3.4710767
40
1.5926758
50
114.6223008
51
119.0406844
0
ARC
8
DEFAULT_255_2_778
10
13.0188648
20
7.0217123
40
2.4788579
50
297.1758471
51
299.466623
0
ARC
8
DEFAULT_255_2_778
10
16.2378831
20
1.0888095
40
4.272081
50
119.241353
51
122.7561513
0
ARC
8
DEFAULT_255_2_778
10
15.4801797
20
2.262017
40
2.8754702
50
122.7076763
51
127.3436673
0
ARC
8
DEFAULT_255_2_778
10
14.8408628
20
3.0963347
40
1.8243732
50
127.2754622
51
133.4054237
0
ARC
8
DEFAULT_255_2_778
10
14.3288679
20
3.6341018
40
1.0818625
50
133.2762406
51
141.8369951
0
ARC
8
DEFAULT_255_2_778
10
13.9372757
20
3.9383353
40
0.585991
50
141.5671656
51
154.4022305
0
ARC
8
DEFAULT_255_2_778
10
13.6641658
20
4.0662951
40
0.2844137
50
153.8790725
51
173.7540016
0
ARC
8
DEFAULT_255_2_778
10
13.5522243
20
4.0824587
40
0.1714223
50
175.0538618
51
179.9258843
0
ARC
8
DEFAULT_255_2_778
10
13.523249
20
4.0824897
40
0.1424469
50
179.9232746
51
184.8693969
0
ARC
8
DEFAULT_255_2_778
10
13.8948544
20
4.1071402
40
0.5148511
50
184.0923643
51
194.8796558
0
ARC
8
DEFAULT_255_2_778
10
13.6707041
20
4.0524163
40
0.2842029
50
195.8213133
51
214.8083051
0
ARC
8
DEFAULT_255_2_778
10
10.4915809
20
1.9607813
40
3.5213886
50
32.8997766
51
33.2237226
0
ARC
8
DEFAULT_255_2_778
10
13.730906
20
4.14337
40
0.3908253
50
223.6711216
51
235.5583424
0
ARC
8
DEFAULT_255_2_778
10
13.735579
20
4.1611325
40
0.408164
50
236.4275874
51
244.5863459
0
ARC
8
DEFAULT_255_2_778
10
14.3140078
20
5.3314355
40
1.7135727
50
243.9102438
51
244.2750126
0
ARC
8
DEFAULT_255_2_778
10
13.3505267
20
3.3036497
40
0.5315752
50
56.8877577
51
65.5875339
0
LINE
8
DEFAULT_255_2_778
10
13.6409161
20
3.7488981
11
13.6411161
21
3.7491981
0
ARC
8
DEFAULT_255_2_778
10
14.9592286
20
4.9098441
40
0.0590256
50
221.181315
51
267.3881601
0
ARC
8
DEFAULT_255_2_778
10
14.9564933
20
4.9036024
40
0.0527227
50
270.0495108
51
276.1091388
0
ARC
8
DEFAULT_255_2_778
10
14.9062623
20
5.1116044
40
0.2663451
50
282.1024232
51
287.3194131
0
ARC
8
DEFAULT_255_2_778
10
14.8429929
20
5.3210966
40
0.4851779
50
287.0873911
51
289.3374447
0
ARC
8
DEFAULT_255_2_778
10
14.7639607
20
5.5450112
40
0.7226306
50
289.3714227
51
292.1035316
0
ARC
8
DEFAULT_255_2_778
10
14.3927152
20
6.458921
40
1.7090657
50
292.1060041
51
292.2736784
0
ARC
8
DEFAULT_255_2_778
10
15.5088585
20
3.6539004
40
1.3100594
50
109.4926598
51
110.9471207
0
ARC
8
DEFAULT_255_2_778
10
14.9046791
20
5.331669
40
0.4732523
50
290.6673945
51
291.4565914
0
ARC
8
DEFAULT_255_2_778
10
15.0142473
20
5.0627509
40
0.1829274
50
290.3272629
51
300.2648379
0
ARC
8
DEFAULT_255_2_778
10
15.071685
20
4.959803
40
0.0651022
50
302.2685378
51
302.9601066
0
ARC
8
DEFAULT_255_2_778
10
15.1122612
20
4.897233
40
0.0094728
50
108.7811617
51
122.9839089
0
ARC
8
DEFAULT_255_2_778
10
15.1629111
20
4.7595936
40
0.156133
50
109.6945513
51
110.1168278
0
ARC
8
DEFAULT_255_2_778
10
15.1100389
20
4.9093912
40
0.0028095
50
275.1952332
51
341.8194461
0
ARC
8
DEFAULT_255_2_778
10
15.1064556
20
4.9066935
40
0.0065124
50
16.2388956
51
59.0569638
0
ARC
8
DEFAULT_255_2_778
10
14.8577865
20
4.6849248
40
0.3394154
50
42.0547571
51
46.9026815
0
ARC
8
DEFAULT_255_2_778
10
15.0242121
20
4.8663635
40
0.0932534
50
45.401484
51
73.943783
0
ARC
8
DEFAULT_255_2_778
10
15.0233618
20
4.6855569
40
0.2717314
50
84.373305
51
89.7287495
0
ARC
8
DEFAULT_255_2_778
10
15.0223583
20
4.8279935
40
0.1293119
50
88.985302
51
103.9551782
0
ARC
8
DEFAULT_255_2_778
10
15.5065801
20
3.0015031
40
2.0188839
50
104.7909499
51
105.0455555
0
ARC
8
DEFAULT_255_2_778
10
15.0670814
20
4.6191747
40
0.3426079
50
104.2919587
51
109.9350681
0
ARC
8
DEFAULT_255_2_778
10
15.0150945
20
4.7650354
40
0.187764
50
110.1975305
51
110.2670979
0
ARC
8
DEFAULT_255_2_778
10
14.9853069
20
4.8283632
40
0.1181913
50
107.3539008
51
131.010091
0
ARC
8
DEFAULT_255_2_778
10
14.9248297
20
4.8979735
40
0.0259792
50
131.1026398
51
165.2701472
0
ARC
8
DEFAULT_255_2_778
10
14.953802
20
4.8943062
40
0.0550645
50
169.2479535
51
179.0904863
0
ARC
8
DEFAULT_255_2_778
10
14.9243206
20
4.8949517
40
0.0255773
50
179.4878432
51
199.9837899
0
ARC
8
DEFAULT_255_2_778
10
14.9628843
20
4.9077477
40
0.0662022
50
198.9851791
51
199.5641687
0
ARC
8
DEFAULT_255_2_778
10
14.9336405
20
4.9073493
40
0.039648
50
213.304605
51
231.7935936
0
ARC
8
DEFAULT_255_2_778
10
14.7325747
20
4.6676136
40
0.2732647
50
49.5840917
51
49.7552842
0
ARC
8
DEFAULT_255_2_778
10
14.8853898
20
4.8461529
40
0.038262
50
40.4545475
51
50.4742549
0
ARC
8
DEFAULT_255_2_778
10
16.271007
20
2.5074329
40
2.4177204
50
126.5068914
51
136.2578414
0
ARC
8
DEFAULT_255_2_778
10
15.6016154
20
3.4120281
40
1.2923858
50
113.7789773
51
126.5119538
0
ARC
8
DEFAULT_255_2_778
10
15.399149
20
3.8608281
40
0.8000608
50
101.2947731
51
113.4697338
0
ARC
8
DEFAULT_255_2_778
10
15.3693059
20
3.9884943
40
0.6690357
50
99.9934668
51
100.9298733
0
ARC
8
DEFAULT_255_2_778
10
15.2362049
20
4.1584005
40
0.4892739
50
88.0089227
51
90.0025704
0
ARC
8
DEFAULT_255_2_778
10
15.2529871
20
3.9990008
40
0.6488912
50
91.4839404
51
118.0449413
0
ARC
8
DEFAULT_255_2_778
10
15.4285855
20
3.6184694
40
1.0675687
50
116.7603765
51
121.6135636
0
ARC
8
DEFAULT_255_2_778
10
15.6579524
20
3.2476022
40
1.5036318
50
121.6488351
51
125.1807375
0
ARC
8
DEFAULT_255_2_778
10
17.7484506
20
0.2898421
40
5.1255817
50
125.2311416
51
125.9539024
0
ARC
8
DEFAULT_255_2_778
10
13.47019
20
6.2049583
40
2.1745785
50
305.4945002
51
305.6967673
0
ARC
8
DEFAULT_255_2_778
10
15.4414338
20
3.6078955
40
1.088759
50
130.606466
51
135.8926488
0
ARC
8
DEFAULT_255_2_778
10
15.0601521
20
3.9754036
40
0.5591991
50
135.7400259
51
144.2510538
0
ARC
8
DEFAULT_255_2_778
10
15.0914904
20
3.9679235
40
0.5891302
50
145.4413711
51
152.9404415
0
ARC
8
DEFAULT_255_2_778
10
14.3496072
20
4.3510215
40
0.2458471
50
323.1272924
51
332.0858106
0
ARC
8
DEFAULT_255_2_778
10
14.3983755
20
4.3177142
40
0.1868666
50
312.2440588
51
322.3245343
0
LINE
8
DEFAULT_255_2_778
10
14.9145042
20
4.870979
11
14.9148042
21
4.870979
0
LINE
8
DEFAULT_255_2_778
10
14.5240042
20
4.179379
11
14.5243042
21
4.179079
0
ARC
8
DEFAULT_255_2_778
10
2.9192341
20
10.0724432
40
0.4289573
50
64.131019
51
74.1204466
0
ARC
8
DEFAULT_255_2_778
10
2.9736444
20
10.2666464
40
0.227279
50
73.9179847
51
89.1865466
0
ARC
8
DEFAULT_255_2_778
10
2.9756446
20
10.3646783
40
0.1292301
50
89.4561972
51
167.4424152
0
ARC
8
DEFAULT_255_2_778
10
3.2122802
20
10.2731074
40
0.3820021
50
161.7438519
51
174.4102188
0
ARC
8
DEFAULT_255_2_778
10
3.4541043
20
10.2704022
40
0.6232891
50
176.3283692
51
179.9633447
0
ARC
8
DEFAULT_255_2_778
10
3.2379605
20
10.2541346
40
0.4074863
50
177.6559255
51
243.1314674
0
ARC
8
DEFAULT_255_2_778
10
3.3568948
20
10.4354327
40
0.6234326
50
240.9106905
51
244.9770447
0
ARC
8
DEFAULT_255_2_778
10
3.2266796
20
10.2416528
40
0.3944114
50
250.2180641
51
260.7097597
0
ARC
8
DEFAULT_255_2_778
10
3.200763
20
10.0913323
40
0.2418825
50
261.0199603
51
269.7337642
0
ARC
8
DEFAULT_255_2_778
10
3.2040087
20
9.9871954
40
0.1378121
50
268.1830054
51
353.5102237
0
ARC
8
DEFAULT_255_2_778
10
3.0314037
20
10.0473634
40
0.3186667
50
346.2496724
51
349.559512
0
ARC
8
DEFAULT_255_2_778
10
2.7487565
20
10.0602978
40
0.6002142
50
353.2371549
51
359.8935227
0
ARC
8
DEFAULT_255_2_778
10
2.9117993
20
10.0656991
40
0.437219
50
359.1459765
51
61.3662531
0
ARC
8
DEFAULT_255_2_778
10
2.7573086
20
9.8607052
40
0.6921848
50
58.2721207
51
59.7134624
0
LINE
8
DEFAULT_255_2_778
10
3.1063945
20
10.4584165
11
3.1063945
21
10.4584165
0
ARC
8
DEFAULT_255_2_778
10
2.9321236
20
10.0790506
40
0.3912686
50
64.0960187
51
74.7996388
0
ARC
8
DEFAULT_255_2_778
10
2.9800943
20
10.2562193
40
0.2077204
50
74.7553978
51
89.278622
0
ARC
8
DEFAULT_255_2_778
10
2.9819455
20
10.3425439
40
0.1213819
50
89.639376
51
168.4555057
0
ARC
8
DEFAULT_255_2_778
10
3.2074755
20
10.257077
40
0.3615206
50
162.32583
51
174.2802106
0
ARC
8
DEFAULT_255_2_778
10
3.4253836
20
10.255881
40
0.5788271
50
176.3125634
51
179.962775
0
ARC
8
DEFAULT_255_2_778
10
3.2267849
20
10.2413004
40
0.3805223
50
177.7473746
51
244.7773442
0
ARC
8
DEFAULT_255_2_778
10
3.3415553
20
10.4209391
40
0.59257
50
242.1389599
51
244.9498968
0
ARC
8
DEFAULT_255_2_778
10
3.2133822
20
10.224511
40
0.3618516
50
250.1740048
51
261.2238049
0
ARC
8
DEFAULT_255_2_778
10
3.1905189
20
10.0866357
40
0.2221078
50
261.6260464
51
269.7705165
0
ARC
8
DEFAULT_255_2_778
10
3.193356
20
9.9935773
40
0.1291015
50
268.3458095
51
354.4258638
0
ARC
8
DEFAULT_255_2_778
10
3.0288689
20
10.0497024
40
0.300917
50
346.8096839
51
349.5082788
0
ARC
8
DEFAULT_255_2_778
10
2.7704697
20
10.0605002
40
0.5581527
50
353.25114
51
359.8943363
0
ARC
8
DEFAULT_255_2_778
10
2.919764
20
10.0649356
40
0.4088941
50
359.234234
51
62.2661946
0
ARC
8
DEFAULT_255_2_778
10
2.7724494
20
9.8661126
40
0.6545274
50
58.9496613
51
59.6616399
0
LINE
8
DEFAULT_255_2_778
10
3.1030548
20
10.4310074
11
3.1030548
21
10.4310074
0
ARC
8
DEFAULT_255_2_778
10
2.9003236
20
10.0642506
40
0.3912686
50
64.0960187
51
74.7996388
0
ARC
8
DEFAULT_255_2_778
10
2.9482943
20
10.2414193
40
0.2077204
50
74.7553978
51
89.278622
0
ARC
8
DEFAULT_255_2_778
10
2.9501455
20
10.3277439
40
0.1213819
50
89.639376
51
168.4555057
0
ARC
8
DEFAULT_255_2_778
10
3.1756755
20
10.242277
40
0.3615206
50
162.32583
51
174.2802106
0
ARC
8
DEFAULT_255_2_778
10
3.3935836
20
10.241081
40
0.5788271
50
176.3125634
51
179.962775
0
ARC
8
DEFAULT_255_2_778
10
3.1949849
20
10.2265004
40
0.3805223
50
177.7473746
51
244.7773442
0
ARC
8
DEFAULT_255_2_778
10
3.3097553
20
10.4061391
40
0.59257
50
242.1389599
51
244.9498968
0
ARC
8
DEFAULT_255_2_778
10
3.1815822
20
10.209711
40
0.3618516
50
250.1740048
51
261.2238049
0
ARC
8
DEFAULT_255_2_778
10
3.1587189
20
10.0718357
40
0.2221078
50
261.6260464
51
269.7705165
0
ARC
8
DEFAULT_255_2_778
10
3.161556
20
9.9787773
40
0.1291015
50
268.3458095
51
354.4258638
0
ARC
8
DEFAULT_255_2_778
10
2.9970689
20
10.0349024
40
0.300917
50
346.8096839
51
349.5082788
0
ARC
8
DEFAULT_255_2_778
10
2.7386697
20
10.0457002
40
0.5581527
50
353.25114
51
359.8943363
0
ARC
8
DEFAULT_255_2_778
10
2.887964
20
10.0501356
40
0.4088941
50
359.234234
51
62.2661946
0
ARC
8
DEFAULT_255_2_778
10
2.7406494
20
9.8513126
40
0.6545274
50
58.9496613
51
59.6616399
0
LINE
8
DEFAULT_255_2_778
10
3.0712548
20
10.4162074
11
3.0712548
21
10.4162074
0
LINE
8
DEFAULT_255_2_778
10
10.0110386
20
4.6807614
11
5.0403386
21
7.3765614
0
LINE
8
DEFAULT_255_2_778
10
5.0403386
20
7.3765614
11
7.1321386
21
8.4920614
0
LINE
8
DEFAULT_255_2_778
10
7.1321386
20
8.4920614
11
12.1028386
21
5.8194614
0
LINE
8
DEFAULT_255_2_778
10
12.1028386
20
5.8194614
11
10.0110386
21
4.6807614
0
LINE
8
DEFAULT_255_2_778
10
12.1709219
20
5.7954656
11
10.0317219
21
4.6307656
0
LINE
8
DEFAULT_255_2_778
10
10.0317219
20
4.6307656
11
10.0317219
21
4.4405656
0
LINE
8
DEFAULT_255_2_778
10
10.0317219
20
4.4405656
11
12.1709219
21
5.6052656
0
LINE
8
DEFAULT_255_2_778
10
12.1709219
20
5.6052656
11
12.1709219
21
5.7954656
0
LINE
8
DEFAULT_255_2_778
10
10.0317157
20
4.4404968
11
10.0317157
21
4.6306968
0
LINE
8
DEFAULT_255_2_778
10
10.0317157
20
4.6306968
11
4.9477157
21
7.3876968
0
LINE
8
DEFAULT_255_2_778
10
4.9477157
20
7.3876968
11
4.9477157
21
7.1974968
0
LINE
8
DEFAULT_255_2_778
10
4.9477157
20
7.1974968
11
10.0317157
21
4.4404968
0
LINE
8
DEFAULT_255_2_778
10
10.0317376
20
4.6308208
11
4.9477376
21
7.3877208
0
LINE
8
DEFAULT_255_2_778
10
4.9477376
20
7.3877208
11
7.0869376
21
8.5286208
0
LINE
8
DEFAULT_255_2_778
10
7.0869376
20
8.5286208
11
12.1708376
21
5.7955208
0
LINE
8
DEFAULT_255_2_778
10
12.1708376
20
5.7955208
11
10.0317376
21
4.6308208
0
LINE
8
DEFAULT_255_2_778
10
6.9109376
20
6.4371208
11
8.6222376
21
5.5102208
0
LINE
8
DEFAULT_255_2_778
10
8.6222376
20
5.5102208
11
8.9241376
21
5.6767208
0
LINE
8
DEFAULT_255_2_778
10
8.9241376
20
5.6767208
11
7.2128376
21
6.6035208
0
LINE
8
DEFAULT_255_2_778
10
7.2128376
20
6.6035208
11
6.9109376
21
6.4371208
0
LINE
8
DEFAULT_255_2_778
10
11.4914376
20
5.8666208
11
11.7933376
21
5.7002208
0
LINE
8
DEFAULT_255_2_778
10
11.7933376
20
5.7002208
11
11.9695376
21
5.7952208
0
LINE
8
DEFAULT_255_2_778
10
11.9695376
20
5.7952208
11
11.6676376
21
5.9616208
0
LINE
8
DEFAULT_255_2_778
10
11.6676376
20
5.9616208
11
11.4914376
21
5.8666208
0
LINE
8
DEFAULT_255_2_778
10
11.1389376
20
6.0569208
11
11.4408376
21
5.8904208
0
LINE
8
DEFAULT_255_2_778
10
11.4408376
20
5.8904208
11
11.6171376
21
5.9854208
0
LINE
8
DEFAULT_255_2_778
10
11.6171376
20
5.9854208
11
11.3152376
21
6.1518208
0
LINE
8
DEFAULT_255_2_778
10
11.3152376
20
6.1518208
11
11.1389376
21
6.0569208
0
LINE
8
DEFAULT_255_2_778
10
10.7865376
20
6.2471208
11
11.0884376
21
6.0807208
0
LINE
8
DEFAULT_255_2_778
10
11.0884376
20
6.0807208
11
11.2646376
21
6.1757208
0
LINE
8
DEFAULT_255_2_778
10
11.2646376
20
6.1757208
11
10.9627376
21
6.3421208
0
LINE
8
DEFAULT_255_2_778
10
10.9627376
20
6.3421208
11
10.7865376
21
6.2471208
0
LINE
8
DEFAULT_255_2_778
10
10.4341376
20
6.4373208
11
10.7360376
21
6.2709208
0
LINE
8
DEFAULT_255_2_778
10
10.7360376
20
6.2709208
11
10.9122376
21
6.3659208
0
LINE
8
DEFAULT_255_2_778
10
10.9122376
20
6.3659208
11
10.6103376
21
6.5323208
0
LINE
8
DEFAULT_255_2_778
10
10.6103376
20
6.5323208
11
10.4341376
21
6.4373208
0
LINE
8
DEFAULT_255_2_778
10
10.0817376
20
6.6276208
11
10.3836376
21
6.4611208
0
LINE
8
DEFAULT_255_2_778
10
10.3836376
20
6.4611208
11
10.5598376
21
6.5561208
0
LINE
8
DEFAULT_255_2_778
10
10.5598376
20
6.5561208
11
10.2579376
21
6.7226208
0
LINE
8
DEFAULT_255_2_778
10
10.2579376
20
6.7226208
11
10.0817376
21
6.6276208
0
LINE
8
DEFAULT_255_2_778
10
9.7292376
20
6.8178208
11
10.0311376
21
6.6514208
0
LINE
8
DEFAULT_255_2_778
10
10.0311376
20
6.6514208
11
10.2074376
21
6.7464208
0
LINE
8
DEFAULT_255_2_778
10
10.2074376
20
6.7464208
11
9.9055376
21
6.9128208
0
LINE
8
DEFAULT_255_2_778
10
9.9055376
20
6.9128208
11
9.7292376
21
6.8178208
0
LINE
8
DEFAULT_255_2_778
10
9.3768376
20
7.0080208
11
9.6787376
21
6.8416208
0
LINE
8
DEFAULT_255_2_778
10
9.6787376
20
6.8416208
11
9.8549376
21
6.9366208
0
LINE
8
DEFAULT_255_2_778
10
9.8549376
20
6.9366208
11
9.5530376
21
7.1030208
0
LINE
8
DEFAULT_255_2_778
10
9.5530376
20
7.1030208
11
9.3768376
21
7.0080208
0
LINE
8
DEFAULT_255_2_778
10
9.0244376
20
7.1983208
11
9.3263376
21
7.0319208
0
LINE
8
DEFAULT_255_2_778
10
9.3263376
20
7.0319208
11
9.5025376
21
7.1268208
0
LINE
8
DEFAULT_255_2_778
10
9.5025376
20
7.1268208
11
9.2006376
21
7.2933208
0
LINE
8
DEFAULT_255_2_778
10
9.2006376
20
7.2933208
11
9.0244376
21
7.1983208
0
LINE
8
DEFAULT_255_2_778
10
8.6720376
20
7.3885208
11
8.9739376
21
7.2221208
0
LINE
8
DEFAULT_255_2_778
10
8.9739376
20
7.2221208
11
9.1501376
21
7.3171208
0
LINE
8
DEFAULT_255_2_778
10
9.1501376
20
7.3171208
11
8.8482376
21
7.4835208
0
LINE
8
DEFAULT_255_2_778
10
8.8482376
20
7.4835208
11
8.6720376
21
7.3885208
0
LINE
8
DEFAULT_255_2_778
10
8.3195376
20
7.5787208
11
8.6214376
21
7.4123208
0
LINE
8
DEFAULT_255_2_778
10
8.6214376
20
7.4123208
11
8.7977376
21
7.5073208
0
LINE
8
DEFAULT_255_2_778
10
8.7977376
20
7.5073208
11
8.4958376
21
7.6737208
0
LINE
8
DEFAULT_255_2_778
10
8.4958376
20
7.6737208
11
8.3195376
21
7.5787208
0
LINE
8
DEFAULT_255_2_778
10
7.9671376
20
7.7690208
11
8.2690376
21
7.6026208
0
LINE
8
DEFAULT_255_2_778
10
8.2690376
20
7.6026208
11
8.4452376
21
7.6975208
0
LINE
8
DEFAULT_255_2_778
10
8.4452376
20
7.6975208
11
8.1433376
21
7.8640208
0
LINE
8
DEFAULT_255_2_778
10
8.1433376
20
7.8640208
11
7.9671376
21
7.7690208
0
LINE
8
DEFAULT_255_2_778
10
7.6147376
20
7.9592208
11
7.9166376
21
7.7928208
0
LINE
8
DEFAULT_255_2_778
10
7.9166376
20
7.7928208
11
8.0928376
21
7.8878208
0
LINE
8
DEFAULT_255_2_778
10
8.0928376
20
7.8878208
11
7.7909376
21
8.0542208
0
LINE
8
DEFAULT_255_2_778
10
7.7909376
20
8.0542208
11
7.6147376
21
7.9592208
0
LINE
8
DEFAULT_255_2_778
10
7.2623376
20
8.1495208
11
7.5642376
21
7.9830208
0
LINE
8
DEFAULT_255_2_778
10
7.5642376
20
7.9830208
11
7.7404376
21
8.0780208
0
LINE
8
DEFAULT_255_2_778
10
7.7404376
20
8.0780208
11
7.4385376
21
8.2444208
0
LINE
8
DEFAULT_255_2_778
10
7.4385376
20
8.2444208
11
7.2623376
21
8.1495208
0
LINE
8
DEFAULT_255_2_778
10
6.9098376
20
8.3397208
11
7.2117376
21
8.1733208
0
LINE
8
DEFAULT_255_2_778
10
7.2117376
20
8.1733208
11
7.3880376
21
8.2683208
0
LINE
8
DEFAULT_255_2_778
10
7.3880376
20
8.2683208
11
7.0861376
21
8.4347208
0
LINE
8
DEFAULT_255_2_778
10
7.0861376
20
8.4347208
11
6.9098376
21
8.3397208
0
LINE
8
DEFAULT_255_2_778
10
10.9114376
20
5.7965208
11
11.4400376
21
5.5113208
0
LINE
8
DEFAULT_255_2_778
10
11.4400376
20
5.5113208
11
11.7419376
21
5.6777208
0
LINE
8
DEFAULT_255_2_778
10
11.7419376
20
5.6777208
11
11.2133376
21
5.9629208
0
LINE
8
DEFAULT_255_2_778
10
11.2133376
20
5.9629208
11
10.9114376
21
5.7965208
0
LINE
8
DEFAULT_255_2_778
10
10.5590376
20
5.9867208
11
10.8609376
21
5.8203208
0
LINE
8
DEFAULT_255_2_778
10
10.8609376
20
5.8203208
11
11.1628376
21
5.9867208
0
LINE
8
DEFAULT_255_2_778
10
11.1628376
20
5.9867208
11
10.8609376
21
6.1532208
0
LINE
8
DEFAULT_255_2_778
10
10.8609376
20
6.1532208
11
10.5590376
21
5.9867208
0
LINE
8
DEFAULT_255_2_778
10
10.2066376
20
6.1770208
11
10.5084376
21
6.0106208
0
LINE
8
DEFAULT_255_2_778
10
10.5084376
20
6.0106208
11
10.8103376
21
6.1770208
0
LINE
8
DEFAULT_255_2_778
10
10.8103376
20
6.1770208
11
10.5084376
21
6.3434208
0
LINE
8
DEFAULT_255_2_778
10
10.5084376
20
6.3434208
11
10.2066376
21
6.1770208
0
LINE
8
DEFAULT_255_2_778
10
9.8541376
20
6.3672208
11
10.1560376
21
6.2008208
0
LINE
8
DEFAULT_255_2_778
10
10.1560376
20
6.2008208
11
10.4579376
21
6.3672208
0
LINE
8
DEFAULT_255_2_778
10
10.4579376
20
6.3672208
11
10.1560376
21
6.5336208
0
LINE
8
DEFAULT_255_2_778
10
10.1560376
20
6.5336208
11
9.8541376
21
6.3672208
0
LINE
8
DEFAULT_255_2_778
10
9.5017376
20
6.5575208
11
9.8036376
21
6.3910208
0
LINE
8
DEFAULT_255_2_778
10
9.8036376
20
6.3910208
11
10.1055376
21
6.5575208
0
LINE
8
DEFAULT_255_2_778
10
10.1055376
20
6.5575208
11
9.8036376
21
6.7239208
0
LINE
8
DEFAULT_255_2_778
10
9.8036376
20
6.7239208
11
9.5017376
21
6.5575208
0
LINE
8
DEFAULT_255_2_778
10
9.1493376
20
6.7477208
11
9.4512376
21
6.5813208
0
LINE
8
DEFAULT_255_2_778
10
9.4512376
20
6.5813208
11
9.7531376
21
6.7477208
0
LINE
8
DEFAULT_255_2_778
10
9.7531376
20
6.7477208
11
9.4512376
21
6.9141208
0
LINE
8
DEFAULT_255_2_778
10
9.4512376
20
6.9141208
11
9.1493376
21
6.7477208
0
LINE
8
DEFAULT_255_2_778
10
8.7969376
20
6.9379208
11
9.0987376
21
6.7715208
0
LINE
8
DEFAULT_255_2_778
10
9.0987376
20
6.7715208
11
9.4006376
21
6.9379208
0
LINE
8
DEFAULT_255_2_778
10
9.4006376
20
6.9379208
11
9.0987376
21
7.1043208
0
LINE
8
DEFAULT_255_2_778
10
9.0987376
20
7.1043208
11
8.7969376
21
6.9379208
0
LINE
8
DEFAULT_255_2_778
10
8.4444376
20
7.1282208
11
8.7463376
21
6.9617208
0
LINE
8
DEFAULT_255_2_778
10
8.7463376
20
6.9617208
11
9.0482376
21
7.1282208
0
LINE
8
DEFAULT_255_2_778
10
9.0482376
20
7.1282208
11
8.7463376
21
7.2946208
0
LINE
8
DEFAULT_255_2_778
10
8.7463376
20
7.2946208
11
8.4444376
21
7.1282208
0
LINE
8
DEFAULT_255_2_778
10
8.0920376
20
7.3184208
11
8.3939376
21
7.1520208
0
LINE
8
DEFAULT_255_2_778
10
8.3939376
20
7.1520208
11
8.6958376
21
7.3184208
0
LINE
8
DEFAULT_255_2_778
10
8.6958376
20
7.3184208
11
8.3939376
21
7.4848208
0
LINE
8
DEFAULT_255_2_778
10
8.3939376
20
7.4848208
11
8.0920376
21
7.3184208
0
LINE
8
DEFAULT_255_2_778
10
7.7396376
20
7.5086208
11
8.0415376
21
7.3422208
0
LINE
8
DEFAULT_255_2_778
10
8.0415376
20
7.3422208
11
8.3434376
21
7.5086208
0
LINE
8
DEFAULT_255_2_778
10
8.3434376
20
7.5086208
11
8.0433376
21
7.6729208
0
LINE
8
DEFAULT_255_2_778
10
8.0433376
20
7.6729208
11
7.7396376
21
7.5086208
0
LINE
8
DEFAULT_255_2_778
10
7.3872376
20
7.6989208
11
7.6890376
21
7.5324208
0
LINE
8
DEFAULT_255_2_778
10
7.6890376
20
7.5324208
11
7.9909376
21
7.6989208
0
LINE
8
DEFAULT_255_2_778
10
7.9909376
20
7.6989208
11
7.6890376
21
7.8653208
0
LINE
8
DEFAULT_255_2_778
10
7.6890376
20
7.8653208
11
7.3872376
21
7.6989208
0
LINE
8
DEFAULT_255_2_778
10
7.0347376
20
7.8891208
11
7.3366376
21
7.7227208
0
LINE
8
DEFAULT_255_2_778
10
7.3366376
20
7.7227208
11
7.6385376
21
7.8891208
0
LINE
8
DEFAULT_255_2_778
10
7.6385376
20
7.8891208
11
7.3366376
21
8.0555208
0
LINE
8
DEFAULT_255_2_778
10
7.3366376
20
8.0555208
11
7.0347376
21
7.8891208
0
LINE
8
DEFAULT_255_2_778
10
6.5566376
20
8.1505208
11
6.9845376
21
7.9129208
0
LINE
8
DEFAULT_255_2_778
10
6.9845376
20
7.9129208
11
7.2864376
21
8.0793208
0
LINE
8
DEFAULT_255_2_778
10
7.2864376
20
8.0793208
11
6.8585376
21
8.3169208
0
LINE
8
DEFAULT_255_2_778
10
6.8585376
20
8.3169208
11
6.5566376
21
8.1505208
0
LINE
8
DEFAULT_255_2_778
10
10.7344376
20
5.5124208
11
11.0868376
21
5.3221208
0
LINE
8
DEFAULT_255_2_778
10
11.0868376
20
5.3221208
11
11.3887376
21
5.4885208
0
LINE
8
DEFAULT_255_2_778
10
11.3887376
20
5.4885208
11
11.0363376
21
5.6788208
0
LINE
8
DEFAULT_255_2_778
10
11.0363376
20
5.6788208
11
10.7344376
21
5.5124208
0
LINE
8
DEFAULT_255_2_778
10
10.3820376
20
5.7026208
11
10.6839376
21
5.5362208
0
LINE
8
DEFAULT_255_2_778
10
10.6839376
20
5.5362208
11
10.9858376
21
5.7026208
0
LINE
8
DEFAULT_255_2_778
10
10.9858376
20
5.7026208
11
10.6839376
21
5.8690208
0
LINE
8
DEFAULT_255_2_778
10
10.6839376
20
5.8690208
11
10.3820376
21
5.7026208
0
LINE
8
DEFAULT_255_2_778
10
10.0296376
20
5.8928208
11
10.3314376
21
5.7264208
0
LINE
8
DEFAULT_255_2_778
10
10.3314376
20
5.7264208
11
10.6333376
21
5.8928208
0
LINE
8
DEFAULT_255_2_778
10
10.6333376
20
5.8928208
11
10.3314376
21
6.0592208
0
LINE
8
DEFAULT_255_2_778
10
10.3314376
20
6.0592208
11
10.0296376
21
5.8928208
0
LINE
8
DEFAULT_255_2_778
10
9.6771376
20
6.0831208
11
9.9790376
21
5.9166208
0
LINE
8
DEFAULT_255_2_778
10
9.9790376
20
5.9166208
11
10.2809376
21
6.0831208
0
LINE
8
DEFAULT_255_2_778
10
10.2809376
20
6.0831208
11
9.9790376
21
6.2495208
0
LINE
8
DEFAULT_255_2_778
10
9.9790376
20
6.2495208
11
9.6771376
21
6.0831208
0
LINE
8
DEFAULT_255_2_778
10
9.3247376
20
6.2733208
11
9.6266376
21
6.1069208
0
LINE
8
DEFAULT_255_2_778
10
9.6266376
20
6.1069208
11
9.9285376
21
6.2733208
0
LINE
8
DEFAULT_255_2_778
10
9.9285376
20
6.2733208
11
9.6266376
21
6.4397208
0
LINE
8
DEFAULT_255_2_778
10
9.6266376
20
6.4397208
11
9.3247376
21
6.2733208
0
LINE
8
DEFAULT_255_2_778
10
8.9723376
20
6.4635208
11
9.2742376
21
6.2971208
0
LINE
8
DEFAULT_255_2_778
10
9.2742376
20
6.2971208
11
9.5761376
21
6.4635208
0
LINE
8
DEFAULT_255_2_778
10
9.5761376
20
6.4635208
11
9.2742376
21
6.6300208
0
LINE
8
DEFAULT_255_2_778
10
9.2742376
20
6.6300208
11
8.9723376
21
6.4635208
0
LINE
8
DEFAULT_255_2_778
10
8.6199376
20
6.6538208
11
8.9217376
21
6.4873208
0
LINE
8
DEFAULT_255_2_778
10
8.9217376
20
6.4873208
11
9.2236376
21
6.6538208
0
LINE
8
DEFAULT_255_2_778
10
9.2236376
20
6.6538208
11
8.9217376
21
6.8202208
0
LINE
8
DEFAULT_255_2_778
10
8.9217376
20
6.8202208
11
8.6199376
21
6.6538208
0
LINE
8
DEFAULT_255_2_778
10
8.2674376
20
6.8440208
11
8.5693376
21
6.6776208
0
LINE
8
DEFAULT_255_2_778
10
8.5693376
20
6.6776208
11
8.8712376
21
6.8440208
0
LINE
8
DEFAULT_255_2_778
10
8.8712376
20
6.8440208
11
8.5693376
21
7.0104208
0
LINE
8
DEFAULT_255_2_778
10
8.5693376
20
7.0104208
11
8.2674376
21
6.8440208
0
LINE
8
DEFAULT_255_2_778
10
7.9150376
20
7.0342208
11
8.2169376
21
6.8678208
0
LINE
8
DEFAULT_255_2_778
10
8.2169376
20
6.8678208
11
8.5188376
21
7.0342208
0
LINE
8
DEFAULT_255_2_778
10
8.5188376
20
7.0342208
11
8.2169376
21
7.2007208
0
LINE
8
DEFAULT_255_2_778
10
8.2169376
20
7.2007208
11
7.9150376
21
7.0342208
0
LINE
8
DEFAULT_255_2_778
10
7.5626376
20
7.2245208
11
7.8645376
21
7.0580208
0
LINE
8
DEFAULT_255_2_778
10
7.8645376
20
7.0580208
11
8.1664376
21
7.2245208
0
LINE
8
DEFAULT_255_2_778
10
8.1664376
20
7.2245208
11
7.8645376
21
7.3909208
0
LINE
8
DEFAULT_255_2_778
10
7.8645376
20
7.3909208
11
7.5626376
21
7.2245208
0
LINE
8
DEFAULT_255_2_778
10
7.2102376
20
7.4147208
11
7.5120376
21
7.2483208
0
LINE
8
DEFAULT_255_2_778
10
7.5120376
20
7.2483208
11
7.8139376
21
7.4147208
0
LINE
8
DEFAULT_255_2_778
10
7.8139376
20
7.4147208
11
7.5120376
21
7.5811208
0
LINE
8
DEFAULT_255_2_778
10
7.5120376
20
7.5811208
11
7.2102376
21
7.4147208
0
LINE
8
DEFAULT_255_2_778
10
6.8577376
20
7.6049208
11
7.1596376
21
7.4385208
0
LINE
8
DEFAULT_255_2_778
10
7.1596376
20
7.4385208
11
7.4615376
21
7.6049208
0
LINE
8
DEFAULT_255_2_778
10
7.4615376
20
7.6049208
11
7.1596376
21
7.7714208
0
LINE
8
DEFAULT_255_2_778
10
7.1596376
20
7.7714208
11
6.8577376
21
7.6049208
0
LINE
8
DEFAULT_255_2_778
10
6.5053376
20
7.7952208
11
6.8072376
21
7.6288208
0
LINE
8
DEFAULT_255_2_778
10
6.8072376
20
7.6288208
11
7.1091376
21
7.7952208
0
LINE
8
DEFAULT_255_2_778
10
7.1091376
20
7.7952208
11
6.8072376
21
7.9616208
0
LINE
8
DEFAULT_255_2_778
10
6.8072376
20
7.9616208
11
6.5053376
21
7.7952208
0
LINE
8
DEFAULT_255_2_778
10
6.2034376
20
7.9616208
11
6.4550376
21
7.8190208
0
LINE
8
DEFAULT_255_2_778
10
6.4550376
20
7.8190208
11
6.7569376
21
7.9854208
0
LINE
8
DEFAULT_255_2_778
10
6.7569376
20
7.9854208
11
6.5053376
21
8.1280208
0
LINE
8
DEFAULT_255_2_778
10
6.5053376
20
8.1280208
11
6.2034376
21
7.9616208
0
LINE
8
DEFAULT_255_2_778
10
9.8528376
20
5.6087208
11
10.1547376
21
5.4422208
0
LINE
8
DEFAULT_255_2_778
10
10.1547376
20
5.4422208
11
10.4566376
21
5.6087208
0
LINE
8
DEFAULT_255_2_778
10
10.4566376
20
5.6087208
11
10.1547376
21
5.7751208
0
LINE
8
DEFAULT_255_2_778
10
10.1547376
20
5.7751208
11
9.8528376
21
5.6087208
0
LINE
8
DEFAULT_255_2_778
10
10.2052376
20
5.4184208
11
10.7339376
21
5.1332208
0
LINE
8
DEFAULT_255_2_778
10
10.7339376
20
5.1332208
11
11.0358376
21
5.2996208
0
LINE
8
DEFAULT_255_2_778
10
11.0358376
20
5.2996208
11
10.5071376
21
5.5848208
0
LINE
8
DEFAULT_255_2_778
10
10.5071376
20
5.5848208
11
10.2052376
21
5.4184208
0
LINE
8
DEFAULT_255_2_778
10
9.5006376
20
5.7986208
11
9.8025376
21
5.6322208
0
LINE
8
DEFAULT_255_2_778
10
9.8025376
20
5.6322208
11
10.1044376
21
5.7986208
0
LINE
8
DEFAULT_255_2_778
10
10.1044376
20
5.7986208
11
9.8025376
21
5.9651208
0
LINE
8
DEFAULT_255_2_778
10
9.8025376
20
5.9651208
11
9.5006376
21
5.7986208
0
LINE
8
DEFAULT_255_2_778
10
9.1482376
20
5.9889208
11
9.4501376
21
5.8224208
0
LINE
8
DEFAULT_255_2_778
10
9.4501376
20
5.8224208
11
9.7520376
21
5.9889208
0
LINE
8
DEFAULT_255_2_778
10
9.7520376
20
5.9889208
11
9.4501376
21
6.1553208
0
LINE
8
DEFAULT_255_2_778
10
9.4501376
20
6.1553208
11
9.1482376
21
5.9889208
0
LINE
8
DEFAULT_255_2_778
10
8.4436376
20
6.3691208
11
8.7455376
21
6.2026208
0
LINE
8
DEFAULT_255_2_778
10
8.7455376
20
6.2026208
11
9.0474376
21
6.3691208
0
LINE
8
DEFAULT_255_2_778
10
9.0474376
20
6.3691208
11
8.7455376
21
6.5355208
0
LINE
8
DEFAULT_255_2_778
10
8.7455376
20
6.5355208
11
8.4436376
21
6.3691208
0
LINE
8
DEFAULT_255_2_778
10
8.7961376
20
6.1788208
11
9.0980376
21
6.0124208
0
LINE
8
DEFAULT_255_2_778
10
9.0980376
20
6.0124208
11
9.3998376
21
6.1788208
0
LINE
8
DEFAULT_255_2_778
10
9.3998376
20
6.1788208
11
9.0980376
21
6.3453208
0
LINE
8
DEFAULT_255_2_778
10
9.0980376
20
6.3453208
11
8.7961376
21
6.1788208
0
LINE
8
DEFAULT_255_2_778
10
7.7391376
20
6.7493208
11
8.0409376
21
6.5829208
0
LINE
8
DEFAULT_255_2_778
10
8.0409376
20
6.5829208
11
8.3428376
21
6.7493208
0
LINE
8
DEFAULT_255_2_778
10
8.3428376
20
6.7493208
11
8.0409376
21
6.9157208
0
LINE
8
DEFAULT_255_2_778
10
8.0409376
20
6.9157208
11
7.7391376
21
6.7493208
0
LINE
8
DEFAULT_255_2_778
10
8.0915376
20
6.5590208
11
8.3934376
21
6.3926208
0
LINE
8
DEFAULT_255_2_778
10
8.3934376
20
6.3926208
11
8.6953376
21
6.5590208
0
LINE
8
DEFAULT_255_2_778
10
8.6953376
20
6.5590208
11
8.3934376
21
6.7255208
0
LINE
8
DEFAULT_255_2_778
10
8.3934376
20
6.7255208
11
8.0915376
21
6.5590208
0
LINE
8
DEFAULT_255_2_778
10
7.0345376
20
7.1295208
11
7.3364376
21
6.9631208
0
LINE
8
DEFAULT_255_2_778
10
7.3364376
20
6.9631208
11
7.6382376
21
7.1295208
0
LINE
8
DEFAULT_255_2_778
10
7.6382376
20
7.1295208
11
7.3364376
21
7.2959208
0
LINE
8
DEFAULT_255_2_778
10
7.3364376
20
7.2959208
11
7.0345376
21
7.1295208
0
LINE
8
DEFAULT_255_2_778
10
7.3869376
20
6.9392208
11
7.6888376
21
6.7728208
0
LINE
8
DEFAULT_255_2_778
10
7.6888376
20
6.7728208
11
7.9907376
21
6.9392208
0
LINE
8
DEFAULT_255_2_778
10
7.9907376
20
6.9392208
11
7.6888376
21
7.1057208
0
LINE
8
DEFAULT_255_2_778
10
7.6888376
20
7.1057208
11
7.3869376
21
6.9392208
0
LINE
8
DEFAULT_255_2_778
10
6.3299376
20
7.5097208
11
6.6318376
21
7.3433208
0
LINE
8
DEFAULT_255_2_778
10
6.6318376
20
7.3433208
11
6.9337376
21
7.5097208
0
LINE
8
DEFAULT_255_2_778
10
6.9337376
20
7.5097208
11
6.6318376
21
7.6761208
0
LINE
8
DEFAULT_255_2_778
10
6.6318376
20
7.6761208
11
6.3299376
21
7.5097208
0
LINE
8
DEFAULT_255_2_778
10
6.6823376
20
7.3195208
11
6.9842376
21
7.1530208
0
LINE
8
DEFAULT_255_2_778
10
6.9842376
20
7.1530208
11
7.2861376
21
7.3195208
0
LINE
8
DEFAULT_255_2_778
10
7.2861376
20
7.3195208
11
6.9842376
21
7.4859208
0
LINE
8
DEFAULT_255_2_778
10
6.9842376
20
7.4859208
11
6.6823376
21
7.3195208
0
LINE
8
DEFAULT_255_2_778
10
5.8518376
20
7.7711208
11
6.2796376
21
7.5335208
0
LINE
8
DEFAULT_255_2_778
10
6.2796376
20
7.5335208
11
6.5815376
21
7.6999208
0
LINE
8
DEFAULT_255_2_778
10
6.5815376
20
7.6999208
11
6.1537376
21
7.9375208
0
LINE
8
DEFAULT_255_2_778
10
6.1537376
20
7.9375208
11
5.8518376
21
7.7711208
0
LINE
8
DEFAULT_255_2_778
10
9.7277376
20
5.2994208
11
10.3820376
21
4.9430208
0
LINE
8
DEFAULT_255_2_778
10
10.3820376
20
4.9430208
11
10.6839376
21
5.1094208
0
LINE
8
DEFAULT_255_2_778
10
10.6839376
20
5.1094208
11
10.0296376
21
5.4658208
0
LINE
8
DEFAULT_255_2_778
10
10.0296376
20
5.4658208
11
9.7277376
21
5.2994208
0
LINE
8
DEFAULT_255_2_778
10
9.3752376
20
5.4896208
11
9.6771376
21
5.3232208
0
LINE
8
DEFAULT_255_2_778
10
9.6771376
20
5.3232208
11
9.9790376
21
5.4896208
0
LINE
8
DEFAULT_255_2_778
10
9.9790376
20
5.4896208
11
9.6771376
21
5.6560208
0
LINE
8
DEFAULT_255_2_778
10
9.6771376
20
5.6560208
11
9.3752376
21
5.4896208
0
LINE
8
DEFAULT_255_2_778
10
9.0228376
20
5.6798208
11
9.3247376
21
5.5134208
0
LINE
8
DEFAULT_255_2_778
10
9.3247376
20
5.5134208
11
9.6266376
21
5.6798208
0
LINE
8
DEFAULT_255_2_778
10
9.6266376
20
5.6798208
11
9.3247376
21
5.8463208
0
LINE
8
DEFAULT_255_2_778
10
9.3247376
20
5.8463208
11
9.0228376
21
5.6798208
0
LINE
8
DEFAULT_255_2_778
10
8.6704376
20
5.8701208
11
8.9723376
21
5.7036208
0
LINE
8
DEFAULT_255_2_778
10
8.9723376
20
5.7036208
11
9.2742376
21
5.8701208
0
LINE
8
DEFAULT_255_2_778
10
9.2742376
20
5.8701208
11
8.9723376
21
6.0365208
0
LINE
8
DEFAULT_255_2_778
10
8.9723376
20
6.0365208
11
8.6704376
21
5.8701208
0
LINE
8
DEFAULT_255_2_778
10
8.3180376
20
6.0603208
11
8.6199376
21
5.8939208
0
LINE
8
DEFAULT_255_2_778
10
8.6199376
20
5.8939208
11
8.9217376
21
6.0603208
0
LINE
8
DEFAULT_255_2_778
10
8.9217376
20
6.0603208
11
8.6199376
21
6.2267208
0
LINE
8
DEFAULT_255_2_778
10
8.6199376
20
6.2267208
11
8.3180376
21
6.0603208
0
LINE
8
DEFAULT_255_2_778
10
7.9655376
20
6.2505208
11
8.2674376
21
6.0841208
0
LINE
8
DEFAULT_255_2_778
10
8.2674376
20
6.0841208
11
8.5693376
21
6.2505208
0
LINE
8
DEFAULT_255_2_778
10
8.5693376
20
6.2505208
11
8.2674376
21
6.4170208
0
LINE
8
DEFAULT_255_2_778
10
8.2674376
20
6.4170208
11
7.9655376
21
6.2505208
0
LINE
8
DEFAULT_255_2_778
10
7.6131376
20
6.4408208
11
7.9150376
21
6.2744208
0
LINE
8
DEFAULT_255_2_778
10
7.9150376
20
6.2744208
11
8.2169376
21
6.4408208
0
LINE
8
DEFAULT_255_2_778
10
8.2169376
20
6.4408208
11
7.9150376
21
6.6072208
0
LINE
8
DEFAULT_255_2_778
10
7.9150376
20
6.6072208
11
7.6131376
21
6.4408208
0
LINE
8
DEFAULT_255_2_778
10
7.2607376
20
6.6310208
11
7.5626376
21
6.4646208
0
LINE
8
DEFAULT_255_2_778
10
7.5626376
20
6.4646208
11
7.8645376
21
6.6310208
0
LINE
8
DEFAULT_255_2_778
10
7.8645376
20
6.6310208
11
7.5626376
21
6.7974208
0
LINE
8
DEFAULT_255_2_778
10
7.5626376
20
6.7974208
11
7.2607376
21
6.6310208
0
LINE
8
DEFAULT_255_2_778
10
6.9083376
20
6.8212208
11
7.2102376
21
6.6548208
0
LINE
8
DEFAULT_255_2_778
10
7.2102376
20
6.6548208
11
7.5120376
21
6.8212208
0
LINE
8
DEFAULT_255_2_778
10
7.5120376
20
6.8212208
11
7.2102376
21
6.9877208
0
LINE
8
DEFAULT_255_2_778
10
7.2102376
20
6.9877208
11
6.9083376
21
6.8212208
0
LINE
8
DEFAULT_255_2_778
10
6.5558376
20
7.0115208
11
6.8577376
21
6.8451208
0
LINE
8
DEFAULT_255_2_778
10
6.8577376
20
6.8451208
11
7.1596376
21
7.0115208
0
LINE
8
DEFAULT_255_2_778
10
7.1596376
20
7.0115208
11
6.8577376
21
7.1779208
0
LINE
8
DEFAULT_255_2_778
10
6.8577376
20
7.1779208
11
6.5558376
21
7.0115208
0
LINE
8
DEFAULT_255_2_778
10
6.2034376
20
7.2017208
11
6.5053376
21
7.0353208
0
LINE
8
DEFAULT_255_2_778
10
6.5053376
20
7.0353208
11
6.8072376
21
7.2017208
0
LINE
8
DEFAULT_255_2_778
10
6.8072376
20
7.2017208
11
6.5053376
21
7.3681208
0
LINE
8
DEFAULT_255_2_778
10
6.5053376
20
7.3681208
11
6.2034376
21
7.2017208
0
LINE
8
DEFAULT_255_2_778
10
5.4988376
20
7.5819208
11
6.1531376
21
7.2255208
0
LINE
8
DEFAULT_255_2_778
10
6.1531376
20
7.2255208
11
6.4550376
21
7.3920208
0
LINE
8
DEFAULT_255_2_778
10
6.4550376
20
7.3920208
11
5.8007376
21
7.7483208
0
LINE
8
DEFAULT_255_2_778
10
5.8007376
20
7.7483208
11
5.4988376
21
7.5819208
0
LINE
8
DEFAULT_255_2_778
10
5.1464376
20
7.3917208
11
5.4483376
21
7.2253208
0
LINE
8
DEFAULT_255_2_778
10
5.4483376
20
7.2253208
11
5.7502376
21
7.3917208
0
LINE
8
DEFAULT_255_2_778
10
5.7502376
20
7.3917208
11
5.4483376
21
7.5581208
0
LINE
8
DEFAULT_255_2_778
10
5.4483376
20
7.5581208
11
5.1464376
21
7.3917208
0
LINE
8
DEFAULT_255_2_778
10
5.4988376
20
7.2015208
11
5.8007376
21
7.0350208
0
LINE
8
DEFAULT_255_2_778
10
5.8007376
20
7.0350208
11
6.1026376
21
7.2015208
0
LINE
8
DEFAULT_255_2_778
10
6.1026376
20
7.2015208
11
5.8007376
21
7.3679208
0
LINE
8
DEFAULT_255_2_778
10
5.8007376
20
7.3679208
11
5.4988376
21
7.2015208
0
LINE
8
DEFAULT_255_2_778
10
5.8513376
20
7.0112208
11
6.1531376
21
6.8448208
0
LINE
8
DEFAULT_255_2_778
10
6.1531376
20
6.8448208
11
6.4550376
21
7.0112208
0
LINE
8
DEFAULT_255_2_778
10
6.4550376
20
7.0112208
11
6.1531376
21
7.1776208
0
LINE
8
DEFAULT_255_2_778
10
6.1531376
20
7.1776208
11
5.8513376
21
7.0112208
0
LINE
8
DEFAULT_255_2_778
10
6.2037376
20
6.8210208
11
6.5056376
21
6.6546208
0
LINE
8
DEFAULT_255_2_778
10
6.5056376
20
6.6546208
11
6.8075376
21
6.8210208
0
LINE
8
DEFAULT_255_2_778
10
6.8075376
20
6.8210208
11
6.5056376
21
6.9874208
0
LINE
8
DEFAULT_255_2_778
10
6.5056376
20
6.9874208
11
6.2037376
21
6.8210208
0
LINE
8
DEFAULT_255_2_778
10
6.5561376
20
6.6307208
11
6.8580376
21
6.4643208
0
LINE
8
DEFAULT_255_2_778
10
6.8580376
20
6.4643208
11
7.1599376
21
6.6307208
0
LINE
8
DEFAULT_255_2_778
10
7.1599376
20
6.6307208
11
6.8580376
21
6.7972208
0
LINE
8
DEFAULT_255_2_778
10
6.8580376
20
6.7972208
11
6.5561376
21
6.6307208
0
LINE
8
DEFAULT_255_2_778
10
8.6701376
20
5.4899208
11
8.9720376
21
5.3234208
0
LINE
8
DEFAULT_255_2_778
10
8.9720376
20
5.3234208
11
9.2739376
21
5.4899208
0
LINE
8
DEFAULT_255_2_778
10
9.2739376
20
5.4899208
11
8.9720376
21
5.6563208
0
LINE
8
DEFAULT_255_2_778
10
8.9720376
20
5.6563208
11
8.6701376
21
5.4899208
0
LINE
8
DEFAULT_255_2_778
10
9.5509376
20
5.2046208
11
9.8528376
21
5.0382208
0
LINE
8
DEFAULT_255_2_778
10
9.8528376
20
5.0382208
11
9.9788376
21
5.1097208
0
LINE
8
DEFAULT_255_2_778
10
9.9788376
20
5.1097208
11
9.6769376
21
5.2761208
0
LINE
8
DEFAULT_255_2_778
10
9.6769376
20
5.2761208
11
9.5509376
21
5.2046208
0
LINE
8
DEFAULT_255_2_778
10
9.3747376
20
5.1097208
11
9.6766376
21
4.9432208
0
LINE
8
DEFAULT_255_2_778
10
9.6766376
20
4.9432208
11
9.8025376
21
5.0147208
0
LINE
8
DEFAULT_255_2_778
10
9.8025376
20
5.0147208
11
9.5006376
21
5.1811208
0
LINE
8
DEFAULT_255_2_778
10
9.5006376
20
5.1811208
11
9.3747376
21
5.1097208
0
LINE
8
DEFAULT_255_2_778
10
9.7271376
20
4.9194208
11
10.0290376
21
4.7530208
0
LINE
8
DEFAULT_255_2_778
10
10.0290376
20
4.7530208
11
10.1550376
21
4.8244208
0
LINE
8
DEFAULT_255_2_778
10
10.1550376
20
4.8244208
11
9.8531376
21
4.9909208
0
LINE
8
DEFAULT_255_2_778
10
9.8531376
20
4.9909208
11
9.7271376
21
4.9194208
0
LINE
8
DEFAULT_255_2_778
10
9.0225376
20
5.2996208
11
9.3244376
21
5.1332208
0
LINE
8
DEFAULT_255_2_778
10
9.3244376
20
5.1332208
11
9.4504376
21
5.2046208
0
LINE
8
DEFAULT_255_2_778
10
9.4504376
20
5.2046208
11
9.1485376
21
5.3711208
0
LINE
8
DEFAULT_255_2_778
10
9.1485376
20
5.3711208
11
9.0225376
21
5.2996208
0
LINE
8
DEFAULT_255_2_778_2
10
0.1322836
20
15.7602374
11
9.3926836
21
21.0344374
0
LINE
8
DEFAULT_255_2_778_2
10
9.3926836
20
21.0344374
11
18.6530836
21
15.7263374
0
LINE
8
DEFAULT_255_2_778_2
10
18.6530836
20
15.7263374
11
9.3926836
21
10.4521374
0
LINE
8
DEFAULT_255_2_778_2
10
9.3926836
20
10.4521374
11
0.1322836
21
15.7602374
0
LINE
8
DEFAULT_255_2_778_2
10
18.6530918
20
15.7242394
11
18.6530918
21
5.1758394
0
LINE
8
DEFAULT_255_2_778_2
10
18.6530918
20
5.1758394
11
9.3926918
21
-0.1322606
0
LINE
8
DEFAULT_255_2_778_2
10
9.3926918
20
-0.1322606
11
9.3926918
21
10.4500394
0
LINE
8
DEFAULT_255_2_778_2
10
9.3926918
20
10.4500394
11
18.6530918
21
15.7242394
0
LINE
8
DEFAULT_255_2_778_2
10
0.1322918
20
15.7242394
11
0.1322918
21
5.1758394
0
LINE
8
DEFAULT_255_2_778_2
10
0.1322918
20
5.1758394
11
9.3926918
21
-0.1322606
0
LINE
8
DEFAULT_255_2_778_2
10
9.3926918
20
-0.1322606
11
9.3926918
21
10.4500394
0
LINE
8
DEFAULT_255_2_778_2
10
9.3926918
20
10.4500394
11
0.1322918
21
15.7242394
0
ENDSEC
0
EOF