0
SECTION
2
HEADER
9
$MEASUREMENT
70
1
0
ENDSEC
0
SECTION
2
TABLES
0
TABLE
2
LTYPE
0
LTYPE
72
65
70
64
2
CONTINUOUS
3
______
73
0
40
0
0
ENDTAB
0
TABLE
2
LAYER
0
LAYER
2
DEFAULT_255_2_778
70
0
62
255
6
CONTINUOUS
0
ENDTAB
0
ENDSEC
0
SECTION
2
ENTITIES
0
ARC
8
DEFAULT_255_2_778
10
0.5008885
20
124.5480309
40
0.3100152
50
179.9769908
51
180.0690322
0
ARC
8
DEFAULT_255_2_778
10
0.5902615
20
124.548157
40
0.3993883
50
112.5696945
51
180.000234
0
ARC
8
DEFAULT_255_2_778
10
9.6884684
20
128.2151456
40
2.297795
50
147.3516108
51
180.0171617
0
ARC
8
DEFAULT_255_2_778
10
9.6888181
20
128.2164552
40
2.2973832
50
114.2308605
51
147.3838156
0
ARC
8
DEFAULT_255_2_778
10
9.6937772
20
128.2067003
40
2.3083142
50
113.7049323
51
114.2437355
0
ARC
8
DEFAULT_255_2_778
10
76.3914133
20
11.4151038
40
2.0005247
50
216.2292926
51
269.9874129
0
ARC
8
DEFAULT_255_2_778
10
76.3908976
20
11.4133838
40
1.9988046
50
270.0021855
51
277.8337951
0
ARC
8
DEFAULT_255_2_778
10
76.3897473
20
11.4224407
40
2.0079339
50
277.8310882
51
280.488663
0
ARC
8
DEFAULT_255_2_778
10
76.3913208
20
11.414823
40
2.0001571
50
280.4840662
51
343.583874
0
ARC
8
DEFAULT_255_2_778
10
76.38286
20
11.4171134
40
2.0089205
50
343.5894096
51
344.7426912
0
ARC
8
DEFAULT_255_2_778
10
79.2858814
20
10.6256145
40
1.0000668
50
104.004124
51
164.7622257
0
ARC
8
DEFAULT_255_2_778
10
83.7911477
20
12.2649461
40
0.4994341
50
93.796003
51
103.9941011
0
ARC
8
DEFAULT_255_2_778
10
83.7911439
20
12.2649175
40
0.4994625
50
89.9999792
51
93.7953571
0
ARC
8
DEFAULT_255_2_778
10
83.7910975
20
12.2637713
40
0.5006085
50
52.0187913
51
89.9946604
0
ARC
8
DEFAULT_255_2_778
10
83.7912739
20
12.2642795
40
0.5000995
50
359.9974661
51
51.9988953
0
ARC
8
DEFAULT_255_2_778
10
83.7912141
20
7.2641282
40
0.5001594
50
290.732528
51
0.0033434
0
ARC
8
DEFAULT_255_2_778
10
76.3859021
20
11.4292682
40
7.016108
50
284.0572099
51
290.7222958
0
ARC
8
DEFAULT_255_2_778
10
76.3935044
20
11.4000333
40
6.985902
50
276.0183835
51
284.0549644
0
ARC
8
DEFAULT_255_2_778
10
76.393493
20
11.400702
40
6.9865683
50
273.785232
51
276.0179018
0
ARC
8
DEFAULT_255_2_778
10
76.3931719
20
11.4060508
40
6.9919266
50
269.9996845
51
273.7849633
0
ARC
8
DEFAULT_255_2_778
10
76.3932999
20
11.420975
40
7.0068508
50
237.3709309
51
269.9986384
0
ARC
8
DEFAULT_255_2_778
10
76.3899171
20
11.4106686
40
6.9963474
50
225.3013256
51
237.3487522
0
ARC
8
DEFAULT_255_2_778
10
76.4218928
20
11.4446095
40
7.0429641
50
224.2811152
51
225.3106357
0
ARC
8
DEFAULT_255_2_778
10
72.5943441
20
7.7127844
40
1.6972512
50
195.3894193
51
224.301926
0
ARC
8
DEFAULT_255_2_778
10
72.5995781
20
7.7146229
40
1.7027857
50
180.0034291
51
195.4023266
0
ARC
8
DEFAULT_255_2_778
10
72.5960432
20
7.7145257
40
1.6992508
50
176.845217
51
180.0001597
0
ARC
8
DEFAULT_255_2_778
10
72.5939127
20
7.7146346
40
1.6971175
50
159.6241876
51
176.8449274
0
ARC
8
DEFAULT_255_2_778
10
72.6044556
20
7.7110116
40
1.7082623
50
157.1393187
51
159.6333949
0
ARC
8
DEFAULT_255_2_778
10
72.596762
20
7.7142384
40
1.6999194
50
90.5730021
51
157.1387922
0
ARC
8
DEFAULT_255_2_778
10
72.5967868
20
7.7010356
40
1.7131218
50
90.0004442
51
90.5694168
0
ARC
8
DEFAULT_255_2_778
10
6.3904176
20
69.818393
40
0.3996441
50
129.9733893
51
180.0194429
0
ARC
8
DEFAULT_255_2_778
10
76.2567673
20
13.9141392
40
0.2248065
50
359.9729746
51
0.0810798
0
ARC
8
DEFAULT_255_2_778
10
75.8916766
20
13.9141367
40
0.5898971
50
281.2414617
51
359.9899464
0
LINE
8
DEFAULT_255_2_778
10
12.8823735
20
-0.1859427
11
12.8828308
21
-0.1859427
0
ARC
8
DEFAULT_255_2_778
10
12.8826714
20
1.314414
40
1.5003568
50
270.0060865
51
307.2329803
0
ARC
8
DEFAULT_255_2_778
10
57.3937346
20
-57.2220152
40
72.0370372
50
121.400305
51
127.2496758
0
ARC
8
DEFAULT_255_2_778
10
57.3853553
20
-57.2094361
40
72.0219345
50
113.5511149
51
121.399829
0
ARC
8
DEFAULT_255_2_778
10
57.3926724
20
-57.2251179
40
72.0392337
50
98.8711855
51
113.5514662
0
ARC
8
DEFAULT_255_2_778
10
57.388463
20
-57.2042014
40
72.0179181
50
92.363873
51
98.8704429
0
ARC
8
DEFAULT_255_2_778
10
57.3902561
20
-57.2435038
40
72.0572611
50
89.9998735
51
92.3640086
0
LINE
8
DEFAULT_255_2_778
10
57.3904152
20
14.8137573
11
57.3908735
21
14.8137573
0
ARC
8
DEFAULT_255_2_778
10
76.392459
20
11.413547
40
7.1027814
50
138.19918
51
147.6558762
0
ARC
8
DEFAULT_255_2_778
10
71.9180631
20
15.4138874
40
1.1008701
50
90.0021608
51
138.1857392
0
LINE
8
DEFAULT_255_2_778
10
71.9180216
20
16.5147574
11
71.9183735
21
16.5147573
0
LINE
8
DEFAULT_255_2_778
10
75.8905735
20
16.5147573
11
75.8909503
21
16.5147575
0
ARC
8
DEFAULT_255_2_778
10
75.8908582
20
15.9143054
40
0.6004521
50
44.9552375
51
89.9912045
0
ARC
8
DEFAULT_255_2_778
10
75.89032
20
15.9131441
40
0.6016537
50
0.0298345
51
44.9972889
0
ARC
8
DEFAULT_255_2_778
10
127.490483
20
5.1142668
40
0.3001094
50
180.0208901
51
269.9791099
0
ARC
8
DEFAULT_255_2_778
10
128.8905084
20
5.1139187
40
0.2997614
50
269.9550999
51
315.0005072
0
ARC
8
DEFAULT_255_2_778
10
128.8905882
20
5.1140325
40
0.2997853
50
314.9743446
51
0.023866
0
LINE
8
DEFAULT_255_2_778
10
129.1903735
20
14.8137573
11
129.1903735
21
14.8160333
0
ARC
8
DEFAULT_255_2_778
10
-870.8175597
20
14.8171428
40
1000.0079333
50
359.9999364
51
7.5347265
0
ARC
8
DEFAULT_255_2_778
10
119.5643752
20
145.814018
40
1.0001464
50
7.5401074
51
87.6468058
0
ARC
8
DEFAULT_255_2_778
10
119.5642925
20
145.801588
40
1.0125695
50
87.6710139
51
89.9897585
0
ARC
8
DEFAULT_255_2_778
10
2.687982
20
144.5209486
40
2.2932106
50
89.9277559
51
112.2001112
0
ARC
8
DEFAULT_255_2_778
10
2.6938888
20
144.5119593
40
2.3037661
50
112.2516516
51
169.4806072
0
ARC
8
DEFAULT_255_2_778
10
2.7038137
20
144.5151874
40
2.3129402
50
169.6041156
51
180.0255173
0
ARC
8
DEFAULT_255_2_778
10
0.5690641
20
140.3138742
40
0.1781908
50
179.9089573
51
180.0303466
0
ARC
8
DEFAULT_255_2_778
10
0.7901823
20
140.3136567
40
0.3993089
50
179.9823339
51
225.0294878
0
ARC
8
DEFAULT_255_2_778
10
0.7904729
20
140.3133661
40
0.399309
50
224.9705122
51
270.0176661
0
LINE
8
DEFAULT_255_2_778
10
0.790596
20
139.9140572
11
0.7909735
21
139.9140573
0
ARC
8
DEFAULT_255_2_778
10
4.0907535
20
140.7143039
40
0.8002466
50
270.008597
51
356.9950009
0
ARC
8
DEFAULT_255_2_778
10
4.0782603
20
140.7141204
40
0.8127132
50
357.0540917
51
0.002602
0
ARC
8
DEFAULT_255_2_778
10
5.8910685
20
141.8141044
40
1.000095
50
135.0017048
51
180.0026977
0
ARC
8
DEFAULT_255_2_778
10
5.8910567
20
141.8139895
40
1.0001679
50
89.9990367
51
134.9965718
0
ARC
8
DEFAULT_255_2_778
10
6.3937957
20
139.3140168
40
3.5001416
50
72.9249046
51
90.0445604
0
ARC
8
DEFAULT_255_2_778
10
6.3849262
20
139.307911
40
3.508589
50
17.7396445
51
72.8157258
0
ARC
8
DEFAULT_255_2_778
10
6.3943167
20
139.3175145
40
3.4967245
50
0.5151344
51
17.6366508
0
ARC
8
DEFAULT_255_2_778
10
6.3210608
20
139.3137218
40
3.5700128
50
0.0085947
51
0.5654309
0
LINE
8
DEFAULT_255_2_778
10
0.4369735
20
124.9169573
11
7.3906735
21
127.8144573
0
LINE
8
DEFAULT_255_2_778
10
7.3906735
20
127.8144573
11
7.3906735
21
128.2144573
0
LINE
8
DEFAULT_255_2_778
10
8.7657735
20
130.3202573
11
9.4353735
21
130.6145573
0
LINE
8
DEFAULT_255_2_778
10
9.4353735
20
130.6145573
11
9.8907735
21
130.6145573
0
LINE
8
DEFAULT_255_2_778
10
70.4573735
20
9.6927573
11
70.5938735
21
9.8306573
0
LINE
8
DEFAULT_255_2_778
10
70.5938735
20
9.8306573
11
70.7393735
21
9.9592573
0
LINE
8
DEFAULT_255_2_778
10
70.7393735
20
9.9592573
11
70.8930735
21
10.0777573
0
LINE
8
DEFAULT_255_2_778
10
70.8930735
20
10.0777573
11
71.1097735
21
10.2193573
0
LINE
8
DEFAULT_255_2_778
10
71.1097735
20
10.2193573
11
71.3381735
21
10.3410573
0
LINE
8
DEFAULT_255_2_778
10
71.3381735
20
10.3410573
11
71.5762735
21
10.4420573
0
LINE
8
DEFAULT_255_2_778
10
71.5762735
20
10.4420573
11
71.8225735
21
10.5217573
0
LINE
8
DEFAULT_255_2_778
10
71.8225735
20
10.5217573
11
72.0747735
21
10.5791573
0
LINE
8
DEFAULT_255_2_778
10
72.0747735
20
10.5791573
11
72.3310735
21
10.6140573
0
LINE
8
DEFAULT_255_2_778
10
72.3310735
20
10.6140573
11
72.5895735
21
10.6262573
0
LINE
8
DEFAULT_255_2_778
10
72.5895735
20
10.6262573
11
72.8480735
21
10.6153573
0
LINE
8
DEFAULT_255_2_778
10
72.8480735
20
10.6153573
11
73.1047735
21
10.5815573
0
LINE
8
DEFAULT_255_2_778
10
73.1047735
20
10.5815573
11
73.3574735
21
10.5251573
0
LINE
8
DEFAULT_255_2_778
10
73.3574735
20
10.5251573
11
73.7889735
21
10.3899573
0
LINE
8
DEFAULT_255_2_778
10
73.7889735
20
10.3899573
11
73.9820735
21
10.3918573
0
LINE
8
DEFAULT_255_2_778
10
73.9820735
20
10.3918573
11
74.1649735
21
10.4566573
0
LINE
8
DEFAULT_255_2_778
10
74.1649735
20
10.4566573
11
74.2937735
21
10.5532573
0
LINE
8
DEFAULT_255_2_778
10
74.2937735
20
10.5532573
11
74.3752735
21
10.6540573
0
LINE
8
DEFAULT_255_2_778
10
74.3752735
20
10.6540573
11
74.4210735
21
10.7400573
0
LINE
8
DEFAULT_255_2_778
10
74.4210735
20
10.7400573
11
74.4432735
21
10.8003573
0
LINE
8
DEFAULT_255_2_778
10
74.4432735
20
10.8003573
11
74.4554735
21
10.8468573
0
LINE
8
DEFAULT_255_2_778
10
74.4554735
20
10.8468573
11
74.4612735
21
10.8783573
0
LINE
8
DEFAULT_255_2_778
10
74.4612735
20
10.8783573
11
74.4609735
21
11.0461573
0
LINE
8
DEFAULT_255_2_778
10
74.4609735
20
11.0461573
11
74.4583735
21
11.0627573
0
LINE
8
DEFAULT_255_2_778
10
74.4583735
20
11.0627573
11
74.4723735
21
10.9762573
0
LINE
8
DEFAULT_255_2_778
10
74.4723735
20
10.9762573
11
74.4898735
21
10.8902573
0
LINE
8
DEFAULT_255_2_778
10
74.4898735
20
10.8902573
11
74.5112735
21
10.8053573
0
LINE
8
DEFAULT_255_2_778
10
74.5112735
20
10.8053573
11
74.5443735
21
10.6987573
0
LINE
8
DEFAULT_255_2_778
10
74.5443735
20
10.6987573
11
74.5935735
21
10.5706573
0
LINE
8
DEFAULT_255_2_778
10
74.5935735
20
10.5706573
11
74.6774735
21
10.3973573
0
LINE
8
DEFAULT_255_2_778
10
74.6774735
20
10.3973573
11
74.7776735
21
10.2327573
0
LINE
8
DEFAULT_255_2_778
10
79.0438735
20
11.5959573
11
83.6703735
21
12.7495573
0
LINE
8
DEFAULT_255_2_778
10
84.2913735
20
12.2642573
11
84.2913735
21
7.2641573
0
LINE
8
DEFAULT_255_2_778
10
83.9682735
20
6.7963573
11
78.8684735
21
4.8670573
0
LINE
8
DEFAULT_255_2_778
10
72.5967735
20
9.4141573
11
76.3908735
21
9.4141573
0
LINE
8
DEFAULT_255_2_778
10
12.8937735
20
75.7933573
11
6.1336735
21
70.1246573
0
LINE
8
DEFAULT_255_2_778
10
76.0066735
20
13.3355573
11
75.9595735
21
13.3255573
0
LINE
8
DEFAULT_255_2_778
10
75.9595735
20
13.3255573
11
75.7288735
21
13.2583573
0
LINE
8
DEFAULT_255_2_778
10
75.7288735
20
13.2583573
11
75.5076735
21
13.1633573
0
LINE
8
DEFAULT_255_2_778
10
75.5076735
20
13.1633573
11
75.3399735
21
13.0680573
0
LINE
8
DEFAULT_255_2_778
10
75.3399735
20
13.0680573
11
75.1830735
21
12.9574573
0
LINE
8
DEFAULT_255_2_778
10
75.1830735
20
12.9574573
11
75.0380735
21
12.8323573
0
LINE
8
DEFAULT_255_2_778
10
75.0380735
20
12.8323573
11
74.9054735
21
12.6928573
0
LINE
8
DEFAULT_255_2_778
10
74.9054735
20
12.6928573
11
74.8152735
21
12.5799573
0
LINE
8
DEFAULT_255_2_778
10
74.8152735
20
12.5799573
11
74.7337735
21
12.4608573
0
LINE
8
DEFAULT_255_2_778
10
74.7337735
20
12.4608573
11
74.6612735
21
12.3362573
0
LINE
8
DEFAULT_255_2_778
10
74.6612735
20
12.3362573
11
74.5980735
21
12.2065573
0
LINE
8
DEFAULT_255_2_778
10
74.5980735
20
12.2065573
11
74.5612735
21
12.1179573
0
LINE
8
DEFAULT_255_2_778
10
74.5612735
20
12.1179573
11
74.5287735
21
12.0277573
0
LINE
8
DEFAULT_255_2_778
10
74.5287735
20
12.0277573
11
74.5006735
21
11.9361573
0
LINE
8
DEFAULT_255_2_778
10
74.5006735
20
11.9361573
11
74.4776735
21
11.8433573
0
LINE
8
DEFAULT_255_2_778
10
74.4776735
20
11.8433573
11
74.4678735
21
11.7964573
0
LINE
8
DEFAULT_255_2_778
10
74.4678735
20
11.7964573
11
74.4593735
21
11.7491573
0
LINE
8
DEFAULT_255_2_778
10
74.4593735
20
11.7491573
11
74.4522735
21
11.7017573
0
LINE
8
DEFAULT_255_2_778
10
74.4522735
20
11.7017573
11
74.4461735
21
11.6541573
0
LINE
8
DEFAULT_255_2_778
10
74.4461735
20
11.6541573
11
74.4413735
21
11.6062573
0
LINE
8
DEFAULT_255_2_778
10
74.4413735
20
11.6062573
11
74.4376735
21
11.5583573
0
LINE
8
DEFAULT_255_2_778
10
74.4376735
20
11.5583573
11
74.4350735
21
11.5104573
0
LINE
8
DEFAULT_255_2_778
10
74.4350735
20
11.5104573
11
74.4329735
21
11.4144573
0
LINE
8
DEFAULT_255_2_778
10
74.4329735
20
11.4144573
11
74.4361735
21
11.4766573
0
LINE
8
DEFAULT_255_2_778
10
74.4361735
20
11.4766573
11
74.4413735
21
11.5385573
0
LINE
8
DEFAULT_255_2_778
10
74.4413735
20
11.5385573
11
74.4488735
21
11.6004573
0
LINE
8
DEFAULT_255_2_778
10
74.4488735
20
11.6004573
11
74.4583735
21
11.6620573
0
LINE
8
DEFAULT_255_2_778
10
74.4583735
20
11.6620573
11
74.4697735
21
11.7234573
0
LINE
8
DEFAULT_255_2_778
10
74.4697735
20
11.7234573
11
74.4829735
21
11.7843573
0
LINE
8
DEFAULT_255_2_778
10
74.4829735
20
11.7843573
11
74.4977735
21
11.8449573
0
LINE
8
DEFAULT_255_2_778
10
74.4977735
20
11.8449573
11
74.5141735
21
11.9049573
0
LINE
8
DEFAULT_255_2_778
10
74.5141735
20
11.9049573
11
74.5324735
21
11.9644573
0
LINE
8
DEFAULT_255_2_778
10
74.5324735
20
11.9644573
11
74.5525735
21
12.0234573
0
LINE
8
DEFAULT_255_2_778
10
74.5525735
20
12.0234573
11
74.5742735
21
12.0817573
0
LINE
8
DEFAULT_255_2_778
10
74.5742735
20
12.0817573
11
74.6234735
21
12.1960573
0
LINE
8
DEFAULT_255_2_778
10
74.6234735
20
12.1960573
11
74.6797735
21
12.3068573
0
LINE
8
DEFAULT_255_2_778
10
74.6797735
20
12.3068573
11
74.7430735
21
12.4140573
0
LINE
8
DEFAULT_255_2_778
10
74.7430735
20
12.4140573
11
74.8126735
21
12.5166573
0
LINE
8
DEFAULT_255_2_778
10
74.8126735
20
12.5166573
11
74.8882735
21
12.6143573
0
LINE
8
DEFAULT_255_2_778
10
74.8882735
20
12.6143573
11
74.9697735
21
12.7071573
0
LINE
8
DEFAULT_255_2_778
10
74.9697735
20
12.7071573
11
75.0568735
21
12.7944573
0
LINE
8
DEFAULT_255_2_778
10
75.0568735
20
12.7944573
11
75.1973735
21
12.9148573
0
LINE
8
DEFAULT_255_2_778
10
75.1973735
20
12.9148573
11
75.3483735
21
13.0212573
0
LINE
8
DEFAULT_255_2_778
10
75.3483735
20
13.0212573
11
75.5084735
21
13.1127573
0
LINE
8
DEFAULT_255_2_778
10
75.5084735
20
13.1127573
11
75.6764735
21
13.1887573
0
LINE
8
DEFAULT_255_2_778
10
75.6764735
20
13.1887573
11
75.8513735
21
13.2485573
0
LINE
8
DEFAULT_255_2_778
10
75.8513735
20
13.2485573
11
76.0310735
21
13.2913573
0
LINE
8
DEFAULT_255_2_778
10
76.0310735
20
13.2913573
11
76.2138735
21
13.3170573
0
LINE
8
DEFAULT_255_2_778
10
76.2138735
20
13.3170573
11
76.3982735
21
13.3252573
0
LINE
8
DEFAULT_255_2_778
10
76.3982735
20
13.3252573
11
76.5826735
21
13.3157573
0
LINE
8
DEFAULT_255_2_778
10
76.5826735
20
13.3157573
11
76.7654735
21
13.2887573
0
LINE
8
DEFAULT_255_2_778
10
76.7654735
20
13.2887573
11
76.9448735
21
13.2445573
0
LINE
8
DEFAULT_255_2_778
10
76.9448735
20
13.2445573
11
77.1187735
21
13.1829573
0
LINE
8
DEFAULT_255_2_778
10
77.1187735
20
13.1829573
11
77.2856735
21
13.1051573
0
LINE
8
DEFAULT_255_2_778
10
77.2856735
20
13.1051573
11
77.4856735
21
12.9900573
0
LINE
8
DEFAULT_255_2_778
10
77.4856735
20
12.9900573
11
77.6179735
21
12.8976573
0
LINE
8
DEFAULT_255_2_778
10
77.6179735
20
12.8976573
11
77.7005735
21
12.8291573
0
LINE
8
DEFAULT_255_2_778
10
77.7005735
20
12.8291573
11
77.5775735
21
12.9828573
0
LINE
8
DEFAULT_255_2_778
10
77.5775735
20
12.9828573
11
77.5293735
21
13.0921573
0
LINE
8
DEFAULT_255_2_778
10
77.5293735
20
13.0921573
11
77.5105735
21
13.1659573
0
LINE
8
DEFAULT_255_2_778
10
77.5105735
20
13.1659573
11
77.5042735
21
13.2090573
0
LINE
8
DEFAULT_255_2_778
10
77.5042735
20
13.2090573
11
77.5015735
21
13.2416573
0
LINE
8
DEFAULT_255_2_778
10
77.5015735
20
13.2416573
11
77.5002735
21
14.8267573
0
LINE
8
DEFAULT_255_2_778
10
77.5002735
20
14.8267573
11
76.4818735
21
14.8267573
0
LINE
8
DEFAULT_255_2_778
10
76.4818735
20
14.8267573
11
76.4815735
21
13.9144573
0
LINE
8
DEFAULT_255_2_778
10
10.2907735
20
-0.1859427
11
12.8823735
21
-0.1859427
0
LINE
8
DEFAULT_255_2_778
10
57.3908735
20
14.8137573
11
63.8578735
21
14.8137573
0
LINE
8
DEFAULT_255_2_778
10
63.8578735
20
14.8137573
11
64.0895735
21
14.8264573
0
LINE
8
DEFAULT_255_2_778
10
64.0895735
20
14.8264573
11
70.1752735
21
14.8264573
0
LINE
8
DEFAULT_255_2_778
10
70.1752735
20
14.8264573
11
70.3086735
21
15.0775573
0
LINE
8
DEFAULT_255_2_778
10
70.3086735
20
15.0775573
11
70.3916735
21
15.2135573
0
LINE
8
DEFAULT_255_2_778
10
71.9183735
20
16.5147573
11
75.8905735
21
16.5147573
0
LINE
8
DEFAULT_255_2_778
10
76.4919735
20
15.9134573
11
76.4919735
21
15.2133573
0
LINE
8
DEFAULT_255_2_778
10
76.4919735
20
15.2133573
11
76.4900735
21
15.0069573
0
LINE
8
DEFAULT_255_2_778
10
76.4900735
20
15.0069573
11
76.4882735
21
14.9386573
0
LINE
8
DEFAULT_255_2_778
10
76.4882735
20
14.9386573
11
76.4853735
21
14.8685573
0
LINE
8
DEFAULT_255_2_778
10
76.4853735
20
14.8685573
11
76.4829735
21
14.8365573
0
LINE
8
DEFAULT_255_2_778
10
76.4829735
20
14.8365573
11
76.4815735
21
14.8259573
0
LINE
8
DEFAULT_255_2_778
10
109.1909735
20
14.8140573
11
120.1910735
21
14.8140573
0
LINE
8
DEFAULT_255_2_778
10
120.1910735
20
14.8140573
11
120.5400735
21
14.8108573
0
LINE
8
DEFAULT_255_2_778
10
120.5400735
20
14.8108573
11
120.8887735
21
14.8010573
0
LINE
8
DEFAULT_255_2_778
10
120.8887735
20
14.8010573
11
121.1990735
21
14.7862573
0
LINE
8
DEFAULT_255_2_778
10
121.1990735
20
14.7862573
11
121.5091735
21
14.7651573
0
LINE
8
DEFAULT_255_2_778
10
121.5091735
20
14.7651573
11
121.7864735
21
14.7405573
0
LINE
8
DEFAULT_255_2_778
10
121.7864735
20
14.7405573
11
122.0632735
21
14.7103573
0
LINE
8
DEFAULT_255_2_778
10
122.0632735
20
14.7103573
11
122.3119735
21
14.6777573
0
LINE
8
DEFAULT_255_2_778
10
122.3119735
20
14.6777573
11
122.7836735
21
14.6008573
0
LINE
8
DEFAULT_255_2_778
10
122.7836735
20
14.6008573
11
123.2086735
21
14.5121573
0
LINE
8
DEFAULT_255_2_778
10
123.2086735
20
14.5121573
11
123.5922735
21
14.4137573
0
LINE
8
DEFAULT_255_2_778
10
123.5922735
20
14.4137573
11
123.9399735
21
14.3068573
0
LINE
8
DEFAULT_255_2_778
10
123.9399735
20
14.3068573
11
124.2558735
21
14.1928573
0
LINE
8
DEFAULT_255_2_778
10
124.2558735
20
14.1928573
11
124.5436735
21
14.0726573
0
LINE
8
DEFAULT_255_2_778
10
124.5436735
20
14.0726573
11
124.8069735
21
13.9470573
0
LINE
8
DEFAULT_255_2_778
10
124.8069735
20
13.9470573
11
125.0482735
21
13.8160573
0
LINE
8
DEFAULT_255_2_778
10
125.0482735
20
13.8160573
11
125.1628735
21
13.7480573
0
LINE
8
DEFAULT_255_2_778
10
125.1628735
20
13.7480573
11
125.3750735
21
13.6102573
0
LINE
8
DEFAULT_255_2_778
10
125.3750735
20
13.6102573
11
125.5708735
21
13.4675573
0
LINE
8
DEFAULT_255_2_778
10
125.5708735
20
13.4675573
11
125.7515735
21
13.3204573
0
LINE
8
DEFAULT_255_2_778
10
125.7515735
20
13.3204573
11
125.9187735
21
13.1683573
0
LINE
8
DEFAULT_255_2_778
10
125.9187735
20
13.1683573
11
126.0737735
21
13.0109573
0
LINE
8
DEFAULT_255_2_778
10
126.0737735
20
13.0109573
11
126.2171735
21
12.8479573
0
LINE
8
DEFAULT_255_2_778
10
126.2171735
20
12.8479573
11
126.3502735
21
12.6788573
0
LINE
8
DEFAULT_255_2_778
10
126.3502735
20
12.6788573
11
126.4732735
21
12.5029573
0
LINE
8
DEFAULT_255_2_778
10
126.4732735
20
12.5029573
11
126.5868735
21
12.3195573
0
LINE
8
DEFAULT_255_2_778
10
126.5868735
20
12.3195573
11
126.6913735
21
12.1280573
0
LINE
8
DEFAULT_255_2_778
10
126.6913735
20
12.1280573
11
126.7868735
21
11.9271573
0
LINE
8
DEFAULT_255_2_778
10
126.7868735
20
11.9271573
11
126.8733735
21
11.7160573
0
LINE
8
DEFAULT_255_2_778
10
126.8733735
20
11.7160573
11
126.9508735
21
11.4930573
0
LINE
8
DEFAULT_255_2_778
10
126.9508735
20
11.4930573
11
127.0188735
21
11.2569573
0
LINE
8
DEFAULT_255_2_778
10
127.0188735
20
11.2569573
11
127.0770735
21
11.0061573
0
LINE
8
DEFAULT_255_2_778
10
127.0770735
20
11.0061573
11
127.1024735
21
10.8728573
0
LINE
8
DEFAULT_255_2_778
10
127.1024735
20
10.8728573
11
127.1244735
21
10.7386573
0
LINE
8
DEFAULT_255_2_778
10
127.1244735
20
10.7386573
11
127.1440735
21
10.5958573
0
LINE
8
DEFAULT_255_2_778
10
127.1440735
20
10.5958573
11
127.1598735
21
10.4524573
0
LINE
8
DEFAULT_255_2_778
10
127.1598735
20
10.4524573
11
127.1731735
21
10.2989573
0
LINE
8
DEFAULT_255_2_778
10
127.1731735
20
10.2989573
11
127.1823735
21
10.1452573
0
LINE
8
DEFAULT_255_2_778
10
127.1823735
20
10.1452573
11
127.1884735
21
9.9795573
0
LINE
8
DEFAULT_255_2_778
10
127.1884735
20
9.9795573
11
127.1903735
21
5.1141573
0
LINE
8
DEFAULT_255_2_778
10
127.4903735
20
4.8141573
11
128.8902735
21
4.8141573
0
LINE
8
DEFAULT_255_2_778
10
129.1903735
20
5.1141573
11
129.1903735
21
14.8137573
0
LINE
8
DEFAULT_255_2_778
10
119.5644735
20
146.8141573
11
2.6908735
21
146.8141573
0
LINE
8
DEFAULT_255_2_778
10
0.3908735
20
144.5141573
11
0.3908735
21
140.3141573
0
LINE
8
DEFAULT_255_2_778
10
0.7909735
20
139.9140573
11
4.0908735
21
139.9140573
0
LINE
8
DEFAULT_255_2_778
10
4.8909735
20
140.7141573
11
4.8909735
21
141.8140573
0
LINE
8
DEFAULT_255_2_778
10
5.8910735
20
142.8141573
11
6.3910735
21
142.8141573
0
LINE
8
DEFAULT_255_2_778
10
9.8910735
20
139.3142573
11
9.8910735
21
116.8143573
0
LINE
8
DEFAULT_255_2_778
10
9.8910735
20
116.8143573
11
3.7481735
21
116.1529573
0
LINE
8
DEFAULT_255_2_778
10
65.6910735
20
10.1584573
11
63.5908735
21
10.1952573
0
LINE
8
DEFAULT_255_2_778
10
63.5908735
20
10.1952573
11
62.8910735
21
10.5074573
0
LINE
8
DEFAULT_255_2_778
10
62.8910735
20
10.5074573
11
62.8910735
21
12.3211573
0
LINE
8
DEFAULT_255_2_778
10
62.8910735
20
12.3211573
11
63.5908735
21
12.6333573
0
LINE
8
DEFAULT_255_2_778
10
63.5908735
20
12.6333573
11
64.5806735
21
12.6505573
0
LINE
8
DEFAULT_255_2_778
10
91.0334735
20
14.8137573
11
91.0709735
21
14.8267573
0
LINE
8
DEFAULT_255_2_778
10
91.0709735
20
14.8267573
11
108.9988735
21
14.8463573
0
LINE
8
DEFAULT_255_2_778
10
108.9988735
20
14.8463573
11
109.1401735
21
14.9558573
0
LINE
8
DEFAULT_255_2_778
10
109.1401735
20
14.9558573
11
109.1798735
21
15.0400573
0
LINE
8
DEFAULT_255_2_778
10
109.1798735
20
15.0400573
11
109.1885735
21
15.0820573
0
LINE
8
DEFAULT_255_2_778
10
109.1885735
20
15.0820573
11
109.1909735
21
15.1175573
0
ARC
8
DEFAULT_255_2_778
10
88.3345618
20
16.9655818
40
3.0922033
50
270.0026576
51
295.8580591
0
ARC
8
DEFAULT_255_2_778
10
83.9508583
20
10.964051
40
2.9093273
50
90.0069526
51
104.0065571
0
ARC
8
DEFAULT_255_2_778
10
76.3685808
20
11.3497138
40
1.9785652
50
1.3343075
51
1.8584167
0
ARC
8
DEFAULT_255_2_778
10
76.3640664
20
11.3496139
40
1.9830807
50
0.0001369
51
1.3341555
0
ARC
8
DEFAULT_255_2_778
10
76.3495188
20
11.3500101
40
1.9976282
50
349.902495
51
359.9887716
0
ARC
8
DEFAULT_255_2_778
10
76.3569637
20
11.3482134
40
1.9899567
50
325.886516
51
346.8583495
0
ARC
8
DEFAULT_255_2_778
10
3.3907885
20
73.713612
40
0.3995834
50
99.9557815
51
180.0023479
0
ARC
8
DEFAULT_255_2_778
10
3.2090826
20
73.7134913
40
0.2178776
50
179.9725609
51
180.0823229
0
ARC
8
DEFAULT_255_2_778
10
3.5919077
20
37.7092519
40
0.6007027
50
180.054717
51
269.4370134
0
ARC
8
DEFAULT_255_2_778
10
9.4918114
20
36.6574945
40
0.3994942
50
0.0058492
51
89.5849583
0
ARC
8
DEFAULT_255_2_778
10
9.5033206
20
36.6573961
40
0.3879851
50
359.9383016
51
0.020564
0
ARC
8
DEFAULT_255_2_778
10
10.2455039
20
0.2130255
40
0.3541994
50
179.8782304
51
179.9999742
0
ARC
8
DEFAULT_255_2_778
10
10.290273
20
0.2130369
40
0.3989684
50
180.0016188
51
225.0295429
0
ARC
8
DEFAULT_255_2_778
10
10.2909488
20
0.2133349
40
0.3996569
50
224.991197
51
269.9970351
0
LINE
8
DEFAULT_255_2_778
10
10.2909281
20
-0.1863219
11
10.2913053
21
-0.1863217
0
LINE
8
DEFAULT_255_2_778
10
91.0710053
20
14.8266783
11
91.0355053
21
14.8110783
0
LINE
8
DEFAULT_255_2_778
10
91.0355053
20
14.8110783
11
89.6832053
21
14.1829783
0
LINE
8
DEFAULT_255_2_778
10
88.3347053
20
13.8733783
11
83.9505053
21
13.8733783
0
LINE
8
DEFAULT_255_2_778
10
83.2467053
20
13.7868783
11
78.3668053
21
12.5708783
0
LINE
8
DEFAULT_255_2_778
10
78.3668053
20
12.5708783
11
78.1046053
21
12.5655783
0
LINE
8
DEFAULT_255_2_778
10
78.1046053
20
12.5655783
11
77.8842053
21
12.6608783
0
LINE
8
DEFAULT_255_2_778
10
77.8842053
20
12.6608783
11
77.7897053
21
12.7422783
0
LINE
8
DEFAULT_255_2_778
10
77.7897053
20
12.7422783
11
77.9011053
21
12.6131783
0
LINE
8
DEFAULT_255_2_778
10
77.9011053
20
12.6131783
11
78.0188053
21
12.4449783
0
LINE
8
DEFAULT_255_2_778
10
78.0188053
20
12.4449783
11
78.1114053
21
12.2880783
0
LINE
8
DEFAULT_255_2_778
10
78.1114053
20
12.2880783
11
78.1760053
21
12.1575783
0
LINE
8
DEFAULT_255_2_778
10
78.1760053
20
12.1575783
11
78.2181053
21
12.0564783
0
LINE
8
DEFAULT_255_2_778
10
78.2181053
20
12.0564783
11
78.2540053
21
11.9530783
0
LINE
8
DEFAULT_255_2_778
10
78.2540053
20
11.9530783
11
78.2842053
21
11.8474783
0
LINE
8
DEFAULT_255_2_778
10
78.2842053
20
11.8474783
11
78.3011053
21
11.7762783
0
LINE
8
DEFAULT_255_2_778
10
78.3011053
20
11.7762783
11
78.3154053
21
11.7045783
0
LINE
8
DEFAULT_255_2_778
10
78.3154053
20
11.7045783
11
78.3271053
21
11.6323783
0
LINE
8
DEFAULT_255_2_778
10
78.3271053
20
11.6323783
11
78.3318053
21
11.5961783
0
LINE
8
DEFAULT_255_2_778
10
78.3318053
20
11.5961783
11
78.3361053
21
11.5598783
0
LINE
8
DEFAULT_255_2_778
10
78.3361053
20
11.5598783
11
78.3395053
21
11.5233783
0
LINE
8
DEFAULT_255_2_778
10
78.3395053
20
11.5233783
11
78.3424053
21
11.4868783
0
LINE
8
DEFAULT_255_2_778
10
78.3424053
20
11.4868783
11
78.3445053
21
11.4503783
0
LINE
8
DEFAULT_255_2_778
10
78.3445053
20
11.4503783
11
78.3461053
21
11.4138783
0
LINE
8
DEFAULT_255_2_778
10
78.3162053
20
10.9997783
11
78.2948053
21
10.8957783
0
LINE
8
DEFAULT_255_2_778
10
9.8910053
20
75.2654783
11
3.3217053
21
74.1071783
0
LINE
8
DEFAULT_255_2_778
10
2.9912053
20
73.7131783
11
2.9912053
21
37.7086783
0
LINE
8
DEFAULT_255_2_778
10
3.5860053
20
37.1085783
11
9.4947053
21
37.0569783
0
LINE
8
DEFAULT_255_2_778
10
9.8913053
20
36.6569783
11
9.8913053
21
0.2137783
0
ARC
8
DEFAULT_255_2_778
10
6.3787352
20
37.4839325
40
0.3879849
50
179.9383016
51
180.020564
0
ARC
8
DEFAULT_255_2_778
10
6.3902444
20
37.483834
40
0.3994942
50
180.0058492
51
269.5849583
0
ARC
8
DEFAULT_255_2_778
10
3.5881551
20
115.7550482
40
0.1972048
50
179.9711517
51
180.086551
0
ARC
8
DEFAULT_255_2_778
10
3.7906057
20
115.7550564
40
0.3996553
50
96.098
51
179.986935
0
ARC
8
DEFAULT_255_2_778
10
57.3915363
20
-57.2208627
40
68.0141879
50
93.1578411
51
111.9465159
0
ARC
8
DEFAULT_255_2_778
10
53.4823786
20
13.6808503
40
2.9952098
50
273.1094749
51
292.5150534
0
ARC
8
DEFAULT_255_2_778
10
53.4758115
20
13.6883625
40
3.004666
50
292.5758819
51
349.5619307
0
ARC
8
DEFAULT_255_2_778
10
53.4652593
20
13.6847351
40
3.0143913
50
349.6660748
51
0.0116926
0
ARC
8
DEFAULT_255_2_778
10
63.7698405
20
13.0646341
40
0.1789902
50
179.9697176
51
180.0908503
0
ARC
8
DEFAULT_255_2_778
10
63.9904668
20
13.0649235
40
0.3996165
50
135.0090644
51
180.0279243
0
ARC
8
DEFAULT_255_2_778
10
63.9904556
20
13.064645
40
0.3998055
50
89.9974542
51
134.9797083
0
LINE
8
DEFAULT_255_2_778
10
63.9904734
20
13.4644505
11
63.9908505
21
13.4644503
0
LINE
8
DEFAULT_255_2_778
10
5.8910505
20
119.3139503
11
5.8901298
21
119.3139503
0
ARC
8
DEFAULT_255_2_778
10
5.8904466
20
136.3106276
40
16.9966774
50
251.3784886
51
269.9989318
0
ARC
8
DEFAULT_255_2_778
10
0.5901866
20
120.5823416
40
0.3993364
50
179.9943715
51
251.4508531
0
ARC
8
DEFAULT_255_2_778
10
0.4664361
20
120.5824982
40
0.2755859
50
179.9267929
51
180.0244007
0
ARC
8
DEFAULT_255_2_778
10
121.7323258
20
134.2348587
40
0.2999916
50
6.8906787
51
90.0143733
0
LINE
8
DEFAULT_255_2_778
10
77.4899505
20
15.9142503
11
77.4899504
21
15.9146271
0
ARC
8
DEFAULT_255_2_778
10
78.0904025
20
15.9145349
40
0.6004521
50
134.9552375
51
179.9912045
0
ARC
8
DEFAULT_255_2_778
10
78.0916599
20
15.913765
40
0.6018855
50
90.0294523
51
134.9881605
0
ARC
8
DEFAULT_255_2_778
10
90.4462843
20
15.9145925
40
0.6010578
50
44.9792117
51
89.9936852
0
ARC
8
DEFAULT_255_2_778
10
90.4460157
20
15.9139033
40
0.601735
50
0.0330384
51
45.0075489
0
LINE
8
DEFAULT_255_2_778
10
5.9907505
20
69.8183503
11
5.9907505
21
37.4843503
0
LINE
8
DEFAULT_255_2_778
10
7.5409505
20
95.0672503
11
7.5409505
21
74.8512503
0
LINE
8
DEFAULT_255_2_778
10
9.8907505
20
75.2658503
11
9.8907505
21
94.8142503
0
LINE
8
DEFAULT_255_2_778
10
12.8937505
20
75.7933503
11
12.8913505
21
94.4920503
0
LINE
8
DEFAULT_255_2_778
10
12.8913505
20
94.4920503
11
3.7291505
21
95.4876503
0
LINE
8
DEFAULT_255_2_778
10
3.7291505
20
95.4876503
11
3.7106505
21
95.5268503
0
LINE
8
DEFAULT_255_2_778
10
3.7106505
20
95.5268503
11
3.6994505
21
95.5762503
0
LINE
8
DEFAULT_255_2_778
10
3.6994505
20
95.5762503
11
3.6936505
21
95.6249503
0
LINE
8
DEFAULT_255_2_778
10
3.6936505
20
95.6249503
11
3.6952505
21
95.8345503
0
LINE
8
DEFAULT_255_2_778
10
3.6952505
20
95.8345503
11
3.6986505
21
95.8731503
0
LINE
8
DEFAULT_255_2_778
10
3.6986505
20
95.8731503
11
3.3909505
21
95.8731503
0
LINE
8
DEFAULT_255_2_778
10
3.3909505
20
95.8731503
11
3.3909505
21
115.7547503
0
LINE
8
DEFAULT_255_2_778
10
91.0328505
20
14.8143503
11
90.9352505
21
14.8775503
0
LINE
8
DEFAULT_255_2_778
10
77.7113505
20
12.8151503
11
77.7653505
21
12.7587503
0
LINE
8
DEFAULT_255_2_778
10
77.7653505
20
12.7587503
11
77.8026505
21
12.7288503
0
LINE
8
DEFAULT_255_2_778
10
77.8026505
20
12.7288503
11
77.7113505
21
12.8151503
0
LINE
8
DEFAULT_255_2_778
10
56.4796505
20
13.6853503
11
56.4796505
21
14.8140503
0
LINE
8
DEFAULT_255_2_778
10
63.5908505
20
10.1949503
11
63.5908505
21
12.6331503
0
LINE
8
DEFAULT_255_2_778
10
63.5908505
20
12.6333503
11
63.5908505
21
13.0643503
0
LINE
8
DEFAULT_255_2_778
10
63.9908505
20
13.4644503
11
64.2290505
21
13.4644503
0
LINE
8
DEFAULT_255_2_778
10
9.8907505
20
119.3139503
11
5.8910505
21
119.3139503
0
LINE
8
DEFAULT_255_2_778
10
0.1908505
20
120.5828503
11
0.1908505
21
124.5473503
0
LINE
8
DEFAULT_255_2_778
10
121.7322505
20
134.5348503
11
116.9620505
21
134.5348503
0
LINE
8
DEFAULT_255_2_778
10
112.5800505
20
134.5446503
11
116.9615505
21
134.5446503
0
LINE
8
DEFAULT_255_2_778
10
117.6759505
20
128.1914503
11
117.6587505
21
128.1914503
0
LINE
8
DEFAULT_255_2_778
10
69.4524505
20
9.9714503
11
69.4278505
21
10.0941503
0
LINE
8
DEFAULT_255_2_778
10
69.4278505
20
10.0941503
11
69.4053505
21
10.2174503
0
LINE
8
DEFAULT_255_2_778
10
69.4053505
20
10.2174503
11
69.3849505
21
10.3412503
0
LINE
8
DEFAULT_255_2_778
10
69.3849505
20
10.3412503
11
69.3669505
21
10.4653503
0
LINE
8
DEFAULT_255_2_778
10
69.3669505
20
10.4653503
11
69.3510505
21
10.5900503
0
LINE
8
DEFAULT_255_2_778
10
69.3510505
20
10.5900503
11
69.3373505
21
10.7148503
0
LINE
8
DEFAULT_255_2_778
10
69.3373505
20
10.7148503
11
69.3259505
21
10.8397503
0
LINE
8
DEFAULT_255_2_778
10
69.3259505
20
10.8397503
11
69.3166505
21
10.9649503
0
LINE
8
DEFAULT_255_2_778
10
69.3166505
20
10.9649503
11
69.3098505
21
11.0903503
0
LINE
8
DEFAULT_255_2_778
10
69.3098505
20
11.0903503
11
69.3050505
21
11.2157503
0
LINE
8
DEFAULT_255_2_778
10
69.3050505
20
11.2157503
11
69.3039505
21
11.5917503
0
LINE
8
DEFAULT_255_2_778
10
69.3039505
20
11.5917503
11
69.3082505
21
11.7168503
0
LINE
8
DEFAULT_255_2_778
10
69.3082505
20
11.7168503
11
69.3145505
21
11.8420503
0
LINE
8
DEFAULT_255_2_778
10
69.3145505
20
11.8420503
11
69.3230505
21
11.9668503
0
LINE
8
DEFAULT_255_2_778
10
69.3230505
20
11.9668503
11
69.3338505
21
12.0917503
0
LINE
8
DEFAULT_255_2_778
10
69.3338505
20
12.0917503
11
69.3468505
21
12.2164503
0
LINE
8
DEFAULT_255_2_778
10
69.3468505
20
12.2164503
11
69.3619505
21
12.3407503
0
LINE
8
DEFAULT_255_2_778
10
69.3619505
20
12.3407503
11
69.3793505
21
12.4648503
0
LINE
8
DEFAULT_255_2_778
10
69.3793505
20
12.4648503
11
69.3989505
21
12.5884503
0
LINE
8
DEFAULT_255_2_778
10
69.3989505
20
12.5884503
11
69.4206505
21
12.7117503
0
LINE
8
DEFAULT_255_2_778
10
69.4206505
20
12.7117503
11
69.4444505
21
12.8347503
0
LINE
8
DEFAULT_255_2_778
10
69.4444505
20
12.8347503
11
69.4706505
21
12.9572503
0
LINE
8
DEFAULT_255_2_778
10
69.4706505
20
12.9572503
11
69.4989505
21
13.0792503
0
LINE
8
DEFAULT_255_2_778
10
69.4989505
20
13.0792503
11
69.5294505
21
13.2006503
0
LINE
8
DEFAULT_255_2_778
10
69.5294505
20
13.2006503
11
69.5619505
21
13.3215503
0
LINE
8
DEFAULT_255_2_778
10
69.5619505
20
13.3215503
11
69.5966505
21
13.4419503
0
LINE
8
DEFAULT_255_2_778
10
69.5966505
20
13.4419503
11
69.6333505
21
13.5618503
0
LINE
8
DEFAULT_255_2_778
10
69.6333505
20
13.5618503
11
69.6722505
21
13.6808503
0
LINE
8
DEFAULT_255_2_778
10
69.6722505
20
13.6808503
11
69.7132505
21
13.7994503
0
LINE
8
DEFAULT_255_2_778
10
69.7132505
20
13.7994503
11
69.7564505
21
13.9171503
0
LINE
8
DEFAULT_255_2_778
10
69.7564505
20
13.9171503
11
69.8016505
21
14.0340503
0
LINE
8
DEFAULT_255_2_778
10
69.8016505
20
14.0340503
11
69.8490505
21
14.1502503
0
LINE
8
DEFAULT_255_2_778
10
69.8490505
20
14.1502503
11
69.8985505
21
14.2653503
0
LINE
8
DEFAULT_255_2_778
10
69.8985505
20
14.2653503
11
69.9498505
21
14.3796503
0
LINE
8
DEFAULT_255_2_778
10
69.9498505
20
14.3796503
11
70.0585505
21
14.6053503
0
LINE
8
DEFAULT_255_2_778
10
70.0585505
20
14.6053503
11
70.1752505
21
14.8267503
0
LINE
8
DEFAULT_255_2_778
10
74.4294505
20
11.4141503
11
74.4321505
21
11.3194503
0
LINE
8
DEFAULT_255_2_778
10
74.4321505
20
11.3194503
11
74.4382505
21
11.2281503
0
LINE
8
DEFAULT_255_2_778
10
74.4382505
20
11.2281503
11
74.4456505
21
11.1501503
0
LINE
8
DEFAULT_255_2_778
10
74.4456505
20
11.1501503
11
74.4540505
21
11.0879503
0
LINE
8
DEFAULT_255_2_778
10
74.4540505
20
11.0879503
11
74.4567505
21
11.0726503
0
LINE
8
DEFAULT_255_2_778
10
77.5002505
20
14.8267503
11
77.4973505
21
14.8585503
0
LINE
8
DEFAULT_255_2_778
10
77.4973505
20
14.8585503
11
77.4949505
21
14.9095503
0
LINE
8
DEFAULT_255_2_778
10
77.4949505
20
14.9095503
11
77.4928505
21
14.9691503
0
LINE
8
DEFAULT_255_2_778
10
77.4928505
20
14.9691503
11
77.4901505
21
15.1278503
0
LINE
8
DEFAULT_255_2_778
10
77.4901505
20
15.1278503
11
77.4899505
21
15.9142503
0
LINE
8
DEFAULT_255_2_778
10
78.0913505
20
16.5156503
11
90.4463505
21
16.5156503
0
LINE
8
DEFAULT_255_2_778
10
91.0477505
20
15.9142503
11
91.0477505
21
15.2141503
0
LINE
8
DEFAULT_255_2_778
10
91.0477505
20
15.2141503
11
91.0453505
21
14.9921503
0
LINE
8
DEFAULT_255_2_778
10
91.0453505
20
14.9921503
11
91.0434505
21
14.9312503
0
LINE
8
DEFAULT_255_2_778
10
91.0434505
20
14.9312503
11
91.0400505
21
14.8564503
0
LINE
8
DEFAULT_255_2_778
10
91.0400505
20
14.8564503
11
91.0344505
21
14.8138503
0
LINE
8
DEFAULT_255_2_778
10
91.0344505
20
14.8138503
11
91.0334505
21
14.8138503
0
ARC
8
DEFAULT_255_2_778
10
89.9885576
20
133.1934819
40
23.0024934
50
3.367366
51
21.2666701
0
ARC
8
DEFAULT_255_2_778
10
112.5747684
20
144.5983756
40
0.6496811
50
339.3818073
51
355.8574618
0
ARC
8
DEFAULT_255_2_778
10
112.5754632
20
144.5982349
40
0.6489779
50
355.8654152
51
0.0001493
0
ARC
8
DEFAULT_255_2_778
10
112.5747285
20
144.5983666
40
0.6497127
50
359.9885343
51
47.5277514
0
ARC
8
DEFAULT_255_2_778
10
112.0537047
20
145.2782796
40
0.5004392
50
47.5094021
51
89.9999762
0
ARC
8
DEFAULT_255_2_778
10
112.0537082
20
145.2785212
40
0.5001977
50
90.0003808
51
95.494011
0
ARC
8
DEFAULT_255_2_778
10
112.0538093
20
145.2775919
40
0.5011323
50
95.4953445
51
100.459215
0
ARC
8
DEFAULT_255_2_778
10
112.0538768
20
145.2786812
40
0.5000735
50
100.4894727
51
153.4763473
0
ARC
8
DEFAULT_255_2_778
10
115.9889187
20
143.3144614
40
4.8981088
50
153.4737148
51
170.734963
0
ARC
8
DEFAULT_255_2_778
10
115.9930482
20
143.3137592
40
4.9022975
50
170.7346336
51
180.0001779
0
ARC
8
DEFAULT_255_2_778
10
115.9928175
20
143.3137465
40
4.9020668
50
180.0000292
51
180.8051461
0
ARC
8
DEFAULT_255_2_778
10
115.9895417
20
143.313526
40
4.8987882
50
180.8031062
51
198.0352432
0
ARC
8
DEFAULT_255_2_778
10
115.9959341
20
143.315624
40
4.9055162
50
198.0354281
51
201.2622916
0
LINE
8
DEFAULT_255_2_778
10
107.3908359
20
146.8140976
11
107.3914186
21
146.8140977
0
ARC
8
DEFAULT_255_2_778
10
107.391335
20
145.4144491
40
1.3996486
50
32.0747378
51
89.9965773
0
ARC
8
DEFAULT_255_2_778
10
107.3918004
20
145.4145654
40
1.3991926
50
359.9909588
51
32.0808213
0
ARC
8
DEFAULT_255_2_778
10
107.3909167
20
145.4143331
40
1.4000763
50
359.0972009
51
0.0004743
0
ARC
8
DEFAULT_255_2_778
10
107.3928122
20
145.4141494
40
1.398178
50
334.1170744
51
359.1035038
0
ARC
8
DEFAULT_255_2_778
10
108.9197871
20
144.6732098
40
0.299068
50
154.1097265
51
179.6176269
0
ARC
8
DEFAULT_255_2_778
10
108.9250714
20
144.6731412
40
0.3043525
50
179.6113468
51
179.9943652
0
ARC
8
DEFAULT_255_2_778
10
108.9205628
20
144.6731855
40
0.2998439
50
180.0027427
51
209.0482344
0
ARC
8
DEFAULT_255_2_778
10
88.8229702
20
131.2052995
40
24.0041365
50
8.0028152
51
21.6577374
0
ARC
8
DEFAULT_255_2_778
10
30.850707
20
8.647433
40
3.000129
50
184.6695196
51
238.3069946
0
ARC
8
DEFAULT_255_2_778
10
30.8501619
20
8.6453554
40
2.9980747
50
238.2949985
51
261.0969499
0
ARC
8
DEFAULT_255_2_778
10
30.8509895
20
8.6494565
40
3.0022545
50
261.0934578
51
269.9998317
0
ARC
8
DEFAULT_255_2_778
10
30.8509946
20
8.6475424
40
3.0003404
50
269.9997355
51
271.4690854
0
ARC
8
DEFAULT_255_2_778
10
30.8511729
20
8.6455527
40
2.9983469
50
271.4666527
51
289.6770561
0
ARC
8
DEFAULT_255_2_778
10
30.8486567
20
8.6529937
40
3.0062006
50
289.6744606
51
291.9390994
0
ARC
8
DEFAULT_255_2_778
10
3.588561
20
95.8729995
40
0.1975253
50
179.9135361
51
180.0288193
0
ARC
8
DEFAULT_255_2_778
10
3.7904405
20
95.8728664
40
0.3994048
50
179.9951522
51
263.9343046
0
ARC
8
DEFAULT_255_2_778
10
101.6908936
20
27.5636483
40
39.9997983
50
198.5869163
51
220.5159381
0
ARC
8
DEFAULT_255_2_778
10
75.0826891
20
4.8253337
40
4.9994053
50
220.5163103
51
246.4189834
0
ARC
8
DEFAULT_255_2_778
10
75.0830536
20
4.824459
40
4.9987494
50
246.4111439
51
270.0031351
0
ARC
8
DEFAULT_255_2_778
10
75.0833164
20
4.8397804
40
5.0140708
50
270.0001222
51
270.4961611
0
ARC
8
DEFAULT_255_2_778
10
72.3916285
20
314.8145811
40
315.000558
50
270.4974978
51
278.1847867
0
ARC
8
DEFAULT_255_2_778
10
117.0231342
20
4.5080491
40
1.5007732
50
278.1941386
51
323.192707
0
ARC
8
DEFAULT_255_2_778
10
86.1114242
20
27.6207063
40
40.0977773
50
323.2137504
51
327.0243708
0
ARC
8
DEFAULT_255_2_778
10
118.490412
20
6.6125793
40
1.5006239
50
327.0417217
51
359.9968796
0
ARC
8
DEFAULT_255_2_778
10
118.7966787
20
8.0159462
40
1.1943588
50
359.9065243
51
35.4448018
0
ARC
8
DEFAULT_255_2_778
10
118.7918818
20
8.0149973
40
1.1988186
50
35.3487956
51
84.6613023
0
ARC
8
DEFAULT_255_2_778
10
118.7913017
20
7.9982767
40
1.215521
50
84.7074083
51
90.0078139
0
ARC
8
DEFAULT_255_2_778
10
113.6354886
20
7.7138724
40
1.4999252
50
89.9981919
51
150.0060596
0
ARC
8
DEFAULT_255_2_778
10
110.6938898
20
9.4095729
40
1.8954255
50
309.3690396
51
330.0641156
0
ARC
8
DEFAULT_255_2_778
10
110.6893334
20
9.4189524
40
1.9055684
50
270.0148154
51
309.2960634
0
ARC
8
DEFAULT_255_2_778
10
110.6897889
20
9.4056067
40
1.8922227
50
265.2694307
51
270.001128
0
ARC
8
DEFAULT_255_2_778
10
110.689499
20
9.4016269
40
1.8882327
50
251.6343437
51
265.2682361
0
ARC
8
DEFAULT_255_2_778
10
110.6974313
20
9.42502
40
1.9129336
50
243.3174982
51
251.6296248
0
ARC
8
DEFAULT_255_2_778
10
110.6874026
20
9.4108472
40
1.8957683
50
222.0718378
51
243.3959713
0
ARC
8
DEFAULT_255_2_778
10
110.6963385
20
9.4158919
40
1.9057829
50
180.0338838
51
222.0044082
0
ARC
8
DEFAULT_255_2_778
10
110.6792188
20
9.4148086
40
1.8886628
50
173.8791108
51
180.0013254
0
ARC
8
DEFAULT_255_2_778
10
110.6821144
20
9.4142717
40
1.891599
50
162.6302907
51
173.8722928
0
ARC
8
DEFAULT_255_2_778
10
110.7081254
20
9.4062684
40
1.9188132
50
156.6820761
51
162.634082
0
ARC
8
DEFAULT_255_2_778
10
106.1893393
20
11.3535715
40
3.0016968
50
336.6903093
51
359.9833187
0
ARC
8
DEFAULT_255_2_778
10
109.4911454
20
19.3636882
40
0.3001094
50
90.0208901
51
179.9791099
0
ARC
8
DEFAULT_255_2_778
10
117.1906515
20
74.528136
40
54.8643384
50
270.0002971
51
277.3155496
0
LINE
8
DEFAULT_255_2_778
10
9.8908359
20
116.8140976
11
9.9085359
21
116.7981976
0
LINE
8
DEFAULT_255_2_778
10
111.4246359
20
141.5366976
11
111.9829359
21
139.9285976
0
LINE
8
DEFAULT_255_2_778
10
113.0134359
20
145.0775976
11
112.3917359
21
145.6472976
0
LINE
8
DEFAULT_255_2_778
10
108.6584359
20
144.5275976
11
111.1325359
21
140.0642976
0
LINE
8
DEFAULT_255_2_778
10
119.9910359
20
6.6124976
11
119.9910359
21
8.0139976
0
LINE
8
DEFAULT_255_2_778
10
118.7911359
20
9.2137976
11
113.6355359
21
9.2137976
0
LINE
8
DEFAULT_255_2_778
10
109.1910359
20
11.3526976
11
109.1910359
21
19.3637976
0
LINE
8
DEFAULT_255_2_778
10
109.4910359
20
19.6637976
11
117.1909359
21
19.6637976
0
ARC
8
DEFAULT_255_2_778
10
70.0274337
20
10.0923861
40
0.5875531
50
191.8891769
51
254.4866299
0
ARC
8
DEFAULT_255_2_778
10
70.0272737
20
10.092302
40
0.5874292
50
254.4994778
51
264.9372354
0
ARC
8
DEFAULT_255_2_778
10
70.0271451
20
10.0913377
40
0.5864572
50
264.9414291
51
270.0000552
0
ARC
8
DEFAULT_255_2_778
10
70.0271526
20
10.0925811
40
0.5877005
50
269.9993264
51
317.1023535
0
ARC
8
DEFAULT_255_2_778
10
76.3884425
20
11.4116312
40
2.9963919
50
221.9283785
51
240.1517377
0
ARC
8
DEFAULT_255_2_778
10
76.3915548
20
11.4195531
40
3.0048122
50
240.1754453
51
269.9963049
0
ARC
8
DEFAULT_255_2_778
10
76.3913834
20
11.4111973
40
2.9964564
50
269.999572
51
273.6045591
0
ARC
8
DEFAULT_255_2_778
10
76.3917365
20
11.4062099
40
2.9914565
50
273.6038147
51
286.5667302
0
ARC
8
DEFAULT_255_2_778
10
76.386472
20
11.4235202
40
3.0095495
50
286.5688301
51
293.4596867
0
ARC
8
DEFAULT_255_2_778
10
76.3939427
20
11.4107943
40
2.994902
50
293.4254991
51
315.9704496
0
ARC
8
DEFAULT_255_2_778
10
76.3892619
20
11.4157806
40
3.0017331
50
315.9641188
51
357.8576487
0
ARC
8
DEFAULT_255_2_778
10
76.3906959
20
11.4141943
40
3.0002411
50
357.8868965
51
0.0003554
0
ARC
8
DEFAULT_255_2_778
10
76.3771807
20
11.4140538
40
3.0137563
50
0.0030251
51
4.9526503
0
ARC
8
DEFAULT_255_2_778
10
76.9008746
20
11.414188
40
2.4901581
50
359.9976429
51
6.0348239
0
ARC
8
DEFAULT_255_2_778
10
76.3877817
20
11.4166721
40
0.9980524
50
140.8298428
51
180.1484853
0
ARC
8
DEFAULT_255_2_778
10
76.3880273
20
11.4173668
40
0.9978042
50
93.1927441
51
140.8696772
0
ARC
8
DEFAULT_255_2_778
10
76.3908626
20
11.3888689
40
1.0264167
50
89.9960905
51
93.2621695
0
ARC
8
DEFAULT_255_2_778
10
76.3934113
20
11.4172809
40
0.9980078
50
50.484279
51
90.1422998
0
ARC
8
DEFAULT_255_2_778
10
76.3941892
20
11.416863
40
0.9978355
50
3.1769827
51
50.5340045
0
ARC
8
DEFAULT_255_2_778
10
76.3663135
20
11.4141523
40
1.0258192
50
359.9962722
51
3.241861
0
ARC
8
DEFAULT_255_2_778
10
76.3941635
20
11.4115923
40
0.9979722
50
320.5667877
51
0.1431442
0
ARC
8
DEFAULT_255_2_778
10
76.3936874
20
11.4108822
40
0.9978893
50
273.1833029
51
320.615648
0
ARC
8
DEFAULT_255_2_778
10
76.3909962
20
11.4386395
40
1.025754
50
269.9964471
51
273.2472916
0
ARC
8
DEFAULT_255_2_778
10
76.388417
20
11.4109014
40
0.998019
50
230.5706563
51
270.1444193
0
ARC
8
DEFAULT_255_2_778
10
76.3876654
20
11.4112646
40
0.9978225
50
183.1802705
51
230.6172403
0
ARC
8
DEFAULT_255_2_778
10
76.415823
20
11.4140216
40
1.0260905
50
179.9964276
51
183.2467549
0
ARC
8
DEFAULT_255_2_778
10
128.8701177
20
21.2725867
40
0.30012
50
283.8444783
51
359.9905666
0
ARC
8
DEFAULT_255_2_778
10
128.8761931
20
21.2725706
40
0.2940446
50
359.9935249
51
0.3341842
0
ARC
8
DEFAULT_255_2_778
10
117.6880513
20
69.1336199
40
49.4502725
50
277.5405841
51
283.1502216
0
ARC
8
DEFAULT_255_2_778
10
115.9557659
20
139.313963
40
1.0001619
50
9.7566662
51
89.4920461
0
ARC
8
DEFAULT_255_2_778
10
115.9465675
20
139.3124994
40
1.0094753
50
9.1016961
51
9.7500601
0
ARC
8
DEFAULT_255_2_778
10
112.991556
20
138.840131
40
4.0020035
50
4.2062761
51
9.08703
0
ARC
8
DEFAULT_255_2_778
10
112.9946796
20
138.8403875
40
3.9988693
50
0.0000428
51
4.2058934
0
ARC
8
DEFAULT_255_2_778
10
112.993337
20
138.8404308
40
4.0002119
50
326.0145961
51
359.9994235
0
ARC
8
DEFAULT_255_2_778
10
116.9710227
20
136.1578429
40
0.7975235
50
145.9503165
51
175.0709441
0
ARC
8
DEFAULT_255_2_778
10
116.9746053
20
136.1574073
40
0.8011305
50
175.0619218
51
178.6152687
0
ARC
8
DEFAULT_255_2_778
10
116.9750728
20
136.1573834
40
0.8015983
50
178.6143633
51
179.9998505
0
ARC
8
DEFAULT_255_2_778
10
116.9724467
20
136.1567865
40
0.7989723
50
179.9570505
51
223.2837763
0
ARC
8
DEFAULT_255_2_778
10
116.979686
20
136.163416
40
0.8087874
50
223.274044
51
224.713319
0
ARC
8
DEFAULT_255_2_778
10
116.9731194
20
136.156356
40
0.7991539
50
224.684848
51
263.7789039
0
ARC
8
DEFAULT_255_2_778
10
116.9740078
20
136.1599788
40
0.8028519
50
263.7438951
51
269.9989961
0
ARC
8
DEFAULT_255_2_778
10
116.9739985
20
136.1587147
40
0.8015877
50
269.9996572
51
271.5106515
0
ARC
8
DEFAULT_255_2_778
10
116.9744292
20
136.15432
40
0.7971833
50
271.4880379
51
301.8908589
0
ARC
8
DEFAULT_255_2_778
10
116.9690912
20
136.163667
40
0.8079394
50
301.86208
51
303.3903475
0
ARC
8
DEFAULT_255_2_778
10
115.21201
20
138.8293031
40
4.0005794
50
303.3910917
51
352.902309
0
ARC
8
DEFAULT_255_2_778
10
94.3946547
20
141.4205041
40
24.9785822
50
352.9043251
51
359.9662387
0
ARC
8
DEFAULT_255_2_778
10
115.5868195
20
141.4100487
40
3.7864155
50
359.9354905
51
359.9999976
0
ARC
8
DEFAULT_255_2_778
10
115.3799961
20
141.4097547
40
3.9932388
50
0.0042173
51
12.002786
0
ARC
8
DEFAULT_255_2_778
10
118.3080737
20
142.032445
40
0.9996821
50
11.9938501
51
35.0032595
0
ARC
8
DEFAULT_255_2_778
10
119.1423592
20
142.7583349
40
0.100054
50
181.1008704
51
214.8328318
0
ARC
8
DEFAULT_255_2_778
10
119.1439266
20
142.7584286
40
0.101623
50
180.0000536
51
181.1367536
0
ARC
8
DEFAULT_255_2_778
10
119.142817
20
142.7585247
40
0.1005136
50
135.3319181
51
180.0548125
0
ARC
8
DEFAULT_255_2_778
10
118.5970998
20
143.3448402
40
0.7000268
50
314.9929521
51
359.9955447
0
ARC
8
DEFAULT_255_2_778
10
118.5963236
20
143.3447778
40
0.700803
50
0.0006531
51
4.5347317
0
ARC
8
DEFAULT_255_2_778
10
115.9905982
20
143.3142712
40
3.2999833
50
4.9982909
51
29.6801954
0
ARC
8
DEFAULT_255_2_778
10
118.7706167
20
144.8984788
40
0.1002621
50
29.7862717
51
80.9239108
0
ARC
8
DEFAULT_255_2_778
10
118.4924023
20
145.1458841
40
0.1004917
50
181.1965741
51
260.798298
0
ARC
8
DEFAULT_255_2_778
10
118.2844679
20
145.5446992
40
0.1003844
50
1.133845
51
44.2015282
0
ARC
8
DEFAULT_255_2_778
10
118.6668576
20
146.2187747
40
0.6493384
50
179.972803
51
227.3756186
0
ARC
8
DEFAULT_255_2_778
10
118.6671212
20
146.2190874
40
0.6496019
50
176.304949
51
180.0003974
0
ARC
8
DEFAULT_255_2_778
10
118.6672021
20
146.2190073
40
0.6496877
50
157.4853362
51
176.2983592
0
ARC
8
DEFAULT_255_2_778
10
118.5445313
20
146.314049
40
0.5000366
50
89.9883866
51
157.4775633
0
LINE
8
DEFAULT_255_2_778
10
78.7388326
20
11.4140856
11
78.7383326
21
11.4593856
0
LINE
8
DEFAULT_255_2_778
10
75.3897326
20
11.4140856
11
75.3897326
21
11.4140856
0
LINE
8
DEFAULT_255_2_778
10
119.1269326
20
142.6058856
11
119.0602326
21
142.7011856
0
LINE
8
DEFAULT_255_2_778
10
119.0713326
20
142.8291856
11
119.0920326
21
142.8497856
0
LINE
8
DEFAULT_255_2_778
10
119.2949326
20
143.4001856
11
119.2780326
21
143.6017856
0
LINE
8
DEFAULT_255_2_778
10
118.7864326
20
144.9974856
11
118.4763326
21
145.0466856
0
LINE
8
DEFAULT_255_2_778
10
118.3919326
20
145.1437856
11
118.3848326
21
145.5466856
0
LINE
8
DEFAULT_255_2_778
10
118.3570326
20
145.6144856
11
118.2271326
21
145.7409856
0
LINE
8
DEFAULT_255_2_778
10
118.0670326
20
146.4677856
11
118.0826326
21
146.5055856
0
ARC
8
DEFAULT_255_2_778
10
115.9931104
20
143.3094876
40
3.295004
50
280.3628987
51
304.8091557
0
ARC
8
DEFAULT_255_2_778
10
115.991496
20
143.3135045
40
3.2992236
50
304.792354
51
341.1260606
0
ARC
8
DEFAULT_255_2_778
10
115.9817693
20
143.3159049
40
3.3092039
50
341.1412121
51
345.8963952
0
ARC
8
DEFAULT_255_2_778
10
115.98362
20
143.3166883
40
1.7427988
50
153.5892458
51
180.0840688
0
ARC
8
DEFAULT_255_2_778
10
115.9918105
20
143.3125372
40
1.751981
50
98.9718749
51
153.5868038
0
ARC
8
DEFAULT_255_2_778
10
115.9902219
20
143.3008933
40
1.763238
50
89.9804683
51
98.8618787
0
ARC
8
DEFAULT_255_2_778
10
115.9933694
20
143.3215612
40
1.7425718
50
63.5874968
51
90.0837278
0
ARC
8
DEFAULT_255_2_778
10
115.9890675
20
143.3131113
40
1.7520533
50
9.1002428
51
63.5844177
0
ARC
8
DEFAULT_255_2_778
10
115.9777774
20
143.3147497
40
1.7629456
50
359.9798966
51
8.9896307
0
ARC
8
DEFAULT_255_2_778
10
115.9981192
20
143.3115878
40
1.7426057
50
333.5879356
51
0.0836237
0
ARC
8
DEFAULT_255_2_778
10
115.9897569
20
143.3158079
40
1.7519723
50
278.9736567
51
333.5859785
0
ARC
8
DEFAULT_255_2_778
10
115.9914228
20
143.3271483
40
1.7629174
50
269.980506
51
278.8626871
0
ARC
8
DEFAULT_255_2_778
10
115.9882689
20
143.307062
40
1.7428327
50
243.5896845
51
270.0839647
0
ARC
8
DEFAULT_255_2_778
10
115.9923688
20
143.315196
40
1.7519414
50
188.9737734
51
243.5879187
0
ARC
8
DEFAULT_255_2_778
10
116.0037402
20
143.3135314
40
1.7629174
50
179.980506
51
188.8626873
0
LINE
8
DEFAULT_255_2_778
10
114.240823
20
143.3141312
11
114.240823
21
143.3141312
0
ARC
8
DEFAULT_255_2_778
10
115.9942113
20
143.3041646
40
3.0102694
50
107.64429
51
117.4750395
0
ARC
8
DEFAULT_255_2_778
10
115.9864776
20
143.3266814
40
2.9864677
50
94.4072087
51
107.6338365
0
ARC
8
DEFAULT_255_2_778
10
115.9870707
20
143.3212585
40
2.9919203
50
93.5395903
51
94.4105525
0
ARC
8
DEFAULT_255_2_778
10
115.9873492
20
143.3164098
40
2.9967769
50
89.9995122
51
93.5391802
0
ARC
8
DEFAULT_255_2_778
10
115.9878286
20
143.3085016
40
3.0046851
50
51.0595043
51
90.008656
0
ARC
8
DEFAULT_255_2_778
10
115.9870272
20
143.3128436
40
3.0018135
50
36.9744637
51
50.9955176
0
ARC
8
DEFAULT_255_2_778
10
115.9873131
20
143.3095191
40
3.003586
50
24.3395665
51
37.0284086
0
ARC
8
DEFAULT_255_2_778
10
115.9977644
20
143.3156772
40
2.991526
50
5.1435066
51
24.3146039
0
ARC
8
DEFAULT_255_2_778
10
115.9808793
20
143.3133819
40
3.008549
50
0.8041745
51
5.1582151
0
ARC
8
DEFAULT_255_2_778
10
115.9802346
20
143.3133296
40
3.0091944
50
359.9997622
51
0.8049961
0
ARC
8
DEFAULT_255_2_778
10
115.9873816
20
143.3122114
40
3.0020475
50
332.1716136
51
0.021105
0
ARC
8
DEFAULT_255_2_778
10
115.9922237
20
143.3121924
40
2.9977573
50
317.5038142
51
332.1287314
0
ARC
8
DEFAULT_255_2_778
10
115.9600165
20
143.3398841
40
3.0402115
50
316.5459887
51
317.5290596
0
ARC
8
DEFAULT_255_2_778
10
115.9907787
20
143.3151732
40
3.0008866
50
301.6233265
51
316.4845271
0
ARC
8
DEFAULT_255_2_778
10
115.9926514
20
143.3167366
40
3.0012369
50
273.407082
51
301.5772337
0
ARC
8
DEFAULT_255_2_778
10
115.9909022
20
143.3257446
40
3.0103331
50
270.0002653
51
273.4301275
0
ARC
8
DEFAULT_255_2_778
10
115.9909143
20
143.3233194
40
3.0079079
50
268.4040574
51
270.0000355
0
ARC
8
DEFAULT_255_2_778
10
115.9897462
20
143.3083271
40
2.9928891
50
249.8882603
51
268.4184169
0
ARC
8
DEFAULT_255_2_778
10
115.9926447
20
143.3129777
40
2.998253
50
237.7272306
51
249.8668062
0
ARC
8
DEFAULT_255_2_778
10
116.012073
20
143.3454379
40
3.0360724
50
235.9969079
51
237.7443136
0
ARC
8
DEFAULT_255_2_778
10
115.9893727
20
143.3150684
40
2.9982016
50
219.4460863
51
236.0319725
0
ARC
8
DEFAULT_255_2_778
10
115.997417
20
143.3176232
40
3.0060383
50
180.0077847
51
219.3862761
0
ARC
8
DEFAULT_255_2_778
10
115.982001
20
143.3172611
40
2.9906223
50
175.398844
51
180.0008862
0
ARC
8
DEFAULT_255_2_778
10
115.9772338
20
143.3176117
40
2.9858424
50
164.2949614
51
175.3982114
0
ARC
8
DEFAULT_255_2_778
10
116.0027154
20
143.3100625
40
3.0124162
50
155.5204768
51
164.287927
0
ARC
8
DEFAULT_255_2_778
10
113.1716956
20
144.5994294
40
0.0983947
50
335.2986592
51
0.0494944
0
ARC
8
DEFAULT_255_2_778
10
113.1709698
20
144.5995141
40
0.0991203
50
0.0001376
51
1.1277269
0
ARC
8
DEFAULT_255_2_778
10
113.1691332
20
144.5994248
40
0.1009585
50
1.1579374
51
20.5183044
0
ARC
8
DEFAULT_255_2_778
10
113.2486376
20
144.9619571
40
0.1007428
50
181.8841167
51
200.3572965
0
ARC
8
DEFAULT_255_2_778
10
113.2483712
20
144.9619263
40
0.1004757
50
180.0004043
51
181.8715441
0
ARC
8
DEFAULT_255_2_778
10
113.2484626
20
144.961904
40
0.1005671
50
149.1915843
51
179.9876944
0
ARC
8
DEFAULT_255_2_778
10
113.2475293
20
144.9622057
40
0.0996113
50
97.291428
51
149.0656505
0
ARC
8
DEFAULT_255_2_778
10
113.5715692
20
145.6096217
40
0.5001414
50
277.4579696
51
355.5264661
0
ARC
8
DEFAULT_255_2_778
10
114.2014256
20
145.9670237
40
0.1000268
50
124.1413126
51
175.6495378
0
ARC
8
DEFAULT_255_2_778
10
114.2013541
20
145.9662977
40
0.1005886
50
90.0591545
51
123.8755247
0
ARC
8
DEFAULT_255_2_778
10
114.2012525
20
145.9676421
40
0.0992442
50
87.3045852
51
90.0013217
0
ARC
8
DEFAULT_255_2_778
10
114.2013025
20
145.9683555
40
0.0985292
50
72.2827162
51
87.3141209
0
ARC
8
DEFAULT_255_2_778
10
114.5589957
20
146.0657004
40
0.1019962
50
252.7131925
51
268.2447306
0
ARC
8
DEFAULT_255_2_778
10
114.5589675
20
146.065262
40
0.1015571
50
268.2530481
51
269.9997241
0
ARC
8
DEFAULT_255_2_778
10
114.5590428
20
146.0643094
40
0.1006046
50
269.9568379
51
297.3012331
0
LINE
8
DEFAULT_255_2_778
10
113.263687
20
144.6348114
11
113.154187
21
144.9269114
0
LINE
8
DEFAULT_255_2_778
10
113.234887
20
145.0610114
11
113.636487
21
145.1137114
0
LINE
8
DEFAULT_255_2_778
10
114.070187
20
145.5706114
11
114.101687
21
145.9746114
0
LINE
8
DEFAULT_255_2_778
10
114.231287
20
146.0622114
11
114.528687
21
145.9683114
0
ENDSEC
0
EOF