0
SECTION
2
HEADER
9
$MEASUREMENT
70
1
0
ENDSEC
0
SECTION
2
TABLES
0
TABLE
2
LTYPE
0
LTYPE
72
65
70
64
2
CONTINUOUS
3
______
73
0
40
0
0
ENDTAB
0
TABLE
2
LAYER
0
LAYER
2
DEFAULT_255_2_778
70
0
62
255
6
CONTINUOUS
0
ENDTAB
0
ENDSEC
0
SECTION
2
ENTITIES
0
ARC
8
DEFAULT_255_2_778
10
34.695081
20
8.1145433
40
0.2997612
50
314.9994426
51
0.0448698
0
ARC
8
DEFAULT_255_2_778
10
34.6929806
20
8.1192587
40
0.3045864
50
270.3501833
51
314.6516221
0
ARC
8
DEFAULT_255_2_778
10
0.1937474
20
110.4877108
40
105.6730637
50
270.1636329
51
283.6852015
0
ARC
8
DEFAULT_255_2_778
10
0.4949769
20
4.9925712
40
0.1774941
50
269.9392289
51
270.182458
0
ARC
8
DEFAULT_255_2_778
10
0.4949496
20
5.1156642
40
0.3005872
50
225.1184342
51
269.9693173
0
ARC
8
DEFAULT_255_2_778
10
0.4950097
20
5.1154529
40
0.3002675
50
180.0142793
51
225.0414643
0
ARC
8
DEFAULT_255_2_778
10
25.9856613
20
6.0715335
40
0.2910999
50
182.0189562
51
269.9681232
0
ARC
8
DEFAULT_255_2_778
10
25.9854962
20
6.0765201
40
0.2960864
50
270.0006191
51
271.7894832
0
ARC
8
DEFAULT_255_2_778
10
26.5853868
20
10.6406552
40
4.8958361
50
263.0708301
51
263.123666
0
ARC
8
DEFAULT_255_2_778
10
26.0566822
20
6.1961445
40
0.4200573
50
262.1380897
51
268.9267895
0
ARC
8
DEFAULT_255_2_778
10
26.049274
20
5.9519141
40
0.1757539
50
269.8501981
51
275.1800666
0
ARC
8
DEFAULT_255_2_778
10
26.023194
20
6.0483956
40
0.2747389
50
278.7824814
51
298.2047446
0
LINE
8
DEFAULT_255_2_778
10
26.2292422
20
5.853878
11
26.2299394
21
5.8544606
0
LINE
8
DEFAULT_255_2_778
10
26.2299394
20
5.8544606
11
26.2303231
21
5.8547812
0
ARC
8
DEFAULT_255_2_778
10
25.4642778
20
6.9128201
40
1.3062434
50
305.9054304
51
328.6268871
0
ARC
8
DEFAULT_255_2_778
10
25.4103994
20
6.7577796
40
1.2816089
50
335.8176143
51
354.5293288
0
ARC
8
DEFAULT_255_2_778
10
13.6600745
20
8.4971618
40
13.1584425
50
351.8669018
51
352.1385393
0
LINE
8
DEFAULT_255_2_778
10
26.6948498
20
6.6973729
11
26.6949152
21
6.6978438
0
LINE
8
DEFAULT_255_2_778
10
26.6949152
20
6.6978438
11
26.6951422
21
6.699478
0
LINE
8
DEFAULT_255_2_778
10
30.0982422
20
136.264078
11
5.0913422
21
136.264078
0
LINE
8
DEFAULT_255_2_778
10
26.8446422
20
7.814978
11
26.8446422
21
6.262878
0
LINE
8
DEFAULT_255_2_778
10
26.8446422
20
6.262878
11
27.1917422
21
5.646978
0
LINE
8
DEFAULT_255_2_778
10
29.6455422
20
146.814878
11
34.9948422
21
146.814878
0
LINE
8
DEFAULT_255_2_778
10
34.9948422
20
146.814878
11
34.9948422
21
8.114778
0
LINE
8
DEFAULT_255_2_778
10
34.6948422
20
7.814678
11
25.1946422
21
7.814678
0
LINE
8
DEFAULT_255_2_778
10
4.7947422
20
146.814878
11
0.1947422
21
146.814878
0
LINE
8
DEFAULT_255_2_778
10
0.1947422
20
146.814878
11
0.1947422
21
5.115378
0
LINE
8
DEFAULT_255_2_778
10
30.0947422
20
146.814878
11
30.0947422
21
136.261678
0
LINE
8
DEFAULT_255_2_778
10
5.0948422
20
136.261678
11
5.0948422
21
146.814878
0
LINE
8
DEFAULT_255_2_778
10
4.7953422
20
146.814878
11
29.6947422
21
146.814878
0
LINE
8
DEFAULT_255_2_778
10
25.6947422
20
7.814978
11
25.6947422
21
6.061278
0
LINE
8
DEFAULT_255_2_778
10
26.1530422
20
5.806278
11
26.2292422
21
5.853878
0
LINE
8
DEFAULT_255_2_778
10
26.6951422
20
6.699478
11
26.6951422
21
7.814978
0
LINE
8
DEFAULT_255_2_778
10
24.7446422
20
7.706178
11
24.7446422
21
6.762678
0
LINE
8
DEFAULT_255_2_778
10
22.2448422
20
6.762678
11
22.2448422
21
7.141078
0
LINE
8
DEFAULT_255_2_778
10
24.2522422
20
7.590078
11
24.4676422
21
7.316778
0
LINE
8
DEFAULT_255_2_778
10
24.4676422
20
7.316778
11
24.2705422
21
7.164078
0
LINE
8
DEFAULT_255_2_778
10
24.2705422
20
7.164078
11
23.9839422
21
7.527878
0
ARC
8
DEFAULT_255_2_778
10
23.4973311
20
6.6646665
40
0.6436871
50
9.3675014
51
37.7597064
0
ARC
8
DEFAULT_255_2_778
10
23.4935978
20
6.6641312
40
0.6474578
50
1.6879422
51
9.3604675
0
ARC
8
DEFAULT_255_2_778
10
23.4906945
20
6.6640186
40
0.6503631
50
0.0008783
51
1.6903244
0
ARC
8
DEFAULT_255_2_778
10
23.4950629
20
6.6630919
40
0.6459954
50
311.5891804
51
0.0830784
0
ARC
8
DEFAULT_255_2_778
10
23.4886945
20
6.6707395
40
0.6559425
50
307.7552162
51
311.5618161
0
ARC
8
DEFAULT_255_2_778
10
23.4953625
20
6.6603251
40
0.6436267
50
279.5290833
51
307.8535504
0
ARC
8
DEFAULT_255_2_778
10
23.494831
20
6.6640447
40
0.6473829
50
271.6924565
51
279.5209779
0
ARC
8
DEFAULT_255_2_778
10
23.4947141
20
6.6669551
40
0.6502956
50
270.0008914
51
271.6951758
0
ARC
8
DEFAULT_255_2_778
10
23.4937671
20
6.6625223
40
0.6458635
50
221.4703589
51
270.0849119
0
ARC
8
DEFAULT_255_2_778
10
23.5014065
20
6.6688403
40
0.6557718
50
217.8535439
51
221.441962
0
ARC
8
DEFAULT_255_2_778
10
23.4945361
20
6.6625451
40
0.3971539
50
217.7995535
51
270.0770855
0
ARC
8
DEFAULT_255_2_778
10
23.4950755
20
6.664386
40
0.3989945
50
269.9992713
51
271.6478169
0
ARC
8
DEFAULT_255_2_778
10
23.4954157
20
6.6608089
40
0.395409
50
271.613445
51
307.8837491
0
ARC
8
DEFAULT_255_2_778
10
23.4951707
20
6.6628092
40
0.3971395
50
307.7344409
51
0.0768531
0
ARC
8
DEFAULT_255_2_778
10
23.49301
20
6.6633395
40
0.3992998
50
0.0003435
51
1.8098834
0
ARC
8
DEFAULT_255_2_778
10
23.4960578
20
6.6635835
40
0.3962458
50
1.7885396
51
37.7604395
0
ARC
8
DEFAULT_255_2_778
10
20.3621745
20
14.7454623
40
10.6242818
50
283.9433159
51
291.6010878
0
ARC
8
DEFAULT_255_2_778
10
15.0014739
20
15.0794684
40
10.9909298
50
255.7370952
51
263.1528368
0
ARC
8
DEFAULT_255_2_778
10
14.6541392
20
14.1991279
40
10.0528651
50
248.2238923
51
256.4195479
0
LINE
8
DEFAULT_255_2_778
10
23.6900211
20
7.4602291
11
24.0062211
21
7.0588291
0
LINE
8
DEFAULT_255_2_778
10
22.9836211
20
6.2664291
11
23.1807211
21
6.4191291
0
LINE
8
DEFAULT_255_2_778
10
23.8093211
20
6.9062291
11
23.4733211
21
7.3324291
0
LINE
8
DEFAULT_255_2_778
10
23.4733211
20
7.3324291
11
23.2574211
21
7.1652291
0
LINE
8
DEFAULT_255_2_778
10
23.2574211
20
7.1652291
11
23.6421211
21
6.6770291
0
LINE
8
DEFAULT_255_2_778
10
23.6421211
20
6.6770291
11
23.4450211
21
6.5244291
0
LINE
8
DEFAULT_255_2_778
10
23.4450211
20
6.5244291
11
22.8550211
21
7.2734291
0
LINE
8
DEFAULT_255_2_778
10
26.1528211
20
5.8063291
11
25.6998211
21
5.5396291
0
LINE
8
DEFAULT_255_2_778
10
25.6998211
20
5.5396291
11
25.5821211
21
5.4748291
0
LINE
8
DEFAULT_255_2_778
10
25.5821211
20
5.4748291
11
24.2734211
21
4.8673291
0
LINE
8
DEFAULT_255_2_778
10
22.9222211
20
4.4342291
11
22.4565211
21
4.3262291
0
LINE
8
DEFAULT_255_2_778
10
22.4565211
20
4.3262291
11
21.9874211
21
4.2378291
0
LINE
8
DEFAULT_255_2_778
10
21.9874211
20
4.2378291
11
21.5159211
21
4.1690291
0
LINE
8
DEFAULT_255_2_778
10
21.5159211
20
4.1690291
11
21.0429211
21
4.1201291
0
LINE
8
DEFAULT_255_2_778
10
21.0429211
20
4.1201291
11
20.5690211
21
4.0907291
0
LINE
8
DEFAULT_255_2_778
10
20.5690211
20
4.0907291
11
20.0949211
21
4.0809291
0
LINE
8
DEFAULT_255_2_778
10
20.0949211
20
4.0809291
11
15.0950211
21
4.0809291
0
LINE
8
DEFAULT_255_2_778
10
15.0950211
20
4.0809291
11
13.6911211
21
4.1669291
0
LINE
8
DEFAULT_255_2_778
10
10.9247211
20
4.8636291
11
10.0354211
21
5.2737291
0
ARC
8
DEFAULT_255_2_778
10
23.4894824
20
6.8081209
40
1.2446557
50
180.2855118
51
214.8912311
0
ARC
8
DEFAULT_255_2_778
10
23.4943223
20
6.8090071
40
1.2491343
50
214.7975873
51
264.5952067
0
ARC
8
DEFAULT_255_2_778
10
23.4945661
20
6.8245918
40
1.2646733
50
264.6507134
51
270.0079739
0
ARC
8
DEFAULT_255_2_778
10
23.4966727
20
6.8039496
40
1.2440325
50
269.9110848
51
304.5939535
0
ARC
8
DEFAULT_255_2_778
10
23.4952095
20
6.8095735
40
1.2494943
50
304.5027735
51
354.1760552
0
ARC
8
DEFAULT_255_2_778
10
23.4792662
20
6.8100281
40
1.265402
50
354.2288265
51
359.6328096
0
ARC
8
DEFAULT_255_2_778
10
27.327351
20
6.0456321
40
0.4099691
50
284.1023744
51
346.7717708
0
LINE
8
DEFAULT_255_2_778
10
33.2369422
20
-0.1849814
11
33.1938422
21
3.6345186
0
LINE
8
DEFAULT_255_2_778
10
33.1938422
20
3.6345186
11
33.1388422
21
7.8150186
0
LINE
8
DEFAULT_255_2_778
10
34.9948422
20
8.1150186
11
34.9948422
21
-0.1857814
0
LINE
8
DEFAULT_255_2_778
10
0.1947422
20
5.0450186
11
0.1947422
21
-0.1859814
0
LINE
8
DEFAULT_255_2_778
10
2.0116422
20
4.8305186
11
1.9957422
21
3.6298186
0
LINE
8
DEFAULT_255_2_778
10
1.9957422
20
3.6298186
11
1.9526422
21
-0.1849814
0
LINE
8
DEFAULT_255_2_778
10
27.8241422
20
7.8150186
11
27.7267422
21
5.9589186
0
LINE
8
DEFAULT_255_2_778
10
27.7267422
20
5.9589186
11
27.7264422
21
5.9518186
0
LINE
8
DEFAULT_255_2_778
10
27.4272422
20
5.6480186
11
27.1896422
21
5.6480186
0
LINE
8
DEFAULT_255_2_778
10
34.9948422
20
-0.1851814
11
33.5401422
21
-0.1851814
0
LINE
8
DEFAULT_255_2_778
10
1.6494422
20
-0.1851814
11
0.1947422
21
-0.1851814
0
LINE
8
DEFAULT_255_2_778
10
1.6491422
20
-0.1851814
11
33.5401422
21
-0.1851814
0
ARC
8
DEFAULT_255_2_778
10
9.4948303
20
4.8318058
40
1.0000288
50
180.0024158
51
237.7703975
0
ARC
8
DEFAULT_255_2_778
10
15.0943509
20
13.7120369
40
11.4982733
50
237.7664733
51
269.999604
0
LINE
8
DEFAULT_255_2_778
10
15.0942714
20
2.2137636
11
15.0948015
21
2.2137636
0
LINE
8
DEFAULT_255_2_778
10
20.0949015
20
2.2137636
11
20.0954316
21
2.2137636
0
ARC
8
DEFAULT_255_2_778
10
20.0953521
20
13.7120369
40
11.4982733
50
270.000396
51
302.2335267
0
ARC
8
DEFAULT_255_2_778
10
25.6946419
20
4.831933
40
1.0002596
50
302.2368988
51
359.9902958
0
LINE
8
DEFAULT_255_2_778
10
1.9651015
20
1.3149636
11
33.2243015
21
1.3149636
0
LINE
8
DEFAULT_255_2_778
10
8.4948015
20
5.1413636
11
8.4948015
21
4.8317636
0
LINE
8
DEFAULT_255_2_778
10
15.0948015
20
2.2137636
11
20.0949015
21
2.2137636
0
LINE
8
DEFAULT_255_2_778
10
26.6949015
20
4.8317636
11
26.6949015
21
6.6991636
0
LINE
8
DEFAULT_255_2_778
10
22.6949015
20
143.9147636
11
22.6949015
21
141.7147636
0
LINE
8
DEFAULT_255_2_778
10
22.6949015
20
141.7147636
11
20.4949015
21
141.7147636
0
LINE
8
DEFAULT_255_2_778
10
20.4949015
20
141.7147636
11
20.4949015
21
143.9147636
0
LINE
8
DEFAULT_255_2_778
10
20.4949015
20
143.9147636
11
22.6949015
21
143.9147636
0
LINE
8
DEFAULT_255_2_778
10
18.6947015
20
143.9147636
11
18.6947015
21
141.7147636
0
LINE
8
DEFAULT_255_2_778
10
18.6947015
20
141.7147636
11
16.4947015
21
141.7147636
0
LINE
8
DEFAULT_255_2_778
10
16.4947015
20
141.7147636
11
16.4947015
21
143.9147636
0
LINE
8
DEFAULT_255_2_778
10
16.4947015
20
143.9147636
11
18.6947015
21
143.9147636
0
LINE
8
DEFAULT_255_2_778
10
5.1949015
20
146.8148636
11
5.1949015
21
136.6955636
0
LINE
8
DEFAULT_255_2_778
10
5.1949015
20
136.6955636
11
29.9948015
21
136.6955636
0
LINE
8
DEFAULT_255_2_778
10
29.9948015
20
136.6955636
11
29.9948015
21
146.8148636
0
LINE
8
DEFAULT_255_2_778
10
14.6946532
20
143.9148052
11
14.6946532
21
141.7148052
0
LINE
8
DEFAULT_255_2_778
10
14.6946532
20
141.7148052
11
12.4946532
21
141.7148052
0
LINE
8
DEFAULT_255_2_778
10
12.4946532
20
141.7148052
11
12.4946532
21
143.9148052
0
LINE
8
DEFAULT_255_2_778
10
12.4946532
20
143.9148052
11
14.6946532
21
143.9148052
0
LINE
8
DEFAULT_255_2_778
10
16.8769532
20
142.1556052
11
16.8769532
21
143.5555052
0
LINE
8
DEFAULT_255_2_778
10
16.8769532
20
143.5555052
11
16.6843532
21
143.7481052
0
ARC
8
DEFAULT_255_2_778
10
16.8783598
20
142.1187452
40
0.3003244
50
179.9718533
51
219.8029593
0
ARC
8
DEFAULT_255_2_778
10
16.8779005
20
142.1187986
40
0.3000058
50
219.8669531
51
270.0257901
0
ARC
8
DEFAULT_255_2_778
10
18.2782281
20
142.1180351
40
0.2992424
50
269.9631283
51
320.2013677
0
ARC
8
DEFAULT_255_2_778
10
18.2774112
20
142.1187452
40
0.3003244
50
320.1970407
51
0.0281467
0
ARC
8
DEFAULT_255_2_778
10
18.2776263
20
143.5188838
40
0.3001092
50
359.9826268
51
44.9729802
0
ARC
8
DEFAULT_255_2_778
10
18.2778258
20
143.5186826
40
0.3001103
50
45.0270678
51
90.0172365
0
LINE
8
DEFAULT_255_2_778
10
16.8778355
20
143.8187928
11
16.8774109
21
143.8187931
0
ARC
8
DEFAULT_255_2_778
10
16.8775706
20
143.5196217
40
0.2991714
50
90.0305962
51
129.8829458
0
ARC
8
DEFAULT_255_2_778
10
16.8780408
20
143.518928
40
0.3000053
50
129.8669055
51
180.0258305
0
LINE
8
DEFAULT_255_2_778
10
16.8780355
20
141.8187928
11
18.2780355
21
141.8187928
0
LINE
8
DEFAULT_255_2_778
10
18.5777355
20
142.1188928
11
18.5777355
21
143.5187928
0
LINE
8
DEFAULT_255_2_778
10
18.2777355
20
143.8187928
11
16.8778355
21
143.8187928
0
LINE
8
DEFAULT_255_2_778
10
16.5780355
20
143.5187928
11
16.5780355
21
142.1190928
0
LINE
8
DEFAULT_255_2_778
10
12.8770355
20
142.1555928
11
12.8770355
21
143.5554928
0
LINE
8
DEFAULT_255_2_778
10
12.8770355
20
143.5554928
11
12.6844355
21
143.7481928
0
ARC
8
DEFAULT_255_2_778
10
12.8785906
20
142.118791
40
0.3007833
50
179.9806347
51
219.741519
0
ARC
8
DEFAULT_255_2_778
10
12.8774539
20
142.1185447
40
0.2997523
50
219.8442169
51
270.0675534
0
ARC
8
DEFAULT_255_2_778
10
14.2778329
20
142.1183913
40
0.2995987
50
269.9759865
51
320.1694573
0
ARC
8
DEFAULT_255_2_778
10
14.277183
20
142.1187451
40
0.3003244
50
320.1970407
51
0.0281467
0
ARC
8
DEFAULT_255_2_778
10
14.2764584
20
143.5183942
40
0.3010492
50
0.0758365
51
44.9259159
0
ARC
8
DEFAULT_255_2_778
10
14.2778578
20
143.5195528
40
0.2992402
50
44.9580712
51
90.0862498
0
ARC
8
DEFAULT_255_2_778
10
12.8774354
20
143.5185356
40
0.3002571
50
89.9862801
51
129.8075994
0
ARC
8
DEFAULT_255_2_778
10
12.8775127
20
143.5189277
40
0.3000055
50
129.8668718
51
180.025778
0
LINE
8
DEFAULT_255_2_778
10
12.8778073
20
141.8187927
11
14.2777073
21
141.8187927
0
LINE
8
DEFAULT_255_2_778
10
14.5775073
20
142.1188927
11
14.5775073
21
143.5187927
0
LINE
8
DEFAULT_255_2_778
10
14.2774073
20
143.8187927
11
12.8775073
21
143.8187927
0
LINE
8
DEFAULT_255_2_778
10
12.5775073
20
143.5187927
11
12.5775073
21
142.1190927
0
LINE
8
DEFAULT_255_2_778
10
18.2768324
20
143.5555541
11
16.8769324
21
143.5555541
0
LINE
8
DEFAULT_255_2_778
10
18.4705324
20
143.7489541
11
18.2771324
21
143.5555541
0
LINE
8
DEFAULT_255_2_778
10
18.2771324
20
143.5555541
11
18.2771324
21
142.1556541
0
LINE
8
DEFAULT_255_2_778
10
18.5073324
20
141.9254541
11
18.2771324
21
142.1556541
0
LINE
8
DEFAULT_255_2_778
10
18.2771324
20
142.1556541
11
16.8772324
21
142.1556541
0
LINE
8
DEFAULT_255_2_778
10
16.8772324
20
142.1556541
11
16.6478324
21
141.9262541
0
LINE
8
DEFAULT_255_2_778
10
14.2768324
20
143.5555541
11
12.8769324
21
143.5555541
0
LINE
8
DEFAULT_255_2_778
10
14.4705324
20
143.7489541
11
14.2771324
21
143.5555541
0
LINE
8
DEFAULT_255_2_778
10
14.2771324
20
143.5555541
11
14.2771324
21
142.1556541
0
LINE
8
DEFAULT_255_2_778
10
14.5073324
20
141.9254541
11
14.2771324
21
142.1556541
0
LINE
8
DEFAULT_255_2_778
10
14.2771324
20
142.1556541
11
12.8772324
21
142.1556541
0
LINE
8
DEFAULT_255_2_778
10
12.8772324
20
142.1556541
11
12.6478324
21
141.9262541
0
LINE
8
DEFAULT_255_2_778
10
20.8771324
20
142.1556541
11
20.8771324
21
143.5555541
0
LINE
8
DEFAULT_255_2_778
10
20.8771324
20
143.5555541
11
20.6845324
21
143.7481541
0
ARC
8
DEFAULT_255_2_778
10
20.8787906
20
142.118791
40
0.3007833
50
179.9806347
51
219.741519
0
ARC
8
DEFAULT_255_2_778
10
20.8776539
20
142.1185447
40
0.2997523
50
219.8442169
51
270.0675534
0
ARC
8
DEFAULT_255_2_778
10
22.2780329
20
142.1183913
40
0.2995987
50
269.9759865
51
320.1694573
0
ARC
8
DEFAULT_255_2_778
10
22.277383
20
142.1187451
40
0.3003244
50
320.1970407
51
0.0281467
0
ARC
8
DEFAULT_255_2_778
10
22.2766584
20
143.5183942
40
0.3010492
50
0.0758365
51
44.9259159
0
ARC
8
DEFAULT_255_2_778
10
22.2780578
20
143.5195528
40
0.2992402
50
44.9580712
51
90.0862498
0
ARC
8
DEFAULT_255_2_778
10
20.8776354
20
143.5185356
40
0.3002571
50
89.9862801
51
129.8075994
0
ARC
8
DEFAULT_255_2_778
10
20.8777127
20
143.5189277
40
0.3000055
50
129.8668718
51
180.025778
0
LINE
8
DEFAULT_255_2_778
10
20.8780073
20
141.8187927
11
22.2779073
21
141.8187927
0
LINE
8
DEFAULT_255_2_778
10
22.5777073
20
142.1188927
11
22.5777073
21
143.5187927
0
LINE
8
DEFAULT_255_2_778
10
22.2776073
20
143.8187927
11
20.8777073
21
143.8187927
0
LINE
8
DEFAULT_255_2_778
10
20.5777073
20
143.5187927
11
20.5777073
21
142.1190927
0
ARC
8
DEFAULT_255_2_778
10
6.4886677
20
144.9327008
40
0.4413757
50
321.5181736
51
355.0404258
0
ARC
8
DEFAULT_255_2_778
10
6.5545013
20
144.891957
40
0.3646001
50
310.4588195
51
320.0924721
0
ARC
8
DEFAULT_255_2_778
10
6.5184171
20
144.9503514
40
0.4325719
50
272.5209104
51
309.0762914
0
ARC
8
DEFAULT_255_2_778
10
6.4843425
20
145.2029579
40
0.6868155
50
269.9372982
51
274.4342275
0
ARC
8
DEFAULT_255_2_778
10
6.4674495
20
144.9336043
40
0.4177736
50
220.6515644
51
272.2142616
0
ARC
8
DEFAULT_255_2_778
10
6.5546541
20
144.9979543
40
0.5259163
50
185.4226499
51
219.781208
0
ARC
8
DEFAULT_255_2_778
10
6.855052
20
145.0478992
40
0.829964
50
179.8520282
51
186.8955337
0
ARC
8
DEFAULT_255_2_778
10
6.6610273
20
145.173279
40
0.6360784
50
155.2040432
51
181.2103894
0
ARC
8
DEFAULT_255_2_778
10
6.4725898
20
145.2600333
40
0.4286299
50
121.4123252
51
155.1676546
0
ARC
8
DEFAULT_255_2_778
10
6.4875939
20
145.2204338
40
0.4703109
50
88.8063948
51
120.4579054
0
ARC
8
DEFAULT_255_2_778
10
6.5111135
20
145.2196169
40
0.4712256
50
62.0426804
51
91.6687574
0
ARC
8
DEFAULT_255_2_778
10
6.5537339
20
145.3188787
40
0.3636756
50
47.9765493
51
60.6421296
0
ARC
8
DEFAULT_255_2_778
10
6.5137863
20
145.2867555
40
0.4143618
50
5.1897366
51
46.8465718
0
ARC
8
DEFAULT_255_2_778
10
6.3047942
20
145.2434805
40
0.6268786
50
5.8654265
51
7.4015237
0
ARC
8
DEFAULT_255_2_778
10
6.3754329
20
145.2615709
40
0.4000085
50
6.5994099
51
29.6411939
0
ARC
8
DEFAULT_255_2_778
10
6.5404026
20
145.3485596
40
0.2136889
50
31.2456849
51
47.2368025
0
ARC
8
DEFAULT_255_2_778
10
6.5178997
20
145.3053343
40
0.2610175
50
50.0537609
51
91.1803025
0
ARC
8
DEFAULT_255_2_778
10
6.4974904
20
145.1075036
40
0.4590391
50
88.123335
51
90.0124306
0
ARC
8
DEFAULT_255_2_778
10
6.4850987
20
145.2867856
40
0.280027
50
87.4841201
51
141.8816991
0
ARC
8
DEFAULT_255_2_778
10
6.5894598
20
145.2193276
40
0.4039322
50
143.4917088
51
173.5263642
0
ARC
8
DEFAULT_255_2_778
10
6.9320838
20
145.1595278
40
0.7514016
50
171.9409599
51
180.2733725
0
ARC
8
DEFAULT_255_2_778
10
6.7709708
20
145.0325114
40
0.5904194
50
178.7547215
51
199.6017473
0
ARC
8
DEFAULT_255_2_778
10
6.5609
20
144.9646303
40
0.3698075
50
200.6131183
51
215.6217437
0
ARC
8
DEFAULT_255_2_778
10
6.4728768
20
144.8996158
40
0.2603937
50
215.2737728
51
272.3581351
0
ARC
8
DEFAULT_255_2_778
10
6.4961937
20
144.99094
40
0.3517232
50
267.9465538
51
294.6554653
0
ARC
8
DEFAULT_255_2_778
10
6.5495699
20
144.8571759
40
0.2080154
50
296.6641362
51
309.3597807
0
ARC
8
DEFAULT_255_2_778
10
6.5086945
20
144.885458
40
0.2561702
50
312.418216
51
346.4484158
0
ARC
8
DEFAULT_255_2_778
10
6.2181627
20
144.9815989
40
0.5617152
50
343.8580537
51
351.0841943
0
LINE
8
DEFAULT_255_2_778
10
22.2770909
20
143.5554427
11
20.8771909
21
143.5554427
0
LINE
8
DEFAULT_255_2_778
10
22.4704909
20
143.7488427
11
22.2770909
21
143.5554427
0
LINE
8
DEFAULT_255_2_778
10
22.2770909
20
143.5554427
11
22.2770909
21
142.1555427
0
LINE
8
DEFAULT_255_2_778
10
22.5072909
20
141.9253427
11
22.2770909
21
142.1555427
0
LINE
8
DEFAULT_255_2_778
10
22.2770909
20
142.1555427
11
20.8771909
21
142.1555427
0
LINE
8
DEFAULT_255_2_778
10
20.8771909
20
142.1555427
11
20.6477909
21
141.9261427
0
LINE
8
DEFAULT_255_2_778
10
6.7727909
20
144.8945427
11
6.9283909
21
144.8945427
0
LINE
8
DEFAULT_255_2_778
10
6.0250909
20
145.0500427
11
6.0250909
21
145.1598427
0
LINE
8
DEFAULT_255_2_778
10
6.9283909
20
145.3075427
11
6.7727909
21
145.3075427
0
LINE
8
DEFAULT_255_2_778
10
6.1806909
20
145.1559427
11
6.1806909
21
145.0453427
0
LINE
8
DEFAULT_255_2_778
10
6.7730909
20
144.8945427
11
6.7727909
21
144.8945427
0
LINE
8
DEFAULT_255_2_778
10
7.1394969
20
145.6748
11
7.3392969
21
145.6748
0
LINE
8
DEFAULT_255_2_778
10
7.3392969
20
145.6748
11
7.7228969
21
144.7421
0
LINE
8
DEFAULT_255_2_778
10
7.7228969
20
144.7421
11
8.1065969
21
145.6748
0
LINE
8
DEFAULT_255_2_778
10
8.1065969
20
145.6748
11
8.3070969
21
145.6748
0
LINE
8
DEFAULT_255_2_778
10
8.3070969
20
145.6748
11
8.3070969
21
144.5318
0
LINE
8
DEFAULT_255_2_778
10
8.3070969
20
144.5318
11
8.1522969
21
144.5318
0
LINE
8
DEFAULT_255_2_778
10
8.1522969
20
144.5318
11
8.1522969
21
144.9768
0
LINE
8
DEFAULT_255_2_778
10
8.1522969
20
144.9768
11
8.1668969
21
145.4573
0
LINE
8
DEFAULT_255_2_778
10
8.1668969
20
145.4573
11
7.7815969
21
144.5318
0
LINE
8
DEFAULT_255_2_778
10
7.7815969
20
144.5318
11
7.6630969
21
144.5318
0
LINE
8
DEFAULT_255_2_778
10
7.6630969
20
144.5318
11
7.2788969
21
145.4549
0
LINE
8
DEFAULT_255_2_778
10
7.2788969
20
145.4549
11
7.2942969
21
144.9768
0
LINE
8
DEFAULT_255_2_778
10
7.2942969
20
144.9768
11
7.2942969
21
144.5318
0
LINE
8
DEFAULT_255_2_778
10
7.2942969
20
144.5318
11
7.1394969
21
144.5318
0
LINE
8
DEFAULT_255_2_778
10
7.1394969
20
144.5318
11
7.1394969
21
145.6748
0
LINE
8
DEFAULT_255_2_778
10
7.1394969
20
145.6748
11
7.1394969
21
145.6748
0
ARC
8
DEFAULT_255_2_778
10
9.4343392
20
145.1514358
40
0.5235261
50
67.6068997
51
91.4247922
0
ARC
8
DEFAULT_255_2_778
10
9.4958335
20
145.3191971
40
0.3450605
50
48.8439651
51
66.4356906
0
ARC
8
DEFAULT_255_2_778
10
9.5119845
20
145.3377432
40
0.3204675
50
357.8284234
51
48.8359212
0
ARC
8
DEFAULT_255_2_778
10
9.5002886
20
145.3107625
40
0.3322647
50
321.8697899
51
2.5594268
0
ARC
8
DEFAULT_255_2_778
10
9.5387207
20
145.2917399
40
0.2904204
50
309.980046
51
320.1400038
0
ARC
8
DEFAULT_255_2_778
10
9.4805521
20
145.3777689
40
0.3938617
50
276.344185
51
308.4229216
0
ARC
8
DEFAULT_255_2_778
10
9.4227169
20
145.7035167
40
0.7243242
50
269.7393556
51
278.0439986
0
ARC
8
DEFAULT_255_2_778
10
9.4340081
20
145.4240888
40
0.3218389
50
267.7409442
51
296.6883942
0
ARC
8
DEFAULT_255_2_778
10
9.4832463
20
145.3091598
40
0.1971869
50
298.9049303
51
310.5814448
0
ARC
8
DEFAULT_255_2_778
10
9.4727521
20
145.3106993
40
0.2053011
50
312.5266475
51
3.7145778
0
ARC
8
DEFAULT_255_2_778
10
9.4662844
20
145.3333892
40
0.211546
50
357.4561684
51
46.6421393
0
ARC
8
DEFAULT_255_2_778
10
9.4390716
20
145.2853868
40
0.2654575
50
49.4859728
51
91.8888699
0
LINE
8
DEFAULT_255_2_778
10
9.4197219
20
144.9792
11
9.1432219
21
144.9792
0
LINE
8
DEFAULT_255_2_778
10
9.1432219
20
144.9792
11
9.1432219
21
144.5318
0
LINE
8
DEFAULT_255_2_778
10
9.1432219
20
144.5318
11
8.9884219
21
144.5318
0
LINE
8
DEFAULT_255_2_778
10
8.9884219
20
144.5318
11
8.9884219
21
145.6748
0
LINE
8
DEFAULT_255_2_778
10
8.9884219
20
145.6748
11
9.4213219
21
145.6748
0
LINE
8
DEFAULT_255_2_778
10
9.4194219
20
144.9792
11
9.4197219
21
144.9792
0
LINE
8
DEFAULT_255_2_778
10
9.1432219
20
145.5507
11
9.1432219
21
145.1025
0
LINE
8
DEFAULT_255_2_778
10
9.1432219
20
145.1025
11
9.4213219
21
145.1025
0
LINE
8
DEFAULT_255_2_778
10
9.4303219
20
145.5507
11
9.1434219
21
145.5507
0
LINE
8
DEFAULT_255_2_778
10
9.1434219
20
145.5507
11
9.1432219
21
145.5507
0
LINE
8
DEFAULT_255_2_778
10
10.8405719
20
145.6748
11
10.8405719
21
145.5507
0
LINE
8
DEFAULT_255_2_778
10
10.8405719
20
145.5507
11
10.4634719
21
145.5507
0
LINE
8
DEFAULT_255_2_778
10
10.4634719
20
145.5507
11
10.4634719
21
144.5318
0
LINE
8
DEFAULT_255_2_778
10
10.4634719
20
144.5318
11
10.3094719
21
144.5318
0
LINE
8
DEFAULT_255_2_778
10
10.3094719
20
144.5318
11
10.3094719
21
145.5507
0
LINE
8
DEFAULT_255_2_778
10
10.3094719
20
145.5507
11
9.9332719
21
145.5507
0
LINE
8
DEFAULT_255_2_778
10
9.9332719
20
145.5507
11
9.9332719
21
145.6748
0
LINE
8
DEFAULT_255_2_778
10
9.9332719
20
145.6748
11
10.8405719
21
145.6748
0
LINE
8
DEFAULT_255_2_778
10
10.8405719
20
145.6748
11
10.8405719
21
145.6748
0
ARC
8
DEFAULT_255_2_778
10
11.4602392
20
145.1514358
40
0.5235261
50
67.6068997
51
91.4247922
0
ARC
8
DEFAULT_255_2_778
10
11.5217335
20
145.3191971
40
0.3450605
50
48.8439651
51
66.4356906
0
ARC
8
DEFAULT_255_2_778
10
11.5378845
20
145.3377432
40
0.3204675
50
357.8284234
51
48.8359212
0
ARC
8
DEFAULT_255_2_778
10
11.5261886
20
145.3107625
40
0.3322647
50
321.8697899
51
2.5594268
0
ARC
8
DEFAULT_255_2_778
10
11.5646207
20
145.2917399
40
0.2904204
50
309.980046
51
320.1400038
0
ARC
8
DEFAULT_255_2_778
10
11.5064521
20
145.3777689
40
0.3938617
50
276.344185
51
308.4229216
0
ARC
8
DEFAULT_255_2_778
10
11.4486169
20
145.7035167
40
0.7243242
50
269.7393556
51
278.0439986
0
ARC
8
DEFAULT_255_2_778
10
11.4599081
20
145.4240888
40
0.3218389
50
267.7409442
51
296.6883942
0
ARC
8
DEFAULT_255_2_778
10
11.5091463
20
145.3091598
40
0.1971869
50
298.9049303
51
310.5814448
0
ARC
8
DEFAULT_255_2_778
10
11.4986521
20
145.3106993
40
0.2053011
50
312.5266475
51
3.7145778
0
ARC
8
DEFAULT_255_2_778
10
11.4921844
20
145.3333892
40
0.211546
50
357.4561684
51
46.6421393
0
ARC
8
DEFAULT_255_2_778
10
11.4649716
20
145.2853868
40
0.2654575
50
49.4859728
51
91.8888699
0
LINE
8
DEFAULT_255_2_778
10
11.4456219
20
144.9792
11
11.1691219
21
144.9792
0
LINE
8
DEFAULT_255_2_778
10
11.1691219
20
144.9792
11
11.1691219
21
144.5318
0
LINE
8
DEFAULT_255_2_778
10
11.1691219
20
144.5318
11
11.0143219
21
144.5318
0
LINE
8
DEFAULT_255_2_778
10
11.0143219
20
144.5318
11
11.0143219
21
145.6748
0
LINE
8
DEFAULT_255_2_778
10
11.0143219
20
145.6748
11
11.4472219
21
145.6748
0
LINE
8
DEFAULT_255_2_778
10
11.4453219
20
144.9792
11
11.4456219
21
144.9792
0
LINE
8
DEFAULT_255_2_778
10
11.1691219
20
145.5507
11
11.1691219
21
145.1025
0
LINE
8
DEFAULT_255_2_778
10
11.1691219
20
145.1025
11
11.4472219
21
145.1025
0
LINE
8
DEFAULT_255_2_778
10
11.4562219
20
145.5507
11
11.1693219
21
145.5507
0
LINE
8
DEFAULT_255_2_778
10
11.1693219
20
145.5507
11
11.1691219
21
145.5507
0
ARC
8
DEFAULT_255_2_778
10
12.8644377
20
145.0742487
40
0.6007016
50
71.7315704
51
91.2036841
0
ARC
8
DEFAULT_255_2_778
10
12.9407828
20
145.3194283
40
0.3439752
50
51.0716458
51
71.0054605
0
ARC
8
DEFAULT_255_2_778
10
12.9575029
20
145.3552421
40
0.3057559
50
358.8776517
51
49.2918165
0
ARC
8
DEFAULT_255_2_778
10
12.7541635
20
145.3312287
40
0.5093557
50
359.9875134
51
2.0279345
0
ARC
8
DEFAULT_255_2_778
10
12.9621666
20
145.3247411
40
0.3014198
50
323.4214489
51
1.2121986
0
ARC
8
DEFAULT_255_2_778
10
12.9247849
20
145.3598863
40
0.3524329
50
288.9816194
51
322.4546843
0
ARC
8
DEFAULT_255_2_778
10
12.8701937
20
145.3936845
40
0.2767149
50
267.1259302
51
306.5229447
0
ARC
8
DEFAULT_255_2_778
10
12.9019107
20
145.3368659
40
0.2123416
50
308.7703608
51
310.4657427
0
ARC
8
DEFAULT_255_2_778
10
12.9134062
20
145.3231772
40
0.1944668
50
310.5064404
51
2.2811725
0
ARC
8
DEFAULT_255_2_778
10
12.904796
20
145.3439915
40
0.2033437
50
356.313675
51
47.2526421
0
ARC
8
DEFAULT_255_2_778
10
12.882504
20
145.2916296
40
0.2576411
50
51.5200137
51
88.5928183
0
ARC
8
DEFAULT_255_2_778
10
12.8528864
20
145.0647694
40
0.4857555
50
85.7563831
51
89.6894836
0
ARC
8
DEFAULT_255_2_778
10
14.1047106
20
146.0778533
40
1.0735408
50
244.6540669
51
254.9536405
0
ARC
8
DEFAULT_255_2_778
10
13.8482829
20
145.540132
40
0.4778112
50
229.239218
51
244.8405106
0
ARC
8
DEFAULT_255_2_778
10
13.7039758
20
145.3749562
40
0.2584857
50
179.1440316
51
229.5629848
0
ARC
8
DEFAULT_255_2_778
10
13.7194358
20
145.381968
40
0.273935
50
126.519288
51
180.658927
0
ARC
8
DEFAULT_255_2_778
10
13.8161706
20
145.2595888
40
0.4298802
50
91.2824289
51
127.1743173
0
ARC
8
DEFAULT_255_2_778
10
13.8441358
20
145.0211827
40
0.669235
50
89.9671959
51
93.2195928
0
ARC
8
DEFAULT_255_2_778
10
13.8533018
20
145.1980241
40
0.4924719
50
65.1552927
51
91.0218791
0
ARC
8
DEFAULT_255_2_778
10
13.9144002
20
145.3265957
40
0.3501314
50
33.3963581
51
65.3881707
0
ARC
8
DEFAULT_255_2_778
10
13.9425301
20
145.345769
40
0.3160931
50
359.7006713
51
33.3013705
0
ARC
8
DEFAULT_255_2_778
10
13.8978589
20
145.3544662
40
0.2054209
50
357.1123746
51
47.9975066
0
ARC
8
DEFAULT_255_2_778
10
13.8687958
20
145.299765
40
0.2659419
50
51.232355
51
90.0010956
0
ARC
8
DEFAULT_255_2_778
10
13.8445989
20
145.0868374
40
0.4794804
50
87.1079547
51
90.0334545
0
ARC
8
DEFAULT_255_2_778
10
13.831681
20
145.2502551
40
0.3163152
50
87.7102199
51
116.7239886
0
ARC
8
DEFAULT_255_2_778
10
13.7843406
20
145.3618413
40
0.1955191
50
119.0384787
51
127.2776873
0
ARC
8
DEFAULT_255_2_778
10
13.7640633
20
145.3881581
40
0.1622971
50
127.2087132
51
182.4862505
0
ARC
8
DEFAULT_255_2_778
10
13.7474937
20
145.3815338
40
0.1455753
50
180.1637588
51
234.4329119
0
ARC
8
DEFAULT_255_2_778
10
13.9021396
20
145.5885884
40
0.4039871
50
233.6727167
51
250.7078545
0
ARC
8
DEFAULT_255_2_778
10
14.1488132
20
146.2186251
40
1.0804239
50
249.3996151
51
255.0406226
0
ARC
8
DEFAULT_255_2_778
10
13.5630745
20
144.0067287
40
1.2077191
50
66.7730515
51
75.2815504
0
ARC
8
DEFAULT_255_2_778
10
13.7999765
20
144.5707323
40
0.5960187
50
59.9074812
51
66.3186052
0
ARC
8
DEFAULT_255_2_778
10
13.9326384
20
144.7828606
40
0.3460677
50
33.4701242
51
61.3017639
0
ARC
8
DEFAULT_255_2_778
10
13.9796528
20
144.8290623
40
0.2816518
50
358.5871395
51
30.9037068
0
ARC
8
DEFAULT_255_2_778
10
13.9966068
20
144.8152578
40
0.264701
50
305.4466906
51
1.4850259
0
ARC
8
DEFAULT_255_2_778
10
13.8974588
20
144.9538964
40
0.4351443
50
274.3714803
51
305.4952292
0
ARC
8
DEFAULT_255_2_778
10
13.8543868
20
145.2441979
40
0.7281819
50
269.8687618
51
276.0098225
0
ARC
8
DEFAULT_255_2_778
10
13.8482394
20
145.0797509
40
0.563751
50
246.8955735
51
270.4552718
0
ARC
8
DEFAULT_255_2_778
10
13.7684864
20
144.9136198
40
0.3797371
50
217.0511409
51
248.1276183
0
ARC
8
DEFAULT_255_2_778
10
13.7046854
20
144.8594027
40
0.2961898
50
179.2813524
51
216.1170211
0
ARC
8
DEFAULT_255_2_778
10
13.7591961
20
144.8558968
40
0.1952108
50
177.8801278
51
233.3313589
0
ARC
8
DEFAULT_255_2_778
10
13.8292417
20
144.9618455
40
0.3221008
50
234.5921823
51
269.8437631
0
ARC
8
DEFAULT_255_2_778
10
13.8522904
20
145.181373
40
0.5421553
50
267.4705287
51
270.0241464
0
ARC
8
DEFAULT_255_2_778
10
13.8648932
20
145.0035758
40
0.3645682
50
268.0548714
51
292.3219176
0
ARC
8
DEFAULT_255_2_778
10
13.9216076
20
144.8475982
40
0.1988535
50
294.2750834
51
306.5819941
0
ARC
8
DEFAULT_255_2_778
10
13.9489038
20
144.8152161
40
0.1566048
50
305.6233124
51
1.9400204
0
ARC
8
DEFAULT_255_2_778
10
13.9520965
20
144.8282907
40
0.1535193
50
357.0977692
51
52.7039927
0
ARC
8
DEFAULT_255_2_778
10
13.8090341
20
144.6153581
40
0.4098792
50
54.8312742
51
69.9276804
0
ARC
8
DEFAULT_255_2_778
10
13.4870964
20
143.805067
40
1.2816745
50
68.8419133
51
74.6664837
0
ARC
8
DEFAULT_255_2_778
10
15.1681427
20
145.989177
40
1.3498205
50
317.417395
51
323.4833762
0
ARC
8
DEFAULT_255_2_778
10
15.8403343
20
145.4895571
40
0.5122911
50
323.6561753
51
330.5930891
0
ARC
8
DEFAULT_255_2_778
10
16.0555602
20
145.3683076
40
0.2652614
50
330.58211
51
359.7429739
0
ARC
8
DEFAULT_255_2_778
10
16.11833
20
145.3744499
40
0.2026217
50
357.9262064
51
43.5359764
0
ARC
8
DEFAULT_255_2_778
10
16.1260756
20
145.3747834
40
0.1968427
50
45.0187065
51
92.6370832
0
ARC
8
DEFAULT_255_2_778
10
16.1028289
20
145.3385899
40
0.2332598
50
86.5123411
51
132.8079166
0
ARC
8
DEFAULT_255_2_778
10
16.1136711
20
145.3519496
40
0.231454
50
137.0281269
51
183.3764879
0
ARC
8
DEFAULT_255_2_778
10
16.0658819
20
145.351246
40
0.3325144
50
133.2807061
51
182.2282459
0
ARC
8
DEFAULT_255_2_778
10
16.0916104
20
145.3093155
40
0.3808105
50
90.2239016
51
131.7735564
0
ARC
8
DEFAULT_255_2_778
10
16.1168105
20
145.0913146
40
0.599403
50
89.9800809
51
92.5519192
0
ARC
8
DEFAULT_255_2_778
10
16.1303453
20
145.2701911
40
0.4207377
50
62.8791079
51
91.8150812
0
ARC
8
DEFAULT_255_2_778
10
16.1775398
20
145.3808373
40
0.3008612
50
48.7734083
51
61.27256
0
ARC
8
DEFAULT_255_2_778
10
16.1893171
20
145.3959568
40
0.28173
50
357.6933237
51
48.5483736
0
ARC
8
DEFAULT_255_2_778
10
16.0939513
20
145.3976608
40
0.3770932
50
330.6145413
51
358.0178191
0
ARC
8
DEFAULT_255_2_778
10
15.626928
20
145.6415015
40
0.9038311
50
319.2119039
51
331.6727756
0
ARC
8
DEFAULT_255_2_778
10
15.1319401
20
146.0443339
40
1.5418666
50
316.4864107
51
319.8942009
0
ARC
8
DEFAULT_255_2_778
10
16.0947427
20
145.989177
40
1.3498205
50
317.417395
51
323.4833762
0
ARC
8
DEFAULT_255_2_778
10
16.7669343
20
145.4895571
40
0.5122911
50
323.6561753
51
330.5930891
0
ARC
8
DEFAULT_255_2_778
10
16.9814552
20
145.3682884
40
0.2658663
50
330.6603446
51
359.7476964
0
ARC
8
DEFAULT_255_2_778
10
17.0446269
20
145.3744732
40
0.2028255
50
357.9217044
51
43.472231
0
ARC
8
DEFAULT_255_2_778
10
17.0526756
20
145.3747834
40
0.1968427
50
45.0187065
51
92.6370832
0
ARC
8
DEFAULT_255_2_778
10
17.0294622
20
145.3382396
40
0.2336074
50
86.5257217
51
132.7735244
0
ARC
8
DEFAULT_255_2_778
10
17.0404875
20
145.3519706
40
0.2316713
50
137.0852786
51
183.3785338
0
ARC
8
DEFAULT_255_2_778
10
16.9924819
20
145.351246
40
0.3325144
50
133.2807061
51
182.2282459
0
ARC
8
DEFAULT_255_2_778
10
17.0182104
20
145.3093155
40
0.3808105
50
90.2239016
51
131.7735564
0
ARC
8
DEFAULT_255_2_778
10
17.0434105
20
145.0913146
40
0.599403
50
89.9800809
51
92.5519192
0
ARC
8
DEFAULT_255_2_778
10
17.0569453
20
145.2701911
40
0.4207377
50
62.8791079
51
91.8150812
0
ARC
8
DEFAULT_255_2_778
10
17.1041398
20
145.3808373
40
0.3008612
50
48.7734083
51
61.27256
0
ARC
8
DEFAULT_255_2_778
10
17.1156807
20
145.3959825
40
0.2818674
50
357.6892337
51
48.5088958
0
ARC
8
DEFAULT_255_2_778
10
17.0207152
20
145.3976699
40
0.3768298
50
330.5903853
51
358.0150488
0
ARC
8
DEFAULT_255_2_778
10
16.5535882
20
145.6417878
40
0.9037874
50
319.1855411
51
331.6506657
0
ARC
8
DEFAULT_255_2_778
10
16.0583581
20
146.0451843
40
1.5423667
50
316.4604841
51
319.868542
0
ARC
8
DEFAULT_255_2_778
10
20.4839073
20
145.3724939
40
0.2604412
50
325.2966966
51
0.8632578
0
ARC
8
DEFAULT_255_2_778
10
20.4407136
20
145.4054941
40
0.3147494
50
294.7765522
51
324.83459
0
ARC
8
DEFAULT_255_2_778
10
20.4490891
20
144.8090837
40
0.334295
50
36.4121562
51
68.313766
0
ARC
8
DEFAULT_255_2_778
10
20.4947599
20
144.8435575
40
0.277078
50
359.3300384
51
36.2811155
0
ARC
8
DEFAULT_255_2_778
10
20.4770896
20
144.827958
40
0.2949884
50
310.6405596
51
2.4013425
0
ARC
8
DEFAULT_255_2_778
10
20.4236923
20
144.9056679
40
0.3888648
50
270.3245192
51
309.1529883
0
ARC
8
DEFAULT_255_2_778
10
20.3990346
20
145.1264415
40
0.6102237
50
269.9797485
51
272.5228019
0
ARC
8
DEFAULT_255_2_778
10
20.3853045
20
144.9504129
40
0.4344055
50
241.6701402
51
271.7827692
0
ARC
8
DEFAULT_255_2_778
10
20.342767
20
144.8531418
40
0.328714
50
229.1171568
51
240.1505766
0
ARC
8
DEFAULT_255_2_778
10
20.3222631
20
144.8286603
40
0.2967852
50
177.6909416
51
229.0164677
0
ARC
8
DEFAULT_255_2_778
10
20.3116832
20
144.8435075
40
0.2859789
50
144.9316282
51
180.5789861
0
ARC
8
DEFAULT_255_2_778
10
20.3390538
20
144.823018
40
0.3201548
50
111.5380324
51
144.7447617
0
ARC
8
DEFAULT_255_2_778
10
20.348692
20
145.3958608
40
0.303021
50
214.2503297
51
245.1853604
0
ARC
8
DEFAULT_255_2_778
10
20.3169163
20
145.3730612
40
0.2639256
50
179.1627712
51
214.0414475
0
ARC
8
DEFAULT_255_2_778
10
20.3440073
20
145.3905013
40
0.2913052
50
132.2830598
51
182.672686
0
ARC
8
DEFAULT_255_2_778
10
20.3782801
20
145.3347957
40
0.355783
50
89.06838
51
130.3304823
0
ARC
8
DEFAULT_255_2_778
10
20.3984613
20
145.1340804
40
0.5566374
50
89.9940666
51
91.4820235
0
ARC
8
DEFAULT_255_2_778
10
20.4132324
20
145.3185339
40
0.3724745
50
54.3369609
51
92.2638829
0
ARC
8
DEFAULT_255_2_778
10
20.4405432
20
145.3712499
40
0.3138386
50
48.4219725
51
52.77669
0
ARC
8
DEFAULT_255_2_778
10
20.4540589
20
145.3903777
40
0.290572
50
357.3449615
51
47.9125252
0
ARC
8
DEFAULT_255_2_778
10
20.4153375
20
144.8508802
40
0.207423
50
357.8829145
51
45.6945888
0
ARC
8
DEFAULT_255_2_778
10
20.4065093
20
144.8354372
40
0.2246852
50
46.8342729
51
92.4463356
0
ARC
8
DEFAULT_255_2_778
10
20.3864804
20
144.8390683
40
0.221096
50
87.2939092
51
133.1328052
0
ARC
8
DEFAULT_255_2_778
10
20.3843076
20
144.8523194
40
0.2100732
50
135.1717217
51
182.4012997
0
ARC
8
DEFAULT_255_2_778
10
20.374322
20
144.8328185
40
0.2001892
50
176.936354
51
225.3840672
0
ARC
8
DEFAULT_255_2_778
10
20.3846306
20
144.8655882
40
0.2312879
50
229.2708449
51
273.4425628
0
ARC
8
DEFAULT_255_2_778
10
20.4118667
20
144.8642686
40
0.2299386
50
266.6721389
51
311.0326552
0
ARC
8
DEFAULT_255_2_778
10
20.4230644
20
144.8333461
40
0.1996138
50
314.4369807
51
2.9208412
0
ARC
8
DEFAULT_255_2_778
10
20.3901416
20
145.3760162
40
0.1949815
50
87.5375547
51
133.3003303
0
ARC
8
DEFAULT_255_2_778
10
20.3932875
20
145.3837895
40
0.1916334
50
135.5793723
51
183.0127279
0
ARC
8
DEFAULT_255_2_778
10
20.3920142
20
145.3656724
40
0.1902654
50
177.5765473
51
224.2034743
0
ARC
8
DEFAULT_255_2_778
10
20.3895595
20
145.3724602
40
0.1933502
50
226.1529384
51
272.6559001
0
ARC
8
DEFAULT_255_2_778
10
20.4076129
20
145.3728505
40
0.1937464
50
267.3097002
51
313.8023902
0
ARC
8
DEFAULT_255_2_778
10
20.4053236
20
145.3656724
40
0.1902654
50
315.7965257
51
2.4234527
0
ARC
8
DEFAULT_255_2_778
10
20.4043753
20
145.3808948
40
0.1911783
50
357.8485393
51
44.8896646
0
ARC
8
DEFAULT_255_2_778
10
20.4051276
20
145.3787546
40
0.1921667
50
45.5000526
51
91.8813262
0
ARC
8
DEFAULT_255_2_778
10
21.3675362
20
144.8921616
40
0.3864105
50
89.0387164
51
119.3365216
0
ARC
8
DEFAULT_255_2_778
10
21.3895464
20
144.9511689
40
0.3277169
50
43.1547289
51
92.7157405
0
ARC
8
DEFAULT_255_2_778
10
21.3417095
20
144.9261423
40
0.3800071
50
1.3563256
51
40.9736967
0
ARC
8
DEFAULT_255_2_778
10
21.1099922
20
144.8966623
40
0.6128268
50
359.9584304
51
3.5995384
0
ARC
8
DEFAULT_255_2_778
10
21.2978716
20
144.8825677
40
0.4251665
50
331.3936829
51
1.8398006
0
ARC
8
DEFAULT_255_2_778
10
21.3947957
20
144.8397026
40
0.3196711
50
316.0441672
51
329.8209703
0
ARC
8
DEFAULT_255_2_778
10
21.3800353
20
144.8652416
40
0.3481186
50
270.6914663
51
314.7043604
0
ARC
8
DEFAULT_255_2_778
10
21.3516632
20
145.0866879
40
0.5704704
50
269.96542
51
273.2733035
0
ARC
8
DEFAULT_255_2_778
10
21.3363962
20
144.8991278
40
0.3832008
50
233.8630539
51
272.2317979
0
ARC
8
DEFAULT_255_2_778
10
21.3105266
20
144.8494115
40
0.3279021
50
229.4879627
51
232.3905778
0
ARC
8
DEFAULT_255_2_778
10
21.3164748
20
144.8486911
40
0.3312558
50
182.8158733
51
228.6247968
0
ARC
8
DEFAULT_255_2_778
10
21.3538076
20
144.8511777
40
0.2278622
50
184.722536
51
227.0044745
0
ARC
8
DEFAULT_255_2_778
10
21.340533
20
144.8602748
40
0.2260242
50
231.0416166
51
272.7859714
0
ARC
8
DEFAULT_255_2_778
10
21.3616831
20
144.8382009
40
0.2039366
50
267.1432122
51
318.6683271
0
ARC
8
DEFAULT_255_2_778
10
21.3001173
20
144.8733311
40
0.2737396
50
321.6585588
51
0.8650199
0
ARC
8
DEFAULT_255_2_778
10
21.0968376
20
144.8941855
40
0.4772812
50
357.9922013
51
0.0158724
0
ARC
8
DEFAULT_255_2_778
10
21.313225
20
144.906782
40
0.2611915
50
357.2647496
51
41.1101558
0
ARC
8
DEFAULT_255_2_778
10
21.3491389
20
144.9277156
40
0.2205077
50
43.1480513
51
92.4744054
0
ARC
8
DEFAULT_255_2_778
10
21.3268502
20
144.8879826
40
0.2603484
50
87.1888107
51
120.5684696
0
ARC
8
DEFAULT_255_2_778
10
21.2864402
20
144.972474
40
0.1672483
50
123.3704048
51
126.729709
0
ARC
8
DEFAULT_255_2_778
10
22.729198
20
145.0548718
40
0.6200695
50
73.8444077
51
91.1439263
0
ARC
8
DEFAULT_255_2_778
10
22.8127641
20
145.3514972
40
0.3119141
50
52.1580466
51
73.4276174
0
ARC
8
DEFAULT_255_2_778
10
22.8302704
20
145.3908593
40
0.270287
50
357.6236076
51
49.9691727
0
ARC
8
DEFAULT_255_2_778
10
22.6404322
20
145.3703433
40
0.4599869
50
359.9968072
51
1.1595844
0
ARC
8
DEFAULT_255_2_778
10
22.8732514
20
145.3668646
40
0.2271937
50
322.5508113
51
0.870872
0
ARC
8
DEFAULT_255_2_778
10
22.8140378
20
145.4154811
40
0.3037757
50
291.6920865
51
322.0621102
0
ARC
8
DEFAULT_255_2_778
10
22.8601625
20
144.8681807
40
0.2731689
50
37.59054
51
75.9846748
0
ARC
8
DEFAULT_255_2_778
10
22.855036
20
144.8686496
40
0.2769671
50
358.5865472
51
36.8667413
0
ARC
8
DEFAULT_255_2_778
10
22.8303467
20
144.8468541
40
0.3019432
50
311.2720135
51
2.8406071
0
ARC
8
DEFAULT_255_2_778
10
22.7907005
20
144.9157489
40
0.3801978
50
274.9351548
51
308.9132115
0
ARC
8
DEFAULT_255_2_778
10
22.7424538
20
145.2106486
40
0.6785344
50
269.8197262
51
276.8521548
0
ARC
8
DEFAULT_255_2_778
10
22.7569757
20
144.904917
40
0.2503886
50
266.8046413
51
308.6676206
0
ARC
8
DEFAULT_255_2_778
10
22.7870665
20
144.8499722
40
0.1889987
50
311.9541689
51
2.9253318
0
ARC
8
DEFAULT_255_2_778
10
22.7738955
20
144.8733409
40
0.2023892
50
356.1120309
51
41.6203824
0
ARC
8
DEFAULT_255_2_778
10
22.77932
20
144.8481679
40
0.2162193
50
47.5724605
51
88.3427912
0
ARC
8
DEFAULT_255_2_778
10
22.7463201
20
144.6176968
40
0.4483217
50
84.9770177
51
90.1151662
0
ARC
8
DEFAULT_255_2_778
10
22.734125
20
145.436355
40
0.2494662
50
267.0574886
51
306.8452641
0
ARC
8
DEFAULT_255_2_778
10
22.7810589
20
145.3642181
40
0.1636931
50
308.8401098
51
2.3106157
0
ARC
8
DEFAULT_255_2_778
10
22.784011
20
145.3848979
40
0.1612239
50
354.9897808
51
49.7326495
0
ARC
8
DEFAULT_255_2_778
10
22.7546026
20
145.3103701
40
0.2384918
50
55.9265479
51
87.6988749
0
ARC
8
DEFAULT_255_2_778
10
22.7178424
20
145.0259431
40
0.5247762
50
84.9343723
51
90.1444956
0
LINE
8
DEFAULT_255_2_778
10
13.1489189
20
144.5318177
11
12.8944189
21
144.9941177
0
LINE
8
DEFAULT_255_2_778
10
12.8944189
20
144.9941177
11
12.6190189
21
144.9941177
0
LINE
8
DEFAULT_255_2_778
10
12.6190189
20
144.9941177
11
12.6190189
21
144.5318177
0
LINE
8
DEFAULT_255_2_778
10
12.6190189
20
144.5318177
11
12.4634189
21
144.5318177
0
LINE
8
DEFAULT_255_2_778
10
12.4634189
20
144.5318177
11
12.4634189
21
145.6748177
0
LINE
8
DEFAULT_255_2_778
10
12.4634189
20
145.6748177
11
12.8518189
21
145.6748177
0
LINE
8
DEFAULT_255_2_778
10
13.0394189
20
145.0266177
11
13.3148189
21
144.5416177
0
LINE
8
DEFAULT_255_2_778
10
13.3148189
20
144.5416177
11
13.3148189
21
144.5321177
0
LINE
8
DEFAULT_255_2_778
10
13.3148189
20
144.5321177
11
13.1489189
21
144.5321177
0
LINE
8
DEFAULT_255_2_778
10
13.1489189
20
144.5321177
11
13.1489189
21
144.5318177
0
LINE
8
DEFAULT_255_2_778
10
12.6187189
20
145.5507177
11
12.6187189
21
145.1173177
0
LINE
8
DEFAULT_255_2_778
10
12.6187189
20
145.1173177
11
12.8563189
21
145.1173177
0
LINE
8
DEFAULT_255_2_778
10
12.8555189
20
145.5505177
11
12.6187189
21
145.5505177
0
LINE
8
DEFAULT_255_2_778
10
12.6187189
20
145.5505177
11
12.6187189
21
145.5507177
0
LINE
8
DEFAULT_255_2_778
10
14.2586189
20
145.3441177
11
14.1030189
21
145.3441177
0
LINE
8
DEFAULT_255_2_778
10
13.4085189
20
144.8631177
11
13.5641189
21
144.8631177
0
LINE
8
DEFAULT_255_2_778
10
13.8260189
20
145.0411177
11
13.8260189
21
145.0411177
0
LINE
8
DEFAULT_255_2_778
10
15.4585189
20
145.6748177
11
15.4585189
21
144.9157177
0
LINE
8
DEFAULT_255_2_778
10
15.4585189
20
144.9157177
11
15.6212189
21
144.9157177
0
LINE
8
DEFAULT_255_2_778
10
15.6212189
20
144.9157177
11
15.6212189
21
144.7972177
0
LINE
8
DEFAULT_255_2_778
10
15.6212189
20
144.7972177
11
15.4585189
21
144.7972177
0
LINE
8
DEFAULT_255_2_778
10
15.4585189
20
144.7972177
11
15.4585189
21
144.5318177
0
LINE
8
DEFAULT_255_2_778
10
15.4585189
20
144.5318177
11
15.3087189
21
144.5318177
0
LINE
8
DEFAULT_255_2_778
10
15.3087189
20
144.5318177
11
15.3087189
21
144.7972177
0
LINE
8
DEFAULT_255_2_778
10
15.3087189
20
144.7972177
11
14.7745189
21
144.7972177
0
LINE
8
DEFAULT_255_2_778
10
14.7745189
20
144.7972177
11
14.7745189
21
144.8829177
0
LINE
8
DEFAULT_255_2_778
10
14.7745189
20
144.8829177
11
15.3000189
21
145.6748177
0
LINE
8
DEFAULT_255_2_778
10
15.3000189
20
145.6748177
11
15.4587189
21
145.6748177
0
LINE
8
DEFAULT_255_2_778
10
15.4587189
20
145.6748177
11
15.4585189
21
145.6748177
0
LINE
8
DEFAULT_255_2_778
10
15.2910189
20
145.4449177
11
14.9436189
21
144.9157177
0
LINE
8
DEFAULT_255_2_778
10
14.9436189
20
144.9157177
11
15.3087189
21
144.9157177
0
LINE
8
DEFAULT_255_2_778
10
15.3087189
20
144.9157177
11
15.3087189
21
145.4761177
0
LINE
8
DEFAULT_255_2_778
10
15.3087189
20
145.4761177
11
15.2910189
21
145.4446177
0
LINE
8
DEFAULT_255_2_778
10
15.2910189
20
145.4446177
11
15.2910189
21
145.4449177
0
LINE
8
DEFAULT_255_2_778
10
16.5245189
20
144.6504177
11
16.5245189
21
144.5318177
0
LINE
8
DEFAULT_255_2_778
10
16.5245189
20
144.5318177
11
15.7559189
21
144.5318177
0
LINE
8
DEFAULT_255_2_778
10
15.7559189
20
144.5318177
11
15.7559189
21
144.6363177
0
LINE
8
DEFAULT_255_2_778
10
15.7559189
20
144.6363177
11
16.1620189
21
145.0758177
0
LINE
8
DEFAULT_255_2_778
10
15.8826189
20
145.3383177
11
15.7336189
21
145.3383177
0
LINE
8
DEFAULT_255_2_778
10
16.2501189
20
144.9827177
11
15.9358189
21
144.6506177
0
LINE
8
DEFAULT_255_2_778
10
15.9358189
20
144.6506177
11
16.5248189
21
144.6506177
0
LINE
8
DEFAULT_255_2_778
10
16.5248189
20
144.6506177
11
16.5245189
21
144.6504177
0
LINE
8
DEFAULT_255_2_778
10
17.4511189
20
144.6504177
11
17.4511189
21
144.5318177
0
LINE
8
DEFAULT_255_2_778
10
17.4511189
20
144.5318177
11
16.6824189
21
144.5318177
0
LINE
8
DEFAULT_255_2_778
10
16.6824189
20
144.5318177
11
16.6824189
21
144.6363177
0
LINE
8
DEFAULT_255_2_778
10
16.6824189
20
144.6363177
11
17.0886189
21
145.0758177
0
LINE
8
DEFAULT_255_2_778
10
16.8092189
20
145.3383177
11
16.6602189
21
145.3383177
0
LINE
8
DEFAULT_255_2_778
10
17.1764189
20
144.9827177
11
16.8621189
21
144.6506177
0
LINE
8
DEFAULT_255_2_778
10
16.8621189
20
144.6506177
11
17.4511189
21
144.6506177
0
LINE
8
DEFAULT_255_2_778
10
17.4511189
20
144.6506177
11
17.4511189
21
144.6504177
0
LINE
8
DEFAULT_255_2_778
10
18.5517189
20
145.6748177
11
18.0625189
21
144.4337177
0
LINE
8
DEFAULT_255_2_778
10
18.0625189
20
144.4337177
11
17.9345189
21
144.4337177
0
LINE
8
DEFAULT_255_2_778
10
17.9345189
20
144.4337177
11
18.4245189
21
145.6748177
0
LINE
8
DEFAULT_255_2_778
10
18.4245189
20
145.6748177
11
18.5517189
21
145.6748177
0
LINE
8
DEFAULT_255_2_778
10
18.5517189
20
145.6748177
11
18.5517189
21
145.6748177
0
LINE
8
DEFAULT_255_2_778
10
19.7355189
20
145.6748177
11
19.7355189
21
144.9157177
0
LINE
8
DEFAULT_255_2_778
10
19.7355189
20
144.9157177
11
19.8982189
21
144.9157177
0
LINE
8
DEFAULT_255_2_778
10
19.8982189
20
144.9157177
11
19.8982189
21
144.7972177
0
LINE
8
DEFAULT_255_2_778
10
19.8982189
20
144.7972177
11
19.7355189
21
144.7972177
0
LINE
8
DEFAULT_255_2_778
10
19.7355189
20
144.7972177
11
19.7355189
21
144.5318177
0
LINE
8
DEFAULT_255_2_778
10
19.7355189
20
144.5318177
11
19.5855189
21
144.5318177
0
LINE
8
DEFAULT_255_2_778
10
19.5855189
20
144.5318177
11
19.5855189
21
144.7972177
0
LINE
8
DEFAULT_255_2_778
10
19.5855189
20
144.7972177
11
19.0513189
21
144.7972177
0
LINE
8
DEFAULT_255_2_778
10
19.0513189
20
144.7972177
11
19.0513189
21
144.8829177
0
LINE
8
DEFAULT_255_2_778
10
19.0513189
20
144.8829177
11
19.5767189
21
145.6748177
0
LINE
8
DEFAULT_255_2_778
10
19.5767189
20
145.6748177
11
19.7355189
21
145.6748177
0
LINE
8
DEFAULT_255_2_778
10
19.7355189
20
145.6748177
11
19.7355189
21
145.6748177
0
LINE
8
DEFAULT_255_2_778
10
19.5680189
20
145.4449177
11
19.2206189
21
144.9157177
0
LINE
8
DEFAULT_255_2_778
10
19.2206189
20
144.9157177
11
19.5857189
21
144.9157177
0
LINE
8
DEFAULT_255_2_778
10
19.5857189
20
144.9157177
11
19.5857189
21
145.4761177
0
LINE
8
DEFAULT_255_2_778
10
19.5857189
20
145.4761177
11
19.5680189
21
145.4446177
0
LINE
8
DEFAULT_255_2_778
10
19.5680189
20
145.4446177
11
19.5680189
21
145.4449177
0
LINE
8
DEFAULT_255_2_778
10
20.7443189
20
145.3769177
11
20.7443189
21
145.3764177
0
LINE
8
DEFAULT_255_2_778
10
20.6224189
20
144.8435177
11
20.6226189
21
144.8432177
0
LINE
8
DEFAULT_255_2_778
10
20.3988189
20
145.5708177
11
20.3985189
21
145.5708177
0
LINE
8
DEFAULT_255_2_778
10
21.1470189
20
145.0750177
11
21.0277189
21
145.1049177
0
LINE
8
DEFAULT_255_2_778
10
21.0277189
20
145.1049177
11
21.0872189
21
145.6748177
0
LINE
8
DEFAULT_255_2_778
10
21.0872189
20
145.6748177
11
21.6884189
21
145.6748177
0
LINE
8
DEFAULT_255_2_778
10
21.6884189
20
145.6748177
11
21.6884189
21
145.5407177
0
LINE
8
DEFAULT_255_2_778
10
21.6884189
20
145.5407177
11
21.2137189
21
145.5407177
0
LINE
8
DEFAULT_255_2_778
10
21.2137189
20
145.5407177
11
21.1782189
21
145.2290177
0
LINE
8
DEFAULT_255_2_778
10
20.9856189
20
144.8324177
11
21.1267189
21
144.8324177
0
LINE
8
DEFAULT_255_2_778
10
21.1864189
20
145.1065177
11
21.1470189
21
145.0750177
0
LINE
8
DEFAULT_255_2_778
10
21.1470189
20
145.0750177
11
21.1470189
21
145.0750177
0
LINE
8
DEFAULT_255_2_778
10
22.7401189
20
144.5318177
11
22.3332189
21
144.5318177
0
LINE
8
DEFAULT_255_2_778
10
22.3332189
20
144.5318177
11
22.3332189
21
145.6748177
0
LINE
8
DEFAULT_255_2_778
10
22.3332189
20
145.6748177
11
22.7168189
21
145.6748177
0
LINE
8
DEFAULT_255_2_778
10
22.7403189
20
144.5321177
11
22.7401189
21
144.5318177
0
LINE
8
DEFAULT_255_2_778
10
22.7456189
20
145.0663177
11
22.4877189
21
145.0663177
0
LINE
8
DEFAULT_255_2_778
10
22.4877189
20
145.0663177
11
22.4877189
21
144.6549177
0
LINE
8
DEFAULT_255_2_778
10
22.4877189
20
144.6549177
11
22.7430189
21
144.6549177
0
LINE
8
DEFAULT_255_2_778
10
22.7454189
20
145.0660177
11
22.7456189
21
145.0663177
0
LINE
8
DEFAULT_255_2_778
10
22.4877189
20
145.5507177
11
22.4877189
21
145.1872177
0
LINE
8
DEFAULT_255_2_778
10
22.4877189
20
145.1872177
11
22.7213189
21
145.1872177
0
LINE
8
DEFAULT_255_2_778
10
22.7165189
20
145.5507177
11
22.4877189
21
145.5507177
0
LINE
8
DEFAULT_255_2_778
10
22.4877189
20
145.5507177
11
22.4877189
21
145.5507177
0
LINE
8
DEFAULT_255_2_778
10
24.1204189
20
144.5318177
11
24.0085189
21
144.8300177
0
LINE
8
DEFAULT_255_2_778
10
24.0085189
20
144.8300177
11
23.5169189
21
144.8300177
0
LINE
8
DEFAULT_255_2_778
10
23.5169189
20
144.8300177
11
23.4066189
21
144.5318177
0
LINE
8
DEFAULT_255_2_778
10
23.4066189
20
144.5318177
11
23.2470189
21
144.5318177
0
LINE
8
DEFAULT_255_2_778
10
23.2470189
20
144.5318177
11
23.6950189
21
145.6748177
0
LINE
8
DEFAULT_255_2_778
10
23.6950189
20
145.6748177
11
23.8304189
21
145.6748177
0
LINE
8
DEFAULT_255_2_778
10
23.8304189
20
145.6748177
11
24.2792189
21
144.5318177
0
LINE
8
DEFAULT_255_2_778
10
24.2792189
20
144.5318177
11
24.1204189
21
144.5318177
0
LINE
8
DEFAULT_255_2_778
10
24.1204189
20
144.5318177
11
24.1204189
21
144.5318177
0
LINE
8
DEFAULT_255_2_778
10
23.7627189
20
145.4888177
11
23.5637189
21
144.9541177
0
LINE
8
DEFAULT_255_2_778
10
23.5637189
20
144.9541177
11
23.9627189
21
144.9541177
0
LINE
8
DEFAULT_255_2_778
10
23.9627189
20
144.9541177
11
23.7630189
21
145.4888177
0
LINE
8
DEFAULT_255_2_778
10
23.7630189
20
145.4888177
11
23.7627189
21
145.4888177
0
ARC
8
DEFAULT_255_2_778
10
8.6227439
20
139.9902884
40
0.2993259
50
309.5866413
51
2.8956232
0
ARC
8
DEFAULT_255_2_778
10
8.5675877
20
140.0806091
40
0.4043607
50
276.413431
51
307.4537045
0
ARC
8
DEFAULT_255_2_778
10
8.5079734
20
140.4191552
40
0.747754
50
269.7329083
51
278.055322
0
ARC
8
DEFAULT_255_2_778
10
8.4918339
20
140.2670234
40
0.5957484
50
251.2543369
51
271.217064
0
ARC
8
DEFAULT_255_2_778
10
8.4130935
20
140.0227569
40
0.3391573
50
187.5645119
51
250.5894195
0
ARC
8
DEFAULT_255_2_778
10
8.4743257
20
140.0462395
40
0.2510948
50
188.3422094
51
229.9470043
0
ARC
8
DEFAULT_255_2_778
10
8.4314711
20
140.0079753
40
0.1944011
50
232.3586613
51
234.7551075
0
ARC
8
DEFAULT_255_2_778
10
8.4865645
20
140.1067251
40
0.3070764
50
236.9930882
51
270.0295766
0
ARC
8
DEFAULT_255_2_778
10
8.5082809
20
140.3282163
40
0.5290069
50
267.6644617
51
270.022398
0
ARC
8
DEFAULT_255_2_778
10
8.5207958
20
140.1661107
40
0.3671078
50
268.0786743
51
292.3958407
0
ARC
8
DEFAULT_255_2_778
10
8.5784873
20
140.009134
40
0.2000951
50
294.2483936
51
308.4408346
0
ARC
8
DEFAULT_255_2_778
10
8.5874287
20
139.9932666
40
0.1821306
50
309.3410555
51
3.1294005
0
ARC
8
DEFAULT_255_2_778
10
8.6016222
20
140.0107547
40
0.1678351
50
357.423286
51
32.4906434
0
ARC
8
DEFAULT_255_2_778
10
8.5746327
20
139.981874
40
0.2063497
50
35.2301662
51
61.0905571
0
ARC
8
DEFAULT_255_2_778
10
8.4689462
20
139.792572
40
0.4231546
50
60.9547803
51
75.0531228
0
ARC
8
DEFAULT_255_2_778
10
6.8143691
20
133.9500829
40
6.4953665
50
74.244378
51
75.2364481
0
ARC
8
DEFAULT_255_2_778
10
8.9112572
20
141.8647482
40
1.6923872
50
250.3372628
51
254.872121
0
ARC
8
DEFAULT_255_2_778
10
8.5191532
20
140.7687833
40
0.5283924
50
243.6455474
51
250.3878761
0
ARC
8
DEFAULT_255_2_778
10
8.4170137
20
140.5682834
40
0.3033999
50
223.3770699
51
244.1208937
0
ARC
8
DEFAULT_255_2_778
10
8.3799034
20
140.5263599
40
0.2476835
50
199.5422386
51
222.223878
0
ARC
8
DEFAULT_255_2_778
10
8.4569944
20
140.5475469
40
0.3274725
50
178.8517259
51
198.5237956
0
ARC
8
DEFAULT_255_2_778
10
8.4072888
20
140.5701659
40
0.2781649
50
130.2694579
51
183.309132
0
ARC
8
DEFAULT_255_2_778
10
8.4520849
20
140.4894289
40
0.3691632
50
95.540921
51
127.473584
0
ARC
8
DEFAULT_255_2_778
10
8.5054177
20
140.1710307
40
0.6915842
50
89.7705183
51
97.3920594
0
ARC
8
DEFAULT_255_2_778
10
8.5205211
20
140.2710413
40
0.5916966
50
73.7257329
51
91.1943712
0
ARC
8
DEFAULT_255_2_778
10
8.5982628
20
140.5507289
40
0.3014532
50
55.4815641
51
73.0126344
0
ARC
8
DEFAULT_255_2_778
10
8.5811273
20
140.551643
40
0.310755
50
16.4294469
51
52.7819041
0
ARC
8
DEFAULT_255_2_778
10
8.3382069
20
140.4550862
40
0.5715666
50
13.1490888
51
18.8267727
0
ARC
8
DEFAULT_255_2_778
10
8.5234753
20
140.5261501
40
0.2220255
50
7.9112214
51
48.7836968
0
ARC
8
DEFAULT_255_2_778
10
8.570937
20
140.5679526
40
0.1595167
50
51.7152832
51
53.3361171
0
ARC
8
DEFAULT_255_2_778
10
8.5245241
20
140.4847898
40
0.2542441
50
56.137951
51
91.7536592
0
ARC
8
DEFAULT_255_2_778
10
8.5074436
20
140.2818521
40
0.4571571
50
88.8343472
51
90.0070154
0
ARC
8
DEFAULT_255_2_778
10
8.4951546
20
140.4153475
40
0.3238929
50
87.8354857
51
112.9332451
0
ARC
8
DEFAULT_255_2_778
10
8.4365706
20
140.5709265
40
0.1579241
50
115.3535906
51
185.1650501
0
ARC
8
DEFAULT_255_2_778
10
8.427332
20
140.5502183
40
0.1481866
50
177.4894588
51
211.3557609
0
ARC
8
DEFAULT_255_2_778
10
8.4406561
20
140.5675044
40
0.1687412
50
214.014786
51
240.9374394
0
ARC
8
DEFAULT_255_2_778
10
8.5454512
20
140.7575054
40
0.3857255
50
241.0407371
51
254.7799165
0
ARC
8
DEFAULT_255_2_778
10
12.5877587
20
155.0213188
40
15.2112443
50
254.1927592
51
254.6002655
0
ARC
8
DEFAULT_255_2_778
10
7.9754389
20
138.1703755
40
2.2596769
50
72.2649934
51
75.3121152
0
ARC
8
DEFAULT_255_2_778
10
8.4519923
20
139.6624641
40
0.6933339
50
68.1987953
51
72.2148132
0
ARC
8
DEFAULT_255_2_778
10
8.5316535
20
139.8605563
40
0.4798246
50
56.4425209
51
68.2459334
0
ARC
8
DEFAULT_255_2_778
10
8.6417296
20
140.0272125
40
0.2800979
50
37.9873896
51
56.3620987
0
ARC
8
DEFAULT_255_2_778
10
8.6398101
20
140.0305589
40
0.2795771
50
18.0768133
51
37.2047313
0
ARC
8
DEFAULT_255_2_778
10
8.5658174
20
140.012937
40
0.3554397
50
358.8670856
51
17.0761706
0
ARC
8
DEFAULT_255_2_778
10
12.5147912
20
138.975529
40
3.1757961
50
146.5769657
51
153.5450761
0
ARC
8
DEFAULT_255_2_778
10
11.521291
20
139.4656665
40
2.0679805
50
153.4402019
51
163.3978245
0
ARC
8
DEFAULT_255_2_778
10
10.8053118
20
139.6742643
40
1.3222558
50
163.1954116
51
179.1504454
0
ARC
8
DEFAULT_255_2_778
10
10.5488294
20
139.688446
40
1.0656418
50
179.708404
51
180.0019719
0
ARC
8
DEFAULT_255_2_778
10
10.5893529
20
139.6759247
40
1.2576272
50
163.6189383
51
179.4312083
0
ARC
8
DEFAULT_255_2_778
10
11.0727595
20
139.5497149
40
1.7570714
50
159.1739702
51
164.1160904
0
ARC
8
DEFAULT_255_2_778
10
11.5926386
20
139.3430486
40
2.3164752
50
149.7590035
51
158.9679311
0
ARC
8
DEFAULT_255_2_778
10
12.3542165
20
138.9121942
40
3.1914284
50
145.5028269
51
149.9625614
0
ARC
8
DEFAULT_255_2_778
10
10.4382031
20
140.0589187
40
0.4401913
50
333.0778863
51
1.2614514
0
ARC
8
DEFAULT_255_2_778
10
10.5374766
20
140.0132882
40
0.3310437
50
297.7837065
51
332.3399089
0
ARC
8
DEFAULT_255_2_778
10
10.487059
20
140.1204256
40
0.4493626
50
268.5371935
51
297.1034089
0
ARC
8
DEFAULT_255_2_778
10
10.4624778
20
140.1273793
40
0.4563582
50
244.8473383
51
271.6461667
0
ARC
8
DEFAULT_255_2_778
10
10.4121778
20
140.0005699
40
0.3203032
50
233.0163816
51
243.3504026
0
ARC
8
DEFAULT_255_2_778
10
10.4251277
20
140.0058688
40
0.3324035
50
188.2782139
51
231.7826845
0
ARC
8
DEFAULT_255_2_778
10
10.4573222
20
140.014763
40
0.2180067
50
190.2395207
51
272.9402415
0
ARC
8
DEFAULT_255_2_778
10
10.4787274
20
140.1874865
40
0.390577
50
268.5002078
51
270.00884
0
ARC
8
DEFAULT_255_2_778
10
10.4896474
20
140.0340551
40
0.2373943
50
267.3780542
51
315.8865445
0
ARC
8
DEFAULT_255_2_778
10
10.4542865
20
140.0494459
40
0.2738315
50
318.7258115
51
2.8316314
0
ARC
8
DEFAULT_255_2_778
10
10.2600739
20
140.0649078
40
0.4677137
50
359.7630452
51
0.0001951
0
ARC
8
DEFAULT_255_2_778
10
10.4915714
20
140.0737595
40
0.236382
50
357.8543373
51
44.2516089
0
ARC
8
DEFAULT_255_2_778
10
10.4933799
20
140.0662884
40
0.240391
50
45.8280603
51
92.716279
0
ARC
8
DEFAULT_255_2_778
10
10.4794893
20
140.0075421
40
0.2988777
50
89.5210448
51
110.9781185
0
ARC
8
DEFAULT_255_2_778
10
10.4948769
20
139.9901222
40
0.3207549
50
112.4307242
51
134.2423878
0
ARC
8
DEFAULT_255_2_778
10
10.4996469
20
140.0743972
40
0.3582213
50
88.0417589
51
128.3287683
0
ARC
8
DEFAULT_255_2_778
10
10.52738
20
140.0728955
40
0.3598475
50
46.0140335
51
92.4674912
0
ARC
8
DEFAULT_255_2_778
10
10.5236367
20
140.0834949
40
0.3549632
50
357.5965738
51
44.3908981
0
ARC
8
DEFAULT_255_2_778
10
14.244695
20
140.7845027
40
0.2114996
50
297.3288822
51
332.6118239
0
ARC
8
DEFAULT_255_2_778
10
14.0944827
20
141.0191739
40
0.4896158
50
293.6878608
51
300.3388437
0
ARC
8
DEFAULT_255_2_778
10
14.065353
20
141.0575805
40
0.5366073
50
270.6657205
51
294.888676
0
ARC
8
DEFAULT_255_2_778
10
14.0731643
20
141.1260541
40
0.4782473
50
269.8111099
51
297.8779287
0
ARC
8
DEFAULT_255_2_778
10
14.1571548
20
140.9983914
40
0.3264518
50
295.3235168
51
331.7368455
0
LINE
8
DEFAULT_255_2_778
10
7.9268877
20
139.6884094
11
7.1537877
21
139.6884094
0
LINE
8
DEFAULT_255_2_778
10
7.1537877
20
139.6884094
11
7.1537877
21
140.8438094
0
LINE
8
DEFAULT_255_2_778
10
7.1537877
20
140.8438094
11
7.8940877
21
140.8438094
0
LINE
8
DEFAULT_255_2_778
10
7.8940877
20
140.8438094
11
7.8940877
21
140.7102094
0
LINE
8
DEFAULT_255_2_778
10
7.8940877
20
140.7102094
11
7.3077877
21
140.7102094
0
LINE
8
DEFAULT_255_2_778
10
7.3077877
20
140.7102094
11
7.3077877
21
140.3488094
0
LINE
8
DEFAULT_255_2_778
10
7.3077877
20
140.3488094
11
7.8458877
21
140.3488094
0
LINE
8
DEFAULT_255_2_778
10
7.8458877
20
140.3488094
11
7.8458877
21
140.2168094
0
LINE
8
DEFAULT_255_2_778
10
7.8458877
20
140.2168094
11
7.3080877
21
140.2168094
0
LINE
8
DEFAULT_255_2_778
10
7.3080877
20
140.2168094
11
7.3080877
21
139.8220094
0
LINE
8
DEFAULT_255_2_778
10
7.3080877
20
139.8220094
11
7.9273877
21
139.8220094
0
LINE
8
DEFAULT_255_2_778
10
7.9273877
20
139.8220094
11
7.9273877
21
139.6884094
0
LINE
8
DEFAULT_255_2_778
10
7.9273877
20
139.6884094
11
7.9268877
21
139.6884094
0
LINE
8
DEFAULT_255_2_778
10
8.0768877
20
139.9781094
11
8.2258877
21
140.0098094
0
LINE
8
DEFAULT_255_2_778
10
8.8947877
20
140.5851094
11
8.7433877
21
140.5567094
0
LINE
8
DEFAULT_255_2_778
10
8.9211877
20
140.0059094
11
8.9216877
21
140.0054094
0
LINE
8
DEFAULT_255_2_778
10
9.8641877
20
140.8438094
11
9.8641877
21
140.7248094
0
LINE
8
DEFAULT_255_2_778
10
9.4831877
20
139.6884094
11
9.3317877
21
139.6884094
0
LINE
8
DEFAULT_255_2_778
10
9.7239877
20
140.7197094
11
9.1304877
21
140.7197094
0
LINE
8
DEFAULT_255_2_778
10
9.1304877
20
140.7197094
11
9.1304877
21
140.8438094
0
LINE
8
DEFAULT_255_2_778
10
9.1304877
20
140.8438094
11
9.8641877
21
140.8438094
0
LINE
8
DEFAULT_255_2_778
10
9.8641877
20
140.8438094
11
9.8641877
21
140.8438094
0
LINE
8
DEFAULT_255_2_778
10
10.0961877
20
139.9580094
11
10.2427877
21
139.9760094
0
LINE
8
DEFAULT_255_2_778
10
10.2710877
20
140.2199094
11
10.1292877
21
140.2199094
0
LINE
8
DEFAULT_255_2_778
10
10.1292877
20
140.2199094
11
10.1670877
21
140.8436094
0
LINE
8
DEFAULT_255_2_778
10
10.1670877
20
140.8436094
11
10.8121877
21
140.8436094
0
LINE
8
DEFAULT_255_2_778
10
10.8121877
20
140.8436094
11
10.8121877
21
140.7195094
0
LINE
8
DEFAULT_255_2_778
10
10.8121877
20
140.7195094
11
10.3007877
21
140.7195094
0
LINE
8
DEFAULT_255_2_778
10
10.3007877
20
140.7195094
11
10.2774877
21
140.3554094
0
LINE
8
DEFAULT_255_2_778
10
10.8782877
20
140.0686094
11
10.8782877
21
140.0686094
0
LINE
8
DEFAULT_255_2_778
10
13.6828877
20
140.0858094
11
13.2317877
21
140.0858094
0
LINE
8
DEFAULT_255_2_778
10
13.2317877
20
140.0858094
11
13.2317877
21
140.2228094
0
LINE
8
DEFAULT_255_2_778
10
13.2317877
20
140.2228094
11
13.6828877
21
140.2228094
0
LINE
8
DEFAULT_255_2_778
10
13.6828877
20
140.2228094
11
13.6828877
21
140.0858094
0
LINE
8
DEFAULT_255_2_778
10
13.6828877
20
140.0858094
11
13.6828877
21
140.0858094
0
LINE
8
DEFAULT_255_2_778
10
14.8626877
20
139.6884094
11
14.0789877
21
139.6884094
0
LINE
8
DEFAULT_255_2_778
10
14.0789877
20
139.6884094
11
14.0789877
21
139.8125094
0
LINE
8
DEFAULT_255_2_778
10
14.0789877
20
139.8125094
11
14.4324877
21
139.8125094
0
LINE
8
DEFAULT_255_2_778
10
14.4324877
20
139.8125094
11
14.4324877
21
140.6872094
0
LINE
8
DEFAULT_255_2_778
10
14.0715877
20
140.5210094
11
14.0715877
21
140.6478094
0
LINE
8
DEFAULT_255_2_778
10
14.4446877
20
140.8438094
11
14.5782877
21
140.8438094
0
LINE
8
DEFAULT_255_2_778
10
14.5782877
20
140.8438094
11
14.5782877
21
139.8125094
0
LINE
8
DEFAULT_255_2_778
10
14.5782877
20
139.8125094
11
14.8626877
21
139.8125094
0
LINE
8
DEFAULT_255_2_778
10
14.8626877
20
139.8125094
11
14.8626877
21
139.6881094
0
LINE
8
DEFAULT_255_2_778
10
14.8626877
20
139.6881094
11
14.8626877
21
139.6884094
0
LINE
8
DEFAULT_255_2_778
10
19.6219877
20
140.0858094
11
19.1708877
21
140.0858094
0
LINE
8
DEFAULT_255_2_778
10
19.1708877
20
140.0858094
11
19.1708877
21
140.2228094
0
LINE
8
DEFAULT_255_2_778
10
19.1708877
20
140.2228094
11
19.6219877
21
140.2228094
0
LINE
8
DEFAULT_255_2_778
10
19.6219877
20
140.2228094
11
19.6219877
21
140.0858094
0
LINE
8
DEFAULT_255_2_778
10
19.6219877
20
140.0858094
11
19.6219877
21
140.0858094
0
ARC
8
DEFAULT_255_2_778
10
6.4602052
20
140.0566692
40
0.4564986
50
331.8134131
51
1.7251972
0
ARC
8
DEFAULT_255_2_778
10
6.5589355
20
140.0138327
40
0.3493555
50
318.0097364
51
330.357217
0
ARC
8
DEFAULT_255_2_778
10
6.5676518
20
140.014011
40
0.343048
50
267.0666945
51
317.0136171
0
ARC
8
DEFAULT_255_2_778
10
6.5353688
20
140.0056622
40
0.3345741
50
213.9088088
51
272.523002
0
ARC
8
DEFAULT_255_2_778
10
6.7228934
20
140.1263305
40
0.5575412
50
189.82052
51
213.449541
0
ARC
8
DEFAULT_255_2_778
10
7.2317646
20
140.2287169
40
1.0765114
50
179.4839568
51
190.5705552
0
ARC
8
DEFAULT_255_2_778
10
7.3695226
20
140.2509783
40
1.2142907
50
168.9110177
51
180.5929237
0
ARC
8
DEFAULT_255_2_778
10
6.7872994
20
140.3705226
40
0.6199685
50
147.9720254
51
169.4037467
0
ARC
8
DEFAULT_255_2_778
10
6.550766
20
140.5242023
40
0.3379712
50
88.2313867
51
148.793659
0
ARC
8
DEFAULT_255_2_778
10
6.5751276
20
140.5199873
40
0.3423088
50
56.7644585
51
92.3323743
0
ARC
8
DEFAULT_255_2_778
10
6.5692896
20
140.5482124
40
0.3225431
50
13.6254978
51
53.146645
0
ARC
8
DEFAULT_255_2_778
10
6.3909166
20
140.4817826
40
0.5120417
50
15.2206565
51
16.148477
0
ARC
8
DEFAULT_255_2_778
10
6.5687239
20
140.5566133
40
0.1807298
50
10.5528122
51
92.8947126
0
ARC
8
DEFAULT_255_2_778
10
6.5582979
20
140.5251379
40
0.2119786
50
89.6488998
51
153.9851699
0
ARC
8
DEFAULT_255_2_778
10
6.8204979
20
140.3728109
40
0.5148894
50
151.5484057
51
172.8036681
0
ARC
8
DEFAULT_255_2_778
10
7.3316965
20
140.2905146
40
1.0325206
50
171.8264032
51
180.3663603
0
ARC
8
DEFAULT_255_2_778
10
6.5461974
20
140.1635529
40
0.2747648
50
119.6198346
51
154.0207267
0
ARC
8
DEFAULT_255_2_778
10
6.568502
20
140.1169443
40
0.326327
50
88.912247
51
118.9796517
0
ARC
8
DEFAULT_255_2_778
10
6.5881185
20
140.1222659
40
0.3212271
50
43.0659424
51
92.3946519
0
ARC
8
DEFAULT_255_2_778
10
6.541901
20
140.095096
40
0.3737283
50
0.21485
51
41.270448
0
ARC
8
DEFAULT_255_2_778
10
6.3282193
20
140.0706084
40
0.5879777
50
359.9809047
51
2.5235824
0
LINE
8
DEFAULT_255_2_778
10
6.8849969
20
140.6162125
11
6.7463969
21
140.5897125
0
LINE
8
DEFAULT_255_2_778
10
6.9161969
20
140.0704125
11
6.9164969
21
140.0704125
0
ARC
8
DEFAULT_255_2_778
10
6.4724145
20
140.0767568
40
0.2967311
50
357.4428041
51
31.6074069
0
ARC
8
DEFAULT_255_2_778
10
6.5529349
20
140.1164774
40
0.2075066
50
33.9196893
51
41.9967866
0
ARC
8
DEFAULT_255_2_778
10
6.5501568
20
140.110735
40
0.2134269
50
42.643471
51
92.7411106
0
ARC
8
DEFAULT_255_2_778
10
6.5395028
20
140.0893299
40
0.2345883
50
89.8907463
51
118.588092
0
ARC
8
DEFAULT_255_2_778
10
6.5253689
20
140.1093856
40
0.2102333
50
117.8212042
51
149.6483507
0
ARC
8
DEFAULT_255_2_778
10
6.5351156
20
140.1039506
40
0.2213906
50
149.7091567
51
180.8625832
0
ARC
8
DEFAULT_255_2_778
10
6.6683635
20
140.0878651
40
0.3548426
50
177.940412
51
215.2404427
0
ARC
8
DEFAULT_255_2_778
10
6.5431142
20
139.9945534
40
0.1987442
50
214.1041711
51
270.5292793
0
ARC
8
DEFAULT_255_2_778
10
6.5530807
20
139.9987456
40
0.2030908
50
267.7055816
51
319.8216238
0
ARC
8
DEFAULT_255_2_778
10
6.4832485
20
140.0436293
40
0.2856057
50
321.980862
51
0.9789185
0
ARC
8
DEFAULT_255_2_778
10
6.2821452
20
140.0637183
40
0.486905
50
358.2099477
51
0.0116995
0
LINE
8
DEFAULT_255_2_778
10
6.7690501
20
140.0638177
11
6.7688501
21
140.0635177
0
LINE
8
DEFAULT_255_2_778
10
11.8890501
20
139.9614177
11
11.7377501
21
139.9614177
0
LINE
8
DEFAULT_255_2_778
10
11.7377501
20
139.9614177
11
11.7377501
21
139.6881177
0
LINE
8
DEFAULT_255_2_778
10
11.7377501
20
139.6881177
11
11.5927501
21
139.6881177
0
LINE
8
DEFAULT_255_2_778
10
11.5927501
20
139.6881177
11
11.5927501
21
139.9614177
0
LINE
8
DEFAULT_255_2_778
10
11.5927501
20
139.9614177
11
11.0659501
21
139.9614177
0
LINE
8
DEFAULT_255_2_778
10
11.0659501
20
139.9614177
11
11.0659501
21
140.0812177
0
LINE
8
DEFAULT_255_2_778
10
11.0659501
20
140.0812177
11
11.5773501
21
140.8435177
0
LINE
8
DEFAULT_255_2_778
10
11.5773501
20
140.8435177
11
11.7377501
21
140.8435177
0
LINE
8
DEFAULT_255_2_778
10
11.7377501
20
140.8435177
11
11.7377501
21
140.0828177
0
LINE
8
DEFAULT_255_2_778
10
11.7377501
20
140.0828177
11
11.8890501
21
140.0828177
0
LINE
8
DEFAULT_255_2_778
10
11.8890501
20
140.0828177
11
11.8890501
21
139.9611177
0
LINE
8
DEFAULT_255_2_778
10
11.8890501
20
139.9611177
11
11.8890501
21
139.9614177
0
LINE
8
DEFAULT_255_2_778
10
11.5927521
20
140.0830302
11
11.5927521
21
140.6765302
0
LINE
8
DEFAULT_255_2_778
10
11.5927521
20
140.6765302
11
11.1900521
21
140.0830302
0
LINE
8
DEFAULT_255_2_778
10
11.1900521
20
140.0830302
11
11.5927521
21
140.0830302
0
LINE
8
DEFAULT_255_2_778
10
11.5927521
20
140.0830302
11
11.5927521
21
140.0830302
0
LINE
8
DEFAULT_255_2_778
10
15.9313615
20
139.6884177
11
15.7749615
21
139.6884177
0
LINE
8
DEFAULT_255_2_778
10
15.7749615
20
139.6884177
11
15.6638615
21
140.0157177
0
LINE
8
DEFAULT_255_2_778
10
15.6638615
20
140.0157177
11
15.2103615
21
140.0157177
0
LINE
8
DEFAULT_255_2_778
10
15.2103615
20
140.0157177
11
15.1000615
21
139.6884177
0
LINE
8
DEFAULT_255_2_778
10
15.1000615
20
139.6884177
11
14.9420615
21
139.6884177
0
LINE
8
DEFAULT_255_2_778
10
14.9420615
20
139.6884177
11
15.3529615
21
140.8438177
0
LINE
8
DEFAULT_255_2_778
10
15.3529615
20
140.8438177
11
15.5278615
21
140.8438177
0
LINE
8
DEFAULT_255_2_778
10
15.5278615
20
140.8438177
11
15.9313615
21
139.6884177
0
LINE
8
DEFAULT_255_2_778
10
15.9313615
20
139.6884177
11
15.9313615
21
139.6884177
0
LINE
8
DEFAULT_255_2_778
10
15.485501
20
140.5714927
11
15.438701
21
140.7204927
0
LINE
8
DEFAULT_255_2_778
10
15.438701
20
140.7204927
11
15.373301
21
140.5053927
0
LINE
8
DEFAULT_255_2_778
10
15.373301
20
140.5053927
11
15.251601
21
140.1428927
0
LINE
8
DEFAULT_255_2_778
10
15.251601
20
140.1428927
11
15.624401
21
140.1428927
0
LINE
8
DEFAULT_255_2_778
10
15.624401
20
140.1428927
11
15.485001
21
140.5712927
0
LINE
8
DEFAULT_255_2_778
10
15.485001
20
140.5712927
11
15.485501
21
140.5714927
0
ARC
8
DEFAULT_255_2_778
10
16.60734
20
140.0000468
40
0.2864641
50
307.8397651
51
2.7553745
0
ARC
8
DEFAULT_255_2_778
10
16.5348286
20
140.1118915
40
0.4194271
50
276.1735537
51
306.2894844
0
ARC
8
DEFAULT_255_2_778
10
16.4792709
20
140.4381857
40
0.7500744
50
269.763353
51
277.7125979
0
ARC
8
DEFAULT_255_2_778
10
16.4400953
20
140.0933094
40
0.7503095
50
76.589961
51
90.9410167
0
ARC
8
DEFAULT_255_2_778
10
16.5526262
20
140.532056
40
0.2975272
50
42.6515533
51
78.0747502
0
ARC
8
DEFAULT_255_2_778
10
16.5738412
20
140.574571
40
0.2536815
50
357.457526
51
38.8327997
0
ARC
8
DEFAULT_255_2_778
10
16.5623918
20
140.554256
40
0.2650361
50
321.348057
51
1.95934
0
ARC
8
DEFAULT_255_2_778
10
16.5619332
20
140.5644622
40
0.2718775
50
280.4772833
51
319.7284727
0
ARC
8
DEFAULT_255_2_778
10
16.5861861
20
139.9540324
40
0.3440086
50
51.1290773
51
85.8012954
0
ARC
8
DEFAULT_255_2_778
10
16.6305739
20
140.0229769
40
0.2626192
50
43.9727733
51
49.22873
0
ARC
8
DEFAULT_255_2_778
10
16.6283393
20
140.0219136
40
0.2649667
50
358.1841741
51
43.8027437
0
LINE
8
DEFAULT_255_2_778
10
16.4761729
20
139.6881177
11
16.0959729
21
139.6881177
0
LINE
8
DEFAULT_255_2_778
10
16.0959729
20
139.6881177
11
16.0959729
21
140.8435177
0
LINE
8
DEFAULT_255_2_778
10
16.0959729
20
140.8435177
11
16.4277729
21
140.8435177
0
LINE
8
DEFAULT_255_2_778
10
16.8931729
20
140.0135177
11
16.8934729
21
140.0138177
0
ARC
8
DEFAULT_255_2_778
10
16.5295385
20
140.5561938
40
0.1435038
50
354.8245539
51
55.1420183
0
ARC
8
DEFAULT_255_2_778
10
16.4729573
20
140.4310362
40
0.2796723
50
60.291997
51
87.2210258
0
ARC
8
DEFAULT_255_2_778
10
16.4308596
20
140.0850512
40
0.6278003
50
84.913808
51
90.164483
0
ARC
8
DEFAULT_255_2_778
10
16.4427419
20
140.7173018
40
0.3610585
50
268.0660749
51
291.0966289
0
ARC
8
DEFAULT_255_2_778
10
16.51164
20
140.5295257
40
0.1611029
50
292.2733136
51
4.8865621
0
ARC
8
DEFAULT_255_2_778
10
16.5665115
20
140.037551
40
0.1717925
50
356.9294766
51
54.4649924
0
ARC
8
DEFAULT_255_2_778
10
16.5043315
20
139.9285946
40
0.2968688
50
56.9218428
51
85.6062312
0
ARC
8
DEFAULT_255_2_778
10
16.4554095
20
139.594579
40
0.634075
50
83.5103707
51
90.2306192
0
ARC
8
DEFAULT_255_2_778
10
16.4760624
20
140.2774056
40
0.4582114
50
268.5111908
51
287.1729627
0
ARC
8
DEFAULT_255_2_778
10
16.5474069
20
140.0348606
40
0.2054434
50
288.1350022
51
307.2138654
0
ARC
8
DEFAULT_255_2_778
10
16.5516675
20
140.0145463
40
0.1869002
50
309.941074
51
4.2351832
0
LINE
8
DEFAULT_255_2_778
10
16.4290573
20
140.7128489
11
16.2493573
21
140.7128489
0
LINE
8
DEFAULT_255_2_778
10
16.2493573
20
140.7128489
11
16.2493573
21
140.3564489
0
LINE
8
DEFAULT_255_2_778
10
16.2493573
20
140.3564489
11
16.4305573
21
140.3564489
0
LINE
8
DEFAULT_255_2_778
10
16.6721573
20
140.5432489
11
16.6724573
21
140.5432489
0
LINE
8
DEFAULT_255_2_778
10
16.4528573
20
140.2286489
11
16.2498573
21
140.2286489
0
LINE
8
DEFAULT_255_2_778
10
16.2498573
20
140.2286489
11
16.2498573
21
139.8193489
0
LINE
8
DEFAULT_255_2_778
10
16.2498573
20
139.8193489
11
16.4641573
21
139.8193489
0
LINE
8
DEFAULT_255_2_778
10
16.7380573
20
140.0283489
11
16.7380573
21
140.0283489
0
LINE
8
DEFAULT_255_2_778
10
21.7384615
20
139.6884177
11
21.5820615
21
139.6884177
0
LINE
8
DEFAULT_255_2_778
10
21.5820615
20
139.6884177
11
21.4709615
21
140.0157177
0
LINE
8
DEFAULT_255_2_778
10
21.4709615
20
140.0157177
11
21.0174615
21
140.0157177
0
LINE
8
DEFAULT_255_2_778
10
21.0174615
20
140.0157177
11
20.9071615
21
139.6884177
0
LINE
8
DEFAULT_255_2_778
10
20.9071615
20
139.6884177
11
20.7491615
21
139.6884177
0
LINE
8
DEFAULT_255_2_778
10
20.7491615
20
139.6884177
11
21.1600615
21
140.8438177
0
LINE
8
DEFAULT_255_2_778
10
21.1600615
20
140.8438177
11
21.3349615
21
140.8438177
0
LINE
8
DEFAULT_255_2_778
10
21.3349615
20
140.8438177
11
21.7384615
21
139.6884177
0
LINE
8
DEFAULT_255_2_778
10
21.7384615
20
139.6884177
11
21.7384615
21
139.6884177
0
LINE
8
DEFAULT_255_2_778
10
21.292401
20
140.5714927
11
21.245601
21
140.7204927
0
LINE
8
DEFAULT_255_2_778
10
21.245601
20
140.7204927
11
21.180201
21
140.5053927
0
LINE
8
DEFAULT_255_2_778
10
21.180201
20
140.5053927
11
21.058501
21
140.1428927
0
LINE
8
DEFAULT_255_2_778
10
21.058501
20
140.1428927
11
21.431301
21
140.1428927
0
LINE
8
DEFAULT_255_2_778
10
21.431301
20
140.1428927
11
21.291901
21
140.5712927
0
LINE
8
DEFAULT_255_2_778
10
21.291901
20
140.5712927
11
21.292401
21
140.5714927
0
LINE
8
DEFAULT_255_2_778
10
22.8605615
20
139.6884177
11
22.7041615
21
139.6884177
0
LINE
8
DEFAULT_255_2_778
10
22.7041615
20
139.6884177
11
22.5930615
21
140.0157177
0
LINE
8
DEFAULT_255_2_778
10
22.5930615
20
140.0157177
11
22.1395615
21
140.0157177
0
LINE
8
DEFAULT_255_2_778
10
22.1395615
20
140.0157177
11
22.0292615
21
139.6884177
0
LINE
8
DEFAULT_255_2_778
10
22.0292615
20
139.6884177
11
21.8712615
21
139.6884177
0
LINE
8
DEFAULT_255_2_778
10
21.8712615
20
139.6884177
11
22.2821615
21
140.8438177
0
LINE
8
DEFAULT_255_2_778
10
22.2821615
20
140.8438177
11
22.4570615
21
140.8438177
0
LINE
8
DEFAULT_255_2_778
10
22.4570615
20
140.8438177
11
22.8605615
21
139.6884177
0
LINE
8
DEFAULT_255_2_778
10
22.8605615
20
139.6884177
11
22.8605615
21
139.6884177
0
LINE
8
DEFAULT_255_2_778
10
22.414401
20
140.5714927
11
22.367601
21
140.7204927
0
LINE
8
DEFAULT_255_2_778
10
22.367601
20
140.7204927
11
22.302201
21
140.5053927
0
LINE
8
DEFAULT_255_2_778
10
22.302201
20
140.5053927
11
22.180501
21
140.1428927
0
LINE
8
DEFAULT_255_2_778
10
22.180501
20
140.1428927
11
22.553301
21
140.1428927
0
LINE
8
DEFAULT_255_2_778
10
22.553301
20
140.1428927
11
22.413901
21
140.5712927
0
LINE
8
DEFAULT_255_2_778
10
22.413901
20
140.5712927
11
22.414401
21
140.5714927
0
LINE
8
DEFAULT_255_2_778
10
12.130425
20
140.5072094
11
12.108425
21
140.3805094
0
LINE
8
DEFAULT_255_2_778
10
12.108425
20
140.3805094
11
12.108425
21
140.1524094
0
LINE
8
DEFAULT_255_2_778
10
12.108425
20
140.1524094
11
12.130425
21
140.0257094
0
LINE
8
DEFAULT_255_2_778
10
12.130425
20
140.0257094
11
12.152325
21
139.9495094
0
LINE
8
DEFAULT_255_2_778
10
12.152325
20
139.9495094
11
12.196525
21
139.8481094
0
LINE
8
DEFAULT_255_2_778
10
12.196525
20
139.8481094
11
12.262725
21
139.7719094
0
LINE
8
DEFAULT_255_2_778
10
12.262725
20
139.7719094
11
12.373025
21
139.6960094
0
LINE
8
DEFAULT_255_2_778
10
12.373025
20
139.6960094
11
12.505325
21
139.6706094
0
LINE
8
DEFAULT_255_2_778
10
12.505325
20
139.6706094
11
12.637625
21
139.6960094
0
LINE
8
DEFAULT_255_2_778
10
12.637625
20
139.6960094
11
12.747625
21
139.7719094
0
LINE
8
DEFAULT_255_2_778
10
12.747625
20
139.7719094
11
12.813825
21
139.8481094
0
LINE
8
DEFAULT_255_2_778
10
12.813825
20
139.8481094
11
12.858025
21
139.9495094
0
LINE
8
DEFAULT_255_2_778
10
12.858025
20
139.9495094
11
12.880225
21
140.0257094
0
LINE
8
DEFAULT_255_2_778
10
12.880225
20
140.0257094
11
12.902125
21
140.1524094
0
LINE
8
DEFAULT_255_2_778
10
12.902125
20
140.1524094
11
12.902125
21
140.3805094
0
LINE
8
DEFAULT_255_2_778
10
12.902125
20
140.3805094
11
12.880225
21
140.5072094
0
LINE
8
DEFAULT_255_2_778
10
12.880225
20
140.5072094
11
12.858025
21
140.5834094
0
LINE
8
DEFAULT_255_2_778
10
12.858025
20
140.5834094
11
12.813825
21
140.6847094
0
LINE
8
DEFAULT_255_2_778
10
12.813825
20
140.6847094
11
12.747625
21
140.7609094
0
LINE
8
DEFAULT_255_2_778
10
12.747625
20
140.7609094
11
12.637625
21
140.8369094
0
LINE
8
DEFAULT_255_2_778
10
12.637625
20
140.8369094
11
12.505325
21
140.8620094
0
LINE
8
DEFAULT_255_2_778
10
12.505325
20
140.8620094
11
12.373025
21
140.8369094
0
LINE
8
DEFAULT_255_2_778
10
12.373025
20
140.8369094
11
12.262725
21
140.7609094
0
LINE
8
DEFAULT_255_2_778
10
12.262725
20
140.7609094
11
12.196525
21
140.6847094
0
LINE
8
DEFAULT_255_2_778
10
12.196525
20
140.6847094
11
12.152325
21
140.5834094
0
LINE
8
DEFAULT_255_2_778
10
12.152325
20
140.5834094
11
12.130425
21
140.5072094
0
LINE
8
DEFAULT_255_2_778
10
12.2186917
20
140.1778771
11
12.2406917
21
140.0257771
0
LINE
8
DEFAULT_255_2_778
10
12.2406917
20
140.0257771
11
12.3289917
21
139.8738771
0
LINE
8
DEFAULT_255_2_778
10
12.3289917
20
139.8738771
11
12.3951917
21
139.8232771
0
LINE
8
DEFAULT_255_2_778
10
12.3951917
20
139.8232771
11
12.5054917
21
139.7978771
0
LINE
8
DEFAULT_255_2_778
10
12.5054917
20
139.7978771
11
12.6157917
21
139.8232771
0
LINE
8
DEFAULT_255_2_778
10
12.6157917
20
139.8232771
11
12.6819917
21
139.8738771
0
LINE
8
DEFAULT_255_2_778
10
12.6819917
20
139.8738771
11
12.7703917
21
140.0257771
0
LINE
8
DEFAULT_255_2_778
10
12.7703917
20
140.0257771
11
12.7922917
21
140.1778771
0
LINE
8
DEFAULT_255_2_778
10
12.7922917
20
140.1778771
11
12.7922917
21
140.3551771
0
LINE
8
DEFAULT_255_2_778
10
12.7922917
20
140.3551771
11
12.7703917
21
140.5069771
0
LINE
8
DEFAULT_255_2_778
10
12.7703917
20
140.5069771
11
12.6819917
21
140.6591771
0
LINE
8
DEFAULT_255_2_778
10
12.6819917
20
140.6591771
11
12.6157917
21
140.7099771
0
LINE
8
DEFAULT_255_2_778
10
12.6157917
20
140.7099771
11
12.5054917
21
140.7350771
0
LINE
8
DEFAULT_255_2_778
10
12.5054917
20
140.7350771
11
12.3951917
21
140.7099771
0
LINE
8
DEFAULT_255_2_778
10
12.3951917
20
140.7099771
11
12.3289917
21
140.6591771
0
LINE
8
DEFAULT_255_2_778
10
12.3289917
20
140.6591771
11
12.2406917
21
140.5069771
0
LINE
8
DEFAULT_255_2_778
10
12.2406917
20
140.5069771
11
12.2186917
21
140.3551771
0
LINE
8
DEFAULT_255_2_778
10
12.2186917
20
140.3551771
11
12.2186917
21
140.1778771
0
LINE
8
DEFAULT_255_2_778
10
17.157425
20
140.5072094
11
17.135425
21
140.3805094
0
LINE
8
DEFAULT_255_2_778
10
17.135425
20
140.3805094
11
17.135425
21
140.1524094
0
LINE
8
DEFAULT_255_2_778
10
17.135425
20
140.1524094
11
17.157425
21
140.0257094
0
LINE
8
DEFAULT_255_2_778
10
17.157425
20
140.0257094
11
17.179325
21
139.9495094
0
LINE
8
DEFAULT_255_2_778
10
17.179325
20
139.9495094
11
17.223525
21
139.8481094
0
LINE
8
DEFAULT_255_2_778
10
17.223525
20
139.8481094
11
17.289725
21
139.7719094
0
LINE
8
DEFAULT_255_2_778
10
17.289725
20
139.7719094
11
17.400025
21
139.6960094
0
LINE
8
DEFAULT_255_2_778
10
17.400025
20
139.6960094
11
17.532325
21
139.6706094
0
LINE
8
DEFAULT_255_2_778
10
17.532325
20
139.6706094
11
17.664625
21
139.6960094
0
LINE
8
DEFAULT_255_2_778
10
17.664625
20
139.6960094
11
17.774625
21
139.7719094
0
LINE
8
DEFAULT_255_2_778
10
17.774625
20
139.7719094
11
17.840825
21
139.8481094
0
LINE
8
DEFAULT_255_2_778
10
17.840825
20
139.8481094
11
17.885025
21
139.9495094
0
LINE
8
DEFAULT_255_2_778
10
17.885025
20
139.9495094
11
17.907225
21
140.0257094
0
LINE
8
DEFAULT_255_2_778
10
17.907225
20
140.0257094
11
17.929125
21
140.1524094
0
LINE
8
DEFAULT_255_2_778
10
17.929125
20
140.1524094
11
17.929125
21
140.3805094
0
LINE
8
DEFAULT_255_2_778
10
17.929125
20
140.3805094
11
17.907225
21
140.5072094
0
LINE
8
DEFAULT_255_2_778
10
17.907225
20
140.5072094
11
17.885025
21
140.5834094
0
LINE
8
DEFAULT_255_2_778
10
17.885025
20
140.5834094
11
17.840825
21
140.6847094
0
LINE
8
DEFAULT_255_2_778
10
17.840825
20
140.6847094
11
17.774625
21
140.7609094
0
LINE
8
DEFAULT_255_2_778
10
17.774625
20
140.7609094
11
17.664625
21
140.8369094
0
LINE
8
DEFAULT_255_2_778
10
17.664625
20
140.8369094
11
17.532325
21
140.8620094
0
LINE
8
DEFAULT_255_2_778
10
17.532325
20
140.8620094
11
17.400025
21
140.8369094
0
LINE
8
DEFAULT_255_2_778
10
17.400025
20
140.8369094
11
17.289725
21
140.7609094
0
LINE
8
DEFAULT_255_2_778
10
17.289725
20
140.7609094
11
17.223525
21
140.6847094
0
LINE
8
DEFAULT_255_2_778
10
17.223525
20
140.6847094
11
17.179325
21
140.5834094
0
LINE
8
DEFAULT_255_2_778
10
17.179325
20
140.5834094
11
17.157425
21
140.5072094
0
LINE
8
DEFAULT_255_2_778
10
17.2457917
20
140.1778771
11
17.2677917
21
140.0257771
0
LINE
8
DEFAULT_255_2_778
10
17.2677917
20
140.0257771
11
17.3560917
21
139.8738771
0
LINE
8
DEFAULT_255_2_778
10
17.3560917
20
139.8738771
11
17.4222917
21
139.8232771
0
LINE
8
DEFAULT_255_2_778
10
17.4222917
20
139.8232771
11
17.5325917
21
139.7978771
0
LINE
8
DEFAULT_255_2_778
10
17.5325917
20
139.7978771
11
17.6428917
21
139.8232771
0
LINE
8
DEFAULT_255_2_778
10
17.6428917
20
139.8232771
11
17.7090917
21
139.8738771
0
LINE
8
DEFAULT_255_2_778
10
17.7090917
20
139.8738771
11
17.7974917
21
140.0257771
0
LINE
8
DEFAULT_255_2_778
10
17.7974917
20
140.0257771
11
17.8193917
21
140.1778771
0
LINE
8
DEFAULT_255_2_778
10
17.8193917
20
140.1778771
11
17.8193917
21
140.3551771
0
LINE
8
DEFAULT_255_2_778
10
17.8193917
20
140.3551771
11
17.7974917
21
140.5069771
0
LINE
8
DEFAULT_255_2_778
10
17.7974917
20
140.5069771
11
17.7090917
21
140.6591771
0
LINE
8
DEFAULT_255_2_778
10
17.7090917
20
140.6591771
11
17.6428917
21
140.7099771
0
LINE
8
DEFAULT_255_2_778
10
17.6428917
20
140.7099771
11
17.5325917
21
140.7350771
0
LINE
8
DEFAULT_255_2_778
10
17.5325917
20
140.7350771
11
17.4222917
21
140.7099771
0
LINE
8
DEFAULT_255_2_778
10
17.4222917
20
140.7099771
11
17.3560917
21
140.6591771
0
LINE
8
DEFAULT_255_2_778
10
17.3560917
20
140.6591771
11
17.2677917
21
140.5069771
0
LINE
8
DEFAULT_255_2_778
10
17.2677917
20
140.5069771
11
17.2457917
21
140.3551771
0
LINE
8
DEFAULT_255_2_778
10
17.2457917
20
140.3551771
11
17.2457917
21
140.1778771
0
LINE
8
DEFAULT_255_2_778
10
18.083525
20
140.5072094
11
18.061525
21
140.3805094
0
LINE
8
DEFAULT_255_2_778
10
18.061525
20
140.3805094
11
18.061525
21
140.1524094
0
LINE
8
DEFAULT_255_2_778
10
18.061525
20
140.1524094
11
18.083525
21
140.0257094
0
LINE
8
DEFAULT_255_2_778
10
18.083525
20
140.0257094
11
18.105425
21
139.9495094
0
LINE
8
DEFAULT_255_2_778
10
18.105425
20
139.9495094
11
18.149625
21
139.8481094
0
LINE
8
DEFAULT_255_2_778
10
18.149625
20
139.8481094
11
18.215825
21
139.7719094
0
LINE
8
DEFAULT_255_2_778
10
18.215825
20
139.7719094
11
18.326125
21
139.6960094
0
LINE
8
DEFAULT_255_2_778
10
18.326125
20
139.6960094
11
18.458425
21
139.6706094
0
LINE
8
DEFAULT_255_2_778
10
18.458425
20
139.6706094
11
18.590725
21
139.6960094
0
LINE
8
DEFAULT_255_2_778
10
18.590725
20
139.6960094
11
18.700725
21
139.7719094
0
LINE
8
DEFAULT_255_2_778
10
18.700725
20
139.7719094
11
18.766925
21
139.8481094
0
LINE
8
DEFAULT_255_2_778
10
18.766925
20
139.8481094
11
18.811125
21
139.9495094
0
LINE
8
DEFAULT_255_2_778
10
18.811125
20
139.9495094
11
18.833325
21
140.0257094
0
LINE
8
DEFAULT_255_2_778
10
18.833325
20
140.0257094
11
18.855225
21
140.1524094
0
LINE
8
DEFAULT_255_2_778
10
18.855225
20
140.1524094
11
18.855225
21
140.3805094
0
LINE
8
DEFAULT_255_2_778
10
18.855225
20
140.3805094
11
18.833325
21
140.5072094
0
LINE
8
DEFAULT_255_2_778
10
18.833325
20
140.5072094
11
18.811125
21
140.5834094
0
LINE
8
DEFAULT_255_2_778
10
18.811125
20
140.5834094
11
18.766925
21
140.6847094
0
LINE
8
DEFAULT_255_2_778
10
18.766925
20
140.6847094
11
18.700725
21
140.7609094
0
LINE
8
DEFAULT_255_2_778
10
18.700725
20
140.7609094
11
18.590725
21
140.8369094
0
LINE
8
DEFAULT_255_2_778
10
18.590725
20
140.8369094
11
18.458425
21
140.8620094
0
LINE
8
DEFAULT_255_2_778
10
18.458425
20
140.8620094
11
18.326125
21
140.8369094
0
LINE
8
DEFAULT_255_2_778
10
18.326125
20
140.8369094
11
18.215825
21
140.7609094
0
LINE
8
DEFAULT_255_2_778
10
18.215825
20
140.7609094
11
18.149625
21
140.6847094
0
LINE
8
DEFAULT_255_2_778
10
18.149625
20
140.6847094
11
18.105425
21
140.5834094
0
LINE
8
DEFAULT_255_2_778
10
18.105425
20
140.5834094
11
18.083525
21
140.5072094
0
LINE
8
DEFAULT_255_2_778
10
18.1718917
20
140.1778771
11
18.1938917
21
140.0257771
0
LINE
8
DEFAULT_255_2_778
10
18.1938917
20
140.0257771
11
18.2821917
21
139.8738771
0
LINE
8
DEFAULT_255_2_778
10
18.2821917
20
139.8738771
11
18.3483917
21
139.8232771
0
LINE
8
DEFAULT_255_2_778
10
18.3483917
20
139.8232771
11
18.4586917
21
139.7978771
0
LINE
8
DEFAULT_255_2_778
10
18.4586917
20
139.7978771
11
18.5689917
21
139.8232771
0
LINE
8
DEFAULT_255_2_778
10
18.5689917
20
139.8232771
11
18.6351917
21
139.8738771
0
LINE
8
DEFAULT_255_2_778
10
18.6351917
20
139.8738771
11
18.7235917
21
140.0257771
0
LINE
8
DEFAULT_255_2_778
10
18.7235917
20
140.0257771
11
18.7454917
21
140.1778771
0
LINE
8
DEFAULT_255_2_778
10
18.7454917
20
140.1778771
11
18.7454917
21
140.3551771
0
LINE
8
DEFAULT_255_2_778
10
18.7454917
20
140.3551771
11
18.7235917
21
140.5069771
0
LINE
8
DEFAULT_255_2_778
10
18.7235917
20
140.5069771
11
18.6351917
21
140.6591771
0
LINE
8
DEFAULT_255_2_778
10
18.6351917
20
140.6591771
11
18.5689917
21
140.7099771
0
LINE
8
DEFAULT_255_2_778
10
18.5689917
20
140.7099771
11
18.4586917
21
140.7350771
0
LINE
8
DEFAULT_255_2_778
10
18.4586917
20
140.7350771
11
18.3483917
21
140.7099771
0
LINE
8
DEFAULT_255_2_778
10
18.3483917
20
140.7099771
11
18.2821917
21
140.6591771
0
LINE
8
DEFAULT_255_2_778
10
18.2821917
20
140.6591771
11
18.1938917
21
140.5069771
0
LINE
8
DEFAULT_255_2_778
10
18.1938917
20
140.5069771
11
18.1718917
21
140.3551771
0
LINE
8
DEFAULT_255_2_778
10
18.1718917
20
140.3551771
11
18.1718917
21
140.1778771
0
LINE
8
DEFAULT_255_2_778
10
19.935625
20
140.5072094
11
19.913625
21
140.3805094
0
LINE
8
DEFAULT_255_2_778
10
19.913625
20
140.3805094
11
19.913625
21
140.1524094
0
LINE
8
DEFAULT_255_2_778
10
19.913625
20
140.1524094
11
19.935625
21
140.0257094
0
LINE
8
DEFAULT_255_2_778
10
19.935625
20
140.0257094
11
19.957525
21
139.9495094
0
LINE
8
DEFAULT_255_2_778
10
19.957525
20
139.9495094
11
20.001725
21
139.8481094
0
LINE
8
DEFAULT_255_2_778
10
20.001725
20
139.8481094
11
20.067925
21
139.7719094
0
LINE
8
DEFAULT_255_2_778
10
20.067925
20
139.7719094
11
20.178225
21
139.6960094
0
LINE
8
DEFAULT_255_2_778
10
20.178225
20
139.6960094
11
20.310525
21
139.6706094
0
LINE
8
DEFAULT_255_2_778
10
20.310525
20
139.6706094
11
20.442825
21
139.6960094
0
LINE
8
DEFAULT_255_2_778
10
20.442825
20
139.6960094
11
20.552825
21
139.7719094
0
LINE
8
DEFAULT_255_2_778
10
20.552825
20
139.7719094
11
20.619025
21
139.8481094
0
LINE
8
DEFAULT_255_2_778
10
20.619025
20
139.8481094
11
20.663225
21
139.9495094
0
LINE
8
DEFAULT_255_2_778
10
20.663225
20
139.9495094
11
20.685425
21
140.0257094
0
LINE
8
DEFAULT_255_2_778
10
20.685425
20
140.0257094
11
20.707325
21
140.1524094
0
LINE
8
DEFAULT_255_2_778
10
20.707325
20
140.1524094
11
20.707325
21
140.3805094
0
LINE
8
DEFAULT_255_2_778
10
20.707325
20
140.3805094
11
20.685425
21
140.5072094
0
LINE
8
DEFAULT_255_2_778
10
20.685425
20
140.5072094
11
20.663225
21
140.5834094
0
LINE
8
DEFAULT_255_2_778
10
20.663225
20
140.5834094
11
20.619025
21
140.6847094
0
LINE
8
DEFAULT_255_2_778
10
20.619025
20
140.6847094
11
20.552825
21
140.7609094
0
LINE
8
DEFAULT_255_2_778
10
20.552825
20
140.7609094
11
20.442825
21
140.8369094
0
LINE
8
DEFAULT_255_2_778
10
20.442825
20
140.8369094
11
20.310525
21
140.8620094
0
LINE
8
DEFAULT_255_2_778
10
20.310525
20
140.8620094
11
20.178225
21
140.8369094
0
LINE
8
DEFAULT_255_2_778
10
20.178225
20
140.8369094
11
20.067925
21
140.7609094
0
LINE
8
DEFAULT_255_2_778
10
20.067925
20
140.7609094
11
20.001725
21
140.6847094
0
LINE
8
DEFAULT_255_2_778
10
20.001725
20
140.6847094
11
19.957525
21
140.5834094
0
LINE
8
DEFAULT_255_2_778
10
19.957525
20
140.5834094
11
19.935625
21
140.5072094
0
LINE
8
DEFAULT_255_2_778
10
20.0238917
20
140.1778771
11
20.0458917
21
140.0257771
0
LINE
8
DEFAULT_255_2_778
10
20.0458917
20
140.0257771
11
20.1341917
21
139.8738771
0
LINE
8
DEFAULT_255_2_778
10
20.1341917
20
139.8738771
11
20.2003917
21
139.8232771
0
LINE
8
DEFAULT_255_2_778
10
20.2003917
20
139.8232771
11
20.3106917
21
139.7978771
0
LINE
8
DEFAULT_255_2_778
10
20.3106917
20
139.7978771
11
20.4209917
21
139.8232771
0
LINE
8
DEFAULT_255_2_778
10
20.4209917
20
139.8232771
11
20.4871917
21
139.8738771
0
LINE
8
DEFAULT_255_2_778
10
20.4871917
20
139.8738771
11
20.5755917
21
140.0257771
0
LINE
8
DEFAULT_255_2_778
10
20.5755917
20
140.0257771
11
20.5974917
21
140.1778771
0
LINE
8
DEFAULT_255_2_778
10
20.5974917
20
140.1778771
11
20.5974917
21
140.3551771
0
LINE
8
DEFAULT_255_2_778
10
20.5974917
20
140.3551771
11
20.5755917
21
140.5069771
0
LINE
8
DEFAULT_255_2_778
10
20.5755917
20
140.5069771
11
20.4871917
21
140.6591771
0
LINE
8
DEFAULT_255_2_778
10
20.4871917
20
140.6591771
11
20.4209917
21
140.7099771
0
LINE
8
DEFAULT_255_2_778
10
20.4209917
20
140.7099771
11
20.3106917
21
140.7350771
0
LINE
8
DEFAULT_255_2_778
10
20.3106917
20
140.7350771
11
20.2003917
21
140.7099771
0
LINE
8
DEFAULT_255_2_778
10
20.2003917
20
140.7099771
11
20.1341917
21
140.6591771
0
LINE
8
DEFAULT_255_2_778
10
20.1341917
20
140.6591771
11
20.0458917
21
140.5069771
0
LINE
8
DEFAULT_255_2_778
10
20.0458917
20
140.5069771
11
20.0238917
21
140.3551771
0
LINE
8
DEFAULT_255_2_778
10
20.0238917
20
140.3551771
11
20.0238917
21
140.1778771
0
LINE
8
DEFAULT_255_2_778
10
22.978325
20
140.5072094
11
22.956325
21
140.3805094
0
LINE
8
DEFAULT_255_2_778
10
22.956325
20
140.3805094
11
22.956325
21
140.1524094
0
LINE
8
DEFAULT_255_2_778
10
22.956325
20
140.1524094
11
22.978325
21
140.0257094
0
LINE
8
DEFAULT_255_2_778
10
22.978325
20
140.0257094
11
23.000225
21
139.9495094
0
LINE
8
DEFAULT_255_2_778
10
23.000225
20
139.9495094
11
23.044425
21
139.8481094
0
LINE
8
DEFAULT_255_2_778
10
23.044425
20
139.8481094
11
23.110625
21
139.7719094
0
LINE
8
DEFAULT_255_2_778
10
23.110625
20
139.7719094
11
23.220925
21
139.6960094
0
LINE
8
DEFAULT_255_2_778
10
23.220925
20
139.6960094
11
23.353225
21
139.6706094
0
LINE
8
DEFAULT_255_2_778
10
23.353225
20
139.6706094
11
23.485525
21
139.6960094
0
LINE
8
DEFAULT_255_2_778
10
23.485525
20
139.6960094
11
23.595525
21
139.7719094
0
LINE
8
DEFAULT_255_2_778
10
23.595525
20
139.7719094
11
23.661725
21
139.8481094
0
LINE
8
DEFAULT_255_2_778
10
23.661725
20
139.8481094
11
23.705925
21
139.9495094
0
LINE
8
DEFAULT_255_2_778
10
23.705925
20
139.9495094
11
23.728125
21
140.0257094
0
LINE
8
DEFAULT_255_2_778
10
23.728125
20
140.0257094
11
23.750025
21
140.1524094
0
LINE
8
DEFAULT_255_2_778
10
23.750025
20
140.1524094
11
23.750025
21
140.3805094
0
LINE
8
DEFAULT_255_2_778
10
23.750025
20
140.3805094
11
23.728125
21
140.5072094
0
LINE
8
DEFAULT_255_2_778
10
23.728125
20
140.5072094
11
23.705925
21
140.5834094
0
LINE
8
DEFAULT_255_2_778
10
23.705925
20
140.5834094
11
23.661725
21
140.6847094
0
LINE
8
DEFAULT_255_2_778
10
23.661725
20
140.6847094
11
23.595525
21
140.7609094
0
LINE
8
DEFAULT_255_2_778
10
23.595525
20
140.7609094
11
23.485525
21
140.8369094
0
LINE
8
DEFAULT_255_2_778
10
23.485525
20
140.8369094
11
23.353225
21
140.8620094
0
LINE
8
DEFAULT_255_2_778
10
23.353225
20
140.8620094
11
23.220925
21
140.8369094
0
LINE
8
DEFAULT_255_2_778
10
23.220925
20
140.8369094
11
23.110625
21
140.7609094
0
LINE
8
DEFAULT_255_2_778
10
23.110625
20
140.7609094
11
23.044425
21
140.6847094
0
LINE
8
DEFAULT_255_2_778
10
23.044425
20
140.6847094
11
23.000225
21
140.5834094
0
LINE
8
DEFAULT_255_2_778
10
23.000225
20
140.5834094
11
22.978325
21
140.5072094
0
LINE
8
DEFAULT_255_2_778
10
23.0665917
20
140.1778771
11
23.0885917
21
140.0257771
0
LINE
8
DEFAULT_255_2_778
10
23.0885917
20
140.0257771
11
23.1768917
21
139.8738771
0
LINE
8
DEFAULT_255_2_778
10
23.1768917
20
139.8738771
11
23.2430917
21
139.8232771
0
LINE
8
DEFAULT_255_2_778
10
23.2430917
20
139.8232771
11
23.3533917
21
139.7978771
0
LINE
8
DEFAULT_255_2_778
10
23.3533917
20
139.7978771
11
23.4636917
21
139.8232771
0
LINE
8
DEFAULT_255_2_778
10
23.4636917
20
139.8232771
11
23.5298917
21
139.8738771
0
LINE
8
DEFAULT_255_2_778
10
23.5298917
20
139.8738771
11
23.6182917
21
140.0257771
0
LINE
8
DEFAULT_255_2_778
10
23.6182917
20
140.0257771
11
23.6401917
21
140.1778771
0
LINE
8
DEFAULT_255_2_778
10
23.6401917
20
140.1778771
11
23.6401917
21
140.3551771
0
LINE
8
DEFAULT_255_2_778
10
23.6401917
20
140.3551771
11
23.6182917
21
140.5069771
0
LINE
8
DEFAULT_255_2_778
10
23.6182917
20
140.5069771
11
23.5298917
21
140.6591771
0
LINE
8
DEFAULT_255_2_778
10
23.5298917
20
140.6591771
11
23.4636917
21
140.7099771
0
LINE
8
DEFAULT_255_2_778
10
23.4636917
20
140.7099771
11
23.3533917
21
140.7350771
0
LINE
8
DEFAULT_255_2_778
10
23.3533917
20
140.7350771
11
23.2430917
21
140.7099771
0
LINE
8
DEFAULT_255_2_778
10
23.2430917
20
140.7099771
11
23.1768917
21
140.6591771
0
LINE
8
DEFAULT_255_2_778
10
23.1768917
20
140.6591771
11
23.0885917
21
140.5069771
0
LINE
8
DEFAULT_255_2_778
10
23.0885917
20
140.5069771
11
23.0665917
21
140.3551771
0
LINE
8
DEFAULT_255_2_778
10
23.0665917
20
140.3551771
11
23.0665917
21
140.1778771
0
ENDSEC
0
EOF