0
SECTION
2
HEADER
9
$MEASUREMENT
70
1
0
ENDSEC
0
SECTION
2
TABLES
0
TABLE
2
LTYPE
0
LTYPE
72
65
70
64
2
CONTINUOUS
3
______
73
0
40
0
0
ENDTAB
0
TABLE
2
LAYER
0
LAYER
2
DEFAULT_255_2_778
70
0
62
255
6
CONTINUOUS
0
ENDTAB
0
ENDSEC
0
SECTION
2
ENTITIES
0
ARC
8
DEFAULT_255_2_778
10
34.695081
20
8.1145433
40
0.2997612
50
314.9994426
51
0.0448698
0
ARC
8
DEFAULT_255_2_778
10
34.6929806
20
8.1192587
40
0.3045864
50
270.3501833
51
314.6516221
0
ARC
8
DEFAULT_255_2_778
10
0.1937474
20
110.4877108
40
105.6730637
50
270.1636329
51
283.6852015
0
ARC
8
DEFAULT_255_2_778
10
0.4949769
20
4.9925712
40
0.1774941
50
269.9392289
51
270.182458
0
ARC
8
DEFAULT_255_2_778
10
0.4949496
20
5.1156642
40
0.3005872
50
225.1184342
51
269.9693173
0
ARC
8
DEFAULT_255_2_778
10
0.4950097
20
5.1154529
40
0.3002675
50
180.0142793
51
225.0414643
0
ARC
8
DEFAULT_255_2_778
10
25.9856613
20
6.0715335
40
0.2910999
50
182.0189562
51
269.9681232
0
ARC
8
DEFAULT_255_2_778
10
25.9854962
20
6.0765201
40
0.2960864
50
270.0006191
51
271.7894832
0
ARC
8
DEFAULT_255_2_778
10
26.5853868
20
10.6406552
40
4.8958361
50
263.0708301
51
263.123666
0
ARC
8
DEFAULT_255_2_778
10
26.0566822
20
6.1961445
40
0.4200573
50
262.1380897
51
268.9267895
0
ARC
8
DEFAULT_255_2_778
10
26.049274
20
5.9519141
40
0.1757539
50
269.8501981
51
275.1800666
0
ARC
8
DEFAULT_255_2_778
10
26.023194
20
6.0483956
40
0.2747389
50
278.7824814
51
298.2047446
0
LINE
8
DEFAULT_255_2_778
10
26.2292422
20
5.853878
11
26.2299394
21
5.8544606
0
LINE
8
DEFAULT_255_2_778
10
26.2299394
20
5.8544606
11
26.2303231
21
5.8547812
0
ARC
8
DEFAULT_255_2_778
10
25.4642778
20
6.9128201
40
1.3062434
50
305.9054304
51
328.6268871
0
ARC
8
DEFAULT_255_2_778
10
25.4103994
20
6.7577796
40
1.2816089
50
335.8176143
51
354.5293288
0
ARC
8
DEFAULT_255_2_778
10
13.6600745
20
8.4971618
40
13.1584425
50
351.8669018
51
352.1385393
0
LINE
8
DEFAULT_255_2_778
10
26.6948498
20
6.6973729
11
26.6949152
21
6.6978438
0
LINE
8
DEFAULT_255_2_778
10
26.6949152
20
6.6978438
11
26.6951422
21
6.699478
0
LINE
8
DEFAULT_255_2_778
10
30.0982422
20
136.264078
11
5.0913422
21
136.264078
0
LINE
8
DEFAULT_255_2_778
10
26.8446422
20
7.814978
11
26.8446422
21
6.262878
0
LINE
8
DEFAULT_255_2_778
10
26.8446422
20
6.262878
11
27.1917422
21
5.646978
0
LINE
8
DEFAULT_255_2_778
10
29.6455422
20
146.814878
11
34.9948422
21
146.814878
0
LINE
8
DEFAULT_255_2_778
10
34.9948422
20
146.814878
11
34.9948422
21
8.114778
0
LINE
8
DEFAULT_255_2_778
10
34.6948422
20
7.814678
11
25.1946422
21
7.814678
0
LINE
8
DEFAULT_255_2_778
10
4.7947422
20
146.814878
11
0.1947422
21
146.814878
0
LINE
8
DEFAULT_255_2_778
10
0.1947422
20
146.814878
11
0.1947422
21
5.115378
0
LINE
8
DEFAULT_255_2_778
10
30.0947422
20
146.814878
11
30.0947422
21
136.261678
0
LINE
8
DEFAULT_255_2_778
10
5.0948422
20
136.261678
11
5.0948422
21
146.814878
0
LINE
8
DEFAULT_255_2_778
10
4.7953422
20
146.814878
11
29.6947422
21
146.814878
0
LINE
8
DEFAULT_255_2_778
10
25.6947422
20
7.814978
11
25.6947422
21
6.061278
0
LINE
8
DEFAULT_255_2_778
10
26.1530422
20
5.806278
11
26.2292422
21
5.853878
0
LINE
8
DEFAULT_255_2_778
10
26.6951422
20
6.699478
11
26.6951422
21
7.814978
0
LINE
8
DEFAULT_255_2_778
10
24.7446422
20
7.706178
11
24.7446422
21
6.762678
0
LINE
8
DEFAULT_255_2_778
10
22.2448422
20
6.762678
11
22.2448422
21
7.141078
0
LINE
8
DEFAULT_255_2_778
10
24.2522422
20
7.590078
11
24.4676422
21
7.316778
0
LINE
8
DEFAULT_255_2_778
10
24.4676422
20
7.316778
11
24.2705422
21
7.164078
0
LINE
8
DEFAULT_255_2_778
10
24.2705422
20
7.164078
11
23.9839422
21
7.527878
0
ARC
8
DEFAULT_255_2_778
10
23.4973311
20
6.6646665
40
0.6436871
50
9.3675014
51
37.7597064
0
ARC
8
DEFAULT_255_2_778
10
23.4935978
20
6.6641312
40
0.6474578
50
1.6879422
51
9.3604675
0
ARC
8
DEFAULT_255_2_778
10
23.4906945
20
6.6640186
40
0.6503631
50
0.0008783
51
1.6903244
0
ARC
8
DEFAULT_255_2_778
10
23.4950629
20
6.6630919
40
0.6459954
50
311.5891804
51
0.0830784
0
ARC
8
DEFAULT_255_2_778
10
23.4886945
20
6.6707395
40
0.6559425
50
307.7552162
51
311.5618161
0
ARC
8
DEFAULT_255_2_778
10
23.4953625
20
6.6603251
40
0.6436267
50
279.5290833
51
307.8535504
0
ARC
8
DEFAULT_255_2_778
10
23.494831
20
6.6640447
40
0.6473829
50
271.6924565
51
279.5209779
0
ARC
8
DEFAULT_255_2_778
10
23.4947141
20
6.6669551
40
0.6502956
50
270.0008914
51
271.6951758
0
ARC
8
DEFAULT_255_2_778
10
23.4937671
20
6.6625223
40
0.6458635
50
221.4703589
51
270.0849119
0
ARC
8
DEFAULT_255_2_778
10
23.5014065
20
6.6688403
40
0.6557718
50
217.8535439
51
221.441962
0
ARC
8
DEFAULT_255_2_778
10
23.4945361
20
6.6625451
40
0.3971539
50
217.7995535
51
270.0770855
0
ARC
8
DEFAULT_255_2_778
10
23.4950755
20
6.664386
40
0.3989945
50
269.9992713
51
271.6478169
0
ARC
8
DEFAULT_255_2_778
10
23.4954157
20
6.6608089
40
0.395409
50
271.613445
51
307.8837491
0
ARC
8
DEFAULT_255_2_778
10
23.4951707
20
6.6628092
40
0.3971395
50
307.7344409
51
0.0768531
0
ARC
8
DEFAULT_255_2_778
10
23.49301
20
6.6633395
40
0.3992998
50
0.0003435
51
1.8098834
0
ARC
8
DEFAULT_255_2_778
10
23.4960578
20
6.6635835
40
0.3962458
50
1.7885396
51
37.7604395
0
ARC
8
DEFAULT_255_2_778
10
20.3621745
20
14.7454623
40
10.6242818
50
283.9433159
51
291.6010878
0
ARC
8
DEFAULT_255_2_778
10
15.0014739
20
15.0794684
40
10.9909298
50
255.7370952
51
263.1528368
0
ARC
8
DEFAULT_255_2_778
10
14.6541392
20
14.1991279
40
10.0528651
50
248.2238923
51
256.4195479
0
LINE
8
DEFAULT_255_2_778
10
23.6900211
20
7.4602291
11
24.0062211
21
7.0588291
0
LINE
8
DEFAULT_255_2_778
10
22.9836211
20
6.2664291
11
23.1807211
21
6.4191291
0
LINE
8
DEFAULT_255_2_778
10
23.8093211
20
6.9062291
11
23.4733211
21
7.3324291
0
LINE
8
DEFAULT_255_2_778
10
23.4733211
20
7.3324291
11
23.2574211
21
7.1652291
0
LINE
8
DEFAULT_255_2_778
10
23.2574211
20
7.1652291
11
23.6421211
21
6.6770291
0
LINE
8
DEFAULT_255_2_778
10
23.6421211
20
6.6770291
11
23.4450211
21
6.5244291
0
LINE
8
DEFAULT_255_2_778
10
23.4450211
20
6.5244291
11
22.8550211
21
7.2734291
0
LINE
8
DEFAULT_255_2_778
10
26.1528211
20
5.8063291
11
25.6998211
21
5.5396291
0
LINE
8
DEFAULT_255_2_778
10
25.6998211
20
5.5396291
11
25.5821211
21
5.4748291
0
LINE
8
DEFAULT_255_2_778
10
25.5821211
20
5.4748291
11
24.2734211
21
4.8673291
0
LINE
8
DEFAULT_255_2_778
10
22.9222211
20
4.4342291
11
22.4565211
21
4.3262291
0
LINE
8
DEFAULT_255_2_778
10
22.4565211
20
4.3262291
11
21.9874211
21
4.2378291
0
LINE
8
DEFAULT_255_2_778
10
21.9874211
20
4.2378291
11
21.5159211
21
4.1690291
0
LINE
8
DEFAULT_255_2_778
10
21.5159211
20
4.1690291
11
21.0429211
21
4.1201291
0
LINE
8
DEFAULT_255_2_778
10
21.0429211
20
4.1201291
11
20.5690211
21
4.0907291
0
LINE
8
DEFAULT_255_2_778
10
20.5690211
20
4.0907291
11
20.0949211
21
4.0809291
0
LINE
8
DEFAULT_255_2_778
10
20.0949211
20
4.0809291
11
15.0950211
21
4.0809291
0
LINE
8
DEFAULT_255_2_778
10
15.0950211
20
4.0809291
11
13.6911211
21
4.1669291
0
LINE
8
DEFAULT_255_2_778
10
10.9247211
20
4.8636291
11
10.0354211
21
5.2737291
0
ARC
8
DEFAULT_255_2_778
10
23.4894824
20
6.8081209
40
1.2446557
50
180.2855118
51
214.8912311
0
ARC
8
DEFAULT_255_2_778
10
23.4943223
20
6.8090071
40
1.2491343
50
214.7975873
51
264.5952067
0
ARC
8
DEFAULT_255_2_778
10
23.4945661
20
6.8245918
40
1.2646733
50
264.6507134
51
270.0079739
0
ARC
8
DEFAULT_255_2_778
10
23.4966727
20
6.8039496
40
1.2440325
50
269.9110848
51
304.5939535
0
ARC
8
DEFAULT_255_2_778
10
23.4952095
20
6.8095735
40
1.2494943
50
304.5027735
51
354.1760552
0
ARC
8
DEFAULT_255_2_778
10
23.4792662
20
6.8100281
40
1.265402
50
354.2288265
51
359.6328096
0
ARC
8
DEFAULT_255_2_778
10
27.327351
20
6.0456321
40
0.4099691
50
284.1023744
51
346.7717708
0
LINE
8
DEFAULT_255_2_778
10
33.2369422
20
-0.1849814
11
33.1938422
21
3.6345186
0
LINE
8
DEFAULT_255_2_778
10
33.1938422
20
3.6345186
11
33.1388422
21
7.8150186
0
LINE
8
DEFAULT_255_2_778
10
34.9948422
20
8.1150186
11
34.9948422
21
-0.1611814
0
LINE
8
DEFAULT_255_2_778
10
0.1947422
20
5.0450186
11
0.1947422
21
-0.1859814
0
LINE
8
DEFAULT_255_2_778
10
2.0116422
20
4.8305186
11
1.9957422
21
3.6298186
0
LINE
8
DEFAULT_255_2_778
10
1.9957422
20
3.6298186
11
1.9526422
21
-0.1849814
0
LINE
8
DEFAULT_255_2_778
10
27.8241422
20
7.8150186
11
27.7267422
21
5.9589186
0
LINE
8
DEFAULT_255_2_778
10
27.7267422
20
5.9589186
11
27.7264422
21
5.9518186
0
LINE
8
DEFAULT_255_2_778
10
27.4272422
20
5.6480186
11
27.1896422
21
5.6480186
0
LINE
8
DEFAULT_255_2_778
10
34.9948422
20
-0.1851814
11
33.5401422
21
-0.1851814
0
LINE
8
DEFAULT_255_2_778
10
1.6494422
20
-0.1851814
11
0.1947422
21
-0.1851814
0
LINE
8
DEFAULT_255_2_778
10
1.6491422
20
-0.1851814
11
33.5401422
21
-0.1851814
0
ARC
8
DEFAULT_255_2_778
10
9.4948303
20
4.8318058
40
1.0000288
50
180.0024158
51
237.7703975
0
ARC
8
DEFAULT_255_2_778
10
15.0943509
20
13.7120369
40
11.4982733
50
237.7664733
51
269.999604
0
LINE
8
DEFAULT_255_2_778
10
15.0942714
20
2.2137636
11
15.0948015
21
2.2137636
0
LINE
8
DEFAULT_255_2_778
10
20.0949015
20
2.2137636
11
20.0954316
21
2.2137636
0
ARC
8
DEFAULT_255_2_778
10
20.0953521
20
13.7120369
40
11.4982733
50
270.000396
51
302.2335267
0
ARC
8
DEFAULT_255_2_778
10
25.6946419
20
4.831933
40
1.0002596
50
302.2368988
51
359.9902958
0
LINE
8
DEFAULT_255_2_778
10
1.9651015
20
1.3149636
11
33.2243015
21
1.3149636
0
LINE
8
DEFAULT_255_2_778
10
8.4948015
20
5.1413636
11
8.4948015
21
4.8317636
0
LINE
8
DEFAULT_255_2_778
10
15.0948015
20
2.2137636
11
20.0949015
21
2.2137636
0
LINE
8
DEFAULT_255_2_778
10
26.6949015
20
4.8317636
11
26.6949015
21
6.6991636
0
LINE
8
DEFAULT_255_2_778
10
22.6949015
20
143.9147636
11
22.6949015
21
141.7147636
0
LINE
8
DEFAULT_255_2_778
10
22.6949015
20
141.7147636
11
20.4949015
21
141.7147636
0
LINE
8
DEFAULT_255_2_778
10
20.4949015
20
141.7147636
11
20.4949015
21
143.9147636
0
LINE
8
DEFAULT_255_2_778
10
20.4949015
20
143.9147636
11
22.6949015
21
143.9147636
0
LINE
8
DEFAULT_255_2_778
10
18.6947015
20
143.9147636
11
18.6947015
21
141.7147636
0
LINE
8
DEFAULT_255_2_778
10
18.6947015
20
141.7147636
11
16.4947015
21
141.7147636
0
LINE
8
DEFAULT_255_2_778
10
16.4947015
20
141.7147636
11
16.4947015
21
143.9147636
0
LINE
8
DEFAULT_255_2_778
10
16.4947015
20
143.9147636
11
18.6947015
21
143.9147636
0
LINE
8
DEFAULT_255_2_778
10
5.1949015
20
146.8148636
11
5.1949015
21
136.6955636
0
LINE
8
DEFAULT_255_2_778
10
5.1949015
20
136.6955636
11
29.9948015
21
136.6955636
0
LINE
8
DEFAULT_255_2_778
10
29.9948015
20
136.6955636
11
29.9948015
21
146.8148636
0
LINE
8
DEFAULT_255_2_778
10
14.6946532
20
143.9148052
11
14.6946532
21
141.7148052
0
LINE
8
DEFAULT_255_2_778
10
14.6946532
20
141.7148052
11
12.4946532
21
141.7148052
0
LINE
8
DEFAULT_255_2_778
10
12.4946532
20
141.7148052
11
12.4946532
21
143.9148052
0
LINE
8
DEFAULT_255_2_778
10
12.4946532
20
143.9148052
11
14.6946532
21
143.9148052
0
LINE
8
DEFAULT_255_2_778
10
16.8769532
20
142.1556052
11
16.8769532
21
143.5555052
0
LINE
8
DEFAULT_255_2_778
10
16.8769532
20
143.5555052
11
16.6843532
21
143.7481052
0
ARC
8
DEFAULT_255_2_778
10
16.8783598
20
142.1187452
40
0.3003244
50
179.9718533
51
219.8029593
0
ARC
8
DEFAULT_255_2_778
10
16.8779005
20
142.1187986
40
0.3000058
50
219.8669531
51
270.0257901
0
ARC
8
DEFAULT_255_2_778
10
18.2782281
20
142.1180351
40
0.2992424
50
269.9631283
51
320.2013677
0
ARC
8
DEFAULT_255_2_778
10
18.2774112
20
142.1187452
40
0.3003244
50
320.1970407
51
0.0281467
0
ARC
8
DEFAULT_255_2_778
10
18.2776263
20
143.5188838
40
0.3001092
50
359.9826268
51
44.9729802
0
ARC
8
DEFAULT_255_2_778
10
18.2778258
20
143.5186826
40
0.3001103
50
45.0270678
51
90.0172365
0
LINE
8
DEFAULT_255_2_778
10
16.8778355
20
143.8187928
11
16.8774109
21
143.8187931
0
ARC
8
DEFAULT_255_2_778
10
16.8775706
20
143.5196217
40
0.2991714
50
90.0305962
51
129.8829458
0
ARC
8
DEFAULT_255_2_778
10
16.8780408
20
143.518928
40
0.3000053
50
129.8669055
51
180.0258305
0
LINE
8
DEFAULT_255_2_778
10
16.8780355
20
141.8187928
11
18.2780355
21
141.8187928
0
LINE
8
DEFAULT_255_2_778
10
18.5777355
20
142.1188928
11
18.5777355
21
143.5187928
0
LINE
8
DEFAULT_255_2_778
10
18.2777355
20
143.8187928
11
16.8778355
21
143.8187928
0
LINE
8
DEFAULT_255_2_778
10
16.5780355
20
143.5187928
11
16.5780355
21
142.1190928
0
LINE
8
DEFAULT_255_2_778
10
12.8770355
20
142.1555928
11
12.8770355
21
143.5554928
0
LINE
8
DEFAULT_255_2_778
10
12.8770355
20
143.5554928
11
12.6844355
21
143.7481928
0
ARC
8
DEFAULT_255_2_778
10
12.8785906
20
142.118791
40
0.3007833
50
179.9806347
51
219.741519
0
ARC
8
DEFAULT_255_2_778
10
12.8774539
20
142.1185447
40
0.2997523
50
219.8442169
51
270.0675534
0
ARC
8
DEFAULT_255_2_778
10
14.2778329
20
142.1183913
40
0.2995987
50
269.9759865
51
320.1694573
0
ARC
8
DEFAULT_255_2_778
10
14.277183
20
142.1187451
40
0.3003244
50
320.1970407
51
0.0281467
0
ARC
8
DEFAULT_255_2_778
10
14.2764584
20
143.5183942
40
0.3010492
50
0.0758365
51
44.9259159
0
ARC
8
DEFAULT_255_2_778
10
14.2778578
20
143.5195528
40
0.2992402
50
44.9580712
51
90.0862498
0
ARC
8
DEFAULT_255_2_778
10
12.8774354
20
143.5185356
40
0.3002571
50
89.9862801
51
129.8075994
0
ARC
8
DEFAULT_255_2_778
10
12.8775127
20
143.5189277
40
0.3000055
50
129.8668718
51
180.025778
0
LINE
8
DEFAULT_255_2_778
10
12.8778073
20
141.8187927
11
14.2777073
21
141.8187927
0
LINE
8
DEFAULT_255_2_778
10
14.5775073
20
142.1188927
11
14.5775073
21
143.5187927
0
LINE
8
DEFAULT_255_2_778
10
14.2774073
20
143.8187927
11
12.8775073
21
143.8187927
0
LINE
8
DEFAULT_255_2_778
10
12.5775073
20
143.5187927
11
12.5775073
21
142.1190927
0
LINE
8
DEFAULT_255_2_778
10
18.2768324
20
143.5555541
11
16.8769324
21
143.5555541
0
LINE
8
DEFAULT_255_2_778
10
18.4705324
20
143.7489541
11
18.2771324
21
143.5555541
0
LINE
8
DEFAULT_255_2_778
10
18.2771324
20
143.5555541
11
18.2771324
21
142.1556541
0
LINE
8
DEFAULT_255_2_778
10
18.5073324
20
141.9254541
11
18.2771324
21
142.1556541
0
LINE
8
DEFAULT_255_2_778
10
18.2771324
20
142.1556541
11
16.8772324
21
142.1556541
0
LINE
8
DEFAULT_255_2_778
10
16.8772324
20
142.1556541
11
16.6478324
21
141.9262541
0
LINE
8
DEFAULT_255_2_778
10
14.2768324
20
143.5555541
11
12.8769324
21
143.5555541
0
LINE
8
DEFAULT_255_2_778
10
14.4705324
20
143.7489541
11
14.2771324
21
143.5555541
0
LINE
8
DEFAULT_255_2_778
10
14.2771324
20
143.5555541
11
14.2771324
21
142.1556541
0
LINE
8
DEFAULT_255_2_778
10
14.5073324
20
141.9254541
11
14.2771324
21
142.1556541
0
LINE
8
DEFAULT_255_2_778
10
14.2771324
20
142.1556541
11
12.8772324
21
142.1556541
0
LINE
8
DEFAULT_255_2_778
10
12.8772324
20
142.1556541
11
12.6478324
21
141.9262541
0
LINE
8
DEFAULT_255_2_778
10
20.8771324
20
142.1556541
11
20.8771324
21
143.5555541
0
LINE
8
DEFAULT_255_2_778
10
20.8771324
20
143.5555541
11
20.6845324
21
143.7481541
0
ARC
8
DEFAULT_255_2_778
10
20.8787906
20
142.118791
40
0.3007833
50
179.9806347
51
219.741519
0
ARC
8
DEFAULT_255_2_778
10
20.8776539
20
142.1185447
40
0.2997523
50
219.8442169
51
270.0675534
0
ARC
8
DEFAULT_255_2_778
10
22.2780329
20
142.1183913
40
0.2995987
50
269.9759865
51
320.1694573
0
ARC
8
DEFAULT_255_2_778
10
22.277383
20
142.1187451
40
0.3003244
50
320.1970407
51
0.0281467
0
ARC
8
DEFAULT_255_2_778
10
22.2766584
20
143.5183942
40
0.3010492
50
0.0758365
51
44.9259159
0
ARC
8
DEFAULT_255_2_778
10
22.2780578
20
143.5195528
40
0.2992402
50
44.9580712
51
90.0862498
0
ARC
8
DEFAULT_255_2_778
10
20.8776354
20
143.5185356
40
0.3002571
50
89.9862801
51
129.8075994
0
ARC
8
DEFAULT_255_2_778
10
20.8777127
20
143.5189277
40
0.3000055
50
129.8668718
51
180.025778
0
LINE
8
DEFAULT_255_2_778
10
20.8780073
20
141.8187927
11
22.2779073
21
141.8187927
0
LINE
8
DEFAULT_255_2_778
10
22.5777073
20
142.1188927
11
22.5777073
21
143.5187927
0
LINE
8
DEFAULT_255_2_778
10
22.2776073
20
143.8187927
11
20.8777073
21
143.8187927
0
LINE
8
DEFAULT_255_2_778
10
20.5777073
20
143.5187927
11
20.5777073
21
142.1190927
0
LINE
8
DEFAULT_255_2_778
10
22.2771542
20
143.5555541
11
20.8772542
21
143.5555541
0
LINE
8
DEFAULT_255_2_778
10
22.4705542
20
143.7489541
11
22.2771542
21
143.5555541
0
LINE
8
DEFAULT_255_2_778
10
22.2771542
20
143.5555541
11
22.2771542
21
142.1556541
0
LINE
8
DEFAULT_255_2_778
10
22.5073542
20
141.9254541
11
22.2771542
21
142.1556541
0
LINE
8
DEFAULT_255_2_778
10
22.2771542
20
142.1556541
11
20.8772542
21
142.1556541
0
LINE
8
DEFAULT_255_2_778
10
20.8772542
20
142.1556541
11
20.6478542
21
141.9262541
0
ARC
8
DEFAULT_255_2_778
10
6.4590417
20
140.0565366
40
0.4576453
50
332.1523744
51
1.6954761
0
ARC
8
DEFAULT_255_2_778
10
6.5593111
20
140.0134529
40
0.3489721
50
317.9849861
51
330.7166413
0
ARC
8
DEFAULT_255_2_778
10
6.5676177
20
140.0135197
40
0.3428911
50
267.0693502
51
317.0476253
0
ARC
8
DEFAULT_255_2_778
10
6.5353877
20
140.0052582
40
0.3345042
50
213.8820504
51
272.5185329
0
ARC
8
DEFAULT_255_2_778
10
6.7223344
20
140.1259144
40
0.5569837
50
189.820168
51
213.4651502
0
ARC
8
DEFAULT_255_2_778
10
7.2314748
20
140.2283739
40
1.0762319
50
179.4834204
51
190.5719584
0
ARC
8
DEFAULT_255_2_778
10
7.3698307
20
140.2506338
40
1.214609
50
168.9125037
51
180.5923409
0
ARC
8
DEFAULT_255_2_778
10
6.7878694
20
140.3701026
40
0.6205583
50
147.9859815
51
169.4039881
0
ARC
8
DEFAULT_255_2_778
10
6.5507558
20
140.5239669
40
0.3379712
50
88.2313867
51
148.793659
0
ARC
8
DEFAULT_255_2_778
10
6.5751174
20
140.5197519
40
0.3423088
50
56.7644585
51
92.3323743
0
ARC
8
DEFAULT_255_2_778
10
6.5692794
20
140.547977
40
0.3225431
50
13.6254978
51
53.146645
0
ARC
8
DEFAULT_255_2_778
10
6.3909064
20
140.4815471
40
0.5120417
50
15.2206565
51
16.148477
0
ARC
8
DEFAULT_255_2_778
10
6.5687136
20
140.5563779
40
0.1807298
50
10.5528122
51
92.8947126
0
ARC
8
DEFAULT_255_2_778
10
6.5582573
20
140.5253491
40
0.2115321
50
89.6399248
51
154.0908647
0
ARC
8
DEFAULT_255_2_778
10
6.8206569
20
140.3726943
40
0.5147581
50
151.5681934
51
172.8168695
0
ARC
8
DEFAULT_255_2_778
10
7.3331472
20
140.2902866
40
1.0336816
50
171.8369187
51
180.3663621
0
ARC
8
DEFAULT_255_2_778
10
6.5460665
20
140.1638265
40
0.2741638
50
119.6141558
51
154.0778481
0
ARC
8
DEFAULT_255_2_778
10
6.5686752
20
140.115974
40
0.3269621
50
88.9114677
51
118.9147274
0
ARC
8
DEFAULT_255_2_778
10
6.5882731
20
140.1216134
40
0.3215425
50
43.090768
51
92.3860187
0
ARC
8
DEFAULT_255_2_778
10
6.5421908
20
140.0947606
40
0.3737283
50
0.21485
51
41.270448
0
ARC
8
DEFAULT_255_2_778
10
6.3285091
20
140.070273
40
0.5879777
50
359.9809047
51
2.5235824
0
ARC
8
DEFAULT_255_2_778
10
6.4722845
20
140.0765271
40
0.2970977
50
357.4438601
51
31.5614095
0
ARC
8
DEFAULT_255_2_778
10
6.5531985
20
140.1163981
40
0.2074529
50
33.8759616
51
41.950192
0
ARC
8
DEFAULT_255_2_778
10
6.5504378
20
140.1100475
40
0.2137707
50
42.7214764
51
92.7217784
0
ARC
8
DEFAULT_255_2_778
10
6.5397428
20
140.0893694
40
0.2342083
50
89.8669662
51
118.6118721
0
ARC
8
DEFAULT_255_2_778
10
6.5254763
20
140.1089236
40
0.2102339
50
117.7505246
51
149.5784996
0
ARC
8
DEFAULT_255_2_778
10
6.5358837
20
140.1035675
40
0.2219214
50
149.746631
51
180.8495684
0
ARC
8
DEFAULT_255_2_778
10
6.6682161
20
140.0875431
40
0.3544583
50
177.9411992
51
215.2880399
0
ARC
8
DEFAULT_255_2_778
10
6.5434507
20
139.9942128
40
0.1987442
50
214.1041711
51
270.5292793
0
ARC
8
DEFAULT_255_2_778
10
6.5534257
20
139.9979885
40
0.2026749
50
267.6984854
51
319.9134017
0
ARC
8
DEFAULT_255_2_778
10
6.4842989
20
140.0432705
40
0.2848921
50
321.8987705
51
0.9850969
0
ARC
8
DEFAULT_255_2_778
10
6.2833194
20
140.0633713
40
0.4860672
50
358.2076516
51
0.0124636
0
ARC
8
DEFAULT_255_2_778
10
8.6228429
20
139.9899561
40
0.2993259
50
309.5866413
51
2.8956232
0
ARC
8
DEFAULT_255_2_778
10
8.5675203
20
140.0807413
40
0.4048307
50
276.4166026
51
307.4324255
0
ARC
8
DEFAULT_255_2_778
10
8.5079686
20
140.4189962
40
0.7479273
50
269.7332592
51
278.0543824
0
ARC
8
DEFAULT_255_2_778
10
8.4918288
20
140.266603
40
0.5956604
50
251.252914
51
271.2176306
0
ARC
8
DEFAULT_255_2_778
10
8.4130635
20
140.0222831
40
0.3390109
50
187.5436804
51
250.5877237
0
ARC
8
DEFAULT_255_2_778
10
8.4743247
20
140.0459072
40
0.2510948
50
188.3422094
51
229.9470043
0
ARC
8
DEFAULT_255_2_778
10
8.4314701
20
140.007643
40
0.1944011
50
232.3586613
51
234.7551075
0
ARC
8
DEFAULT_255_2_778
10
8.4865635
20
140.1063928
40
0.3070764
50
236.9930882
51
270.0295766
0
ARC
8
DEFAULT_255_2_778
10
8.5082798
20
140.327884
40
0.5290069
50
267.6644617
51
270.022398
0
ARC
8
DEFAULT_255_2_778
10
8.5208166
20
140.1661265
40
0.3674563
50
268.0770926
51
292.3852962
0
ARC
8
DEFAULT_255_2_778
10
8.5786362
20
140.0087453
40
0.20002
50
294.2399194
51
308.4396708
0
ARC
8
DEFAULT_255_2_778
10
8.5875277
20
139.9929343
40
0.1821306
50
309.3410555
51
3.1294005
0
ARC
8
DEFAULT_255_2_778
10
8.6022005
20
140.0104061
40
0.1673556
50
357.4214895
51
32.6018882
0
ARC
8
DEFAULT_255_2_778
10
8.5746317
20
139.9815417
40
0.2063497
50
35.2301662
51
61.0905571
0
ARC
8
DEFAULT_255_2_778
10
8.4689452
20
139.7922397
40
0.4231546
50
60.9547803
51
75.0531228
0
ARC
8
DEFAULT_255_2_778
10
6.6698682
20
133.4383224
40
7.0268164
50
74.2427456
51
75.1574224
0
ARC
8
DEFAULT_255_2_778
10
8.9115561
20
141.8644159
40
1.6923872
50
250.3372628
51
254.872121
0
ARC
8
DEFAULT_255_2_778
10
8.5194522
20
140.768451
40
0.5283924
50
243.6455474
51
250.3878761
0
ARC
8
DEFAULT_255_2_778
10
8.4173127
20
140.5679511
40
0.3033999
50
223.3770699
51
244.1208937
0
ARC
8
DEFAULT_255_2_778
10
8.3821043
20
140.5271651
40
0.2498567
50
199.6421712
51
222.1239454
0
ARC
8
DEFAULT_255_2_778
10
8.4572934
20
140.5472146
40
0.3274725
50
178.8517259
51
198.5237956
0
ARC
8
DEFAULT_255_2_778
10
8.4075878
20
140.5698336
40
0.2781649
50
130.2694579
51
183.309132
0
ARC
8
DEFAULT_255_2_778
10
8.4523839
20
140.4890966
40
0.3691632
50
95.540921
51
127.473584
0
ARC
8
DEFAULT_255_2_778
10
8.5057167
20
140.1706984
40
0.6915842
50
89.7705183
51
97.3920594
0
ARC
8
DEFAULT_255_2_778
10
8.5208201
20
140.270709
40
0.5916966
50
73.7257329
51
91.1943712
0
ARC
8
DEFAULT_255_2_778
10
8.5985618
20
140.5503966
40
0.3014532
50
55.4815641
51
73.0126344
0
ARC
8
DEFAULT_255_2_778
10
8.5814263
20
140.5513108
40
0.310755
50
16.4294469
51
52.7819041
0
ARC
8
DEFAULT_255_2_778
10
8.3385058
20
140.4547539
40
0.5715666
50
13.1490888
51
18.8267727
0
ARC
8
DEFAULT_255_2_778
10
8.5237742
20
140.5258178
40
0.2220255
50
7.9112214
51
48.7836968
0
ARC
8
DEFAULT_255_2_778
10
8.571236
20
140.5676203
40
0.1595167
50
51.7152832
51
53.3361171
0
ARC
8
DEFAULT_255_2_778
10
8.5248231
20
140.4844575
40
0.2542441
50
56.137951
51
91.7536592
0
ARC
8
DEFAULT_255_2_778
10
8.5077426
20
140.2815199
40
0.4571571
50
88.8343472
51
90.0070154
0
ARC
8
DEFAULT_255_2_778
10
8.4954536
20
140.4150152
40
0.3238929
50
87.8354857
51
112.9332451
0
ARC
8
DEFAULT_255_2_778
10
8.4368696
20
140.5705942
40
0.1579241
50
115.3535906
51
185.1650501
0
ARC
8
DEFAULT_255_2_778
10
8.427631
20
140.549886
40
0.1481866
50
177.4894588
51
211.3557609
0
ARC
8
DEFAULT_255_2_778
10
8.4409551
20
140.5671721
40
0.1687412
50
214.014786
51
240.9374394
0
ARC
8
DEFAULT_255_2_778
10
8.5457502
20
140.7571731
40
0.3857255
50
241.0407371
51
254.7799165
0
ARC
8
DEFAULT_255_2_778
10
12.5880577
20
155.0209865
40
15.2112443
50
254.1927592
51
254.6002655
0
ARC
8
DEFAULT_255_2_778
10
7.9729196
20
138.1595465
40
2.2705453
50
72.2770038
51
75.3104834
0
ARC
8
DEFAULT_255_2_778
10
8.4508909
20
139.6571724
40
0.698496
50
68.235617
51
72.2266498
0
ARC
8
DEFAULT_255_2_778
10
8.531249
20
139.8592716
40
0.4810072
50
56.4354084
51
68.1990936
0
ARC
8
DEFAULT_255_2_778
10
8.6420285
20
140.0268802
40
0.2800979
50
37.9873896
51
56.3620987
0
ARC
8
DEFAULT_255_2_778
10
8.6401091
20
140.0302266
40
0.2795771
50
18.0768133
51
37.2047313
0
ARC
8
DEFAULT_255_2_778
10
8.5661164
20
140.0126047
40
0.3554397
50
358.8670856
51
17.0761706
0
ARC
8
DEFAULT_255_2_778
10
12.5133308
20
138.9760615
40
3.1742119
50
146.5724698
51
153.5434079
0
ARC
8
DEFAULT_255_2_778
10
11.5207711
20
139.4657712
40
2.0674291
50
153.4386126
51
163.3987531
0
ARC
8
DEFAULT_255_2_778
10
10.8055145
20
139.6741502
40
1.3224593
50
163.1967536
51
179.1513108
0
ARC
8
DEFAULT_255_2_778
10
10.5492955
20
139.6883138
40
1.0661089
50
179.7084681
51
180.0019715
0
ARC
8
DEFAULT_255_2_778
10
10.5898929
20
139.6758221
40
1.2580679
50
163.6218747
51
179.4327578
0
ARC
8
DEFAULT_255_2_778
10
11.0723709
20
139.5498712
40
1.7565486
50
159.1740639
51
164.1179011
0
ARC
8
DEFAULT_255_2_778
10
11.5949369
20
139.3421938
40
2.3188232
50
149.7693021
51
158.9684661
0
ARC
8
DEFAULT_255_2_778
10
12.3567192
20
138.9113818
40
3.1939337
50
145.5167308
51
149.9723814
0
ARC
8
DEFAULT_255_2_778
10
10.4377039
20
140.0589272
40
0.4407884
50
333.096769
51
1.2544348
0
ARC
8
DEFAULT_255_2_778
10
10.5371255
20
140.013927
40
0.3318006
50
297.7831638
51
332.2580413
0
ARC
8
DEFAULT_255_2_778
10
10.4871831
20
140.1189567
40
0.4480272
50
268.52962
51
297.172864
0
ARC
8
DEFAULT_255_2_778
10
10.4625366
20
140.1266522
40
0.4557649
50
244.812918
51
271.6533691
0
ARC
8
DEFAULT_255_2_778
10
10.4121054
20
139.9997028
40
0.3195334
50
232.9508779
51
243.3083037
0
ARC
8
DEFAULT_255_2_778
10
10.4243936
20
140.0053549
40
0.3315099
50
188.2165771
51
231.8443213
0
ARC
8
DEFAULT_255_2_778
10
10.4574447
20
140.0147804
40
0.2181549
50
190.2724364
51
272.9320201
0
ARC
8
DEFAULT_255_2_778
10
10.4788264
20
140.187357
40
0.3905799
50
268.5002064
51
270.0088386
0
ARC
8
DEFAULT_255_2_778
10
10.4897575
20
140.0334287
40
0.2369012
50
267.3699032
51
315.9709926
0
ARC
8
DEFAULT_255_2_778
10
10.454425
20
140.0493581
40
0.27369
50
318.7152779
51
2.8241011
0
ARC
8
DEFAULT_255_2_778
10
10.2608357
20
140.0647755
40
0.4669508
50
359.762849
51
0.0001953
0
ARC
8
DEFAULT_255_2_778
10
10.4914439
20
140.0736735
40
0.2365101
50
357.8442946
51
44.2395585
0
ARC
8
DEFAULT_255_2_778
10
10.4933788
20
140.0662561
40
0.240391
50
45.8280603
51
92.716279
0
ARC
8
DEFAULT_255_2_778
10
10.4794883
20
140.0075098
40
0.2988777
50
89.5210448
51
110.9781185
0
ARC
8
DEFAULT_255_2_778
10
10.4944429
20
139.9910829
40
0.319672
50
112.4269079
51
134.2981259
0
ARC
8
DEFAULT_255_2_778
10
10.4996458
20
140.074365
40
0.3582213
50
88.0417589
51
128.3287683
0
ARC
8
DEFAULT_255_2_778
10
10.527379
20
140.0728632
40
0.3598475
50
46.0140335
51
92.4674912
0
ARC
8
DEFAULT_255_2_778
10
10.5239259
20
140.0834393
40
0.3547722
50
357.5990437
51
44.4263729
0
ARC
8
DEFAULT_255_2_778
10
14.2444723
20
140.78467
40
0.2118344
50
297.3495966
51
332.5674429
0
ARC
8
DEFAULT_255_2_778
10
14.093505
20
141.020343
40
0.4911999
50
293.7312004
51
300.3627002
0
ARC
8
DEFAULT_255_2_778
10
14.0654758
20
141.0579804
40
0.5370381
50
270.6519714
51
294.8527906
0
ARC
8
DEFAULT_255_2_778
10
14.0732417
20
141.1248441
40
0.4771699
50
269.8012738
51
297.9357306
0
ARC
8
DEFAULT_255_2_778
10
14.1576439
20
140.9978432
40
0.3257759
50
295.2844159
51
331.7759464
0
LINE
8
DEFAULT_255_2_778
10
6.8849866
20
140.6159771
11
6.7463866
21
140.5894771
0
LINE
8
DEFAULT_255_2_778
10
6.9164866
20
140.0700771
11
6.9164866
21
140.0700771
0
LINE
8
DEFAULT_255_2_778
10
6.7693866
20
140.0634771
11
6.7690866
21
140.0632771
0
LINE
8
DEFAULT_255_2_778
10
7.9271866
20
139.6882771
11
7.1540866
21
139.6882771
0
LINE
8
DEFAULT_255_2_778
10
7.1540866
20
139.6882771
11
7.1540866
21
140.8437771
0
LINE
8
DEFAULT_255_2_778
10
7.1540866
20
140.8437771
11
7.8943866
21
140.8437771
0
LINE
8
DEFAULT_255_2_778
10
7.8943866
20
140.8437771
11
7.8943866
21
140.7101771
0
LINE
8
DEFAULT_255_2_778
10
7.8943866
20
140.7101771
11
7.3080866
21
140.7101771
0
LINE
8
DEFAULT_255_2_778
10
7.3080866
20
140.7101771
11
7.3080866
21
140.3486771
0
LINE
8
DEFAULT_255_2_778
10
7.3080866
20
140.3486771
11
7.8462866
21
140.3486771
0
LINE
8
DEFAULT_255_2_778
10
7.8462866
20
140.3486771
11
7.8462866
21
140.2166771
0
LINE
8
DEFAULT_255_2_778
10
7.8462866
20
140.2166771
11
7.3083866
21
140.2166771
0
LINE
8
DEFAULT_255_2_778
10
7.3083866
20
140.2166771
11
7.3083866
21
139.8219771
0
LINE
8
DEFAULT_255_2_778
10
7.3083866
20
139.8219771
11
7.9276866
21
139.8219771
0
LINE
8
DEFAULT_255_2_778
10
7.9276866
20
139.8219771
11
7.9276866
21
139.6882771
0
LINE
8
DEFAULT_255_2_778
10
7.9276866
20
139.6882771
11
7.9271866
21
139.6882771
0
LINE
8
DEFAULT_255_2_778
10
8.0769866
20
139.9777771
11
8.2258866
21
140.0094771
0
LINE
8
DEFAULT_255_2_778
10
8.8950866
20
140.5847771
11
8.7436866
21
140.5563771
0
LINE
8
DEFAULT_255_2_778
10
8.9214866
20
140.0055771
11
8.9217866
21
140.0050771
0
LINE
8
DEFAULT_255_2_778
10
9.8641866
20
140.8437771
11
9.8641866
21
140.7246771
0
LINE
8
DEFAULT_255_2_778
10
9.4831866
20
139.6882771
11
9.3318866
21
139.6882771
0
LINE
8
DEFAULT_255_2_778
10
9.7239866
20
140.7196771
11
9.1304866
21
140.7196771
0
LINE
8
DEFAULT_255_2_778
10
9.1304866
20
140.7196771
11
9.1304866
21
140.8437771
0
LINE
8
DEFAULT_255_2_778
10
9.1304866
20
140.8437771
11
9.8641866
21
140.8437771
0
LINE
8
DEFAULT_255_2_778
10
9.8641866
20
140.8437771
11
9.8641866
21
140.8437771
0
LINE
8
DEFAULT_255_2_778
10
10.0962866
20
139.9579771
11
10.2427866
21
139.9758771
0
LINE
8
DEFAULT_255_2_778
10
10.2711866
20
140.2198771
11
10.1292866
21
140.2198771
0
LINE
8
DEFAULT_255_2_778
10
10.1292866
20
140.2198771
11
10.1671866
21
140.8434771
0
LINE
8
DEFAULT_255_2_778
10
10.1671866
20
140.8434771
11
10.8121866
21
140.8434771
0
LINE
8
DEFAULT_255_2_778
10
10.8121866
20
140.8434771
11
10.8121866
21
140.7193771
0
LINE
8
DEFAULT_255_2_778
10
10.8121866
20
140.7193771
11
10.3007866
21
140.7193771
0
LINE
8
DEFAULT_255_2_778
10
10.3007866
20
140.7193771
11
10.2774866
21
140.3553771
0
LINE
8
DEFAULT_255_2_778
10
10.8783866
20
140.0685771
11
10.8783866
21
140.0685771
0
LINE
8
DEFAULT_255_2_778
10
11.8890866
20
139.9613771
11
11.7376866
21
139.9613771
0
LINE
8
DEFAULT_255_2_778
10
11.7376866
20
139.9613771
11
11.7376866
21
139.6880771
0
LINE
8
DEFAULT_255_2_778
10
11.7376866
20
139.6880771
11
11.5927866
21
139.6880771
0
LINE
8
DEFAULT_255_2_778
10
11.5927866
20
139.6880771
11
11.5927866
21
139.9613771
0
LINE
8
DEFAULT_255_2_778
10
11.5927866
20
139.9613771
11
11.0659866
21
139.9613771
0
LINE
8
DEFAULT_255_2_778
10
11.0659866
20
139.9613771
11
11.0659866
21
140.0812771
0
LINE
8
DEFAULT_255_2_778
10
11.0659866
20
140.0812771
11
11.5773866
21
140.8434771
0
LINE
8
DEFAULT_255_2_778
10
11.5773866
20
140.8434771
11
11.7376866
21
140.8434771
0
LINE
8
DEFAULT_255_2_778
10
11.7376866
20
140.8434771
11
11.7376866
21
140.0827771
0
LINE
8
DEFAULT_255_2_778
10
11.7376866
20
140.0827771
11
11.8890866
21
140.0827771
0
LINE
8
DEFAULT_255_2_778
10
11.8890866
20
140.0827771
11
11.8890866
21
139.9610771
0
LINE
8
DEFAULT_255_2_778
10
11.8890866
20
139.9610771
11
11.8890866
21
139.9613771
0
LINE
8
DEFAULT_255_2_778
10
11.5927866
20
140.0830771
11
11.5927866
21
140.6767771
0
LINE
8
DEFAULT_255_2_778
10
11.5927866
20
140.6767771
11
11.1900866
21
140.0830771
0
LINE
8
DEFAULT_255_2_778
10
11.1900866
20
140.0830771
11
11.5927866
21
140.0830771
0
LINE
8
DEFAULT_255_2_778
10
11.5927866
20
140.0830771
11
11.5927866
21
140.0830771
0
LINE
8
DEFAULT_255_2_778
10
13.6829866
20
140.0854771
11
13.2317866
21
140.0854771
0
LINE
8
DEFAULT_255_2_778
10
13.2317866
20
140.0854771
11
13.2317866
21
140.2224771
0
LINE
8
DEFAULT_255_2_778
10
13.2317866
20
140.2224771
11
13.6829866
21
140.2224771
0
LINE
8
DEFAULT_255_2_778
10
13.6829866
20
140.2224771
11
13.6829866
21
140.0854771
0
LINE
8
DEFAULT_255_2_778
10
13.6829866
20
140.0854771
11
13.6829866
21
140.0854771
0
LINE
8
DEFAULT_255_2_778
10
14.8626866
20
139.6882771
11
14.0789866
21
139.6882771
0
LINE
8
DEFAULT_255_2_778
10
14.0789866
20
139.6882771
11
14.0789866
21
139.8123771
0
LINE
8
DEFAULT_255_2_778
10
14.0789866
20
139.8123771
11
14.4324866
21
139.8123771
0
LINE
8
DEFAULT_255_2_778
10
14.4324866
20
139.8123771
11
14.4324866
21
140.6870771
0
LINE
8
DEFAULT_255_2_778
10
14.0715866
20
140.5209771
11
14.0715866
21
140.6476771
0
LINE
8
DEFAULT_255_2_778
10
14.4446866
20
140.8437771
11
14.5782866
21
140.8437771
0
LINE
8
DEFAULT_255_2_778
10
14.5782866
20
140.8437771
11
14.5782866
21
139.8123771
0
LINE
8
DEFAULT_255_2_778
10
14.5782866
20
139.8123771
11
14.8626866
21
139.8123771
0
LINE
8
DEFAULT_255_2_778
10
14.8626866
20
139.8123771
11
14.8626866
21
139.6880771
0
LINE
8
DEFAULT_255_2_778
10
14.8626866
20
139.6880771
11
14.8626866
21
139.6882771
0
LINE
8
DEFAULT_255_2_778
10
15.9316866
20
139.6882771
11
15.7752866
21
139.6882771
0
LINE
8
DEFAULT_255_2_778
10
15.7752866
20
139.6882771
11
15.6641866
21
140.0155771
0
LINE
8
DEFAULT_255_2_778
10
15.6641866
20
140.0155771
11
15.2106866
21
140.0155771
0
LINE
8
DEFAULT_255_2_778
10
15.2106866
20
140.0155771
11
15.1002866
21
139.6882771
0
LINE
8
DEFAULT_255_2_778
10
15.1002866
20
139.6882771
11
14.9423866
21
139.6882771
0
LINE
8
DEFAULT_255_2_778
10
14.9423866
20
139.6882771
11
15.3532866
21
140.8437771
0
LINE
8
DEFAULT_255_2_778
10
15.3532866
20
140.8437771
11
15.5281866
21
140.8437771
0
LINE
8
DEFAULT_255_2_778
10
15.5281866
20
140.8437771
11
15.9316866
21
139.6882771
0
LINE
8
DEFAULT_255_2_778
10
15.9316866
20
139.6882771
11
15.9316866
21
139.6882771
0
LINE
8
DEFAULT_255_2_778
10
15.4852866
20
140.5714771
11
15.4384866
21
140.7204771
0
LINE
8
DEFAULT_255_2_778
10
15.4384866
20
140.7204771
11
15.4288866
21
140.6870771
0
LINE
8
DEFAULT_255_2_778
10
15.4288866
20
140.6870771
11
15.3733866
21
140.5055771
0
LINE
8
DEFAULT_255_2_778
10
15.3733866
20
140.5055771
11
15.2516866
21
140.1433771
0
LINE
8
DEFAULT_255_2_778
10
15.2516866
20
140.1433771
11
15.6244866
21
140.1433771
0
LINE
8
DEFAULT_255_2_778
10
15.6244866
20
140.1433771
11
15.4849866
21
140.5717771
0
LINE
8
DEFAULT_255_2_778
10
15.4849866
20
140.5717771
11
15.4852866
21
140.5714771
0
LINE
8
DEFAULT_255_2_778
10
19.6222866
20
140.0854771
11
19.1711866
21
140.0854771
0
LINE
8
DEFAULT_255_2_778
10
19.1711866
20
140.0854771
11
19.1711866
21
140.2224771
0
LINE
8
DEFAULT_255_2_778
10
19.1711866
20
140.2224771
11
19.6222866
21
140.2224771
0
LINE
8
DEFAULT_255_2_778
10
19.6222866
20
140.2224771
11
19.6222866
21
140.0854771
0
LINE
8
DEFAULT_255_2_778
10
19.6222866
20
140.0854771
11
19.6222866
21
140.0854771
0
LINE
8
DEFAULT_255_2_778
10
21.7387615
20
139.6884177
11
21.5823615
21
139.6884177
0
LINE
8
DEFAULT_255_2_778
10
21.5823615
20
139.6884177
11
21.4712615
21
140.0157177
0
LINE
8
DEFAULT_255_2_778
10
21.4712615
20
140.0157177
11
21.0177615
21
140.0157177
0
LINE
8
DEFAULT_255_2_778
10
21.0177615
20
140.0157177
11
20.9074615
21
139.6884177
0
LINE
8
DEFAULT_255_2_778
10
20.9074615
20
139.6884177
11
20.7494615
21
139.6884177
0
LINE
8
DEFAULT_255_2_778
10
20.7494615
20
139.6884177
11
21.1600615
21
140.8438177
0
LINE
8
DEFAULT_255_2_778
10
21.1600615
20
140.8438177
11
21.3349615
21
140.8438177
0
LINE
8
DEFAULT_255_2_778
10
21.3349615
20
140.8438177
11
21.7384615
21
139.6884177
0
LINE
8
DEFAULT_255_2_778
10
21.7384615
20
139.6884177
11
21.7387615
21
139.6884177
0
LINE
8
DEFAULT_255_2_778
10
21.2926615
20
140.5715177
11
21.2458615
21
140.7205177
0
LINE
8
DEFAULT_255_2_778
10
21.2458615
20
140.7205177
11
21.2360615
21
140.6872177
0
LINE
8
DEFAULT_255_2_778
10
21.2360615
20
140.6872177
11
21.1804615
21
140.5057177
0
LINE
8
DEFAULT_255_2_778
10
21.1804615
20
140.5057177
11
21.0587615
21
140.1434177
0
LINE
8
DEFAULT_255_2_778
10
21.0587615
20
140.1434177
11
21.4315615
21
140.1434177
0
LINE
8
DEFAULT_255_2_778
10
21.4315615
20
140.1434177
11
21.2921615
21
140.5718177
0
LINE
8
DEFAULT_255_2_778
10
21.2921615
20
140.5718177
11
21.2926615
21
140.5715177
0
LINE
8
DEFAULT_255_2_778
10
22.8608615
20
139.6884177
11
22.7044615
21
139.6884177
0
LINE
8
DEFAULT_255_2_778
10
22.7044615
20
139.6884177
11
22.5933615
21
140.0157177
0
LINE
8
DEFAULT_255_2_778
10
22.5933615
20
140.0157177
11
22.1398615
21
140.0157177
0
LINE
8
DEFAULT_255_2_778
10
22.1398615
20
140.0157177
11
22.0295615
21
139.6884177
0
LINE
8
DEFAULT_255_2_778
10
22.0295615
20
139.6884177
11
21.8715615
21
139.6884177
0
LINE
8
DEFAULT_255_2_778
10
21.8715615
20
139.6884177
11
22.2821615
21
140.8438177
0
LINE
8
DEFAULT_255_2_778
10
22.2821615
20
140.8438177
11
22.4570615
21
140.8438177
0
LINE
8
DEFAULT_255_2_778
10
22.4570615
20
140.8438177
11
22.8605615
21
139.6884177
0
LINE
8
DEFAULT_255_2_778
10
22.8605615
20
139.6884177
11
22.8608615
21
139.6884177
0
LINE
8
DEFAULT_255_2_778
10
22.4147615
20
140.5715177
11
22.3679615
21
140.7205177
0
LINE
8
DEFAULT_255_2_778
10
22.3679615
20
140.7205177
11
22.3581615
21
140.6872177
0
LINE
8
DEFAULT_255_2_778
10
22.3581615
20
140.6872177
11
22.3025615
21
140.5057177
0
LINE
8
DEFAULT_255_2_778
10
22.3025615
20
140.5057177
11
22.1808615
21
140.1434177
0
LINE
8
DEFAULT_255_2_778
10
22.1808615
20
140.1434177
11
22.5536615
21
140.1434177
0
LINE
8
DEFAULT_255_2_778
10
22.5536615
20
140.1434177
11
22.4142615
21
140.5718177
0
LINE
8
DEFAULT_255_2_778
10
22.4142615
20
140.5718177
11
22.4147615
21
140.5715177
0
LINE
8
DEFAULT_255_2_778
10
12.130425
20
140.5070448
11
12.108425
21
140.3802448
0
LINE
8
DEFAULT_255_2_778
10
12.108425
20
140.3802448
11
12.108425
21
140.1522448
0
LINE
8
DEFAULT_255_2_778
10
12.108425
20
140.1522448
11
12.130425
21
140.0254448
0
LINE
8
DEFAULT_255_2_778
10
12.130425
20
140.0254448
11
12.152325
21
139.9495448
0
LINE
8
DEFAULT_255_2_778
10
12.152325
20
139.9495448
11
12.196525
21
139.8481448
0
LINE
8
DEFAULT_255_2_778
10
12.196525
20
139.8481448
11
12.262725
21
139.7719448
0
LINE
8
DEFAULT_255_2_778
10
12.262725
20
139.7719448
11
12.373025
21
139.6960448
0
LINE
8
DEFAULT_255_2_778
10
12.373025
20
139.6960448
11
12.505325
21
139.6706448
0
LINE
8
DEFAULT_255_2_778
10
12.505325
20
139.6706448
11
12.637825
21
139.6960448
0
LINE
8
DEFAULT_255_2_778
10
12.637825
20
139.6960448
11
12.747925
21
139.7719448
0
LINE
8
DEFAULT_255_2_778
10
12.747925
20
139.7719448
11
12.814025
21
139.8481448
0
LINE
8
DEFAULT_255_2_778
10
12.814025
20
139.8481448
11
12.858225
21
139.9495448
0
LINE
8
DEFAULT_255_2_778
10
12.858225
20
139.9495448
11
12.880225
21
140.0254448
0
LINE
8
DEFAULT_255_2_778
10
12.880225
20
140.0254448
11
12.902125
21
140.1522448
0
LINE
8
DEFAULT_255_2_778
10
12.902125
20
140.1522448
11
12.902125
21
140.3802448
0
LINE
8
DEFAULT_255_2_778
10
12.902125
20
140.3802448
11
12.880225
21
140.5070448
0
LINE
8
DEFAULT_255_2_778
10
12.880225
20
140.5070448
11
12.858225
21
140.5829448
0
LINE
8
DEFAULT_255_2_778
10
12.858225
20
140.5829448
11
12.814025
21
140.6842448
0
LINE
8
DEFAULT_255_2_778
10
12.814025
20
140.6842448
11
12.747925
21
140.7604448
0
LINE
8
DEFAULT_255_2_778
10
12.747925
20
140.7604448
11
12.637825
21
140.8364448
0
LINE
8
DEFAULT_255_2_778
10
12.637825
20
140.8364448
11
12.505325
21
140.8615448
0
LINE
8
DEFAULT_255_2_778
10
12.505325
20
140.8615448
11
12.373025
21
140.8364448
0
LINE
8
DEFAULT_255_2_778
10
12.373025
20
140.8364448
11
12.262725
21
140.7604448
0
LINE
8
DEFAULT_255_2_778
10
12.262725
20
140.7604448
11
12.196525
21
140.6842448
0
LINE
8
DEFAULT_255_2_778
10
12.196525
20
140.6842448
11
12.152325
21
140.5829448
0
LINE
8
DEFAULT_255_2_778
10
12.152325
20
140.5829448
11
12.130425
21
140.5070448
0
LINE
8
DEFAULT_255_2_778
10
12.218725
20
140.1776448
11
12.240725
21
140.0254448
0
LINE
8
DEFAULT_255_2_778
10
12.240725
20
140.0254448
11
12.329125
21
139.8735448
0
LINE
8
DEFAULT_255_2_778
10
12.329125
20
139.8735448
11
12.395225
21
139.8230448
0
LINE
8
DEFAULT_255_2_778
10
12.395225
20
139.8230448
11
12.505525
21
139.7976448
0
LINE
8
DEFAULT_255_2_778
10
12.505525
20
139.7976448
11
12.615925
21
139.8230448
0
LINE
8
DEFAULT_255_2_778
10
12.615925
20
139.8230448
11
12.682025
21
139.8735448
0
LINE
8
DEFAULT_255_2_778
10
12.682025
20
139.8735448
11
12.770425
21
140.0254448
0
LINE
8
DEFAULT_255_2_778
10
12.770425
20
140.0254448
11
12.792325
21
140.1776448
0
LINE
8
DEFAULT_255_2_778
10
12.792325
20
140.1776448
11
12.792325
21
140.3551448
0
LINE
8
DEFAULT_255_2_778
10
12.792325
20
140.3551448
11
12.770425
21
140.5070448
0
LINE
8
DEFAULT_255_2_778
10
12.770425
20
140.5070448
11
12.682025
21
140.6591448
0
LINE
8
DEFAULT_255_2_778
10
12.682025
20
140.6591448
11
12.615925
21
140.7096448
0
LINE
8
DEFAULT_255_2_778
10
12.615925
20
140.7096448
11
12.505525
21
140.7348448
0
LINE
8
DEFAULT_255_2_778
10
12.505525
20
140.7348448
11
12.395225
21
140.7096448
0
LINE
8
DEFAULT_255_2_778
10
12.395225
20
140.7096448
11
12.329125
21
140.6591448
0
LINE
8
DEFAULT_255_2_778
10
12.329125
20
140.6591448
11
12.240725
21
140.5070448
0
LINE
8
DEFAULT_255_2_778
10
12.240725
20
140.5070448
11
12.218725
21
140.3551448
0
LINE
8
DEFAULT_255_2_778
10
12.218725
20
140.3551448
11
12.218725
21
140.1776448
0
LINE
8
DEFAULT_255_2_778
10
17.1574927
20
140.5070448
11
17.1354927
21
140.3802448
0
LINE
8
DEFAULT_255_2_778
10
17.1354927
20
140.3802448
11
17.1354927
21
140.1522448
0
LINE
8
DEFAULT_255_2_778
10
17.1354927
20
140.1522448
11
17.1574927
21
140.0254448
0
LINE
8
DEFAULT_255_2_778
10
17.1574927
20
140.0254448
11
17.1793927
21
139.9495448
0
LINE
8
DEFAULT_255_2_778
10
17.1793927
20
139.9495448
11
17.2235927
21
139.8481448
0
LINE
8
DEFAULT_255_2_778
10
17.2235927
20
139.8481448
11
17.2897927
21
139.7719448
0
LINE
8
DEFAULT_255_2_778
10
17.2897927
20
139.7719448
11
17.4000927
21
139.6960448
0
LINE
8
DEFAULT_255_2_778
10
17.4000927
20
139.6960448
11
17.5323927
21
139.6706448
0
LINE
8
DEFAULT_255_2_778
10
17.5323927
20
139.6706448
11
17.6648927
21
139.6960448
0
LINE
8
DEFAULT_255_2_778
10
17.6648927
20
139.6960448
11
17.7749927
21
139.7719448
0
LINE
8
DEFAULT_255_2_778
10
17.7749927
20
139.7719448
11
17.8410927
21
139.8481448
0
LINE
8
DEFAULT_255_2_778
10
17.8410927
20
139.8481448
11
17.8852927
21
139.9495448
0
LINE
8
DEFAULT_255_2_778
10
17.8852927
20
139.9495448
11
17.9075927
21
140.0254448
0
LINE
8
DEFAULT_255_2_778
10
17.9075927
20
140.0254448
11
17.9294927
21
140.1522448
0
LINE
8
DEFAULT_255_2_778
10
17.9294927
20
140.1522448
11
17.9294927
21
140.3802448
0
LINE
8
DEFAULT_255_2_778
10
17.9294927
20
140.3802448
11
17.9075927
21
140.5070448
0
LINE
8
DEFAULT_255_2_778
10
17.9075927
20
140.5070448
11
17.8852927
21
140.5829448
0
LINE
8
DEFAULT_255_2_778
10
17.8852927
20
140.5829448
11
17.8410927
21
140.6842448
0
LINE
8
DEFAULT_255_2_778
10
17.8410927
20
140.6842448
11
17.7749927
21
140.7604448
0
LINE
8
DEFAULT_255_2_778
10
17.7749927
20
140.7604448
11
17.6648927
21
140.8364448
0
LINE
8
DEFAULT_255_2_778
10
17.6648927
20
140.8364448
11
17.5323927
21
140.8615448
0
LINE
8
DEFAULT_255_2_778
10
17.5323927
20
140.8615448
11
17.4000927
21
140.8364448
0
LINE
8
DEFAULT_255_2_778
10
17.4000927
20
140.8364448
11
17.2897927
21
140.7604448
0
LINE
8
DEFAULT_255_2_778
10
17.2897927
20
140.7604448
11
17.2235927
21
140.6842448
0
LINE
8
DEFAULT_255_2_778
10
17.2235927
20
140.6842448
11
17.1793927
21
140.5829448
0
LINE
8
DEFAULT_255_2_778
10
17.1793927
20
140.5829448
11
17.1574927
21
140.5070448
0
LINE
8
DEFAULT_255_2_778
10
17.2457927
20
140.1776448
11
17.2677927
21
140.0254448
0
LINE
8
DEFAULT_255_2_778
10
17.2677927
20
140.0254448
11
17.3561927
21
139.8735448
0
LINE
8
DEFAULT_255_2_778
10
17.3561927
20
139.8735448
11
17.4222927
21
139.8230448
0
LINE
8
DEFAULT_255_2_778
10
17.4222927
20
139.8230448
11
17.5325927
21
139.7976448
0
LINE
8
DEFAULT_255_2_778
10
17.5325927
20
139.7976448
11
17.6429927
21
139.8230448
0
LINE
8
DEFAULT_255_2_778
10
17.6429927
20
139.8230448
11
17.7090927
21
139.8735448
0
LINE
8
DEFAULT_255_2_778
10
17.7090927
20
139.8735448
11
17.7974927
21
140.0254448
0
LINE
8
DEFAULT_255_2_778
10
17.7974927
20
140.0254448
11
17.8193927
21
140.1776448
0
LINE
8
DEFAULT_255_2_778
10
17.8193927
20
140.1776448
11
17.8193927
21
140.3551448
0
LINE
8
DEFAULT_255_2_778
10
17.8193927
20
140.3551448
11
17.7974927
21
140.5070448
0
LINE
8
DEFAULT_255_2_778
10
17.7974927
20
140.5070448
11
17.7090927
21
140.6591448
0
LINE
8
DEFAULT_255_2_778
10
17.7090927
20
140.6591448
11
17.6429927
21
140.7096448
0
LINE
8
DEFAULT_255_2_778
10
17.6429927
20
140.7096448
11
17.5325927
21
140.7348448
0
LINE
8
DEFAULT_255_2_778
10
17.5325927
20
140.7348448
11
17.4222927
21
140.7096448
0
LINE
8
DEFAULT_255_2_778
10
17.4222927
20
140.7096448
11
17.3561927
21
140.6591448
0
LINE
8
DEFAULT_255_2_778
10
17.3561927
20
140.6591448
11
17.2677927
21
140.5070448
0
LINE
8
DEFAULT_255_2_778
10
17.2677927
20
140.5070448
11
17.2457927
21
140.3551448
0
LINE
8
DEFAULT_255_2_778
10
17.2457927
20
140.3551448
11
17.2457927
21
140.1776448
0
LINE
8
DEFAULT_255_2_778
10
18.0834927
20
140.5070448
11
18.0614927
21
140.3802448
0
LINE
8
DEFAULT_255_2_778
10
18.0614927
20
140.3802448
11
18.0614927
21
140.1522448
0
LINE
8
DEFAULT_255_2_778
10
18.0614927
20
140.1522448
11
18.0834927
21
140.0254448
0
LINE
8
DEFAULT_255_2_778
10
18.0834927
20
140.0254448
11
18.1053927
21
139.9495448
0
LINE
8
DEFAULT_255_2_778
10
18.1053927
20
139.9495448
11
18.1495927
21
139.8481448
0
LINE
8
DEFAULT_255_2_778
10
18.1495927
20
139.8481448
11
18.2157927
21
139.7719448
0
LINE
8
DEFAULT_255_2_778
10
18.2157927
20
139.7719448
11
18.3260927
21
139.6960448
0
LINE
8
DEFAULT_255_2_778
10
18.3260927
20
139.6960448
11
18.4583927
21
139.6706448
0
LINE
8
DEFAULT_255_2_778
10
18.4583927
20
139.6706448
11
18.5908927
21
139.6960448
0
LINE
8
DEFAULT_255_2_778
10
18.5908927
20
139.6960448
11
18.7009927
21
139.7719448
0
LINE
8
DEFAULT_255_2_778
10
18.7009927
20
139.7719448
11
18.7670927
21
139.8481448
0
LINE
8
DEFAULT_255_2_778
10
18.7670927
20
139.8481448
11
18.8112927
21
139.9495448
0
LINE
8
DEFAULT_255_2_778
10
18.8112927
20
139.9495448
11
18.8335927
21
140.0254448
0
LINE
8
DEFAULT_255_2_778
10
18.8335927
20
140.0254448
11
18.8554927
21
140.1522448
0
LINE
8
DEFAULT_255_2_778
10
18.8554927
20
140.1522448
11
18.8554927
21
140.3802448
0
LINE
8
DEFAULT_255_2_778
10
18.8554927
20
140.3802448
11
18.8335927
21
140.5070448
0
LINE
8
DEFAULT_255_2_778
10
18.8335927
20
140.5070448
11
18.8112927
21
140.5829448
0
LINE
8
DEFAULT_255_2_778
10
18.8112927
20
140.5829448
11
18.7670927
21
140.6842448
0
LINE
8
DEFAULT_255_2_778
10
18.7670927
20
140.6842448
11
18.7009927
21
140.7604448
0
LINE
8
DEFAULT_255_2_778
10
18.7009927
20
140.7604448
11
18.5908927
21
140.8364448
0
LINE
8
DEFAULT_255_2_778
10
18.5908927
20
140.8364448
11
18.4583927
21
140.8615448
0
LINE
8
DEFAULT_255_2_778
10
18.4583927
20
140.8615448
11
18.3260927
21
140.8364448
0
LINE
8
DEFAULT_255_2_778
10
18.3260927
20
140.8364448
11
18.2157927
21
140.7604448
0
LINE
8
DEFAULT_255_2_778
10
18.2157927
20
140.7604448
11
18.1495927
21
140.6842448
0
LINE
8
DEFAULT_255_2_778
10
18.1495927
20
140.6842448
11
18.1053927
21
140.5829448
0
LINE
8
DEFAULT_255_2_778
10
18.1053927
20
140.5829448
11
18.0834927
21
140.5070448
0
LINE
8
DEFAULT_255_2_778
10
18.1717927
20
140.1776448
11
18.1937927
21
140.0254448
0
LINE
8
DEFAULT_255_2_778
10
18.1937927
20
140.0254448
11
18.2821927
21
139.8735448
0
LINE
8
DEFAULT_255_2_778
10
18.2821927
20
139.8735448
11
18.3482927
21
139.8230448
0
LINE
8
DEFAULT_255_2_778
10
18.3482927
20
139.8230448
11
18.4585927
21
139.7976448
0
LINE
8
DEFAULT_255_2_778
10
18.4585927
20
139.7976448
11
18.5689927
21
139.8230448
0
LINE
8
DEFAULT_255_2_778
10
18.5689927
20
139.8230448
11
18.6350927
21
139.8735448
0
LINE
8
DEFAULT_255_2_778
10
18.6350927
20
139.8735448
11
18.7234927
21
140.0254448
0
LINE
8
DEFAULT_255_2_778
10
18.7234927
20
140.0254448
11
18.7453927
21
140.1776448
0
LINE
8
DEFAULT_255_2_778
10
18.7453927
20
140.1776448
11
18.7453927
21
140.3551448
0
LINE
8
DEFAULT_255_2_778
10
18.7453927
20
140.3551448
11
18.7234927
21
140.5070448
0
LINE
8
DEFAULT_255_2_778
10
18.7234927
20
140.5070448
11
18.6350927
21
140.6591448
0
LINE
8
DEFAULT_255_2_778
10
18.6350927
20
140.6591448
11
18.5689927
21
140.7096448
0
LINE
8
DEFAULT_255_2_778
10
18.5689927
20
140.7096448
11
18.4585927
21
140.7348448
0
LINE
8
DEFAULT_255_2_778
10
18.4585927
20
140.7348448
11
18.3482927
21
140.7096448
0
LINE
8
DEFAULT_255_2_778
10
18.3482927
20
140.7096448
11
18.2821927
21
140.6591448
0
LINE
8
DEFAULT_255_2_778
10
18.2821927
20
140.6591448
11
18.1937927
21
140.5070448
0
LINE
8
DEFAULT_255_2_778
10
18.1937927
20
140.5070448
11
18.1717927
21
140.3551448
0
LINE
8
DEFAULT_255_2_778
10
18.1717927
20
140.3551448
11
18.1717927
21
140.1776448
0
LINE
8
DEFAULT_255_2_778
10
19.9355927
20
140.5070448
11
19.9135927
21
140.3802448
0
LINE
8
DEFAULT_255_2_778
10
19.9135927
20
140.3802448
11
19.9135927
21
140.1522448
0
LINE
8
DEFAULT_255_2_778
10
19.9135927
20
140.1522448
11
19.9355927
21
140.0254448
0
LINE
8
DEFAULT_255_2_778
10
19.9355927
20
140.0254448
11
19.9574927
21
139.9495448
0
LINE
8
DEFAULT_255_2_778
10
19.9574927
20
139.9495448
11
20.0016927
21
139.8481448
0
LINE
8
DEFAULT_255_2_778
10
20.0016927
20
139.8481448
11
20.0678927
21
139.7719448
0
LINE
8
DEFAULT_255_2_778
10
20.0678927
20
139.7719448
11
20.1781927
21
139.6960448
0
LINE
8
DEFAULT_255_2_778
10
20.1781927
20
139.6960448
11
20.3104927
21
139.6706448
0
LINE
8
DEFAULT_255_2_778
10
20.3104927
20
139.6706448
11
20.4429927
21
139.6960448
0
LINE
8
DEFAULT_255_2_778
10
20.4429927
20
139.6960448
11
20.5530927
21
139.7719448
0
LINE
8
DEFAULT_255_2_778
10
20.5530927
20
139.7719448
11
20.6191927
21
139.8481448
0
LINE
8
DEFAULT_255_2_778
10
20.6191927
20
139.8481448
11
20.6633927
21
139.9495448
0
LINE
8
DEFAULT_255_2_778
10
20.6633927
20
139.9495448
11
20.6856927
21
140.0254448
0
LINE
8
DEFAULT_255_2_778
10
20.6856927
20
140.0254448
11
20.7075927
21
140.1522448
0
LINE
8
DEFAULT_255_2_778
10
20.7075927
20
140.1522448
11
20.7075927
21
140.3802448
0
LINE
8
DEFAULT_255_2_778
10
20.7075927
20
140.3802448
11
20.6856927
21
140.5070448
0
LINE
8
DEFAULT_255_2_778
10
20.6856927
20
140.5070448
11
20.6633927
21
140.5829448
0
LINE
8
DEFAULT_255_2_778
10
20.6633927
20
140.5829448
11
20.6191927
21
140.6842448
0
LINE
8
DEFAULT_255_2_778
10
20.6191927
20
140.6842448
11
20.5530927
21
140.7604448
0
LINE
8
DEFAULT_255_2_778
10
20.5530927
20
140.7604448
11
20.4429927
21
140.8364448
0
LINE
8
DEFAULT_255_2_778
10
20.4429927
20
140.8364448
11
20.3104927
21
140.8615448
0
LINE
8
DEFAULT_255_2_778
10
20.3104927
20
140.8615448
11
20.1781927
21
140.8364448
0
LINE
8
DEFAULT_255_2_778
10
20.1781927
20
140.8364448
11
20.0678927
21
140.7604448
0
LINE
8
DEFAULT_255_2_778
10
20.0678927
20
140.7604448
11
20.0016927
21
140.6842448
0
LINE
8
DEFAULT_255_2_778
10
20.0016927
20
140.6842448
11
19.9574927
21
140.5829448
0
LINE
8
DEFAULT_255_2_778
10
19.9574927
20
140.5829448
11
19.9355927
21
140.5070448
0
LINE
8
DEFAULT_255_2_778
10
20.0238927
20
140.1776448
11
20.0458927
21
140.0254448
0
LINE
8
DEFAULT_255_2_778
10
20.0458927
20
140.0254448
11
20.1342927
21
139.8735448
0
LINE
8
DEFAULT_255_2_778
10
20.1342927
20
139.8735448
11
20.2003927
21
139.8230448
0
LINE
8
DEFAULT_255_2_778
10
20.2003927
20
139.8230448
11
20.3106927
21
139.7976448
0
LINE
8
DEFAULT_255_2_778
10
20.3106927
20
139.7976448
11
20.4210927
21
139.8230448
0
LINE
8
DEFAULT_255_2_778
10
20.4210927
20
139.8230448
11
20.4871927
21
139.8735448
0
LINE
8
DEFAULT_255_2_778
10
20.4871927
20
139.8735448
11
20.5755927
21
140.0254448
0
LINE
8
DEFAULT_255_2_778
10
20.5755927
20
140.0254448
11
20.5974927
21
140.1776448
0
LINE
8
DEFAULT_255_2_778
10
20.5974927
20
140.1776448
11
20.5974927
21
140.3551448
0
LINE
8
DEFAULT_255_2_778
10
20.5974927
20
140.3551448
11
20.5755927
21
140.5070448
0
LINE
8
DEFAULT_255_2_778
10
20.5755927
20
140.5070448
11
20.4871927
21
140.6591448
0
LINE
8
DEFAULT_255_2_778
10
20.4871927
20
140.6591448
11
20.4210927
21
140.7096448
0
LINE
8
DEFAULT_255_2_778
10
20.4210927
20
140.7096448
11
20.3106927
21
140.7348448
0
LINE
8
DEFAULT_255_2_778
10
20.3106927
20
140.7348448
11
20.2003927
21
140.7096448
0
LINE
8
DEFAULT_255_2_778
10
20.2003927
20
140.7096448
11
20.1342927
21
140.6591448
0
LINE
8
DEFAULT_255_2_778
10
20.1342927
20
140.6591448
11
20.0458927
21
140.5070448
0
LINE
8
DEFAULT_255_2_778
10
20.0458927
20
140.5070448
11
20.0238927
21
140.3551448
0
LINE
8
DEFAULT_255_2_778
10
20.0238927
20
140.3551448
11
20.0238927
21
140.1776448
0
LINE
8
DEFAULT_255_2_778
10
22.9782927
20
140.5070448
11
22.9562927
21
140.3802448
0
LINE
8
DEFAULT_255_2_778
10
22.9562927
20
140.3802448
11
22.9562927
21
140.1522448
0
LINE
8
DEFAULT_255_2_778
10
22.9562927
20
140.1522448
11
22.9782927
21
140.0254448
0
LINE
8
DEFAULT_255_2_778
10
22.9782927
20
140.0254448
11
23.0001927
21
139.9495448
0
LINE
8
DEFAULT_255_2_778
10
23.0001927
20
139.9495448
11
23.0443927
21
139.8481448
0
LINE
8
DEFAULT_255_2_778
10
23.0443927
20
139.8481448
11
23.1105927
21
139.7719448
0
LINE
8
DEFAULT_255_2_778
10
23.1105927
20
139.7719448
11
23.2208927
21
139.6960448
0
LINE
8
DEFAULT_255_2_778
10
23.2208927
20
139.6960448
11
23.3531927
21
139.6706448
0
LINE
8
DEFAULT_255_2_778
10
23.3531927
20
139.6706448
11
23.4856927
21
139.6960448
0
LINE
8
DEFAULT_255_2_778
10
23.4856927
20
139.6960448
11
23.5957927
21
139.7719448
0
LINE
8
DEFAULT_255_2_778
10
23.5957927
20
139.7719448
11
23.6618927
21
139.8481448
0
LINE
8
DEFAULT_255_2_778
10
23.6618927
20
139.8481448
11
23.7060927
21
139.9495448
0
LINE
8
DEFAULT_255_2_778
10
23.7060927
20
139.9495448
11
23.7283927
21
140.0254448
0
LINE
8
DEFAULT_255_2_778
10
23.7283927
20
140.0254448
11
23.7502927
21
140.1522448
0
LINE
8
DEFAULT_255_2_778
10
23.7502927
20
140.1522448
11
23.7502927
21
140.3802448
0
LINE
8
DEFAULT_255_2_778
10
23.7502927
20
140.3802448
11
23.7283927
21
140.5070448
0
LINE
8
DEFAULT_255_2_778
10
23.7283927
20
140.5070448
11
23.7060927
21
140.5829448
0
LINE
8
DEFAULT_255_2_778
10
23.7060927
20
140.5829448
11
23.6618927
21
140.6842448
0
LINE
8
DEFAULT_255_2_778
10
23.6618927
20
140.6842448
11
23.5957927
21
140.7604448
0
LINE
8
DEFAULT_255_2_778
10
23.5957927
20
140.7604448
11
23.4856927
21
140.8364448
0
LINE
8
DEFAULT_255_2_778
10
23.4856927
20
140.8364448
11
23.3531927
21
140.8615448
0
LINE
8
DEFAULT_255_2_778
10
23.3531927
20
140.8615448
11
23.2208927
21
140.8364448
0
LINE
8
DEFAULT_255_2_778
10
23.2208927
20
140.8364448
11
23.1105927
21
140.7604448
0
LINE
8
DEFAULT_255_2_778
10
23.1105927
20
140.7604448
11
23.0443927
21
140.6842448
0
LINE
8
DEFAULT_255_2_778
10
23.0443927
20
140.6842448
11
23.0001927
21
140.5829448
0
LINE
8
DEFAULT_255_2_778
10
23.0001927
20
140.5829448
11
22.9782927
21
140.5070448
0
LINE
8
DEFAULT_255_2_778
10
23.0665927
20
140.1776448
11
23.0885927
21
140.0254448
0
LINE
8
DEFAULT_255_2_778
10
23.0885927
20
140.0254448
11
23.1769927
21
139.8735448
0
LINE
8
DEFAULT_255_2_778
10
23.1769927
20
139.8735448
11
23.2430927
21
139.8230448
0
LINE
8
DEFAULT_255_2_778
10
23.2430927
20
139.8230448
11
23.3533927
21
139.7976448
0
LINE
8
DEFAULT_255_2_778
10
23.3533927
20
139.7976448
11
23.4637927
21
139.8230448
0
LINE
8
DEFAULT_255_2_778
10
23.4637927
20
139.8230448
11
23.5298927
21
139.8735448
0
LINE
8
DEFAULT_255_2_778
10
23.5298927
20
139.8735448
11
23.6182927
21
140.0254448
0
LINE
8
DEFAULT_255_2_778
10
23.6182927
20
140.0254448
11
23.6401927
21
140.1776448
0
LINE
8
DEFAULT_255_2_778
10
23.6401927
20
140.1776448
11
23.6401927
21
140.3551448
0
LINE
8
DEFAULT_255_2_778
10
23.6401927
20
140.3551448
11
23.6182927
21
140.5070448
0
LINE
8
DEFAULT_255_2_778
10
23.6182927
20
140.5070448
11
23.5298927
21
140.6591448
0
LINE
8
DEFAULT_255_2_778
10
23.5298927
20
140.6591448
11
23.4637927
21
140.7096448
0
LINE
8
DEFAULT_255_2_778
10
23.4637927
20
140.7096448
11
23.3533927
21
140.7348448
0
LINE
8
DEFAULT_255_2_778
10
23.3533927
20
140.7348448
11
23.2430927
21
140.7096448
0
LINE
8
DEFAULT_255_2_778
10
23.2430927
20
140.7096448
11
23.1769927
21
140.6591448
0
LINE
8
DEFAULT_255_2_778
10
23.1769927
20
140.6591448
11
23.0885927
21
140.5070448
0
LINE
8
DEFAULT_255_2_778
10
23.0885927
20
140.5070448
11
23.0665927
21
140.3551448
0
LINE
8
DEFAULT_255_2_778
10
23.0665927
20
140.3551448
11
23.0665927
21
140.1776448
0
ARC
8
DEFAULT_255_2_778
10
15.993893
20
140.2681629
40
0.9431971
50
345.7068143
51
0.7590727
0
ARC
8
DEFAULT_255_2_778
10
16.3916757
20
140.1650374
40
0.5322705
50
320.8599113
51
345.8927385
0
ARC
8
DEFAULT_255_2_778
10
16.4643805
20
140.1208418
40
0.4481337
50
272.174327
51
319.3747998
0
ARC
8
DEFAULT_255_2_778
10
16.4258425
20
140.3817339
40
0.710876
50
269.940745
51
274.4810478
0
ARC
8
DEFAULT_255_2_778
10
16.3869523
20
140.0831279
40
0.7837324
50
73.8105121
51
90.9244696
0
ARC
8
DEFAULT_255_2_778
10
16.483586
20
140.4131126
40
0.4398909
50
44.4127952
51
73.9143291
0
ARC
8
DEFAULT_255_2_778
10
16.4369565
20
140.3910847
40
0.4889068
50
11.0101857
51
42.4321548
0
ARC
8
DEFAULT_255_2_778
10
16.007705
20
140.2903488
40
0.9296498
50
359.4212406
51
12.0519244
0
ARC
8
DEFAULT_255_2_778
10
15.9974
20
140.2928968
40
0.7738041
50
359.0937722
51
13.5924029
0
ARC
8
DEFAULT_255_2_778
10
16.4084938
20
140.3957952
40
0.3500584
50
13.0352577
51
40.1390169
0
ARC
8
DEFAULT_255_2_778
10
16.441683
20
140.3998552
40
0.3225875
50
43.3895577
51
82.8047369
0
ARC
8
DEFAULT_255_2_778
10
16.3787349
20
140.0934343
40
0.6349362
50
80.6319222
51
90.354426
0
ARC
8
DEFAULT_255_2_778
10
16.42377
20
140.1741968
40
0.3651904
50
267.8716183
51
300.4800395
0
ARC
8
DEFAULT_255_2_778
10
16.4613856
20
140.0923022
40
0.2756841
50
302.3763772
51
323.2252756
0
ARC
8
DEFAULT_255_2_778
10
16.3278127
20
140.1780781
40
0.4341729
50
324.7113683
51
350.8287562
0
ARC
8
DEFAULT_255_2_778
10
15.8549432
20
140.2724063
40
0.916204
50
349.7184446
51
0.534819
0
LINE
8
DEFAULT_255_2_778
10
16.4251073
20
139.6708583
11
16.1057073
21
139.6708583
0
LINE
8
DEFAULT_255_2_778
10
16.1057073
20
139.6708583
11
16.1057073
21
140.8667583
0
LINE
8
DEFAULT_255_2_778
10
16.1057073
20
140.8667583
11
16.3743073
21
140.8667583
0
LINE
8
DEFAULT_255_2_778
10
16.9373073
20
140.2809583
11
16.9370073
21
140.2806583
0
LINE
8
DEFAULT_255_2_778
10
16.3748073
20
140.7283583
11
16.2703073
21
140.7283583
0
LINE
8
DEFAULT_255_2_778
10
16.2703073
20
140.7283583
11
16.2703073
21
139.8092583
0
LINE
8
DEFAULT_255_2_778
10
16.2703073
20
139.8092583
11
16.4102073
21
139.8092583
0
LINE
8
DEFAULT_255_2_778
10
16.7711073
20
140.2809583
11
16.7711073
21
140.2806583
0
ARC
8
DEFAULT_255_2_778
10
6.5419196
20
144.9021681
40
0.3875211
50
309.9634759
51
355.2756407
0
ARC
8
DEFAULT_255_2_778
10
6.5220116
20
144.9549913
40
0.4411897
50
273.24784
51
307.5381868
0
ARC
8
DEFAULT_255_2_778
10
6.4843761
20
145.223765
40
0.7120148
50
269.9153484
51
275.0464515
0
ARC
8
DEFAULT_255_2_778
10
6.4651934
20
144.9400535
40
0.428686
50
222.7154379
51
272.4239734
0
ARC
8
DEFAULT_255_2_778
10
6.5212487
20
144.9754635
40
0.4940383
50
183.6260035
51
221.3225941
0
ARC
8
DEFAULT_255_2_778
10
6.7936159
20
145.0161883
40
0.7687925
50
179.9133449
51
185.3715367
0
ARC
8
DEFAULT_255_2_778
10
6.5995149
20
145.1340239
40
0.5748261
50
153.8957124
51
181.243329
0
ARC
8
DEFAULT_255_2_778
10
6.4549089
20
145.2032307
40
0.4145219
50
119.7965332
51
153.6911255
0
ARC
8
DEFAULT_255_2_778
10
6.4867402
20
145.1331713
40
0.4911895
50
88.7886626
51
118.9576942
0
ARC
8
DEFAULT_255_2_778
10
6.5105512
20
145.1270884
40
0.4973439
50
64.3916557
51
91.5470348
0
ARC
8
DEFAULT_255_2_778
10
6.5602244
20
145.2503916
40
0.3647822
50
49.5428122
51
63.0564604
0
ARC
8
DEFAULT_255_2_778
10
6.5381862
20
145.2350467
40
0.3908174
50
3.8445681
51
48.5441306
0
ARC
8
DEFAULT_255_2_778
10
6.4181018
20
145.2188148
40
0.3569538
50
6.8277271
51
32.4566815
0
ARC
8
DEFAULT_255_2_778
10
6.5529343
20
145.2965683
40
0.2015681
50
34.3760759
51
48.9814891
0
ARC
8
DEFAULT_255_2_778
10
6.5203023
20
145.2403917
40
0.2656523
50
51.6240778
51
90.2116659
0
ARC
8
DEFAULT_255_2_778
10
6.4973521
20
145.0320687
40
0.4744823
50
87.3462302
51
90.0275353
0
ARC
8
DEFAULT_255_2_778
10
6.4833056
20
145.2202225
40
0.2866618
50
87.2370003
51
139.7475203
0
ARC
8
DEFAULT_255_2_778
10
6.5611892
20
145.1732921
40
0.3767067
50
141.9545984
51
174.2803903
0
ARC
8
DEFAULT_255_2_778
10
6.8717719
20
145.1204078
40
0.6913533
50
172.4843507
51
180.2284708
0
ARC
8
DEFAULT_255_2_778
10
6.7042985
20
144.9998998
40
0.5240345
50
178.5838194
51
201.8276528
0
ARC
8
DEFAULT_255_2_778
10
6.5322476
20
144.9389145
40
0.3417223
50
203.0614902
51
217.1912649
0
ARC
8
DEFAULT_255_2_778
10
6.4709886
20
144.8935908
40
0.2655265
50
217.3906104
51
272.6627232
0
ARC
8
DEFAULT_255_2_778
10
6.4957297
20
144.9993138
40
0.3711702
50
268.0846494
51
292.9302643
0
ARC
8
DEFAULT_255_2_778
10
6.5519752
20
144.8487228
40
0.2106772
50
294.7992077
51
307.8424921
0
ARC
8
DEFAULT_255_2_778
10
6.5198112
20
144.8685166
40
0.2463975
50
310.9265872
51
346.7099256
0
ARC
8
DEFAULT_255_2_778
10
6.2583077
20
144.9560337
40
0.5216183
50
343.9563682
51
350.5344316
0
ARC
8
DEFAULT_255_2_778
10
9.4337359
20
145.0552849
40
0.5543119
50
69.3611315
51
91.3140578
0
ARC
8
DEFAULT_255_2_778
10
9.5000348
20
145.2489064
40
0.3498031
50
50.4814846
51
68.3450379
0
ARC
8
DEFAULT_255_2_778
10
9.5352052
20
145.2884965
40
0.2968889
50
358.0609903
51
50.8556588
0
ARC
8
DEFAULT_255_2_778
10
9.5398083
20
145.2620376
40
0.2925766
50
309.2755626
51
3.2159629
0
ARC
8
DEFAULT_255_2_778
10
9.4841566
20
145.357172
40
0.4018173
50
276.5272204
51
306.8301703
0
ARC
8
DEFAULT_255_2_778
10
9.4228418
20
145.7055411
40
0.7551992
50
269.7179447
51
278.144684
0
ARC
8
DEFAULT_255_2_778
10
9.4338034
20
145.4066683
40
0.3395466
50
267.89375
51
294.7705038
0
ARC
8
DEFAULT_255_2_778
10
9.4862272
20
145.275761
40
0.1988511
50
296.8592522
51
309.0578053
0
ARC
8
DEFAULT_255_2_778
10
9.488588
20
145.26543
40
0.1893992
50
310.4726415
51
3.5480361
0
ARC
8
DEFAULT_255_2_778
10
9.4817116
20
145.2850083
40
0.19607
50
357.7033232
51
48.5418916
0
ARC
8
DEFAULT_255_2_778
10
9.441339
20
145.2211508
40
0.2709237
50
51.0850595
51
90.819541
0
ARC
8
DEFAULT_255_2_778
10
9.420716
20
145.0313813
40
0.4609699
50
87.9178686
51
88.8056799
0
ARC
8
DEFAULT_255_2_778
10
11.4596359
20
145.0552849
40
0.5543119
50
69.3611315
51
91.3140578
0
ARC
8
DEFAULT_255_2_778
10
11.5259348
20
145.2489064
40
0.3498031
50
50.4814846
51
68.3450379
0
ARC
8
DEFAULT_255_2_778
10
11.5611052
20
145.2884965
40
0.2968889
50
358.0609903
51
50.8556588
0
ARC
8
DEFAULT_255_2_778
10
11.5657083
20
145.2620376
40
0.2925766
50
309.2755626
51
3.2159629
0
ARC
8
DEFAULT_255_2_778
10
11.5099672
20
145.3573099
40
0.4019813
50
276.4963953
51
306.8285985
0
ARC
8
DEFAULT_255_2_778
10
11.4488146
20
145.7053942
40
0.7550522
50
269.7199554
51
278.1188006
0
ARC
8
DEFAULT_255_2_778
10
11.4597489
20
145.4066093
40
0.3394894
50
267.8857095
51
294.7733216
0
ARC
8
DEFAULT_255_2_778
10
11.5123941
20
145.2752059
40
0.1982519
50
296.8723982
51
309.0990059
0
ARC
8
DEFAULT_255_2_778
10
11.5147163
20
145.2654543
40
0.1892696
50
310.4152759
51
3.5430851
0
ARC
8
DEFAULT_255_2_778
10
11.5078475
20
145.2849826
40
0.1959331
50
357.7092331
51
48.5985769
0
ARC
8
DEFAULT_255_2_778
10
11.4673354
20
145.2214291
40
0.2706467
50
51.0639271
51
90.839497
0
ARC
8
DEFAULT_255_2_778
10
11.4466102
20
145.0306762
40
0.4616749
50
87.9195883
51
88.806795
0
ARC
8
DEFAULT_255_2_778
10
12.8641023
20
144.9760726
40
0.6335013
50
72.9125798
51
91.1286409
0
ARC
8
DEFAULT_255_2_778
10
12.9438199
20
145.2477124
40
0.3504477
50
52.6101549
51
72.3211475
0
ARC
8
DEFAULT_255_2_778
10
12.9746953
20
145.3013856
40
0.289167
50
356.5036952
51
51.0127193
0
ARC
8
DEFAULT_255_2_778
10
12.9874238
20
145.2785264
40
0.2759498
50
321.7138879
51
1.0848569
0
ARC
8
DEFAULT_255_2_778
10
12.9311942
20
145.3311556
40
0.3527537
50
287.8332297
51
320.6628146
0
ARC
8
DEFAULT_255_2_778
10
12.8695189
20
145.373206
40
0.2921622
50
267.3722213
51
302.9692771
0
ARC
8
DEFAULT_255_2_778
10
12.9061149
20
145.3011849
40
0.211994
50
305.2646209
51
308.9641644
0
ARC
8
DEFAULT_255_2_778
10
12.9275318
20
145.2773555
40
0.1800059
50
308.4333095
51
2.0361308
0
ARC
8
DEFAULT_255_2_778
10
12.9196492
20
145.2953725
40
0.1881342
50
356.4584562
51
49.182237
0
ARC
8
DEFAULT_255_2_778
10
12.8844192
20
145.2271712
40
0.2633869
50
53.0831177
51
88.3078907
0
ARC
8
DEFAULT_255_2_778
10
12.8530994
20
144.9859414
40
0.5060145
50
85.568622
51
89.7481
0
ARC
8
DEFAULT_255_2_778
10
14.0991296
20
146.0848201
40
1.1098468
50
245.8437971
51
255.7439777
0
ARC
8
DEFAULT_255_2_778
10
13.8399797
20
145.5114262
40
0.4806159
50
230.7857954
51
246.0595144
0
ARC
8
DEFAULT_255_2_778
10
13.6849734
20
145.3268817
40
0.2396591
50
179.4813759
51
231.604404
0
ARC
8
DEFAULT_255_2_778
10
13.7005146
20
145.3301666
40
0.2551929
50
124.4312722
51
180.2504737
0
ARC
8
DEFAULT_255_2_778
10
13.8122024
20
145.1834695
40
0.4394355
50
92.1425805
51
125.6277203
0
ARC
8
DEFAULT_255_2_778
10
13.843703
20
144.9288394
40
0.695412
50
89.9488278
51
93.9520964
0
ARC
8
DEFAULT_255_2_778
10
13.8534786
20
145.1092447
40
0.5150877
50
66.3720005
51
91.0183559
0
ARC
8
DEFAULT_255_2_778
10
13.9239728
20
145.264034
40
0.3450304
50
35.0234667
51
66.7947013
0
ARC
8
DEFAULT_255_2_778
10
13.9707506
20
145.2972243
40
0.2876751
50
359.8061525
51
34.9569832
0
ARC
8
DEFAULT_255_2_778
10
13.9135631
20
145.3051194
40
0.1894686
50
357.3172154
51
50.0895962
0
ARC
8
DEFAULT_255_2_778
10
13.8708236
20
145.2337401
40
0.2719527
50
52.8322418
51
89.3345921
0
ARC
8
DEFAULT_255_2_778
10
13.844436
20
145.008281
40
0.4982702
50
86.6005361
51
90.0473605
0
ARC
8
DEFAULT_255_2_778
10
13.8315581
20
145.1748337
40
0.3319515
50
87.8478329
51
114.9575267
0
ARC
8
DEFAULT_255_2_778
10
13.7815967
20
145.3002959
40
0.1972718
50
117.1777171
51
125.9709626
0
ARC
8
DEFAULT_255_2_778
10
13.7522461
20
145.336645
40
0.1506335
50
125.0567625
51
182.2043524
0
ARC
8
DEFAULT_255_2_778
10
13.7378675
20
145.3323559
40
0.1361517
50
180.6332966
51
236.4009099
0
ARC
8
DEFAULT_255_2_778
10
13.8946687
20
145.5525439
40
0.4064176
50
235.1662581
51
251.3868667
0
ARC
8
DEFAULT_255_2_778
10
14.1419548
20
146.2131432
40
1.1116409
50
250.1753337
51
255.824613
0
ARC
8
DEFAULT_255_2_778
10
13.5661453
20
143.9127533
40
1.2597243
50
68.0238776
51
76.0551216
0
ARC
8
DEFAULT_255_2_778
10
13.8042548
20
144.5145039
40
0.6126073
50
61.2807152
51
67.6143415
0
ARC
8
DEFAULT_255_2_778
10
13.9434098
20
144.7496999
40
0.3395974
50
35.1373105
51
62.8028418
0
ARC
8
DEFAULT_255_2_778
10
14.0039175
20
144.8074517
40
0.2571766
50
358.6630006
51
32.3728825
0
ARC
8
DEFAULT_255_2_778
10
14.0139936
20
144.796871
40
0.2470729
50
303.3782218
51
1.062157
0
ARC
8
DEFAULT_255_2_778
10
13.9002664
20
144.9616542
40
0.4472656
50
274.5466381
51
303.930487
0
ARC
8
DEFAULT_255_2_778
10
13.8544369
20
145.273522
40
0.7620733
50
269.8561875
51
276.1229454
0
ARC
8
DEFAULT_255_2_778
10
13.8477303
20
145.1013927
40
0.5899611
50
248.01017
51
270.4655655
0
ARC
8
DEFAULT_255_2_778
10
13.7594179
20
144.9074379
40
0.3771624
50
218.7134076
51
249.4174666
0
ARC
8
DEFAULT_255_2_778
10
13.6789606
20
144.8374619
40
0.270652
50
179.3883734
51
217.8070675
0
ARC
8
DEFAULT_255_2_778
10
13.7451073
20
144.8347538
40
0.1813696
50
178.2315269
51
235.5175053
0
ARC
8
DEFAULT_255_2_778
10
13.827207
20
144.960732
40
0.3317144
50
236.1476912
51
269.4725538
0
ARC
8
DEFAULT_255_2_778
10
13.8519207
20
145.1948863
40
0.5665355
50
267.19066
51
270.0306819
0
ARC
8
DEFAULT_255_2_778
10
13.8644161
20
145.014007
40
0.3858486
50
268.1892713
51
290.7612583
0
ARC
8
DEFAULT_255_2_778
10
13.9233425
20
144.8405845
40
0.2028996
50
292.5614242
51
305.0355402
0
ARC
8
DEFAULT_255_2_778
10
13.959636
20
144.7960351
40
0.1456462
50
303.4059446
51
1.6193619
0
ARC
8
DEFAULT_255_2_778
10
13.9628576
20
144.8065709
40
0.1425111
50
357.4180504
51
54.8892807
0
ARC
8
DEFAULT_255_2_778
10
13.812659
20
144.5734592
40
0.4197439
50
56.4192838
51
70.9815227
0
ARC
8
DEFAULT_255_2_778
10
13.489454
20
143.7130683
40
1.3387299
50
69.9036108
51
75.4478784
0
ARC
8
DEFAULT_255_2_778
10
14.6606415
20
145.9467667
40
1.2882757
50
315.5964911
51
321.7420129
0
ARC
8
DEFAULT_255_2_778
10
15.2965949
20
145.4434612
40
0.4772592
50
321.9132495
51
329.0555293
0
ARC
8
DEFAULT_255_2_778
10
15.5028013
20
145.321178
40
0.237527
50
328.7770111
51
359.6557958
0
ARC
8
DEFAULT_255_2_778
10
15.5556162
20
145.3257293
40
0.1848047
50
358.1461988
51
45.7703344
0
ARC
8
DEFAULT_255_2_778
10
15.5456313
20
145.3074193
40
0.2049665
50
47.3407696
51
92.742525
0
ARC
8
DEFAULT_255_2_778
10
15.52226
20
145.2617295
40
0.2507886
50
86.8996112
51
126.679388
0
ARC
8
DEFAULT_255_2_778
10
15.4904341
20
145.3183061
40
0.1865872
50
129.2200652
51
133.2768068
0
ARC
8
DEFAULT_255_2_778
10
15.5108467
20
145.3046741
40
0.2105776
50
134.7779085
51
183.3276332
0
ARC
8
DEFAULT_255_2_778
10
15.4548677
20
145.3030675
40
0.3039291
50
130.9121811
51
182.0017879
0
ARC
8
DEFAULT_255_2_778
10
15.5064681
20
145.231918
40
0.3915647
50
91.3576017
51
129.7999344
0
ARC
8
DEFAULT_255_2_778
10
15.5355951
20
144.9981406
40
0.6264108
50
89.9607604
51
93.5149014
0
ARC
8
DEFAULT_255_2_778
10
15.549113
20
145.1751098
40
0.4496318
50
65.3729552
51
91.6681281
0
ARC
8
DEFAULT_255_2_778
10
15.6027891
20
145.3112991
40
0.3035673
50
50.5629559
51
63.8708339
0
ARC
8
DEFAULT_255_2_778
10
15.6330431
20
145.3451179
40
0.2582368
50
358.0100835
51
50.9807612
0
ARC
8
DEFAULT_255_2_778
10
15.5523873
20
145.349175
40
0.3389871
50
328.8761655
51
357.7981433
0
ARC
8
DEFAULT_255_2_778
10
15.1039018
20
145.5989728
40
0.8522215
50
317.3775527
51
330.0849009
0
ARC
8
DEFAULT_255_2_778
10
14.6234762
20
146.0154047
40
1.4878471
50
314.68397
51
318.1055176
0
LINE
8
DEFAULT_255_2_778
10
6.7725241
20
144.870251
11
6.9281241
21
144.870251
0
LINE
8
DEFAULT_255_2_778
10
6.0248241
20
145.017351
11
6.0248241
21
145.121551
0
LINE
8
DEFAULT_255_2_778
10
6.9281241
20
145.261251
11
6.7725241
21
145.261251
0
LINE
8
DEFAULT_255_2_778
10
6.1804241
20
145.117651
11
6.1804241
21
145.012851
0
LINE
8
DEFAULT_255_2_778
10
6.7728241
20
144.870251
11
6.7725241
21
144.870251
0
LINE
8
DEFAULT_255_2_778
10
7.1392241
20
145.609451
11
7.3390241
21
145.609451
0
LINE
8
DEFAULT_255_2_778
10
7.3390241
20
145.609451
11
7.7226241
21
144.726051
0
LINE
8
DEFAULT_255_2_778
10
7.7226241
20
144.726051
11
8.1063241
21
145.609451
0
LINE
8
DEFAULT_255_2_778
10
8.1063241
20
145.609451
11
8.3068241
21
145.609451
0
LINE
8
DEFAULT_255_2_778
10
8.3068241
20
145.609451
11
8.3068241
21
144.526751
0
LINE
8
DEFAULT_255_2_778
10
8.3068241
20
144.526751
11
8.1520241
21
144.526751
0
LINE
8
DEFAULT_255_2_778
10
8.1520241
20
144.526751
11
8.1520241
21
144.948251
0
LINE
8
DEFAULT_255_2_778
10
8.1520241
20
144.948251
11
8.1666241
21
145.403351
0
LINE
8
DEFAULT_255_2_778
10
8.1666241
20
145.403351
11
7.7814241
21
144.526551
0
LINE
8
DEFAULT_255_2_778
10
7.7814241
20
144.526551
11
7.6628241
21
144.526551
0
LINE
8
DEFAULT_255_2_778
10
7.6628241
20
144.526551
11
7.2784241
21
145.400951
0
LINE
8
DEFAULT_255_2_778
10
7.2784241
20
145.400951
11
7.2937241
21
144.948051
0
LINE
8
DEFAULT_255_2_778
10
7.2937241
20
144.948051
11
7.2937241
21
144.526251
0
LINE
8
DEFAULT_255_2_778
10
7.2937241
20
144.526251
11
7.1390241
21
144.526251
0
LINE
8
DEFAULT_255_2_778
10
7.1390241
20
144.526251
11
7.1390241
21
145.609451
0
LINE
8
DEFAULT_255_2_778
10
7.1390241
20
145.609451
11
7.1392241
21
145.609451
0
LINE
8
DEFAULT_255_2_778
10
9.4194241
20
144.950651
11
9.1429241
21
144.950651
0
LINE
8
DEFAULT_255_2_778
10
9.1429241
20
144.950651
11
9.1429241
21
144.526751
0
LINE
8
DEFAULT_255_2_778
10
9.1429241
20
144.526751
11
8.9881241
21
144.526751
0
LINE
8
DEFAULT_255_2_778
10
8.9881241
20
144.526751
11
8.9881241
21
145.609451
0
LINE
8
DEFAULT_255_2_778
10
8.9881241
20
145.609451
11
9.4210241
21
145.609451
0
LINE
8
DEFAULT_255_2_778
10
9.4191241
20
144.950351
11
9.4194241
21
144.950651
0
LINE
8
DEFAULT_255_2_778
10
9.1432241
20
145.491951
11
9.1432241
21
145.067351
0
LINE
8
DEFAULT_255_2_778
10
9.1432241
20
145.067351
11
9.4213241
21
145.067351
0
LINE
8
DEFAULT_255_2_778
10
9.4303241
20
145.492251
11
9.1434241
21
145.492251
0
LINE
8
DEFAULT_255_2_778
10
9.1434241
20
145.492251
11
9.1432241
21
145.491951
0
LINE
8
DEFAULT_255_2_778
10
10.8402241
20
145.609451
11
10.8402241
21
145.491951
0
LINE
8
DEFAULT_255_2_778
10
10.8402241
20
145.491951
11
10.4632241
21
145.491951
0
LINE
8
DEFAULT_255_2_778
10
10.4632241
20
145.491951
11
10.4632241
21
144.526751
0
LINE
8
DEFAULT_255_2_778
10
10.4632241
20
144.526751
11
10.3092241
21
144.526751
0
LINE
8
DEFAULT_255_2_778
10
10.3092241
20
144.526751
11
10.3092241
21
145.491951
0
LINE
8
DEFAULT_255_2_778
10
10.3092241
20
145.491951
11
9.9330241
21
145.491951
0
LINE
8
DEFAULT_255_2_778
10
9.9330241
20
145.491951
11
9.9330241
21
145.609451
0
LINE
8
DEFAULT_255_2_778
10
9.9330241
20
145.609451
11
10.8402241
21
145.609451
0
LINE
8
DEFAULT_255_2_778
10
10.8402241
20
145.609451
11
10.8402241
21
145.609451
0
LINE
8
DEFAULT_255_2_778
10
11.4453241
20
144.950651
11
11.1688241
21
144.950651
0
LINE
8
DEFAULT_255_2_778
10
11.1688241
20
144.950651
11
11.1688241
21
144.526751
0
LINE
8
DEFAULT_255_2_778
10
11.1688241
20
144.526751
11
11.0140241
21
144.526751
0
LINE
8
DEFAULT_255_2_778
10
11.0140241
20
144.526751
11
11.0140241
21
145.609451
0
LINE
8
DEFAULT_255_2_778
10
11.0140241
20
145.609451
11
11.4469241
21
145.609451
0
LINE
8
DEFAULT_255_2_778
10
11.4451241
20
144.950351
11
11.4453241
21
144.950651
0
LINE
8
DEFAULT_255_2_778
10
11.1691241
20
145.491951
11
11.1691241
21
145.067351
0
LINE
8
DEFAULT_255_2_778
10
11.1691241
20
145.067351
11
11.4472241
21
145.067351
0
LINE
8
DEFAULT_255_2_778
10
11.4562241
20
145.492251
11
11.1694241
21
145.492251
0
LINE
8
DEFAULT_255_2_778
10
11.1694241
20
145.492251
11
11.1691241
21
145.491951
0
LINE
8
DEFAULT_255_2_778
10
13.1487241
20
144.526751
11
12.8942241
21
144.964651
0
LINE
8
DEFAULT_255_2_778
10
12.8942241
20
144.964651
11
12.6187241
21
144.964651
0
LINE
8
DEFAULT_255_2_778
10
12.6187241
20
144.964651
11
12.6187241
21
144.526751
0
LINE
8
DEFAULT_255_2_778
10
12.6187241
20
144.526751
11
12.4632241
21
144.526751
0
LINE
8
DEFAULT_255_2_778
10
12.4632241
20
144.526751
11
12.4632241
21
145.609451
0
LINE
8
DEFAULT_255_2_778
10
12.4632241
20
145.609451
11
12.8516241
21
145.609451
0
LINE
8
DEFAULT_255_2_778
10
13.0392241
20
144.995351
11
13.3146241
21
144.535751
0
LINE
8
DEFAULT_255_2_778
10
13.3146241
20
144.535751
11
13.3146241
21
144.526751
0
LINE
8
DEFAULT_255_2_778
10
13.3146241
20
144.526751
11
13.1487241
21
144.526751
0
LINE
8
DEFAULT_255_2_778
10
13.1487241
20
144.526751
11
13.1487241
21
144.526751
0
LINE
8
DEFAULT_255_2_778
10
12.6185241
20
145.491951
11
12.6185241
21
145.081351
0
LINE
8
DEFAULT_255_2_778
10
12.6185241
20
145.081351
11
12.8561241
21
145.081351
0
LINE
8
DEFAULT_255_2_778
10
12.8553241
20
145.491951
11
12.6185241
21
145.491951
0
LINE
8
DEFAULT_255_2_778
10
12.6185241
20
145.491951
11
12.6185241
21
145.491951
0
LINE
8
DEFAULT_255_2_778
10
14.2584241
20
145.296251
11
14.1028241
21
145.296251
0
LINE
8
DEFAULT_255_2_778
10
13.4083241
20
144.840351
11
13.5638241
21
144.840351
0
LINE
8
DEFAULT_255_2_778
10
13.8258241
20
145.008851
11
13.8258241
21
145.009151
0
LINE
8
DEFAULT_255_2_778
10
15.9446241
20
144.644551
11
15.9446241
21
144.532851
0
LINE
8
DEFAULT_255_2_778
10
15.9446241
20
144.532851
11
15.1736241
21
144.532851
0
LINE
8
DEFAULT_255_2_778
10
15.1736241
20
144.532851
11
15.1736241
21
144.631351
0
LINE
8
DEFAULT_255_2_778
10
15.1736241
20
144.631351
11
15.5810241
21
145.045351
0
LINE
8
DEFAULT_255_2_778
10
15.3006241
20
145.292451
11
15.1511241
21
145.292451
0
LINE
8
DEFAULT_255_2_778
10
15.6697241
20
144.957551
11
15.3545241
21
144.644751
0
LINE
8
DEFAULT_255_2_778
10
15.3545241
20
144.644751
11
15.9454241
21
144.644751
0
LINE
8
DEFAULT_255_2_778
10
15.9454241
20
144.644751
11
15.9446241
21
144.644551
0
ARC
8
DEFAULT_255_2_778
10
16.5161519
20
145.3747304
40
0.2309018
50
267.5748122
51
308.6236582
0
ARC
8
DEFAULT_255_2_778
10
16.5503544
20
145.3189756
40
0.16619
50
311.4108102
51
2.5382058
0
ARC
8
DEFAULT_255_2_778
10
16.5226737
20
145.3394588
40
0.1941516
50
356.1242066
51
38.462434
0
ARC
8
DEFAULT_255_2_778
10
16.5470354
20
145.3318727
40
0.1810277
50
45.1536651
51
91.7858292
0
ARC
8
DEFAULT_255_2_778
10
16.5260363
20
145.1479047
40
0.3652308
50
87.5900382
51
90.0243119
0
ARC
8
DEFAULT_255_2_778
10
16.5157114
20
145.3124655
40
0.2009274
50
87.0987527
51
131.4206904
0
ARC
8
DEFAULT_255_2_778
10
16.5016795
20
145.3380876
40
0.1725507
50
133.5559449
51
182.4088172
0
ARC
8
DEFAULT_255_2_778
10
16.4594745
20
145.3361711
40
0.2683462
50
130.3643039
51
181.1393327
0
ARC
8
DEFAULT_255_2_778
10
16.5125667
20
145.2756189
40
0.3488707
50
87.8127907
51
130.567428
0
ARC
8
DEFAULT_255_2_778
10
16.5391006
20
145.2409365
40
0.3835268
50
61.964977
51
91.9752554
0
ARC
8
DEFAULT_255_2_778
10
16.5846831
20
145.344287
40
0.2710075
50
47.6694887
51
60.2010426
0
ARC
8
DEFAULT_255_2_778
10
16.5710427
20
145.3394206
40
0.2838722
50
356.8325372
51
46.2954699
0
ARC
8
DEFAULT_255_2_778
10
16.6255892
20
145.3272094
40
0.2289184
50
323.0289881
51
359.1304555
0
ARC
8
DEFAULT_255_2_778
10
16.5823519
20
145.3518389
40
0.2783468
50
291.2601394
51
324.3312458
0
ARC
8
DEFAULT_255_2_778
10
16.611516
20
144.8333253
40
0.2688649
50
38.4830695
51
74.518957
0
ARC
8
DEFAULT_255_2_778
10
16.6193803
20
144.8514219
40
0.2516184
50
358.2494387
51
36.3712599
0
ARC
8
DEFAULT_255_2_778
10
16.584001
20
144.8308387
40
0.28717
50
311.792543
51
2.5740047
0
ARC
8
DEFAULT_255_2_778
10
16.5437785
20
144.8936336
40
0.3609882
50
268.0435999
51
309.9097418
0
ARC
8
DEFAULT_255_2_778
10
16.526665
20
145.089669
40
0.5568337
50
270.0016772
51
270.4928468
0
ARC
8
DEFAULT_255_2_778
10
16.5122626
20
144.9158896
40
0.3833255
50
235.9680838
51
272.1556663
0
ARC
8
DEFAULT_255_2_778
10
16.4816933
20
144.8550876
40
0.3159487
50
229.7808709
51
234.391176
0
ARC
8
DEFAULT_255_2_778
10
16.4474912
20
144.8185359
40
0.2659656
50
178.0393545
51
230.322501
0
ARC
8
DEFAULT_255_2_778
10
16.4918172
20
144.8203918
40
0.171389
50
177.5777247
51
227.7953286
0
ARC
8
DEFAULT_255_2_778
10
16.5156664
20
144.8595261
40
0.216571
50
230.0773112
51
272.9153363
0
ARC
8
DEFAULT_255_2_778
10
16.5400815
20
144.8604415
40
0.2176191
50
266.4696801
51
308.0990511
0
ARC
8
DEFAULT_255_2_778
10
16.57124
20
144.8075658
40
0.1569926
50
311.0585372
51
313.789809
0
ARC
8
DEFAULT_255_2_778
10
16.5387674
20
144.8280001
40
0.194438
50
316.5314954
51
3.7849694
0
ARC
8
DEFAULT_255_2_778
10
16.5559773
20
144.8516676
40
0.1771355
50
356.4940557
51
47.9663857
0
ARC
8
DEFAULT_255_2_778
10
16.5276549
20
144.7930723
40
0.240311
50
52.3091288
51
89.4449796
0
ARC
8
DEFAULT_255_2_778
10
16.5014713
20
144.5781694
40
0.4560947
50
86.4159811
51
89.3580564
0
ARC
8
DEFAULT_255_2_778
10
16.6447987
20
145.9467511
40
1.2882757
50
315.5964911
51
321.7420129
0
ARC
8
DEFAULT_255_2_778
10
17.2807521
20
145.4434456
40
0.4772592
50
321.9132495
51
329.0555293
0
ARC
8
DEFAULT_255_2_778
10
17.4869585
20
145.3211623
40
0.237527
50
328.7770111
51
359.6557958
0
ARC
8
DEFAULT_255_2_778
10
17.5397733
20
145.3257137
40
0.1848047
50
358.1461988
51
45.7703344
0
ARC
8
DEFAULT_255_2_778
10
17.5298679
20
145.3076224
40
0.2047518
50
47.3156387
51
92.7676559
0
ARC
8
DEFAULT_255_2_778
10
17.5064172
20
145.2617139
40
0.2507886
50
86.8996112
51
126.679388
0
ARC
8
DEFAULT_255_2_778
10
17.4745913
20
145.3182905
40
0.1865872
50
129.2200652
51
133.2768068
0
ARC
8
DEFAULT_255_2_778
10
17.4947231
20
145.3046361
40
0.2103958
50
134.7193391
51
183.3244062
0
ARC
8
DEFAULT_255_2_778
10
17.4390249
20
145.3030519
40
0.3039291
50
130.9121811
51
182.0017879
0
ARC
8
DEFAULT_255_2_778
10
17.4906253
20
145.2319024
40
0.3915647
50
91.3576017
51
129.7999344
0
ARC
8
DEFAULT_255_2_778
10
17.5197523
20
144.9981249
40
0.6264108
50
89.9607604
51
93.5149014
0
ARC
8
DEFAULT_255_2_778
10
17.5332702
20
145.1750942
40
0.4496318
50
65.3729552
51
91.6681281
0
ARC
8
DEFAULT_255_2_778
10
17.5869463
20
145.3112834
40
0.3035673
50
50.5629559
51
63.8708339
0
ARC
8
DEFAULT_255_2_778
10
17.6172002
20
145.3451023
40
0.2582368
50
358.0100835
51
50.9807612
0
ARC
8
DEFAULT_255_2_778
10
17.5366582
20
145.3491643
40
0.3388736
50
328.8635961
51
357.7965749
0
ARC
8
DEFAULT_255_2_778
10
17.0881131
20
145.5991082
40
0.852231
50
317.364323
51
330.0735473
0
ARC
8
DEFAULT_255_2_778
10
16.6074997
20
146.0158998
40
1.4882339
50
314.6710662
51
318.0924594
0
LINE
8
DEFAULT_255_2_778
10
16.4025813
20
145.0340354
11
16.4025813
21
145.1440354
0
LINE
8
DEFAULT_255_2_778
10
16.4025813
20
145.1440354
11
16.5063813
21
145.1440354
0
LINE
8
DEFAULT_255_2_778
10
16.3292813
20
145.3308354
11
16.1911813
21
145.3308354
0
LINE
8
DEFAULT_255_2_778
10
16.1816813
20
144.8276354
11
16.3205813
21
144.8276354
0
LINE
8
DEFAULT_255_2_778
10
16.5065813
20
145.0342354
11
16.4028813
21
145.0342354
0
LINE
8
DEFAULT_255_2_778
10
16.4028813
20
145.0342354
11
16.4025813
21
145.0340354
0
LINE
8
DEFAULT_255_2_778
10
17.9289813
20
144.6445354
11
17.9289813
21
144.5328354
0
LINE
8
DEFAULT_255_2_778
10
17.9289813
20
144.5328354
11
17.1576813
21
144.5328354
0
LINE
8
DEFAULT_255_2_778
10
17.1576813
20
144.5328354
11
17.1576813
21
144.6313354
0
LINE
8
DEFAULT_255_2_778
10
17.1576813
20
144.6313354
11
17.5651813
21
145.0453354
0
LINE
8
DEFAULT_255_2_778
10
17.2846813
20
145.2924354
11
17.1352813
21
145.2924354
0
LINE
8
DEFAULT_255_2_778
10
17.6537813
20
144.9575354
11
17.3386813
21
144.6447354
0
LINE
8
DEFAULT_255_2_778
10
17.3386813
20
144.6447354
11
17.9294813
21
144.6447354
0
LINE
8
DEFAULT_255_2_778
10
17.9294813
20
144.6447354
11
17.9289813
21
144.6445354
0
ARC
8
DEFAULT_255_2_778
10
18.9839488
20
144.9394176
40
0.6849956
50
75.6820035
51
91.0225007
0
ARC
8
DEFAULT_255_2_778
10
19.0720562
20
145.2891589
40
0.3243305
50
55.2066591
51
75.4838594
0
ARC
8
DEFAULT_255_2_778
10
19.1183962
20
145.3658618
40
0.2349679
50
356.4967778
51
53.8134586
0
ARC
8
DEFAULT_255_2_778
10
19.1624208
20
145.3495379
40
0.1905143
50
319.1014992
51
0.5913504
0
ARC
8
DEFAULT_255_2_778
10
19.0807745
20
145.422331
40
0.2998917
50
289.3064852
51
318.8021968
0
ARC
8
DEFAULT_255_2_778
10
19.1211787
20
144.8687196
40
0.2768883
50
41.2278246
51
77.7506846
0
ARC
8
DEFAULT_255_2_778
10
19.1509871
20
144.9010809
40
0.2331889
50
358.8016596
51
40.0745429
0
ARC
8
DEFAULT_255_2_778
10
19.1257392
20
144.8853708
40
0.2586128
50
307.3193391
51
2.4008268
0
ARC
8
DEFAULT_255_2_778
10
19.053047
20
144.9968295
40
0.3914443
50
275.8352707
51
305.8902194
0
ARC
8
DEFAULT_255_2_778
10
18.9980468
20
145.3271804
40
0.7259826
50
269.7615118
51
277.5030294
0
ARC
8
DEFAULT_255_2_778
10
19.0112279
20
144.9872551
40
0.2763617
50
267.2824683
51
301.846198
0
ARC
8
DEFAULT_255_2_778
10
19.0499863
20
144.908974
40
0.1895992
50
304.3795128
51
308.3112418
0
ARC
8
DEFAULT_255_2_778
10
19.0674717
20
144.8877501
40
0.1621068
50
308.1123753
51
2.4940074
0
ARC
8
DEFAULT_255_2_778
10
19.0643523
20
144.9085239
40
0.1656419
50
355.2488821
51
86.1837077
0
ARC
8
DEFAULT_255_2_778
10
19.0035302
20
144.6479492
40
0.4318675
50
80.4235795
51
90.4385089
0
ARC
8
DEFAULT_255_2_778
10
18.9895682
20
145.4571545
40
0.2697707
50
267.2074561
51
302.8546512
0
ARC
8
DEFAULT_255_2_778
10
19.0250451
20
145.3865349
40
0.1913894
50
305.4029427
51
306.1051354
0
ARC
8
DEFAULT_255_2_778
10
19.0576281
20
145.3477086
40
0.1408624
50
304.7033709
51
1.747477
0
ARC
8
DEFAULT_255_2_778
10
19.0615136
20
145.3634001
40
0.1373848
50
355.2419088
51
53.9697844
0
ARC
8
DEFAULT_255_2_778
10
19.0117723
20
145.2593175
40
0.2516929
50
58.7550078
51
87.6280701
0
ARC
8
DEFAULT_255_2_778
10
18.9732239
20
144.9440745
40
0.5688316
50
85.0618728
51
90.1509763
0
LINE
8
DEFAULT_255_2_778
10
18.995025
20
144.6009042
11
18.590425
21
144.6009042
0
LINE
8
DEFAULT_255_2_778
10
18.590425
20
144.6009042
11
18.590425
21
145.6243042
0
LINE
8
DEFAULT_255_2_778
10
18.590425
20
145.6243042
11
18.971725
21
145.6243042
0
LINE
8
DEFAULT_255_2_778
10
18.995025
20
144.6012042
11
18.995025
21
144.6009042
0
LINE
8
DEFAULT_255_2_778
10
19.000525
20
145.0795042
11
18.744125
21
145.0795042
0
LINE
8
DEFAULT_255_2_778
10
18.744125
20
145.0795042
11
18.744125
21
144.7112042
0
LINE
8
DEFAULT_255_2_778
10
18.744125
20
144.7112042
11
18.998125
21
144.7112042
0
LINE
8
DEFAULT_255_2_778
10
19.000225
20
145.0798042
11
19.000525
21
145.0795042
0
LINE
8
DEFAULT_255_2_778
10
18.744125
20
145.5132042
11
18.744125
21
145.1877042
0
LINE
8
DEFAULT_255_2_778
10
18.744125
20
145.1877042
11
18.976425
21
145.1877042
0
LINE
8
DEFAULT_255_2_778
10
18.971725
20
145.5129042
11
18.744125
21
145.5129042
0
LINE
8
DEFAULT_255_2_778
10
18.744125
20
145.5129042
11
18.744125
21
145.5132042
0
LINE
8
DEFAULT_255_2_778
10
20.4287333
20
144.5823646
11
20.3139333
21
144.8543646
0
LINE
8
DEFAULT_255_2_778
10
20.3139333
20
144.8543646
11
19.8099333
21
144.8543646
0
LINE
8
DEFAULT_255_2_778
10
19.8099333
20
144.8543646
11
19.6966333
21
144.5823646
0
LINE
8
DEFAULT_255_2_778
10
19.6966333
20
144.5823646
11
19.5331333
21
144.5823646
0
LINE
8
DEFAULT_255_2_778
10
19.5331333
20
144.5823646
11
19.9924333
21
145.6242646
0
LINE
8
DEFAULT_255_2_778
10
19.9924333
20
145.6242646
11
20.1313333
21
145.6242646
0
LINE
8
DEFAULT_255_2_778
10
20.1313333
20
145.6242646
11
20.5914333
21
144.5823646
0
LINE
8
DEFAULT_255_2_778
10
20.5914333
20
144.5823646
11
20.4287333
21
144.5823646
0
LINE
8
DEFAULT_255_2_778
10
20.4287333
20
144.5823646
11
20.4287333
21
144.5823646
0
LINE
8
DEFAULT_255_2_778
10
20.0620333
20
145.4546646
11
19.8580333
21
144.9672646
0
LINE
8
DEFAULT_255_2_778
10
19.8580333
20
144.9672646
11
20.2671333
21
144.9672646
0
LINE
8
DEFAULT_255_2_778
10
20.2671333
20
144.9672646
11
20.0623333
21
145.4546646
0
LINE
8
DEFAULT_255_2_778
10
20.0623333
20
145.4546646
11
20.0620333
21
145.4546646
0
ENDSEC
0
EOF