0
SECTION
2
HEADER
9
$MEASUREMENT
70
1
0
ENDSEC
0
SECTION
2
TABLES
0
TABLE
2
LTYPE
0
LTYPE
72
65
70
64
2
CONTINUOUS
3
______
73
0
40
0
0
ENDTAB
0
TABLE
2
LAYER
0
LAYER
2
DEFAULT_255_2_778
70
0
62
255
6
CONTINUOUS
0
ENDTAB
0
ENDSEC
0
SECTION
2
ENTITIES
0
ARC
8
DEFAULT_255_2_778
10
28.6582555
20
4.4411446
40
0.3650517
50
278.865481
51
357.7093971
0
ARC
8
DEFAULT_255_2_778
10
9.690812
20
133.6223783
40
0.1999035
50
359.9644452
51
80.351789
0
ARC
8
DEFAULT_255_2_778
10
9.788235
20
134.213726
40
0.3994195
50
179.9959464
51
260.79131
0
ARC
8
DEFAULT_255_2_778
10
9.7883385
20
134.2137944
40
0.399523
50
99.2213235
51
180.0057615
0
ARC
8
DEFAULT_255_2_778
10
9.6905858
20
134.8056553
40
0.2001298
50
279.6448173
51
359.9710665
0
ARC
8
DEFAULT_255_2_778
10
-870.8307361
20
14.8109649
40
1000.0213516
50
0.000177
51
7.5349816
0
ARC
8
DEFAULT_255_2_778
10
119.5638732
20
145.813967
40
1.0001962
50
7.5424981
51
87.6334072
0
ARC
8
DEFAULT_255_2_778
10
119.5638326
20
145.8015282
40
1.0126261
50
87.6601712
51
89.9783311
0
ARC
8
DEFAULT_255_2_778
10
118.5398507
20
146.3140994
40
0.5000548
50
90.0040283
51
157.5133797
0
ARC
8
DEFAULT_255_2_778
10
118.6604072
20
146.2228057
40
0.6463422
50
157.4420239
51
179.9836
0
ARC
8
DEFAULT_255_2_778
10
118.6566618
20
146.2229801
40
0.6425967
50
179.9990525
51
182.794932
0
ARC
8
DEFAULT_255_2_778
10
118.6556026
20
146.2229132
40
0.6415355
50
182.793574
51
184.6903618
0
ARC
8
DEFAULT_255_2_778
10
118.6611609
20
146.2216227
40
0.646972
50
184.5362121
51
199.2376007
0
ARC
8
DEFAULT_255_2_778
10
118.661977
20
146.2213255
40
0.6476449
50
199.1889845
51
214.9781173
0
ARC
8
DEFAULT_255_2_778
10
118.6619837
20
146.2207671
40
0.6473305
50
214.9372788
51
228.0334004
0
ARC
8
DEFAULT_255_2_778
10
117.8878946
20
145.3733609
40
0.5001001
50
1.0189559
51
47.0072793
0
ARC
8
DEFAULT_255_2_778
10
118.4926773
20
145.1460328
40
0.1005854
50
181.24104
51
260.7538034
0
ARC
8
DEFAULT_255_2_778
10
118.7707996
20
144.8985474
40
0.1002621
50
29.7862717
51
80.9239108
0
ARC
8
DEFAULT_255_2_778
10
115.9922591
20
143.3148013
40
3.2984707
50
4.9925431
51
29.6859448
0
ARC
8
DEFAULT_255_2_778
10
118.5964396
20
143.3453518
40
0.7009451
50
0.0010118
51
4.5087684
0
ARC
8
DEFAULT_255_2_778
10
118.5970116
20
143.3454275
40
0.7003732
50
314.9959919
51
359.9948197
0
ARC
8
DEFAULT_255_2_778
10
119.1420355
20
142.7590317
40
0.0996614
50
134.958318
51
180.0606783
0
ARC
8
DEFAULT_255_2_778
10
119.1431264
20
142.7589359
40
0.1007521
50
180.0054994
51
181.2242911
0
ARC
8
DEFAULT_255_2_778
10
119.1423883
20
142.758896
40
0.1000134
50
181.2104972
51
215.0534045
0
ARC
8
DEFAULT_255_2_778
10
118.3075322
20
142.0322306
40
1.0006098
50
12.0166974
51
35.0068141
0
ARC
8
DEFAULT_255_2_778
10
115.3800925
20
141.4091483
40
3.9936241
50
359.9965358
51
12.0159121
0
ARC
8
DEFAULT_255_2_778
10
115.9834327
20
141.4086691
40
3.3902838
50
359.9558088
51
0.0040173
0
ARC
8
DEFAULT_255_2_778
10
94.3574226
20
141.4235488
40
25.016299
50
352.894823
51
359.9599316
0
ARC
8
DEFAULT_255_2_778
10
115.2120225
20
138.8244607
40
4.0003622
50
303.6382923
51
352.8890924
0
ARC
8
DEFAULT_255_2_778
10
116.9855523
20
136.1573503
40
0.7974133
50
274.8902135
51
303.7019774
0
ARC
8
DEFAULT_255_2_778
10
116.9851114
20
136.1609579
40
0.8010455
50
271.4529539
51
274.8996379
0
ARC
8
DEFAULT_255_2_778
10
116.9850918
20
136.161109
40
0.8011971
50
269.9990594
51
271.45408
0
ARC
8
DEFAULT_255_2_778
10
116.9844701
20
136.15903
40
0.7991184
50
226.3584553
51
270.0436343
0
ARC
8
DEFAULT_255_2_778
10
116.9913051
20
136.1663458
40
0.8091298
50
224.9149756
51
226.3657207
0
ARC
8
DEFAULT_255_2_778
10
116.9834487
20
136.1593246
40
0.7986092
50
186.1733864
51
224.9562257
0
ARC
8
DEFAULT_255_2_778
10
116.9873853
20
136.1602504
40
0.8026225
50
180.0004091
51
186.2088711
0
ARC
8
DEFAULT_255_2_778
10
116.9872744
20
136.1602342
40
0.8025115
50
178.5286397
51
179.9992537
0
ARC
8
DEFAULT_255_2_778
10
116.9827188
20
136.1606115
40
0.7979479
50
147.7981379
51
178.5473208
0
ARC
8
DEFAULT_255_2_778
10
116.9922955
20
136.1551266
40
0.8089745
50
146.2171551
51
147.8308798
0
ARC
8
DEFAULT_255_2_778
10
112.9948139
20
138.8299136
40
4.0008431
50
326.2119263
51
359.9980445
0
ARC
8
DEFAULT_255_2_778
10
112.997734
20
138.8297757
40
3.9979229
50
0.0000193
51
4.0855914
0
ARC
8
DEFAULT_255_2_778
10
112.9954283
20
138.8295765
40
4.000237
50
4.0860856
51
9.3061573
0
ARC
8
DEFAULT_255_2_778
10
115.956082
20
139.3145711
40
1.000122
50
9.3150713
51
89.1731512
0
ARC
8
DEFAULT_255_2_778
10
115.9560817
20
139.3021498
40
1.0125422
50
89.1832775
51
89.5057802
0
ARC
8
DEFAULT_255_2_778
10
109.7448155
20
15.118853
40
0.3043291
50
180.7905104
51
269.1904177
0
ARC
8
DEFAULT_255_2_778
10
109.712181
20
16.1826609
40
0.2703961
50
155.7647493
51
168.2869234
0
ARC
8
DEFAULT_255_2_778
10
109.7271232
20
16.1801717
40
0.2850694
50
145.3492749
51
156.5413181
0
LINE
8
DEFAULT_255_2_778
10
29.0230155
20
4.4265543
11
29.0230155
21
4.4275543
0
LINE
8
DEFAULT_255_2_778
10
29.0230155
20
4.4275543
11
29.0569155
21
4.6855543
0
LINE
8
DEFAULT_255_2_778
10
29.0569155
20
4.6855543
11
29.1130155
21
5.1112543
0
LINE
8
DEFAULT_255_2_778
10
29.1130155
20
5.1112543
11
29.2021155
21
5.7605543
0
LINE
8
DEFAULT_255_2_778
10
29.2021155
20
5.7605543
11
30.0340155
21
5.7605543
0
LINE
8
DEFAULT_255_2_778
10
119.5642155
20
146.8141543
11
118.5398155
21
146.8141543
0
LINE
8
DEFAULT_255_2_778
10
118.0778155
20
146.5053543
11
118.0635155
21
146.4707543
0
LINE
8
DEFAULT_255_2_778
10
118.3879155
20
145.3822543
11
118.3921155
21
145.1438543
0
LINE
8
DEFAULT_255_2_778
10
118.4765155
20
145.0467543
11
118.7866155
21
144.9975543
0
LINE
8
DEFAULT_255_2_778
10
119.2782155
20
143.6018543
11
119.2952155
21
143.4004543
0
LINE
8
DEFAULT_255_2_778
10
119.0922155
20
142.8501543
11
119.0716155
21
142.8295543
0
LINE
8
DEFAULT_255_2_778
10
119.0605155
20
142.7014543
11
119.1271155
21
142.6062543
0
LINE
8
DEFAULT_255_2_778
10
127.4898155
20
16.1142543
11
114.4406155
21
16.1142543
0
LINE
8
DEFAULT_255_2_778
10
114.4406155
20
16.1142543
11
114.4406155
21
15.1143543
0
LINE
8
DEFAULT_255_2_778
10
114.4406155
20
15.1143543
11
114.4406155
21
15.0630543
0
LINE
8
DEFAULT_255_2_778
10
114.4406155
20
15.0630543
11
114.4411155
21
15.0082543
0
LINE
8
DEFAULT_255_2_778
10
114.4411155
20
15.0082543
11
114.4422155
21
14.9529543
0
LINE
8
DEFAULT_255_2_778
10
114.4422155
20
14.9529543
11
114.4435155
21
14.9008543
0
LINE
8
DEFAULT_255_2_778
10
114.4435155
20
14.9008543
11
114.4451155
21
14.8566543
0
LINE
8
DEFAULT_255_2_778
10
114.4451155
20
14.8566543
11
114.4472155
21
14.8259543
0
LINE
8
DEFAULT_255_2_778
10
114.4472155
20
14.8259543
11
114.4496155
21
14.8145543
0
LINE
8
DEFAULT_255_2_778
10
114.4496155
20
14.8145543
11
109.7405155
21
14.8145543
0
LINE
8
DEFAULT_255_2_778
10
109.4405155
20
15.1146543
11
109.4405155
21
16.1732543
0
LINE
8
DEFAULT_255_2_778
10
109.4405155
20
16.1732543
11
109.4474155
21
16.2375543
0
LINE
8
DEFAULT_255_2_778
10
109.4926155
20
16.3422543
11
109.5281155
21
16.3851543
0
LINE
8
DEFAULT_255_2_778
10
109.5281155
20
16.3851543
11
110.7986155
21
17.6556543
0
ARC
8
DEFAULT_255_2_778
10
112.5730406
20
144.6033638
40
0.6528128
50
339.3436368
51
359.9588699
0
ARC
8
DEFAULT_255_2_778
10
112.5825603
20
144.6029015
40
0.643293
50
359.9994427
51
1.3071286
0
ARC
8
DEFAULT_255_2_778
10
112.637426
20
144.6157109
40
0.5871881
50
7.2758347
51
15.120217
0
ARC
8
DEFAULT_255_2_778
10
112.548086
20
144.5933315
40
0.6792748
50
14.9768909
51
22.4267428
0
ARC
8
DEFAULT_255_2_778
10
112.0554892
20
145.2822831
40
0.5001149
50
47.511798
51
89.9977838
0
ARC
8
DEFAULT_255_2_778
10
112.055512
20
145.2827568
40
0.4996413
50
90.0003934
51
95.498019
0
ARC
8
DEFAULT_255_2_778
10
112.0555917
20
145.2819901
40
0.5004122
50
95.4986983
51
100.4665633
0
ARC
8
DEFAULT_255_2_778
10
112.0555928
20
145.2822042
40
0.5002019
50
100.4711372
51
153.4125657
0
ARC
8
DEFAULT_255_2_778
10
115.9883437
20
143.3146164
40
4.8976935
50
153.4199781
51
170.9217119
0
ARC
8
DEFAULT_255_2_778
10
115.9924487
20
143.31392
40
4.9018568
50
170.9212438
51
180.0001221
0
ARC
8
DEFAULT_255_2_778
10
115.9917562
20
143.3138999
40
4.9011643
50
179.999887
51
180.8828349
0
ARC
8
DEFAULT_255_2_778
10
115.9892186
20
143.313717
40
4.898624
50
180.8811541
51
197.678693
0
ARC
8
DEFAULT_255_2_778
10
115.9957714
20
143.3158002
40
4.9055
50
197.6786327
51
200.8230772
0
ARC
8
DEFAULT_255_2_778
10
85.2059855
20
131.7128376
40
27.9980167
50
2.6132434
51
20.6180813
0
ARC
8
DEFAULT_255_2_778
10
113.3821815
20
132.898903
40
0.2030192
50
182.6896507
51
221.6517685
0
ARC
8
DEFAULT_255_2_778
10
113.3821638
20
132.9033319
40
0.2059763
50
222.575624
51
264.2943205
0
ARC
8
DEFAULT_255_2_778
10
-872.4973907
20
67.4797036
40
990.5716419
50
359.9999784
51
3.7619866
0
ARC
8
DEFAULT_255_2_778
10
-872.5440431
20
67.4793935
40
990.6182943
50
359.7889232
51
359.9999963
0
ARC
8
DEFAULT_255_2_778
10
-872.5650794
20
67.4796282
40
990.6393314
50
357.5135657
51
359.7889142
0
ARC
8
DEFAULT_255_2_778
10
117.5548477
20
24.4757368
40
0.413152
50
184.868059
51
193.245165
0
ARC
8
DEFAULT_255_2_778
10
117.5785542
20
24.4796491
40
0.4371274
50
193.0323934
51
200.8625573
0
ARC
8
DEFAULT_255_2_778
10
117.6101572
20
24.4943826
40
0.4719121
50
201.1676389
51
208.4626338
0
ARC
8
DEFAULT_255_2_778
10
117.5710134
20
24.4604098
40
0.4202095
50
215.3522089
51
235.9425463
0
ARC
8
DEFAULT_255_2_778
10
117.6646639
20
24.6545501
40
0.6342614
50
238.756333
51
251.1949206
0
ARC
8
DEFAULT_255_2_778
10
119.0050991
20
28.1973048
40
4.4218157
50
249.5506698
51
249.7507286
0
ARC
8
DEFAULT_255_2_778
10
124.6535131
20
21.2534424
40
2.8675632
50
20.9848259
51
24.9063194
0
ARC
8
DEFAULT_255_2_778
10
125.0401246
20
21.3993236
40
2.4543515
50
16.8674827
51
21.0373019
0
ARC
8
DEFAULT_255_2_778
10
125.3403828
20
21.4975794
40
2.1385122
50
12.0869786
51
16.6824524
0
ARC
8
DEFAULT_255_2_778
10
125.9128407
20
21.6161756
40
1.5539164
50
6.2956424
51
12.2309129
0
ARC
8
DEFAULT_255_2_778
10
125.4812612
20
21.591638
40
1.9857165
50
2.1341309
51
5.6338094
0
ARC
8
DEFAULT_255_2_778
10
115.4068958
20
21.1388969
40
12.0702012
50
2.3569166
51
2.5009144
0
LINE
8
DEFAULT_255_2_778
10
113.225686
20
144.6175761
11
113.219886
21
144.6900761
0
LINE
8
DEFAULT_255_2_778
10
113.175986
20
144.8524761
11
113.159086
21
144.8898761
0
LINE
8
DEFAULT_255_2_778
10
113.159086
20
144.8898761
11
113.135786
21
144.9326761
0
LINE
8
DEFAULT_255_2_778
10
113.135786
20
144.9326761
11
113.105086
21
144.9800761
0
LINE
8
DEFAULT_255_2_778
10
113.105086
20
144.9800761
11
113.065086
21
145.0302761
0
LINE
8
DEFAULT_255_2_778
10
113.065086
20
145.0302761
11
113.014786
21
145.0816761
0
LINE
8
DEFAULT_255_2_778
10
113.014786
20
145.0816761
11
112.393286
21
145.6510761
0
LINE
8
DEFAULT_255_2_778
10
113.174886
20
132.9893761
11
113.178086
21
132.9187761
0
LINE
8
DEFAULT_255_2_778
10
113.178086
20
132.9187761
11
113.179386
21
132.8893761
0
LINE
8
DEFAULT_255_2_778
10
113.361686
20
132.6983761
11
115.400786
21
132.5200761
0
LINE
8
DEFAULT_255_2_778
10
115.400786
20
132.5200761
11
115.939786
21
132.4729761
0
LINE
8
DEFAULT_255_2_778
10
117.141586
20
24.5028761
11
117.143186
21
24.4406761
0
LINE
8
DEFAULT_255_2_778
10
117.195286
20
24.2694761
11
117.228286
21
24.2172761
0
LINE
8
DEFAULT_255_2_778
10
117.474686
20
24.0487761
11
120.716586
21
23.1801761
0
LINE
8
DEFAULT_255_2_778
10
120.716586
20
23.1801761
11
126.855486
21
23.1801761
0
LINE
8
DEFAULT_255_2_778
10
126.855486
20
23.1801761
11
127.035386
21
22.8769761
0
LINE
8
DEFAULT_255_2_778
10
127.035386
20
22.8769761
11
127.159686
21
22.6536761
0
LINE
8
DEFAULT_255_2_778
10
127.159686
20
22.6536761
11
127.254386
21
22.4610761
0
LINE
8
DEFAULT_255_2_778
10
127.466886
20
21.6352761
11
127.481986
21
18.8748761
0
LINE
8
DEFAULT_255_2_778
10
127.481986
20
18.8748761
11
127.489386
21
16.1141761
0
ARC
8
DEFAULT_255_2_778
10
120.2144572
20
131.4088786
40
0.439776
50
349.9416697
51
359.0609754
0
ARC
8
DEFAULT_255_2_778
10
120.1296345
20
131.4187716
40
0.5250475
50
342.8640241
51
350.4953117
0
ARC
8
DEFAULT_255_2_778
10
120.1694764
20
131.407144
40
0.4835487
50
330.4371164
51
342.7896674
0
ARC
8
DEFAULT_255_2_778
10
120.1421146
20
131.4237374
40
0.5155361
50
318.4909071
51
330.3333741
0
ARC
8
DEFAULT_255_2_778
10
120.1556819
20
131.4109158
40
0.4968794
50
306.5340248
51
318.5612359
0
ARC
8
DEFAULT_255_2_778
10
120.15096
20
131.4212493
40
0.5079989
50
294.2214899
51
306.2681274
0
ARC
8
DEFAULT_255_2_778
10
120.1711023
20
131.3649402
40
0.4484081
50
281.587862
51
294.8262139
0
ARC
8
DEFAULT_255_2_778
10
120.1199219
20
131.7424024
40
0.8288557
50
272.3960851
51
279.8121487
0
ARC
8
DEFAULT_255_2_778
10
118.6225884
20
131.6173872
40
0.7036638
50
239.1518217
51
249.8312053
0
ARC
8
DEFAULT_255_2_778
10
118.622903
20
131.6170097
40
0.7035012
50
228.383008
51
239.1140511
0
ARC
8
DEFAULT_255_2_778
10
118.6110217
20
131.6056129
40
0.6870912
50
217.5490884
51
228.4925256
0
ARC
8
DEFAULT_255_2_778
10
118.6319688
20
131.6211685
40
0.713179
50
206.9207303
51
217.5143005
0
ARC
8
DEFAULT_255_2_778
10
118.5595463
20
131.590027
40
0.6345251
50
196.3155674
51
207.3742934
0
ARC
8
DEFAULT_255_2_778
10
119.0589536
20
131.7057978
40
1.1467155
50
188.7138096
51
194.8569959
0
ARC
8
DEFAULT_255_2_778
10
118.3671771
20
133.2913371
40
0.6452205
50
179.9999146
51
180.4231991
0
ARC
8
DEFAULT_255_2_778
10
118.3683892
20
133.291332
40
0.6464327
50
178.0245063
51
179.9994626
0
ARC
8
DEFAULT_255_2_778
10
118.3642677
20
133.2915757
40
0.6423051
50
173.2050029
51
178.0335509
0
ARC
8
DEFAULT_255_2_778
10
118.4438871
20
133.2831635
40
0.7223614
50
166.9176067
51
173.2896568
0
ARC
8
DEFAULT_255_2_778
10
118.4642484
20
133.2762384
40
0.7437648
50
165.42943
51
166.7530193
0
ARC
8
DEFAULT_255_2_778
10
118.3586062
20
133.3050527
40
0.6342726
50
159.8187213
51
165.5478542
0
ARC
8
DEFAULT_255_2_778
10
118.481846
20
133.26201
40
0.7647985
50
153.8084806
51
159.9772841
0
ARC
8
DEFAULT_255_2_778
10
118.379989
20
133.3178764
40
0.6487624
50
136.4127122
51
154.2653693
0
ARC
8
DEFAULT_255_2_778
10
118.6357539
20
133.0121661
40
1.0457668
50
123.2257452
51
133.941312
0
ARC
8
DEFAULT_255_2_778
10
123.048046
20
126.7047711
40
8.7428409
50
124.7020049
51
124.765296
0
ARC
8
DEFAULT_255_2_778
10
119.7742792
20
134.618173
40
0.5050322
50
90.0375774
51
104.8348116
0
ARC
8
DEFAULT_255_2_778
10
119.7739459
20
134.6257599
40
0.4974452
50
88.6720545
51
89.9997676
0
ARC
8
DEFAULT_255_2_778
10
119.7713067
20
134.6199793
40
0.5032916
50
55.9683535
51
88.3869265
0
ARC
8
DEFAULT_255_2_778
10
119.7689695
20
134.6221614
40
0.5028011
50
39.3508844
51
55.608472
0
ARC
8
DEFAULT_255_2_778
10
119.8021468
20
134.6393989
40
0.4662798
50
22.8375883
51
40.2979972
0
ARC
8
DEFAULT_255_2_778
10
119.5373574
20
134.5632777
40
0.7405746
50
9.6406662
51
20.3133619
0
ARC
8
DEFAULT_255_2_778
10
111.3822728
20
132.9174013
40
9.0597645
50
11.2364454
51
11.2656504
0
ARC
8
DEFAULT_255_2_778
10
112.449315
20
16.718124
40
0.3040564
50
225.3346815
51
269.7096569
0
ARC
8
DEFAULT_255_2_778
10
121.978615
20
21.6214724
40
1.1143007
50
42.4991928
51
51.9264092
0
ARC
8
DEFAULT_255_2_778
10
121.9231418
20
21.5749539
40
1.1866315
50
33.4809939
51
42.3456931
0
ARC
8
DEFAULT_255_2_778
10
121.8447359
20
21.5238691
40
1.2802091
50
26.7358559
51
33.4521208
0
ARC
8
DEFAULT_255_2_778
10
121.8467238
20
21.5246945
40
1.2780623
50
25.0071475
51
26.7428992
0
ARC
8
DEFAULT_255_2_778
10
121.7783447
20
21.4937203
40
1.3531252
50
17.068007
51
24.9717702
0
ARC
8
DEFAULT_255_2_778
10
121.7816201
20
21.4903218
40
1.3509981
50
9.6062549
51
17.246562
0
ARC
8
DEFAULT_255_2_778
10
121.1211946
20
21.4049908
40
2.0165712
50
4.1148352
51
8.8653791
0
ARC
8
DEFAULT_255_2_778
10
173.0709897
20
25.7879683
40
50.1179509
50
184.8510714
51
184.8606171
0
ARC
8
DEFAULT_255_2_778
10
128.8905434
20
5.1146024
40
0.3001309
50
270.0058902
51
359.9750049
0
ARC
8
DEFAULT_255_2_778
10
127.5953669
20
5.2191641
40
0.4047199
50
180.6643497
51
269.3356503
0
ARC
8
DEFAULT_255_2_778
10
126.8907153
20
13.0988067
40
0.2999589
50
359.993261
51
71.5039301
0
ARC
8
DEFAULT_255_2_778
10
118.1908259
20
-12.9365406
40
27.7504123
50
71.5223947
51
89.9999003
0
LINE
8
DEFAULT_255_2_778
10
120.2680742
20
134.6830714
11
120.4609742
21
133.0780714
0
LINE
8
DEFAULT_255_2_778
10
120.4609742
20
133.0780714
11
120.6511742
21
131.4725714
0
LINE
8
DEFAULT_255_2_778
10
120.6511742
20
131.4725714
11
120.6541742
21
131.4016714
0
LINE
8
DEFAULT_255_2_778
10
120.1545742
20
130.9142714
11
118.6204742
21
130.9142714
0
LINE
8
DEFAULT_255_2_778
10
118.6204742
20
130.9142714
11
118.5384742
21
130.9190714
0
LINE
8
DEFAULT_255_2_778
10
118.5384742
20
130.9190714
11
118.4583742
21
130.9333714
0
LINE
8
DEFAULT_255_2_778
10
118.4583742
20
130.9333714
11
118.3799742
21
130.9568714
0
LINE
8
DEFAULT_255_2_778
10
117.9254742
20
131.5320714
11
117.7267742
21
133.2037714
0
LINE
8
DEFAULT_255_2_778
10
117.7267742
20
133.2037714
11
117.7219742
21
133.2865714
0
LINE
8
DEFAULT_255_2_778
10
118.0706742
20
133.8924714
11
118.2810742
21
134.0204714
0
LINE
8
DEFAULT_255_2_778
10
118.2810742
20
134.0204714
11
118.4847742
21
134.1567714
0
LINE
8
DEFAULT_255_2_778
10
118.4847742
20
134.1567714
11
118.6818742
21
134.3012714
0
LINE
8
DEFAULT_255_2_778
10
118.6818742
20
134.3012714
11
118.8724742
21
134.4538714
0
LINE
8
DEFAULT_255_2_778
10
118.8724742
20
134.4538714
11
119.0562742
21
134.6147714
0
LINE
8
DEFAULT_255_2_778
10
119.0562742
20
134.6147714
11
119.2335742
21
134.7840714
0
LINE
8
DEFAULT_255_2_778
10
119.2335742
20
134.7840714
11
119.4042742
21
134.9616714
0
LINE
8
DEFAULT_255_2_778
10
119.4042742
20
134.9616714
11
119.4566742
21
135.0110714
0
LINE
8
DEFAULT_255_2_778
10
119.4566742
20
135.0110714
11
119.5142742
21
135.0515714
0
LINE
8
DEFAULT_255_2_778
10
119.5142742
20
135.0515714
11
119.5769742
21
135.0833714
0
LINE
8
DEFAULT_255_2_778
10
119.5769742
20
135.0833714
11
119.6449742
21
135.1063714
0
LINE
8
DEFAULT_255_2_778
10
112.4477742
20
16.4140714
11
114.4496742
21
16.4140714
0
LINE
8
DEFAULT_255_2_778
10
114.4496742
20
16.4140714
11
114.4480742
21
16.4092714
0
LINE
8
DEFAULT_255_2_778
10
114.4480742
20
16.4092714
11
114.4466742
21
16.3960714
0
LINE
8
DEFAULT_255_2_778
10
114.4466742
20
16.3960714
11
114.4453742
21
16.3753714
0
LINE
8
DEFAULT_255_2_778
10
114.4453742
20
16.3753714
11
114.4443742
21
16.3491714
0
LINE
8
DEFAULT_255_2_778
10
114.4443742
20
16.3491714
11
114.4432742
21
16.3187714
0
LINE
8
DEFAULT_255_2_778
10
114.4432742
20
16.3187714
11
114.4424742
21
16.2854714
0
LINE
8
DEFAULT_255_2_778
10
114.4424742
20
16.2854714
11
114.4416742
21
16.2504714
0
LINE
8
DEFAULT_255_2_778
10
114.4416742
20
16.2504714
11
114.4411742
21
16.2150714
0
LINE
8
DEFAULT_255_2_778
10
114.4411742
20
16.2150714
11
114.4408742
21
16.1801714
0
LINE
8
DEFAULT_255_2_778
10
114.4408742
20
16.1801714
11
114.4406742
21
16.1462714
0
LINE
8
DEFAULT_255_2_778
10
114.4406742
20
16.1462714
11
114.4406742
21
16.1139714
0
LINE
8
DEFAULT_255_2_778
10
120.7167742
20
23.1801714
11
121.1358742
21
23.0479714
0
LINE
8
DEFAULT_255_2_778
10
121.1358742
20
23.0479714
11
121.5094742
21
22.9298714
0
LINE
8
DEFAULT_255_2_778
10
121.5094742
20
22.9298714
11
121.8375742
21
22.8264714
0
LINE
8
DEFAULT_255_2_778
10
121.8375742
20
22.8264714
11
122.1198742
21
22.7375714
0
LINE
8
DEFAULT_255_2_778
10
122.1198742
20
22.7375714
11
122.3566742
21
22.6629714
0
LINE
8
DEFAULT_255_2_778
10
122.3566742
20
22.6629714
11
122.4387742
21
22.6327714
0
LINE
8
DEFAULT_255_2_778
10
122.4387742
20
22.6327714
11
122.5175742
21
22.5952714
0
LINE
8
DEFAULT_255_2_778
10
122.5175742
20
22.5952714
11
122.5932742
21
22.5504714
0
LINE
8
DEFAULT_255_2_778
10
122.5932742
20
22.5504714
11
122.6657742
21
22.4986714
0
LINE
8
DEFAULT_255_2_778
10
123.1332742
20
21.5413714
11
123.1345742
21
21.4535714
0
LINE
8
DEFAULT_255_2_778
10
123.1345742
20
21.4535714
11
123.1287742
21
21.3664714
0
LINE
8
DEFAULT_255_2_778
10
123.1287742
20
21.3664714
11
123.1157742
21
21.2802714
0
LINE
8
DEFAULT_255_2_778
10
123.1157742
20
21.2802714
11
123.0956742
21
21.1947714
0
LINE
8
DEFAULT_255_2_778
10
129.1906742
20
14.8140714
11
129.1906742
21
5.1144714
0
LINE
8
DEFAULT_255_2_778
10
128.8905742
20
4.8144714
11
127.5906742
21
4.8144714
0
LINE
8
DEFAULT_255_2_778
10
127.1906742
20
5.2144714
11
127.1906742
21
13.0987714
0
LINE
8
DEFAULT_255_2_778
10
118.1908742
20
14.8138714
11
114.4498742
21
14.8138714
0
LINE
8
DEFAULT_255_2_778
10
112.2355742
20
16.5018714
11
111.0819742
21
17.6554714
0
LINE
8
DEFAULT_255_2_778
10
111.0819742
20
17.6554714
11
111.0483742
21
17.6810714
0
LINE
8
DEFAULT_255_2_778
10
111.0483742
20
17.6810714
11
111.0102742
21
17.7004714
0
LINE
8
DEFAULT_255_2_778
10
111.0102742
20
17.7004714
11
110.9690742
21
17.7112714
0
LINE
8
DEFAULT_255_2_778
10
110.9690742
20
17.7112714
11
110.9272742
21
17.7131714
0
LINE
8
DEFAULT_255_2_778
10
110.9272742
20
17.7131714
11
110.8877742
21
17.7067714
0
LINE
8
DEFAULT_255_2_778
10
110.8877742
20
17.7067714
11
110.8525742
21
17.6935714
0
LINE
8
DEFAULT_255_2_778
10
110.8525742
20
17.6935714
11
110.8229742
21
17.6758714
0
LINE
8
DEFAULT_255_2_778
10
110.8229742
20
17.6758714
11
110.7991742
21
17.6554714
0
ARC
8
DEFAULT_255_2_778
10
122.2046147
20
21.5179188
40
0.9521341
50
311.7187968
51
319.0768381
0
ARC
8
DEFAULT_255_2_778
10
122.2689616
20
21.4645047
40
0.8685273
50
318.9586849
51
327.1537339
0
ARC
8
DEFAULT_255_2_778
10
122.3189944
20
21.4380155
40
0.8121405
50
326.8092541
51
333.1120273
0
ARC
8
DEFAULT_255_2_778
10
122.0780018
20
21.5454736
40
1.075758
50
333.8122782
51
340.3739677
0
ARC
8
DEFAULT_255_2_778
10
111.0233236
20
25.6943822
40
12.8832209
50
339.5074319
51
339.5433271
0
ARC
8
DEFAULT_255_2_778
10
98.1260232
20
30.5095112
40
26.6500586
50
339.5349894
51
339.5432898
0
ARC
8
DEFAULT_255_2_778
10
113.0347527
20
132.5172557
40
0.303332
50
226.4175768
51
269.7324703
0
ARC
8
DEFAULT_255_2_778
10
113.03792
20
132.5161358
40
0.3047198
50
182.6914418
51
225.840996
0
ARC
8
DEFAULT_255_2_778
10
88.7635497
20
131.5158203
40
23.9902578
50
2.355537
51
20.341337
0
ARC
8
DEFAULT_255_2_778
10
109.3810637
20
139.159475
40
2.0014575
50
20.3389219
51
29.9908529
0
ARC
8
DEFAULT_255_2_778
10
108.8399063
20
144.7056824
40
0.3030562
50
180.0519564
51
209.6137543
0
ARC
8
DEFAULT_255_2_778
10
108.8446275
20
144.7066736
40
0.3077799
50
179.9912718
51
180.2356768
0
ARC
8
DEFAULT_255_2_778
10
108.835494
20
144.7077381
40
0.2986484
50
155.6387855
51
180.1952464
0
ARC
8
DEFAULT_255_2_778
10
107.2929178
20
145.4144619
40
1.3981168
50
335.3312109
51
358.7771581
0
ARC
8
DEFAULT_255_2_778
10
107.2897576
20
145.4146354
40
1.4012801
50
358.7728249
51
359.9995087
0
ARC
8
DEFAULT_255_2_778
10
107.2915934
20
145.4148126
40
1.3994442
50
359.9922531
51
33.054812
0
ARC
8
DEFAULT_255_2_778
10
107.2911728
20
145.4142374
40
1.4001105
50
33.0651509
51
89.9959963
0
ARC
8
DEFAULT_255_2_778
10
107.2912634
20
145.4111589
40
1.4031891
50
89.9997076
51
90.7524453
0
ARC
8
DEFAULT_255_2_778
10
124.7877241
20
11.3167862
40
1.9928139
50
359.9264183
51
24.3120318
0
ARC
8
DEFAULT_255_2_778
10
124.7787005
20
11.3115933
40
2.0031756
50
24.34113
51
80.1955271
0
ARC
8
DEFAULT_255_2_778
10
124.7809668
20
11.3006257
40
2.0136013
50
80.3122132
51
90.0122462
0
LINE
8
DEFAULT_255_2_778
10
117.6611364
20
19.454127
11
118.0466364
21
19.557327
0
LINE
8
DEFAULT_255_2_778
10
118.0466364
20
19.557327
11
120.2070364
21
20.060527
0
LINE
8
DEFAULT_255_2_778
10
120.2070364
20
20.060527
11
122.3570364
21
20.561427
0
LINE
8
DEFAULT_255_2_778
10
122.3570364
20
20.561427
11
122.4485364
21
20.586827
0
LINE
8
DEFAULT_255_2_778
10
122.4485364
20
20.586827
11
122.5326364
21
20.617427
0
LINE
8
DEFAULT_255_2_778
10
122.5326364
20
20.617427
11
122.6088364
21
20.652127
0
LINE
8
DEFAULT_255_2_778
10
122.6088364
20
20.652127
11
122.6774364
21
20.689727
0
LINE
8
DEFAULT_255_2_778
10
122.6774364
20
20.689727
11
122.7382364
21
20.728627
0
LINE
8
DEFAULT_255_2_778
10
122.7382364
20
20.728627
11
122.7917364
21
20.768027
0
LINE
8
DEFAULT_255_2_778
10
122.7917364
20
20.768027
11
122.8382364
21
20.807227
0
LINE
8
DEFAULT_255_2_778
10
127.1906364
20
11.814027
11
126.7170364
21
11.814027
0
LINE
8
DEFAULT_255_2_778
10
111.1145364
20
140.159927
11
108.5764364
21
144.555927
0
LINE
8
DEFAULT_255_2_778
10
107.2728364
20
146.814227
11
57.3909364
21
146.814227
0
LINE
8
DEFAULT_255_2_778
10
57.3909364
20
146.814227
11
57.3909364
21
15.214127
0
LINE
8
DEFAULT_255_2_778
10
110.8396364
20
5.314227
11
126.7805364
21
5.314227
0
LINE
8
DEFAULT_255_2_778
10
126.7805364
20
5.314227
11
126.7805364
21
11.314227
0
ARC
8
DEFAULT_255_2_778
10
110.8401739
20
10.3149808
40
5.0009827
50
237.6537811
51
269.9943191
0
ARC
8
DEFAULT_255_2_778
10
121.892671
20
9.824166
40
2.002096
50
156.5280408
51
180.0992451
0
ARC
8
DEFAULT_255_2_778
10
121.885778
20
9.8249912
40
1.9954456
50
100.1860908
51
156.4709419
0
ARC
8
DEFAULT_255_2_778
10
121.8895601
20
9.792758
40
2.0278404
50
89.9712399
51
100.1302094
0
ARC
8
DEFAULT_255_2_778
10
121.8940442
20
9.8184789
40
2.0021222
50
66.5283127
51
90.0991935
0
ARC
8
DEFAULT_255_2_778
10
121.8949094
20
9.8254138
40
1.9954174
50
10.1878317
51
66.4717899
0
ARC
8
DEFAULT_255_2_778
10
121.862955
20
9.8217144
40
2.0275233
50
359.9712778
51
10.1310049
0
ARC
8
DEFAULT_255_2_778
10
121.8880656
20
9.8172306
40
2.0024154
50
336.5736611
51
0.0992166
0
ARC
8
DEFAULT_255_2_778
10
121.8952905
20
9.8162424
40
1.995394
50
280.1947202
51
336.5172172
0
ARC
8
DEFAULT_255_2_778
10
121.8915971
20
9.8481847
40
2.0274868
50
269.9712021
51
280.13768
0
ARC
8
DEFAULT_255_2_778
10
121.8871083
20
9.8230795
40
2.0023845
50
246.5733489
51
270.0992821
0
ARC
8
DEFAULT_255_2_778
10
121.8861613
20
9.8159015
40
1.9954226
50
190.1929838
51
246.5163563
0
ARC
8
DEFAULT_255_2_778
10
121.9183816
20
9.8196775
40
2.0278038
50
179.9711642
51
190.1368845
0
LINE
8
DEFAULT_255_2_778
10
108.164478
20
6.0899981
11
94.389778
21
14.8140981
0
LINE
8
DEFAULT_255_2_778
10
94.389778
20
14.8140981
11
57.390678
21
14.8140981
0
LINE
8
DEFAULT_255_2_778
10
57.390678
20
14.8140981
11
57.390678
21
16.6140981
0
LINE
8
DEFAULT_255_2_778
10
57.390678
20
16.6140981
11
57.690678
21
16.6140981
0
LINE
8
DEFAULT_255_2_778
10
57.690678
20
16.6140981
11
57.690678
21
145.0139981
0
LINE
8
DEFAULT_255_2_778
10
57.690678
20
145.0139981
11
57.390678
21
145.0139981
0
LINE
8
DEFAULT_255_2_778
10
119.890578
20
9.8206981
11
119.890578
21
9.8206981
0
ARC
8
DEFAULT_255_2_778
10
110.1895741
20
14.3105443
40
0.9965914
50
228.3501311
51
270.0632453
0
ARC
8
DEFAULT_255_2_778
10
110.1883511
20
14.3129141
40
0.9975524
50
181.731428
51
228.4930773
0
ARC
8
DEFAULT_255_2_778
10
110.2091682
20
14.3140309
40
1.0183939
50
179.9987247
51
181.7588418
0
ARC
8
DEFAULT_255_2_778
10
110.1869425
20
16.9153996
40
0.9961691
50
138.351993
51
180.0716663
0
ARC
8
DEFAULT_255_2_778
10
110.1896952
20
16.9162926
40
0.9976357
50
91.740495
51
138.49538
0
ARC
8
DEFAULT_255_2_778
10
110.1908331
20
16.8956183
40
1.0183352
50
90.0089374
51
91.7691548
0
ARC
8
DEFAULT_255_2_778
10
111.9901674
20
17.3132951
40
0.1992168
50
224.9081557
51
270.0882407
0
ARC
8
DEFAULT_255_2_778
10
111.990781
20
17.3132951
40
0.1992168
50
269.9117593
51
315.0918443
0
ARC
8
DEFAULT_255_2_778
10
113.5141691
20
22.918519
40
5.0045655
50
270.0080724
51
284.9944085
0
ARC
8
DEFAULT_255_2_778
10
-882.5803221
20
67.586934
40
1000.013837
50
357.1843721
51
359.853308
0
ARC
8
DEFAULT_255_2_778
10
-882.5064007
20
67.5866427
40
999.9399151
50
359.8533139
51
0.0000043
0
ARC
8
DEFAULT_255_2_778
10
-882.5316384
20
67.5869953
40
999.9651529
50
359.9999841
51
3.6894467
0
ARC
8
DEFAULT_255_2_778
10
115.0916369
20
131.9245606
40
0.2684731
50
13.9655734
51
24.889691
0
ARC
8
DEFAULT_255_2_778
10
115.0696997
20
131.927393
40
0.2847722
50
46.2358594
51
70.1548093
0
ARC
8
DEFAULT_255_2_778
10
115.0312011
20
131.7478757
40
0.4673529
50
73.1880581
51
86.298312
0
LINE
8
DEFAULT_255_2_778
10
127.0996742
20
13.3139536
11
110.1906742
21
13.3139536
0
LINE
8
DEFAULT_255_2_778
10
109.1907742
20
14.3140536
11
109.1907742
21
16.9141536
0
LINE
8
DEFAULT_255_2_778
10
110.1906742
20
17.9139536
11
111.1076742
21
17.9139536
0
LINE
8
DEFAULT_255_2_778
10
111.1076742
20
17.9139536
11
111.8490742
21
17.1726536
0
LINE
8
DEFAULT_255_2_778
10
112.1318742
20
17.1726536
11
112.8732742
21
17.9139536
0
LINE
8
DEFAULT_255_2_778
10
112.8732742
20
17.9139536
11
113.5148742
21
17.9139536
0
LINE
8
DEFAULT_255_2_778
10
114.8089742
20
18.0843536
11
115.9220742
21
18.3825536
0
LINE
8
DEFAULT_255_2_778
10
115.9220742
20
18.3825536
11
116.1344742
21
18.4394536
0
LINE
8
DEFAULT_255_2_778
10
116.1344742
20
18.4394536
11
116.2262742
21
18.4640536
0
LINE
8
DEFAULT_255_2_778
10
115.3610742
20
131.9332536
11
115.3521742
21
131.9893536
0
LINE
8
DEFAULT_255_2_778
10
115.3351742
20
132.0375536
11
115.3134742
21
132.0771536
0
LINE
8
DEFAULT_255_2_778
10
115.3134742
20
132.0771536
11
115.2899742
21
132.1086536
0
LINE
8
DEFAULT_255_2_778
10
115.2899742
20
132.1086536
11
115.2666742
21
132.1330536
0
LINE
8
DEFAULT_255_2_778
10
115.0613742
20
132.2142536
11
113.0322742
21
132.2142536
0
ARC
8
DEFAULT_255_2_778
10
9.390124
20
25.9560476
40
0.9997863
50
164.9917547
51
175.9179285
0
ARC
8
DEFAULT_255_2_778
10
9.3894445
20
25.9561414
40
0.9991018
50
175.9205194
51
180.0001957
0
ARC
8
DEFAULT_255_2_778
10
9.3905811
20
25.9561067
40
1.0002386
50
179.9982111
51
220.451305
0
ARC
8
DEFAULT_255_2_778
10
9.3602556
20
25.9211371
40
0.9541082
50
223.7673377
51
234.9296129
0
ARC
8
DEFAULT_255_2_778
10
9.3897319
20
25.9546027
40
0.9984466
50
234.6486465
51
243.4239685
0
ARC
8
DEFAULT_255_2_778
10
9.397543
20
25.9669717
40
0.7628411
50
235.6253863
51
245.511877
0
ARC
8
DEFAULT_255_2_778
10
9.3731034
20
25.9363006
40
0.7237333
50
224.8986027
51
235.8513729
0
ARC
8
DEFAULT_255_2_778
10
9.3906772
20
25.9565208
40
0.7503399
50
180.0120112
51
220.4561992
0
ARC
8
DEFAULT_255_2_778
10
9.3880341
20
25.9563695
40
0.747697
50
175.9736669
51
180.0004579
0
ARC
8
DEFAULT_255_2_778
10
9.3880912
20
25.9563428
40
0.7477558
50
164.9623883
51
175.9719338
0
ARC
8
DEFAULT_255_2_778
10
10.9913805
20
132.013487
40
0.8990613
50
310.3048206
51
0.0014188
0
LINE
8
DEFAULT_255_2_778
10
11.8904419
20
132.0135092
11
11.8904418
21
132.0138503
0
ARC
8
DEFAULT_255_2_778
10
9.3887259
20
138.3717396
40
0.7483899
50
184.0376256
51
195.0310535
0
ARC
8
DEFAULT_255_2_778
10
9.3887573
20
138.3717253
40
0.7484204
50
179.9998161
51
184.0363636
0
ARC
8
DEFAULT_255_2_778
10
9.3898506
20
138.3717844
40
0.7495135
50
139.520519
51
180.0043306
0
ARC
8
DEFAULT_255_2_778
10
9.3170871
20
138.4762694
40
0.6225531
50
119.5301918
51
129.4705215
0
ARC
8
DEFAULT_255_2_778
10
9.4159465
20
138.312214
40
1.0642651
50
110.1951733
51
117.72977
0
ARC
8
DEFAULT_255_2_778
10
9.3499114
20
138.4338541
40
0.9258707
50
117.6151776
51
128.7377311
0
ARC
8
DEFAULT_255_2_778
10
9.7748863
20
137.9728894
40
1.5519592
50
130.3267797
51
137.3475847
0
ARC
8
DEFAULT_255_2_778
10
19.2116098
20
128.8671668
40
14.6651664
50
136.1628748
51
136.1740115
0
LINE
8
DEFAULT_255_2_778
10
8.631481
20
139.0223617
11
8.6297418
21
139.0205503
0
ARC
8
DEFAULT_255_2_778
10
9.3905747
20
138.3716221
40
0.9999872
50
139.5385337
51
180.0072163
0
ARC
8
DEFAULT_255_2_778
10
9.3903394
20
138.3714925
40
0.9997518
50
179.9997887
51
184.0729902
0
ARC
8
DEFAULT_255_2_778
10
9.391298
20
138.3716115
40
1.0007163
50
184.0758917
51
194.9915117
0
LINE
8
DEFAULT_255_2_778
10
116.2268418
20
18.4642503
11
117.4803418
21
18.8000503
0
LINE
8
DEFAULT_255_2_778
10
117.4803418
20
18.8000503
11
117.6325418
21
18.8407503
0
LINE
8
DEFAULT_255_2_778
10
117.6325418
20
18.8407503
11
117.8690418
21
23.9429503
0
LINE
8
DEFAULT_255_2_778
10
107.3068418
20
146.8141503
11
118.4696418
21
146.8141503
0
LINE
8
DEFAULT_255_2_778
10
9.8905418
20
31.6860503
11
8.4244418
21
26.2149503
0
LINE
8
DEFAULT_255_2_778
10
8.6294418
20
25.3071503
11
8.6712418
21
25.2611503
0
LINE
8
DEFAULT_255_2_778
10
8.9430418
20
25.0616503
11
9.0438418
21
25.0179503
0
LINE
8
DEFAULT_255_2_778
10
9.0438418
20
25.0179503
11
9.1078418
21
24.9968503
0
LINE
8
DEFAULT_255_2_778
10
9.1078418
20
24.9968503
11
9.1313418
21
24.9901503
0
LINE
8
DEFAULT_255_2_778
10
9.1313418
20
24.9901503
11
9.1959418
21
25.2317503
0
LINE
8
DEFAULT_255_2_778
10
9.1959418
20
25.2317503
11
9.1663418
21
25.2404503
0
LINE
8
DEFAULT_255_2_778
10
9.1663418
20
25.2404503
11
9.0813418
21
25.2727503
0
LINE
8
DEFAULT_255_2_778
10
8.8604418
20
25.4254503
11
8.8197418
21
25.4696503
0
LINE
8
DEFAULT_255_2_778
10
8.6659418
20
26.1503503
11
9.8905418
21
30.7200503
0
LINE
8
DEFAULT_255_2_778
10
11.8904418
20
132.0138503
11
11.8904418
21
137.2140503
0
LINE
8
DEFAULT_255_2_778
10
8.8197418
20
138.8583503
11
8.9213418
21
138.9568503
0
LINE
8
DEFAULT_255_2_778
10
9.0102418
20
139.0179503
11
9.0948418
21
139.0608503
0
LINE
8
DEFAULT_255_2_778
10
9.0948418
20
139.0608503
11
9.1629418
21
139.0862503
0
LINE
8
DEFAULT_255_2_778
10
9.1629418
20
139.0862503
11
9.1956418
21
139.0957503
0
LINE
8
DEFAULT_255_2_778
10
9.1956418
20
139.0957503
11
9.1962418
21
139.0957503
0
LINE
8
DEFAULT_255_2_778
10
9.1962418
20
139.0957503
11
9.1316418
21
139.3372503
0
LINE
8
DEFAULT_255_2_778
10
9.1316418
20
139.3372503
11
9.1200418
21
139.3341503
0
LINE
8
DEFAULT_255_2_778
10
9.1200418
20
139.3341503
11
9.0485418
21
139.3110503
0
LINE
8
DEFAULT_255_2_778
10
8.4246418
20
138.1127503
11
9.4256418
21
134.3774503
0
LINE
8
DEFAULT_255_2_778
10
9.5563418
20
133.8897503
11
9.8907418
21
132.6417503
0
ARC
8
DEFAULT_255_2_778
10
27.5229112
20
7.5130983
40
0.2999019
50
1.4907126
51
89.9998956
0
ARC
8
DEFAULT_255_2_778
10
28.1851871
20
6.1312831
40
0.3271222
50
185.7516033
51
202.2913497
0
ARC
8
DEFAULT_255_2_778
10
28.0785842
20
6.1004403
40
0.2171132
50
205.4328927
51
219.2743292
0
ARC
8
DEFAULT_255_2_778
10
28.1212571
20
6.1337671
40
0.2712469
50
219.0178255
51
230.6883358
0
ARC
8
DEFAULT_255_2_778
10
28.1815208
20
6.3627768
40
0.5105512
50
255.096564
51
267.5293056
0
LINE
8
DEFAULT_255_2_778
10
8.6663117
20
138.1777002
11
9.6302117
21
134.5804002
0
LINE
8
DEFAULT_255_2_778
10
26.4130117
20
7.8130002
11
27.5229117
21
7.8130002
0
LINE
8
DEFAULT_255_2_778
10
27.8227117
20
7.5209002
11
27.8444117
21
6.6906002
0
LINE
8
DEFAULT_255_2_778
10
27.8444117
20
6.6906002
11
27.8489117
21
6.5155002
0
LINE
8
DEFAULT_255_2_778
10
27.8489117
20
6.5155002
11
27.8531117
21
6.3522002
0
LINE
8
DEFAULT_255_2_778
10
27.8531117
20
6.3522002
11
27.8568117
21
6.2112002
0
LINE
8
DEFAULT_255_2_778
10
27.8568117
20
6.2112002
11
27.8597117
21
6.0985002
0
LINE
8
DEFAULT_255_2_778
10
27.9494117
20
5.9239002
11
27.9970117
21
5.8921002
0
LINE
8
DEFAULT_255_2_778
10
27.9970117
20
5.8921002
11
28.0502117
21
5.8694002
0
ARC
8
DEFAULT_255_2_778
10
28.3091972
20
4.4575147
40
0.4073389
50
176.6170977
51
179.9985664
0
ARC
8
DEFAULT_255_2_778
10
28.3086308
20
4.4579334
40
0.4067729
50
180.0575338
51
248.1240634
0
ARC
8
DEFAULT_255_2_778
10
17.3904396
20
2.5129615
40
0.2999103
50
184.9945191
51
269.986324
0
ARC
8
DEFAULT_255_2_778
10
17.8903586
20
2.5131606
40
0.3001094
50
270.0208901
51
359.9791099
0
ARC
8
DEFAULT_255_2_778
10
31.8860975
20
-43.5910864
40
48.9538461
50
94.6899291
51
98.4523003
0
ARC
8
DEFAULT_255_2_778
10
31.8889585
20
-43.633389
40
48.9960791
50
99.7509834
51
105.5719238
0
ARC
8
DEFAULT_255_2_778
10
11.8906453
20
131.714996
40
0.5002354
50
192.8139115
51
269.9391333
0
ARC
8
DEFAULT_255_2_778
10
11.8900518
20
131.718586
40
0.5038251
50
270.0070658
51
276.3491285
0
ARC
8
DEFAULT_255_2_778
10
11.8904021
20
131.7149447
40
0.5001673
50
276.3553755
51
359.8747373
0
ARC
8
DEFAULT_255_2_778
10
11.8904753
20
136.7129234
40
0.5000938
50
0.1177488
51
83.652126
0
ARC
8
DEFAULT_255_2_778
10
11.8900251
20
136.7089945
40
0.5040485
50
83.6506434
51
89.9929092
0
ARC
8
DEFAULT_255_2_778
10
11.890559
20
136.7129164
40
0.5001268
50
90.0540178
51
167.1961895
0
ARC
8
DEFAULT_255_2_778
10
13.8893582
20
134.2139412
40
2.9985902
50
167.3140763
51
180.000048
0
ARC
8
DEFAULT_255_2_778
10
13.5206263
20
134.2139387
40
2.6298582
50
180
51
180.0446925
0
ARC
8
DEFAULT_255_2_778
10
13.8903618
20
134.2139732
40
2.9995938
50
180.0398437
51
192.6838025
0
ARC
8
DEFAULT_255_2_778
10
3.7956599
20
95.8775482
40
0.4049155
50
180.6221944
51
263.2358752
0
ARC
8
DEFAULT_255_2_778
10
3.79566
20
115.7503538
40
0.4049159
50
96.7641386
51
179.377756
0
ARC
8
DEFAULT_255_2_778
10
6.3910669
20
139.3167667
40
3.4997022
50
359.9555421
51
17.0766317
0
ARC
8
DEFAULT_255_2_778
10
6.384447
20
139.3076968
40
3.5086999
50
17.1864672
51
72.2960628
0
ARC
8
DEFAULT_255_2_778
10
6.3941049
20
139.3172693
40
3.4966495
50
72.3991218
51
89.4857288
0
ARC
8
DEFAULT_255_2_778
10
6.3903311
20
139.242118
40
3.5718332
50
89.4360153
51
89.9913859
0
ARC
8
DEFAULT_255_2_778
10
5.8893316
20
141.8177003
40
0.9962519
50
89.91739
51
131.6397618
0
ARC
8
DEFAULT_255_2_778
10
5.8885337
20
141.8148705
40
0.9978396
50
131.4975553
51
178.2503659
0
ARC
8
DEFAULT_255_2_778
10
5.9101791
20
141.8136908
40
1.0195111
50
178.2212415
51
179.9797471
0
LINE
8
DEFAULT_255_2_778
10
27.8599681
20
6.0984512
11
27.8795681
21
5.3547512
0
LINE
8
DEFAULT_255_2_778
10
27.8795681
20
5.3547512
11
27.8938681
21
4.8131512
0
LINE
8
DEFAULT_255_2_778
10
27.8938681
20
4.8131512
11
27.9025681
21
4.4829512
0
LINE
8
DEFAULT_255_2_778
10
27.9025681
20
4.4829512
11
27.9025681
21
4.4815512
0
LINE
8
DEFAULT_255_2_778
10
28.1570681
20
4.0804512
11
28.7148681
21
4.0804512
0
LINE
8
DEFAULT_255_2_778
10
17.3903681
20
2.2130512
11
17.8904681
21
2.2130512
0
LINE
8
DEFAULT_255_2_778
10
18.1904681
20
2.5130512
11
18.1904681
21
3.2139512
0
LINE
8
DEFAULT_255_2_778
10
24.7026681
20
6.9702512
11
27.8480681
21
6.5561512
0
LINE
8
DEFAULT_255_2_778
10
10.9639681
20
133.5553512
11
11.4028681
21
131.6040512
0
LINE
8
DEFAULT_255_2_778
10
12.3905681
20
131.7138512
11
12.3905681
21
136.7139512
0
LINE
8
DEFAULT_255_2_778
10
11.4028681
20
136.8237512
11
10.9639681
21
134.8724512
0
LINE
8
DEFAULT_255_2_778
10
9.8907681
20
116.8138512
11
9.8907681
21
95.2162512
0
LINE
8
DEFAULT_255_2_778
10
9.8907681
20
95.2162512
11
9.8823681
21
95.1386512
0
LINE
8
DEFAULT_255_2_778
10
9.8823681
20
95.1386512
11
9.8743681
21
95.0640512
0
LINE
8
DEFAULT_255_2_778
10
9.8743681
20
95.0640512
11
9.8669681
21
94.9952512
0
LINE
8
DEFAULT_255_2_778
10
9.8669681
20
94.9952512
11
9.8603681
21
94.9349512
0
LINE
8
DEFAULT_255_2_778
10
9.8603681
20
94.9349512
11
9.8550681
21
94.8854512
0
LINE
8
DEFAULT_255_2_778
10
9.8550681
20
94.8854512
11
9.8510681
21
94.8486512
0
LINE
8
DEFAULT_255_2_778
10
9.8510681
20
94.8486512
11
9.8486681
21
94.8262512
0
LINE
8
DEFAULT_255_2_778
10
9.8486681
20
94.8262512
11
9.8479681
21
94.8185512
0
LINE
8
DEFAULT_255_2_778
10
9.8479681
20
94.8185512
11
3.7479681
21
95.4754512
0
LINE
8
DEFAULT_255_2_778
10
3.3907681
20
95.8731512
11
3.3907681
21
115.7547512
0
LINE
8
DEFAULT_255_2_778
10
3.7479681
20
116.1524512
11
9.8479681
21
116.8093512
0
LINE
8
DEFAULT_255_2_778
10
9.8479681
20
116.8093512
11
9.8907681
21
116.8138512
0
LINE
8
DEFAULT_255_2_778
10
9.8907681
20
116.8138512
11
9.8907681
21
139.3140512
0
LINE
8
DEFAULT_255_2_778
10
6.3908681
20
142.8139512
11
5.8907681
21
142.8139512
0
LINE
8
DEFAULT_255_2_778
10
4.8906681
20
140.7139512
11
4.8906681
21
141.8138512
0
ARC
8
DEFAULT_255_2_778
10
2.6906668
20
144.51383
40
2.3003997
50
90.0014136
51
134.9939594
0
ARC
8
DEFAULT_255_2_778
10
2.6910098
20
144.514173
40
2.3003997
50
135.0060406
51
179.9985864
0
ARC
8
DEFAULT_255_2_778
10
0.5688005
20
140.3139466
40
0.1781908
50
179.9089573
51
180.0303466
0
ARC
8
DEFAULT_255_2_778
10
0.7902416
20
140.3137629
40
0.3996318
50
179.9871931
51
224.9900165
0
ARC
8
DEFAULT_255_2_778
10
0.7902535
20
140.3137864
40
0.3996569
50
224.991197
51
269.9970351
0
LINE
8
DEFAULT_255_2_778
10
0.7902328
20
139.9141295
11
0.79061
21
139.9141297
0
ARC
8
DEFAULT_255_2_778
10
4.0904556
20
140.7143091
40
0.8001793
50
270.0038926
51
356.8621524
0
ARC
8
DEFAULT_255_2_778
10
4.0778433
20
140.7141926
40
0.8127669
50
356.9190192
51
0.0026177
0
ARC
8
DEFAULT_255_2_778
10
6.8376022
20
69.6132196
40
1.2568416
50
139.4005943
51
170.6076111
0
LINE
8
DEFAULT_255_2_778
10
57.39061
20
146.8142297
11
2.69061
21
146.8142297
0
LINE
8
DEFAULT_255_2_778
10
0.39061
20
144.5142297
11
0.39061
21
140.3142297
0
LINE
8
DEFAULT_255_2_778
10
0.79061
20
139.9141297
11
4.09051
21
139.9141297
0
LINE
8
DEFAULT_255_2_778
10
5.77301
20
37.2211297
11
5.59761
21
37.6569297
0
LINE
8
DEFAULT_255_2_778
10
5.59761
20
37.6569297
11
5.59761
21
69.8183297
0
LINE
8
DEFAULT_255_2_778
10
5.88331
20
70.4311297
11
7.16531
21
71.5066297
0
LINE
8
DEFAULT_255_2_778
10
7.16531
20
71.5066297
11
12.50321
21
75.9786297
0
LINE
8
DEFAULT_255_2_778
10
12.50321
20
75.9786297
11
12.50321
21
94.5328297
0
LINE
8
DEFAULT_255_2_778
10
12.50321
20
94.5328297
11
9.84791
21
94.8188297
0
ARC
8
DEFAULT_255_2_778
10
5.8765656
20
135.0497058
40
15.7358086
50
264.5626031
51
270.0507431
0
ARC
8
DEFAULT_255_2_778
10
5.9185699
20
135.3825865
40
16.0711749
50
261.3182877
51
264.5259815
0
ARC
8
DEFAULT_255_2_778
10
6.1960452
20
137.1858555
40
17.8956659
50
258.5297319
51
261.3115609
0
ARC
8
DEFAULT_255_2_778
10
6.7576109
20
139.9616247
40
20.7276702
50
256.348771
51
258.5342588
0
ARC
8
DEFAULT_255_2_778
10
7.5794424
20
143.3591725
40
24.2232001
50
254.7024941
51
256.3564437
0
ARC
8
DEFAULT_255_2_778
10
8.7079502
20
147.4847151
40
28.5003055
50
253.2112264
51
254.7023388
0
ARC
8
DEFAULT_255_2_778
10
0.6642054
20
124.4983227
40
0.47614
50
118.5149614
51
174.0834243
0
ARC
8
DEFAULT_255_2_778
10
0.641487
20
120.6206573
40
0.4524631
50
184.7863712
51
248.5602828
0
ARC
8
DEFAULT_255_2_778
10
3.3932611
20
73.7084946
40
0.405186
50
100.2584882
51
139.7299068
0
ARC
8
DEFAULT_255_2_778
10
3.3926691
20
73.7123221
40
0.4022683
50
140.0913739
51
179.8744718
0
ARC
8
DEFAULT_255_2_778
10
3.3572839
20
38.0367367
40
0.3655293
50
189.532349
51
200.3197438
0
ARC
8
DEFAULT_255_2_778
10
3.4073128
20
38.0556712
40
0.4190202
50
200.3721461
51
209.7725327
0
ARC
8
DEFAULT_255_2_778
10
3.4063256
20
38.0596053
40
0.420135
50
210.3050891
51
219.9189328
0
ARC
8
DEFAULT_255_2_778
10
3.3761135
20
38.0273397
40
0.3762969
50
219.1029244
51
240.1996466
0
ARC
8
DEFAULT_255_2_778
10
3.4386843
20
38.1937961
40
0.5525697
50
243.1487274
51
256.0529556
0
ARC
8
DEFAULT_255_2_778
10
4.9101113
20
43.3569808
40
5.9210358
50
254.2761234
51
254.4308842
0
ARC
8
DEFAULT_255_2_778
10
10.2953262
20
0.2186278
40
0.4048532
50
180.6827791
51
269.3172209
0
LINE
8
DEFAULT_255_2_778
10
12.8821018
20
-0.1861966
11
12.882559
21
-0.1861967
0
ARC
8
DEFAULT_255_2_778
10
12.8824518
20
1.3136139
40
1.4998106
50
270.0040959
51
307.2463294
0
ARC
8
DEFAULT_255_2_778
10
57.3936106
20
-57.2229726
40
72.0377661
50
121.4000321
51
127.2493825
0
ARC
8
DEFAULT_255_2_778
10
57.3853937
20
-57.2106662
40
72.022981
50
113.550889
51
121.3995534
0
ARC
8
DEFAULT_255_2_778
10
57.3928493
20
-57.2266735
40
72.040634
50
98.8710975
51
113.5512379
0
ARC
8
DEFAULT_255_2_778
10
57.3886456
20
-57.2057454
40
72.019308
50
92.3638486
51
98.8703607
0
ARC
8
DEFAULT_255_2_778
10
57.3904427
20
-57.2451475
40
72.0587508
50
89.9998735
51
92.3639841
0
ARC
8
DEFAULT_255_2_778
10
53.7231037
20
13.6496872
40
2.7540827
50
348.4276377
51
354.5205514
0
ARC
8
DEFAULT_255_2_778
10
57.3989415
20
-57.2817823
40
68.0754009
50
93.1616191
51
102.5479591
0
ARC
8
DEFAULT_255_2_778
10
57.4020941
20
-57.2553101
40
68.0502466
50
102.5553924
51
111.9443646
0
ARC
8
DEFAULT_255_2_778
10
57.2464732
20
-72.3278955
40
82.1759426
50
107.9130804
51
107.9185948
0
LINE
8
DEFAULT_255_2_778
10
31.9637763
20
5.8620704
11
31.96163
21
5.8613765
0
ARC
8
DEFAULT_255_2_778
10
30.4099431
20
10.2761124
40
4.6794898
50
280.6879585
51
289.3655029
0
ARC
8
DEFAULT_255_2_778
10
30.870546
20
8.2199903
40
2.5746013
50
269.8651305
51
279.1013931
0
ARC
8
DEFAULT_255_2_778
10
30.8646276
20
8.4980179
40
2.8526215
50
268.7074881
51
269.9971481
0
ARC
8
DEFAULT_255_2_778
10
30.8705015
20
8.6775503
40
3.0322415
50
264.0029594
51
268.6730452
0
ARC
8
DEFAULT_255_2_778
10
30.8644372
20
8.710907
40
3.0647968
50
250.4943423
51
264.1808621
0
ARC
8
DEFAULT_255_2_778
10
30.8496182
20
8.6471266
40
2.9997377
50
236.2511148
51
250.3543804
0
ARC
8
DEFAULT_255_2_778
10
30.832847
20
8.6260968
40
2.9729354
50
222.8619759
51
236.2947045
0
ARC
8
DEFAULT_255_2_778
10
30.9483012
20
8.7177854
40
3.119953
50
208.6561943
51
222.6539309
0
ARC
8
DEFAULT_255_2_778
10
30.3900266
20
8.4570611
40
2.5053311
50
195.4818938
51
209.5466137
0
ARC
8
DEFAULT_255_2_778
10
30.4877008
20
8.4273899
40
2.5921175
50
185.5915079
51
194.2734514
0
ARC
8
DEFAULT_255_2_778
10
36.0016628
20
9.0231674
40
8.1380836
50
183.8928764
51
185.9835772
0
ARC
8
DEFAULT_255_2_778
10
49.456114
20
10.0240598
40
21.6296109
50
184.0606814
51
184.1184182
0
ARC
8
DEFAULT_255_2_778
10
3.7905331
20
115.754693
40
0.400034
50
138.0317104
51
148.130847
0
ARC
8
DEFAULT_255_2_778
10
3.7984079
20
115.7513421
40
0.4084931
50
148.3148722
51
159.6939433
0
ARC
8
DEFAULT_255_2_778
10
3.750034
20
115.7669286
40
0.357723
50
159.3464412
51
168.7358711
0
ARC
8
DEFAULT_255_2_778
10
3.9978691
20
115.733332
40
0.6075433
50
170.1940893
51
177.9841047
0
LINE
8
DEFAULT_255_2_778
10
9.8905018
20
75.2655034
11
9.8905018
21
94.8140034
0
LINE
8
DEFAULT_255_2_778
10
9.8905018
20
119.3139034
11
5.8905018
21
119.3139034
0
LINE
8
DEFAULT_255_2_778
10
0.4758018
20
120.1992034
11
0.4740018
21
120.1997034
0
LINE
8
DEFAULT_255_2_778
10
0.4740018
20
120.1997034
11
0.4629018
21
120.2034034
0
LINE
8
DEFAULT_255_2_778
10
9.8905018
20
130.6140034
11
9.4351018
21
130.6140034
0
LINE
8
DEFAULT_255_2_778
10
9.4351018
20
130.6140034
11
8.7655018
21
130.3198034
0
LINE
8
DEFAULT_255_2_778
10
8.7655018
20
130.3198034
11
8.5872018
21
130.2322034
0
LINE
8
DEFAULT_255_2_778
10
8.5872018
20
130.2322034
11
8.4197018
21
130.1311034
0
LINE
8
DEFAULT_255_2_778
10
8.4197018
20
130.1311034
11
8.2638018
21
130.0182034
0
LINE
8
DEFAULT_255_2_778
10
8.2638018
20
130.0182034
11
8.1202018
21
129.8946034
0
LINE
8
DEFAULT_255_2_778
10
8.1202018
20
129.8946034
11
7.9892018
21
129.7618034
0
LINE
8
DEFAULT_255_2_778
10
7.9892018
20
129.7618034
11
7.8712018
21
129.6213034
0
LINE
8
DEFAULT_255_2_778
10
7.8712018
20
129.6213034
11
7.7664018
21
129.4744034
0
LINE
8
DEFAULT_255_2_778
10
7.7664018
20
129.4744034
11
7.6751018
21
129.3226034
0
LINE
8
DEFAULT_255_2_778
10
7.6751018
20
129.3226034
11
7.5971018
21
129.1667034
0
LINE
8
DEFAULT_255_2_778
10
7.5971018
20
129.1667034
11
7.5320018
21
129.0082034
0
LINE
8
DEFAULT_255_2_778
10
7.5320018
20
129.0082034
11
7.4796018
21
128.8484034
0
LINE
8
DEFAULT_255_2_778
10
7.4796018
20
128.8484034
11
7.4397018
21
128.6881034
0
LINE
8
DEFAULT_255_2_778
10
7.4397018
20
128.6881034
11
7.4119018
21
128.5283034
0
LINE
8
DEFAULT_255_2_778
10
7.4119018
20
128.5283034
11
7.3957018
21
128.3701034
0
LINE
8
DEFAULT_255_2_778
10
7.3957018
20
128.3701034
11
7.3904018
21
128.2140034
0
LINE
8
DEFAULT_255_2_778
10
7.3904018
20
128.2140034
11
7.3904018
21
127.8139034
0
LINE
8
DEFAULT_255_2_778
10
7.3904018
20
127.8139034
11
1.0264018
21
125.1623034
0
LINE
8
DEFAULT_255_2_778
10
1.0264018
20
125.1623034
11
0.6145018
21
124.9905034
0
LINE
8
DEFAULT_255_2_778
10
0.6145018
20
124.9905034
11
0.4369018
21
124.9167034
0
LINE
8
DEFAULT_255_2_778
10
0.1906018
20
124.5474034
11
0.1906018
21
120.5829034
0
LINE
8
DEFAULT_255_2_778
10
9.8905018
20
75.2655034
11
3.3211018
21
74.1072034
0
LINE
8
DEFAULT_255_2_778
10
2.9904018
20
73.7132034
11
2.9904018
21
40.1625034
0
LINE
8
DEFAULT_255_2_778
10
2.9904018
20
40.1625034
11
2.9904018
21
38.0471034
0
LINE
8
DEFAULT_255_2_778
10
2.9904018
20
38.0471034
11
2.9968018
21
37.9762034
0
LINE
8
DEFAULT_255_2_778
10
3.3209018
20
37.6532034
11
9.8905018
21
36.4948034
0
LINE
8
DEFAULT_255_2_778
10
9.8905018
20
36.4948034
11
9.8905018
21
0.2138034
0
LINE
8
DEFAULT_255_2_778
10
10.2905018
20
-0.1861966
11
12.8821018
21
-0.1861966
0
LINE
8
DEFAULT_255_2_778
10
57.3906018
20
14.8136034
11
57.3906018
21
15.2136034
0
LINE
8
DEFAULT_255_2_778
10
56.4791018
20
13.6854034
11
56.4791018
21
14.8083034
0
LINE
8
DEFAULT_255_2_778
10
53.6446018
20
10.6900034
11
53.8232018
21
10.7054034
0
LINE
8
DEFAULT_255_2_778
10
53.8232018
20
10.7054034
11
54.0071018
21
10.7324034
0
LINE
8
DEFAULT_255_2_778
10
54.0071018
20
10.7324034
11
54.1955018
21
10.7723034
0
LINE
8
DEFAULT_255_2_778
10
54.1955018
20
10.7723034
11
54.3873018
21
10.8263034
0
LINE
8
DEFAULT_255_2_778
10
54.3873018
20
10.8263034
11
54.5813018
21
10.8953034
0
LINE
8
DEFAULT_255_2_778
10
54.5813018
20
10.8953034
11
54.7760018
21
10.9803034
0
LINE
8
DEFAULT_255_2_778
10
54.7760018
20
10.9803034
11
54.9702018
21
11.0821034
0
LINE
8
DEFAULT_255_2_778
10
54.9702018
20
11.0821034
11
55.1620018
21
11.2017034
0
LINE
8
DEFAULT_255_2_778
10
55.1620018
20
11.2017034
11
55.3493018
21
11.3396034
0
LINE
8
DEFAULT_255_2_778
10
55.3493018
20
11.3396034
11
55.5303018
21
11.4959034
0
LINE
8
DEFAULT_255_2_778
10
55.5303018
20
11.4959034
11
55.7028018
21
11.6714034
0
LINE
8
DEFAULT_255_2_778
10
55.7028018
20
11.6714034
11
55.8645018
21
11.8656034
0
LINE
8
DEFAULT_255_2_778
10
55.8645018
20
11.8656034
11
56.0127018
21
12.0783034
0
LINE
8
DEFAULT_255_2_778
10
56.0127018
20
12.0783034
11
56.1449018
21
12.3090034
0
LINE
8
DEFAULT_255_2_778
10
56.1449018
20
12.3090034
11
56.2590018
21
12.5567034
0
LINE
8
DEFAULT_255_2_778
10
56.2590018
20
12.5567034
11
56.3519018
21
12.8199034
0
LINE
8
DEFAULT_255_2_778
10
56.3519018
20
12.8199034
11
56.4212018
21
13.0972034
0
LINE
8
DEFAULT_255_2_778
10
56.4646018
20
13.3867034
11
56.4794018
21
13.6856034
0
LINE
8
DEFAULT_255_2_778
10
3.7479018
20
116.1524034
11
3.6950018
21
116.1431034
0
LINE
8
DEFAULT_255_2_778
10
3.6950018
20
116.1431034
11
3.6426018
21
116.1265034
0
LINE
8
DEFAULT_255_2_778
10
3.6426018
20
116.1265034
11
3.5908018
21
116.1013034
0
LINE
8
DEFAULT_255_2_778
10
3.5908018
20
116.1013034
11
3.5405018
21
116.0669034
0
LINE
8
DEFAULT_255_2_778
10
3.5405018
20
116.0669034
11
3.4931018
21
116.0222034
0
LINE
8
DEFAULT_255_2_778
10
7.5407018
20
74.8512034
11
7.5407018
21
95.0672034
0
LINE
8
DEFAULT_255_2_778
10
28.1600018
20
5.8526034
11
29.7586018
21
5.8529034
0
LINE
8
DEFAULT_255_2_778
10
127.1906018
20
6.3141034
11
126.7805018
21
6.3141034
0
ARC
8
DEFAULT_255_2_778
10
115.9928857
20
143.3117139
40
1.5098702
50
326.7462351
51
338.4606251
0
ARC
8
DEFAULT_255_2_778
10
115.9914189
20
143.3152076
40
1.513014
50
314.9589653
51
326.6660536
0
ARC
8
DEFAULT_255_2_778
10
115.9975268
20
143.3041194
40
1.500856
50
303.3129617
51
315.0930726
0
ARC
8
DEFAULT_255_2_778
10
115.9940021
20
143.3112575
40
1.5087573
50
291.5306653
51
303.2759432
0
ARC
8
DEFAULT_255_2_778
10
115.9894476
20
143.3234375
40
1.5217589
50
270.0590067
51
291.5218816
0
ARC
8
DEFAULT_255_2_778
10
115.9935818
20
143.3286816
40
1.5270044
50
248.515405
51
269.9036813
0
ARC
8
DEFAULT_255_2_778
10
115.9840757
20
143.3028026
40
1.4994422
50
236.6984955
51
248.4912313
0
ARC
8
DEFAULT_255_2_778
10
115.9957764
20
143.3180088
40
1.5185763
50
224.9804653
51
236.6445226
0
ARC
8
DEFAULT_255_2_778
10
115.9856335
20
143.3117482
40
1.5069789
50
213.350194
51
225.0846901
0
ARC
8
DEFAULT_255_2_778
10
115.9882533
20
143.3106112
40
1.508544
50
201.5142312
51
213.2594185
0
ARC
8
DEFAULT_255_2_778
10
116.0021643
20
143.3201373
40
1.524984
50
194.5090221
51
201.6555297
0
ARC
8
DEFAULT_255_2_778
10
115.8707568
20
143.2917047
40
1.3906545
50
186.9480006
51
194.7313418
0
ARC
8
DEFAULT_255_2_778
10
116.3412717
20
143.3258075
40
1.8619823
50
181.836694
51
186.2382356
0
ARC
8
DEFAULT_255_2_778
10
125.801327
20
143.7206744
40
11.3302024
50
182.1088895
51
182.299209
0
ARC
8
DEFAULT_255_2_778
10
84.7185069
20
142.1930942
40
29.7810091
50
2.137265
51
2.156984
0
ARC
8
DEFAULT_255_2_778
10
115.9970862
20
143.3119683
40
1.51933
50
146.7827953
51
158.4239943
0
ARC
8
DEFAULT_255_2_778
10
116.0032186
20
143.302165
40
1.5298386
50
135.0235581
51
146.6014532
0
ARC
8
DEFAULT_255_2_778
10
115.9855721
20
143.3220147
40
1.5033262
50
123.3226623
51
135.0833479
0
ARC
8
DEFAULT_255_2_778
10
115.9833394
20
143.3248804
40
1.4997052
50
111.4951089
51
123.3115317
0
ARC
8
DEFAULT_255_2_778
10
115.9922324
20
143.3038318
40
1.5225484
50
90.0646367
51
111.5162499
0
ARC
8
DEFAULT_255_2_778
10
115.9880245
20
143.2997794
40
1.526602
50
68.5125548
51
89.9065362
0
ARC
8
DEFAULT_255_2_778
10
115.9988056
20
143.3272833
40
1.4970607
50
56.6959392
51
68.5109176
0
ARC
8
DEFAULT_255_2_778
10
115.9875261
20
143.3142989
40
1.5141077
50
44.9061262
51
56.6089946
0
ARC
8
DEFAULT_255_2_778
10
116.0001699
20
143.3191517
40
1.501737
50
33.3429116
51
45.115541
0
ARC
8
DEFAULT_255_2_778
10
115.9757843
20
143.3076671
40
1.5284257
50
21.6064984
51
33.2001118
0
ARC
8
DEFAULT_255_2_778
10
115.8934782
20
143.279645
40
1.6152728
50
14.709023
51
21.4555871
0
ARC
8
DEFAULT_255_2_778
10
116.1380484
20
143.3421749
40
1.3628415
50
6.8312748
51
14.7770594
0
ARC
8
DEFAULT_255_2_778
10
115.6402579
20
143.3019512
40
1.8619823
50
1.836694
51
6.2382356
0
ARC
8
DEFAULT_255_2_778
10
106.1802025
20
142.9070843
40
11.3302024
50
2.1088895
51
2.299209
0
ARC
8
DEFAULT_255_2_778
10
147.2630227
20
144.4346645
40
29.7810091
50
182.137265
51
182.156984
0
LINE
8
DEFAULT_255_2_778
10
126.7805148
20
7.8139793
11
127.1906148
21
7.8139793
0
LINE
8
DEFAULT_255_2_778
10
117.5031148
20
143.3139793
11
117.4989148
21
143.1994793
0
LINE
8
DEFAULT_255_2_778
10
117.4989148
20
143.1994793
11
117.4862148
21
143.0864793
0
LINE
8
DEFAULT_255_2_778
10
117.4862148
20
143.0864793
11
117.4650148
21
142.9750793
0
LINE
8
DEFAULT_255_2_778
10
117.4650148
20
142.9750793
11
117.4354148
21
142.8652793
0
LINE
8
DEFAULT_255_2_778
10
117.4354148
20
142.8652793
11
117.3973148
21
142.7573793
0
LINE
8
DEFAULT_255_2_778
10
114.4784148
20
143.3139793
11
114.4826148
21
143.4285793
0
LINE
8
DEFAULT_255_2_778
10
114.4826148
20
143.4285793
11
114.4953148
21
143.5415793
0
LINE
8
DEFAULT_255_2_778
10
114.4953148
20
143.5415793
11
114.5165148
21
143.6529793
0
LINE
8
DEFAULT_255_2_778
10
114.5165148
20
143.6529793
11
114.5461148
21
143.7627793
0
LINE
8
DEFAULT_255_2_778
10
114.5461148
20
143.7627793
11
114.5842148
21
143.8706793
0
ARC
8
DEFAULT_255_2_778
10
114.5676615
20
146.1288434
40
0.1692905
50
256.2432357
51
267.9793053
0
ARC
8
DEFAULT_255_2_778
10
114.5617833
20
146.0343971
40
0.074739
50
269.9302116
51
274.6975704
0
ARC
8
DEFAULT_255_2_778
10
114.5551176
20
146.0712248
40
0.1120476
50
276.552691
51
293.2301949
0
ARC
8
DEFAULT_255_2_778
10
114.2650288
20
146.8328758
40
0.9269864
50
291.1378446
51
291.5399239
0
ARC
8
DEFAULT_255_2_778
10
115.2172765
20
144.4157279
40
1.6709708
50
111.4174557
51
111.4812921
0
ARC
8
DEFAULT_255_2_778
10
115.9916658
20
143.3061432
40
3.0033515
50
89.9993762
51
117.4520114
0
ARC
8
DEFAULT_255_2_778
10
115.991696
20
143.3063791
40
3.0031156
50
87.6101565
51
89.999953
0
ARC
8
DEFAULT_255_2_778
10
115.9916622
20
143.3063882
40
3.0031078
50
77.3074303
51
87.609505
0
ARC
8
DEFAULT_255_2_778
10
115.9863909
20
143.3078594
40
3.0028357
50
37.0525346
51
77.2031405
0
ARC
8
DEFAULT_255_2_778
10
115.983752
20
143.3121759
40
3.0023451
50
0.0014264
51
36.956449
0
ARC
8
DEFAULT_255_2_778
10
115.9817225
20
143.3122693
40
3.0043746
50
356.7971072
51
359.999643
0
ARC
8
DEFAULT_255_2_778
10
115.9831364
20
143.3173127
40
3.0032491
50
316.5551212
51
356.6995338
0
ARC
8
DEFAULT_255_2_778
10
115.9870003
20
143.3217436
40
3.0034965
50
276.3041682
51
316.4430647
0
ARC
8
DEFAULT_255_2_778
10
115.9926226
20
143.3261936
40
3.0073085
50
274.8008318
51
276.1883897
0
ARC
8
DEFAULT_255_2_778
10
115.9928314
20
143.3235223
40
3.0046291
50
270.0003113
51
274.8011269
0
ARC
8
DEFAULT_255_2_778
10
115.9927531
20
143.3220474
40
3.0031541
50
236.0481605
51
270.0018042
0
ARC
8
DEFAULT_255_2_778
10
115.9976539
20
143.3189632
40
3.0033383
50
195.7941388
51
235.9377466
0
ARC
8
DEFAULT_255_2_778
10
115.9989061
20
143.3139301
40
3.0031778
50
181.3813643
51
195.695237
0
ARC
8
DEFAULT_255_2_778
10
116.000202
20
143.3139469
40
3.0044737
50
180.0001514
51
181.3810891
0
ARC
8
DEFAULT_255_2_778
10
115.9985951
20
143.3140339
40
3.0028669
50
155.545982
51
180.0018121
0
ARC
8
DEFAULT_255_2_778
10
112.9948319
20
144.6529597
40
0.2867654
50
340.47324
51
344.6210982
0
ARC
8
DEFAULT_255_2_778
10
113.1882001
20
144.5999581
40
0.0862652
50
344.503044
51
357.8415892
0
ARC
8
DEFAULT_255_2_778
10
113.2026223
20
144.5978076
40
0.0717902
50
359.1232782
51
0.0205262
0
ARC
8
DEFAULT_255_2_778
10
113.1154545
20
144.5907759
40
0.1591146
50
2.5421438
51
16.8918142
0
ARC
8
DEFAULT_255_2_778
10
113.2467036
20
144.9618841
40
0.0943735
50
179.8360919
51
200.3216431
0
ARC
8
DEFAULT_255_2_778
10
113.2509815
20
144.9621541
40
0.098651
50
179.1680284
51
179.9999777
0
ARC
8
DEFAULT_255_2_778
10
113.2492369
20
144.9624545
40
0.0969026
50
149.3125809
51
179.3306767
0
ARC
8
DEFAULT_255_2_778
10
113.2484901
20
144.9615622
40
0.0967226
50
97.7158656
51
148.632256
0
ARC
8
DEFAULT_255_2_778
10
113.5783753
20
145.6027987
40
0.4985925
50
293.7151466
51
305.0067235
0
ARC
8
DEFAULT_255_2_778
10
113.5763044
20
145.6039279
40
0.5007066
50
305.1266889
51
316.6331422
0
ARC
8
DEFAULT_255_2_778
10
113.5764976
20
145.6064239
40
0.5022838
50
316.4110293
51
327.6030286
0
ARC
8
DEFAULT_255_2_778
10
113.5712098
20
145.6082564
40
0.5077321
50
327.7481321
51
339.1217556
0
ARC
8
DEFAULT_255_2_778
10
113.6067526
20
145.5986306
40
0.4711069
50
338.6750241
51
350.5781197
0
ARC
8
DEFAULT_255_2_778
10
113.4684294
20
145.6104301
40
0.609595
50
351.6124032
51
358.7903069
0
ARC
8
DEFAULT_255_2_778
10
109.9158237
20
145.7452295
40
4.1646837
50
357.9680142
51
358.2210695
0
ARC
8
DEFAULT_255_2_778
10
125.0008598
20
145.2690544
40
10.9278668
50
178.1475311
51
178.1809196
0
ARC
8
DEFAULT_255_2_778
10
114.2029997
20
145.9666474
40
0.0971308
50
124.485756
51
175.2390164
0
ARC
8
DEFAULT_255_2_778
10
114.2017295
20
145.9660714
40
0.0968961
50
90.369622
51
123.6737862
0
ARC
8
DEFAULT_255_2_778
10
114.2018813
20
145.9686745
40
0.0942944
50
90.0000038
51
90.472051
0
ARC
8
DEFAULT_255_2_778
10
114.2020596
20
145.9692984
40
0.0936706
50
72.4504604
51
90.1090827
0
LINE
8
DEFAULT_255_2_778
10
114.2300041
20
146.0583092
11
114.5274041
21
145.9644092
0
LINE
8
DEFAULT_255_2_778
10
113.2677041
20
144.6370092
11
113.1582041
21
144.9291092
0
LINE
8
DEFAULT_255_2_778
10
113.2355041
20
145.0574092
11
113.5860041
21
145.1032092
0
LINE
8
DEFAULT_255_2_778
10
113.5860041
20
145.1032092
11
113.6527041
21
145.1095092
0
LINE
8
DEFAULT_255_2_778
10
113.6527041
20
145.1095092
11
113.7170041
21
145.1238092
0
LINE
8
DEFAULT_255_2_778
10
113.7170041
20
145.1238092
11
113.7789041
21
145.1463092
0
LINE
8
DEFAULT_255_2_778
10
114.0787041
20
145.6223092
11
114.1062041
21
145.9747092
0
ARC
8
DEFAULT_255_2_778
10
114.5676615
20
146.1288434
40
0.1692905
50
256.2432357
51
267.9793053
0
ARC
8
DEFAULT_255_2_778
10
114.5617833
20
146.0343971
40
0.074739
50
269.9302116
51
274.6975704
0
ARC
8
DEFAULT_255_2_778
10
114.5551176
20
146.0712248
40
0.1120476
50
276.552691
51
293.2301949
0
ARC
8
DEFAULT_255_2_778
10
114.2650288
20
146.8328758
40
0.9269864
50
291.1378446
51
291.5399239
0
ARC
8
DEFAULT_255_2_778
10
115.2172765
20
144.4157279
40
1.6709708
50
111.4174557
51
111.4812921
0
ARC
8
DEFAULT_255_2_778
10
115.9916658
20
143.3061432
40
3.0033515
50
89.9993762
51
117.4520114
0
ARC
8
DEFAULT_255_2_778
10
115.991696
20
143.3063791
40
3.0031156
50
87.6101565
51
89.999953
0
ARC
8
DEFAULT_255_2_778
10
115.9916622
20
143.3063882
40
3.0031078
50
77.3074303
51
87.609505
0
ARC
8
DEFAULT_255_2_778
10
115.9863909
20
143.3078594
40
3.0028357
50
37.0525346
51
77.2031405
0
ARC
8
DEFAULT_255_2_778
10
115.983752
20
143.3121759
40
3.0023451
50
0.0014264
51
36.956449
0
ARC
8
DEFAULT_255_2_778
10
115.9817225
20
143.3122693
40
3.0043746
50
356.7971072
51
359.999643
0
ARC
8
DEFAULT_255_2_778
10
115.9831364
20
143.3173127
40
3.0032491
50
316.5551212
51
356.6995338
0
ARC
8
DEFAULT_255_2_778
10
115.9870003
20
143.3217436
40
3.0034965
50
276.3041682
51
316.4430647
0
ARC
8
DEFAULT_255_2_778
10
115.9926226
20
143.3261936
40
3.0073085
50
274.8008318
51
276.1883897
0
ARC
8
DEFAULT_255_2_778
10
115.9928314
20
143.3235223
40
3.0046291
50
270.0003113
51
274.8011269
0
ARC
8
DEFAULT_255_2_778
10
115.9927531
20
143.3220474
40
3.0031541
50
236.0481605
51
270.0018042
0
ARC
8
DEFAULT_255_2_778
10
115.9976539
20
143.3189632
40
3.0033383
50
195.7941388
51
235.9377466
0
ARC
8
DEFAULT_255_2_778
10
115.9989061
20
143.3139301
40
3.0031778
50
181.3813643
51
195.695237
0
ARC
8
DEFAULT_255_2_778
10
116.000202
20
143.3139469
40
3.0044737
50
180.0001514
51
181.3810891
0
ARC
8
DEFAULT_255_2_778
10
115.9985951
20
143.3140339
40
3.0028669
50
155.545982
51
180.0018121
0
ARC
8
DEFAULT_255_2_778
10
112.9948319
20
144.6529597
40
0.2867654
50
340.47324
51
344.6210982
0
ARC
8
DEFAULT_255_2_778
10
113.1882001
20
144.5999581
40
0.0862652
50
344.503044
51
357.8415892
0
ARC
8
DEFAULT_255_2_778
10
113.2026223
20
144.5978076
40
0.0717902
50
359.1232782
51
0.0205262
0
ARC
8
DEFAULT_255_2_778
10
113.1154545
20
144.5907759
40
0.1591146
50
2.5421438
51
16.8918142
0
ARC
8
DEFAULT_255_2_778
10
113.2467036
20
144.9618841
40
0.0943735
50
179.8360919
51
200.3216431
0
ARC
8
DEFAULT_255_2_778
10
113.2509815
20
144.9621541
40
0.098651
50
179.1680284
51
179.9999777
0
ARC
8
DEFAULT_255_2_778
10
113.2492369
20
144.9624545
40
0.0969026
50
149.3125809
51
179.3306767
0
ARC
8
DEFAULT_255_2_778
10
113.2484901
20
144.9615622
40
0.0967226
50
97.7158656
51
148.632256
0
ARC
8
DEFAULT_255_2_778
10
113.5783753
20
145.6027987
40
0.4985925
50
293.7151466
51
305.0067235
0
ARC
8
DEFAULT_255_2_778
10
113.5763044
20
145.6039279
40
0.5007066
50
305.1266889
51
316.6331422
0
ARC
8
DEFAULT_255_2_778
10
113.5764976
20
145.6064239
40
0.5022838
50
316.4110293
51
327.6030286
0
ARC
8
DEFAULT_255_2_778
10
113.5712098
20
145.6082564
40
0.5077321
50
327.7481321
51
339.1217556
0
ARC
8
DEFAULT_255_2_778
10
113.6067526
20
145.5986306
40
0.4711069
50
338.6750241
51
350.5781197
0
ARC
8
DEFAULT_255_2_778
10
113.4684294
20
145.6104301
40
0.609595
50
351.6124032
51
358.7903069
0
ARC
8
DEFAULT_255_2_778
10
109.9158237
20
145.7452295
40
4.1646837
50
357.9680142
51
358.2210695
0
ARC
8
DEFAULT_255_2_778
10
125.0008598
20
145.2690544
40
10.9278668
50
178.1475311
51
178.1809196
0
ARC
8
DEFAULT_255_2_778
10
114.2029997
20
145.9666474
40
0.0971308
50
124.485756
51
175.2390164
0
ARC
8
DEFAULT_255_2_778
10
114.2017295
20
145.9660714
40
0.0968961
50
90.369622
51
123.6737862
0
ARC
8
DEFAULT_255_2_778
10
114.2018813
20
145.9686745
40
0.0942944
50
90.0000038
51
90.472051
0
ARC
8
DEFAULT_255_2_778
10
114.2020596
20
145.9692984
40
0.0936706
50
72.4504604
51
90.1090827
0
LINE
8
DEFAULT_255_2_778
10
114.2300041
20
146.0583092
11
114.5274041
21
145.9644092
0
LINE
8
DEFAULT_255_2_778
10
113.2677041
20
144.6370092
11
113.1582041
21
144.9291092
0
LINE
8
DEFAULT_255_2_778
10
113.2355041
20
145.0574092
11
113.5860041
21
145.1032092
0
LINE
8
DEFAULT_255_2_778
10
113.5860041
20
145.1032092
11
113.6527041
21
145.1095092
0
LINE
8
DEFAULT_255_2_778
10
113.6527041
20
145.1095092
11
113.7170041
21
145.1238092
0
LINE
8
DEFAULT_255_2_778
10
113.7170041
20
145.1238092
11
113.7789041
21
145.1463092
0
LINE
8
DEFAULT_255_2_778
10
114.0787041
20
145.6223092
11
114.1062041
21
145.9747092
0
ARC
8
DEFAULT_255_2_778
10
23.8907407
20
4.1130667
40
0.3001094
50
180.0208901
51
269.9791099
0
ARC
8
DEFAULT_255_2_778
10
24.3906218
20
4.1130667
40
0.3001094
50
270.0208901
51
359.9791099
0
LINE
8
DEFAULT_255_2_778
10
23.5906313
20
5.8388573
11
23.5906313
21
5.0945573
0
LINE
8
DEFAULT_255_2_778
10
23.5906313
20
5.0945573
11
23.5906313
21
4.5529573
0
LINE
8
DEFAULT_255_2_778
10
23.5906313
20
4.5529573
11
23.5906313
21
4.2230573
0
LINE
8
DEFAULT_255_2_778
10
23.5906313
20
4.2230573
11
23.5906313
21
4.1129573
0
LINE
8
DEFAULT_255_2_778
10
23.8906313
20
3.8129573
11
24.3907313
21
3.8129573
0
LINE
8
DEFAULT_255_2_778
10
24.6907313
20
4.1129573
11
24.6907313
21
4.2230573
0
LINE
8
DEFAULT_255_2_778
10
24.6907313
20
4.2230573
11
24.6907313
21
5.8388573
0
ARC
8
DEFAULT_255_2_778
10
23.8698669
20
5.8648552
40
0.2804397
50
185.3113464
51
269.9482147
0
ARC
8
DEFAULT_255_2_778
10
23.8695884
20
5.8686534
40
0.2842377
50
270.0050453
51
274.2456491
0
ARC
8
DEFAULT_255_2_778
10
24.4117874
20
5.8690089
40
0.2845933
50
265.7570011
51
269.994847
0
ARC
8
DEFAULT_255_2_778
10
24.4115577
20
5.8647871
40
0.2803715
50
270.0416997
51
354.7013466
0
LINE
8
DEFAULT_255_2_778
10
23.5906313
20
6.3918955
11
23.5906313
21
6.0592955
0
LINE
8
DEFAULT_255_2_778
10
23.5906313
20
6.0592955
11
23.5906313
21
5.9455955
0
LINE
8
DEFAULT_255_2_778
10
23.5906313
20
5.9455955
11
23.5906313
21
5.8388955
0
LINE
8
DEFAULT_255_2_778
10
23.8906313
20
5.5851955
11
24.3907313
21
5.5851955
0
LINE
8
DEFAULT_255_2_778
10
24.6907313
20
5.8388955
11
24.6907313
21
5.9515955
0
LINE
8
DEFAULT_255_2_778
10
24.6907313
20
5.9515955
11
24.6907313
21
6.0928955
0
LINE
8
DEFAULT_255_2_778
10
24.6907313
20
6.0928955
11
24.6907313
21
6.9641955
0
ENDSEC
0
EOF