0
SECTION
2
HEADER
9
$MEASUREMENT
70
1
0
ENDSEC
0
SECTION
2
TABLES
0
TABLE
2
LTYPE
0
LTYPE
72
65
70
64
2
CONTINUOUS
3
______
73
0
40
0
0
ENDTAB
0
TABLE
2
LAYER
0
LAYER
2
DEFAULT_255_2_778
70
0
62
255
6
CONTINUOUS
0
ENDTAB
0
ENDSEC
0
SECTION
2
ENTITIES
0
ARC
8
DEFAULT_255_2_778
10
117.7520082
20
16.889739
40
1.0001335
50
180.0149977
51
260.3383764
0
ARC
8
DEFAULT_255_2_778
10
117.7531887
20
16.9010509
40
1.0114835
50
260.3799924
51
263.3967512
0
ARC
8
DEFAULT_255_2_778
10
126.7779923
20
13.6316842
40
1.1980023
50
37.1897411
51
80.681551
0
ARC
8
DEFAULT_255_2_778
10
126.7798279
20
13.6308473
40
1.1970472
50
359.9535648
51
37.2747587
0
ARC
8
DEFAULT_255_2_778
10
-870.0235622
20
14.8133762
40
1000.0004369
50
0.0000287
51
7.5349732
0
ARC
8
DEFAULT_255_2_778
10
120.3503763
20
145.8135378
40
1.0001464
50
7.5401074
51
87.6468058
0
ARC
8
DEFAULT_255_2_778
10
120.3502937
20
145.8011079
40
1.0125695
50
87.6710139
51
89.9897585
0
ARC
8
DEFAULT_255_2_778
10
119.330544
20
146.2342486
40
0.5794286
50
90.006846
51
159.4251971
0
ARC
8
DEFAULT_255_2_778
10
119.3304148
20
146.2342634
40
0.5793025
50
159.4220811
51
175.6607131
0
ARC
8
DEFAULT_255_2_778
10
119.3297267
20
146.2343924
40
0.5786066
50
175.6682912
51
180.0006263
0
ARC
8
DEFAULT_255_2_778
10
119.3303533
20
146.2342002
40
0.5792333
50
179.9816141
51
228.8599709
0
ARC
8
DEFAULT_255_2_778
10
116.7774936
20
143.3139876
40
3.2995208
50
4.9968168
51
48.8364187
0
ARC
8
DEFAULT_255_2_778
10
95.1230808
20
141.418924
40
25.0366977
50
0.0002554
51
5.0008298
0
ARC
8
DEFAULT_255_2_778
10
94.2498026
20
141.419415
40
25.9099759
50
359.9689576
51
359.999161
0
ARC
8
DEFAULT_255_2_778
10
115.998544
20
138.8291455
40
4.0006184
50
303.1393973
51
352.8987597
0
ARC
8
DEFAULT_255_2_778
10
115.9947752
20
138.8353739
40
4.007894
50
301.5080598
51
303.1358348
0
ARC
8
DEFAULT_255_2_778
10
117.5553082
20
136.633296
40
1.3095342
50
279.4938233
51
284.3954192
0
ARC
8
DEFAULT_255_2_778
10
117.5574901
20
136.6198253
40
1.295888
50
270.0043879
51
279.4969112
0
ARC
8
DEFAULT_255_2_778
10
117.5583205
20
136.6243601
40
1.3004233
50
205.48195
51
269.9677863
0
ARC
8
DEFAULT_255_2_778
10
117.5721427
20
136.6302264
40
1.3154247
50
203.8531236
51
205.4535907
0
ARC
8
DEFAULT_255_2_778
10
117.5587561
20
136.6249283
40
1.3010393
50
189.5956049
51
203.8781304
0
ARC
8
DEFAULT_255_2_778
10
117.5519818
20
136.6234123
40
1.294107
50
184.8452705
51
189.5794226
0
ARC
8
DEFAULT_255_2_778
10
117.5537944
20
136.6235533
40
1.295925
50
179.9990901
51
184.8447107
0
ARC
8
DEFAULT_255_2_778
10
117.5579044
20
136.6240124
40
1.3000349
50
128.9054514
51
180.0193289
0
ARC
8
DEFAULT_255_2_778
10
117.5621773
20
136.6167209
40
1.3083931
50
123.3086413
51
128.8505301
0
ARC
8
DEFAULT_255_2_778
10
115.7446098
20
139.3811338
40
2.0000099
50
303.3347577
51
356.1366001
0
ARC
8
DEFAULT_255_2_778
10
116.7435756
20
139.3138637
40
0.9987817
50
356.1256412
51
359.9998701
0
ARC
8
DEFAULT_255_2_778
10
116.7420842
20
139.3135994
40
1.0002731
50
0.0150059
51
42.8117792
0
ARC
8
DEFAULT_255_2_778
10
116.7421412
20
139.3132444
40
1.0004726
50
42.8289138
51
89.4883844
0
ARC
8
DEFAULT_255_2_778
10
113.3601022
20
144.5980734
40
0.6500082
50
339.3815158
51
355.8490973
0
ARC
8
DEFAULT_255_2_778
10
113.3609172
20
144.5979214
40
0.6491844
50
355.8572702
51
0.000125
0
ARC
8
DEFAULT_255_2_778
10
113.3605759
20
144.5981004
40
0.6495256
50
359.9843359
51
47.525636
0
ARC
8
DEFAULT_255_2_778
10
112.8393559
20
145.2778911
40
0.5004073
50
47.5079904
51
89.9954541
0
ARC
8
DEFAULT_255_2_778
10
112.8393953
20
145.2786855
40
0.499613
50
89.999959
51
95.3954883
0
ARC
8
DEFAULT_255_2_778
10
112.8394797
20
145.2778613
40
0.5004416
50
95.3962389
51
100.4658562
0
ARC
8
DEFAULT_255_2_778
10
112.8394899
20
145.278261
40
0.5000504
50
100.475324
51
153.4750562
0
ARC
8
DEFAULT_255_2_778
10
116.7754137
20
143.3137287
40
4.8990143
50
153.4749186
51
175.8758726
0
ARC
8
DEFAULT_255_2_778
10
116.777405
20
143.313412
40
4.9010234
50
175.873854
51
179.9999449
0
ARC
8
DEFAULT_255_2_778
10
116.7765075
20
143.3134102
40
4.9001261
50
179.9999239
51
181.6364022
0
ARC
8
DEFAULT_255_2_778
10
116.7753347
20
143.3133719
40
4.8989525
50
181.6363466
51
195.6869349
0
ARC
8
DEFAULT_255_2_778
10
116.7823835
20
143.3151822
40
4.9062283
50
195.6850316
51
196.141769
0
ARC
8
DEFAULT_255_2_778
10
89.9745391
20
135.5567075
40
23.0017356
50
359.9994263
51
16.1408414
0
ARC
8
DEFAULT_255_2_778
10
116.8262245
20
132.0135154
40
0.4998267
50
230.7638006
51
270.0108692
0
ARC
8
DEFAULT_255_2_778
10
116.8263208
20
132.0135015
40
0.4998127
50
269.9998269
51
272.0329977
0
ARC
8
DEFAULT_255_2_778
10
116.8263481
20
132.013037
40
0.4993477
50
272.0317551
51
295.4049391
0
ARC
8
DEFAULT_255_2_778
10
116.8264103
20
132.0136387
40
0.4998645
50
295.3689112
51
359.970026
0
ARC
8
DEFAULT_255_2_778
10
-870.0718511
20
14.811522
40
999.0481108
50
0.2954793
51
6.4224629
0
ARC
8
DEFAULT_255_2_778
10
126.9318953
20
19.9534795
40
2.031105
50
0.0000796
51
0.2876687
0
ARC
8
DEFAULT_255_2_778
10
126.9700487
20
19.951175
40
1.9929528
50
334.6951846
51
0.0663334
0
ARC
8
DEFAULT_255_2_778
10
126.9615967
20
19.9551637
40
2.0022988
50
282.635908
51
334.6953788
0
ARC
8
DEFAULT_255_2_778
10
126.9625285
20
19.9658602
40
2.0125351
50
273.6364607
51
282.5434064
0
ARC
8
DEFAULT_255_2_778
10
118.853899
20
18.4988366
40
0.1994158
50
44.9319224
51
90.078809
0
ARC
8
DEFAULT_255_2_778
10
118.8533504
20
18.4988366
40
0.1994158
50
89.921191
51
135.0680776
0
ARC
8
DEFAULT_255_2_778
10
121.9800117
20
9.6509124
40
4.8137388
50
269.9997623
51
270.6435015
0
ARC
8
DEFAULT_255_2_778
10
121.9800132
20
9.6448511
40
4.8076777
50
224.4887742
51
269.9997446
0
ARC
8
DEFAULT_255_2_778
10
125.9980973
20
19.8535719
40
1.9617031
50
273.5707655
51
298.9592299
0
ARC
8
DEFAULT_255_2_778
10
125.9936114
20
19.8613533
40
1.9706835
50
298.9638055
51
351.0484269
0
ARC
8
DEFAULT_255_2_778
10
125.9846719
20
19.8595026
40
1.9792287
50
351.1416174
51
0.0168784
0
ARC
8
DEFAULT_255_2_778
10
125.9653212
20
19.860122
40
1.9985795
50
359.9989563
51
0.2911317
0
ARC
8
DEFAULT_255_2_778
10
128.6273905
20
22.3138127
40
1.0007791
50
192.431238
51
227.6938888
0
LINE
8
DEFAULT_255_2_778
10
123.6143747
20
127.4355772
11
123.7662747
21
127.4530772
0
LINE
8
DEFAULT_255_2_778
10
123.7662747
20
127.4530772
11
123.5008747
21
129.7710772
0
LINE
8
DEFAULT_255_2_778
10
123.5008747
20
129.7710772
11
123.3489747
21
129.7535772
0
LINE
8
DEFAULT_255_2_778
10
25.5767747
20
6.8197772
11
28.7765747
21
6.3984772
0
LINE
8
DEFAULT_255_2_778
10
10.6767747
20
16.2449772
11
1.4088747
21
17.4652772
0
LINE
8
DEFAULT_255_2_778
10
1.4088747
20
17.4652772
11
0.5114747
21
16.7765772
0
LINE
8
DEFAULT_255_2_778
10
0.5114747
20
16.7765772
11
0.5114747
21
16.7765772
0
LINE
8
DEFAULT_255_2_778
10
0.5114747
20
16.7765772
11
0.5018747
21
16.7047772
0
LINE
8
DEFAULT_255_2_778
10
0.5018747
20
16.7047772
11
0.4746747
21
16.4981772
0
LINE
8
DEFAULT_255_2_778
10
0.4746747
20
16.4981772
11
0.4330747
21
16.1817772
0
LINE
8
DEFAULT_255_2_778
10
0.4330747
20
16.1817772
11
0.3820747
21
15.7935772
0
LINE
8
DEFAULT_255_2_778
10
0.3820747
20
15.7935772
11
0.3275747
21
15.3802772
0
LINE
8
DEFAULT_255_2_778
10
0.3275747
20
15.3802772
11
0.2764747
21
14.9921772
0
LINE
8
DEFAULT_255_2_778
10
0.2764747
20
14.9921772
11
0.2349747
21
14.6757772
0
LINE
8
DEFAULT_255_2_778
10
0.2349747
20
14.6757772
11
0.2076747
21
14.4690772
0
LINE
8
DEFAULT_255_2_778
10
0.2076747
20
14.4690772
11
0.1981747
21
14.3973772
0
LINE
8
DEFAULT_255_2_778
10
0.1981747
20
14.3973772
11
0.8868747
21
13.4999772
0
LINE
8
DEFAULT_255_2_778
10
0.8868747
20
13.4999772
11
10.6769747
21
12.2111772
0
LINE
8
DEFAULT_255_2_778
10
117.6368747
20
15.8962772
11
126.9719747
21
14.8138772
0
LINE
8
DEFAULT_255_2_778
10
127.9768747
20
13.6298772
11
127.9768747
21
4.8138772
0
LINE
8
DEFAULT_255_2_778
10
127.9768747
20
4.8138772
11
129.9768747
21
4.8138772
0
LINE
8
DEFAULT_255_2_778
10
129.9768747
20
4.8138772
11
129.9768747
21
14.8138772
0
LINE
8
DEFAULT_255_2_778
10
120.3504747
20
146.8136772
11
119.3304747
21
146.8136772
0
LINE
8
DEFAULT_255_2_778
10
120.1597747
20
141.4053772
11
119.9684747
21
138.3345772
0
LINE
8
DEFAULT_255_2_778
10
118.0893747
20
135.4183772
11
117.8808747
21
135.3648772
0
LINE
8
DEFAULT_255_2_778
10
113.7991747
20
145.0771772
11
113.1773747
21
145.6468772
0
LINE
8
DEFAULT_255_2_778
10
112.9762747
20
135.5564772
11
112.9762747
21
134.5134772
0
LINE
8
DEFAULT_255_2_778
10
112.9762747
20
134.5134772
11
116.5100747
21
131.6263772
0
LINE
8
DEFAULT_255_2_778
10
117.3262747
20
132.0133772
11
117.3262747
21
132.3134772
0
LINE
8
DEFAULT_255_2_778
10
117.3262747
20
132.3134772
11
121.0352747
21
132.3134772
0
LINE
8
DEFAULT_255_2_778
10
121.0352747
20
132.3134772
11
122.7063747
21
126.5635772
0
LINE
8
DEFAULT_255_2_778
10
127.0901747
20
17.9573772
11
120.1213747
21
17.5133772
0
LINE
8
DEFAULT_255_2_778
10
120.1213747
20
17.5133772
11
118.9950747
21
18.6396772
0
LINE
8
DEFAULT_255_2_778
10
118.7121747
20
18.6396772
11
117.4133747
21
17.3408772
0
LINE
8
DEFAULT_255_2_778
10
117.4133747
20
17.3408772
11
116.7516747
21
17.2987772
0
LINE
8
DEFAULT_255_2_778
10
116.7516747
20
17.2987772
11
116.7516747
21
16.8892772
0
LINE
8
DEFAULT_255_2_778
10
122.1877747
20
4.8374772
11
122.0340747
21
4.8374772
0
LINE
8
DEFAULT_255_2_778
10
127.9638747
20
19.8702772
11
127.9537747
21
21.5736772
0
ARC
8
DEFAULT_255_2_778
10
-870.0379337
20
14.8124268
40
998.0145882
50
0.4725296
51
6.7614
0
ARC
8
DEFAULT_255_2_778
10
128.6264825
20
22.3136905
40
0.9998304
50
133.1479235
51
168.4454528
0
ARC
8
DEFAULT_255_2_778
10
7.176625
20
139.3164815
40
3.4998903
50
359.9554032
51
17.0761705
0
ARC
8
DEFAULT_255_2_778
10
7.1702897
20
139.3074993
40
3.5085902
50
17.1860059
51
72.2613798
0
ARC
8
DEFAULT_255_2_778
10
7.1798649
20
139.3169065
40
3.4967185
50
72.3638527
51
89.4847875
0
ARC
8
DEFAULT_255_2_778
10
7.1760789
20
139.2440552
40
3.5696022
50
89.4345356
51
89.9914074
0
ARC
8
DEFAULT_255_2_778
10
6.6765694
20
141.813316
40
1.0003414
50
90.0031593
51
134.9924586
0
ARC
8
DEFAULT_255_2_778
10
6.6765093
20
141.8136044
40
1.000095
50
135.0017048
51
180.0026977
0
ARC
8
DEFAULT_255_2_778
10
4.8761677
20
140.7137774
40
0.8002466
50
273.0049991
51
359.991403
0
ARC
8
DEFAULT_255_2_778
10
4.8763512
20
140.7262705
40
0.8127132
50
269.997398
51
272.9459083
0
ARC
8
DEFAULT_255_2_778
10
3.477014
20
144.5136006
40
2.3003997
50
135.0060406
51
179.9985864
0
ARC
8
DEFAULT_255_2_778
10
3.476671
20
144.5132576
40
2.3003997
50
90.0014136
51
134.9939594
0
ARC
8
DEFAULT_255_2_778
10
58.1759087
20
-57.2234362
40
72.0369935
50
89.9994388
51
95.8755333
0
ARC
8
DEFAULT_255_2_778
10
58.1749819
20
-57.2082474
40
72.0217897
50
95.8760368
51
103.8183395
0
ARC
8
DEFAULT_255_2_778
10
58.1790756
20
-57.2267856
40
72.0407691
50
103.8179795
51
118.6719499
0
ARC
8
DEFAULT_255_2_778
10
58.1690754
20
-57.2064934
40
72.0181669
50
118.6727153
51
125.1165423
0
ARC
8
DEFAULT_255_2_778
10
58.192182
20
-57.2395666
40
72.0585119
50
125.1164435
51
127.6496087
0
LINE
8
DEFAULT_255_2_778
10
127.9594143
20
20.6989573
11
127.6593143
21
20.7042573
0
LINE
8
DEFAULT_255_2_778
10
127.6765143
20
6.3135573
11
127.9766143
21
6.3135573
0
LINE
8
DEFAULT_255_2_778
10
127.9766143
20
4.8374573
11
127.6765143
21
4.8374573
0
LINE
8
DEFAULT_255_2_778
10
116.7995143
20
14.3635573
11
116.5751143
21
18.8124573
0
LINE
8
DEFAULT_255_2_778
10
4.1767143
20
95.5135573
11
4.1767143
21
116.1135573
0
LINE
8
DEFAULT_255_2_778
10
4.1767143
20
116.1135573
11
6.3190143
21
116.3442573
0
LINE
8
DEFAULT_255_2_778
10
6.3190143
20
116.3442573
11
8.4905143
21
116.5781573
0
LINE
8
DEFAULT_255_2_778
10
8.4905143
20
116.5781573
11
10.6765143
21
116.8136573
0
LINE
8
DEFAULT_255_2_778
10
10.6765143
20
116.8136573
11
10.6765143
21
139.3137573
0
LINE
8
DEFAULT_255_2_778
10
7.1766143
20
142.8136573
11
6.6765143
21
142.8136573
0
LINE
8
DEFAULT_255_2_778
10
5.6764143
20
141.8135573
11
5.6764143
21
140.7136573
0
LINE
8
DEFAULT_255_2_778
10
4.8763143
20
139.9135573
11
1.1766143
21
139.9135573
0
LINE
8
DEFAULT_255_2_778
10
1.1766143
20
139.9135573
11
1.1766143
21
144.5136573
0
LINE
8
DEFAULT_255_2_778
10
3.4766143
20
146.8136573
11
58.1766143
21
146.8136573
0
LINE
8
DEFAULT_255_2_778
10
58.1766143
20
146.8136573
11
58.1766143
21
14.8135573
0
LINE
8
DEFAULT_255_2_778
10
14.1766143
20
-0.1864427
11
10.6767143
21
-0.1864427
0
LINE
8
DEFAULT_255_2_778
10
10.6767143
20
-0.1864427
11
10.6767143
21
37.0533573
0
LINE
8
DEFAULT_255_2_778
10
10.6767143
20
37.0533573
11
6.7768143
21
37.0533573
0
LINE
8
DEFAULT_255_2_778
10
6.7768143
20
37.0533573
11
6.7768143
21
70.0040573
0
LINE
8
DEFAULT_255_2_778
10
6.7768143
20
70.0040573
11
13.6795143
21
75.7928573
0
LINE
8
DEFAULT_255_2_778
10
13.6795143
20
75.7928573
11
13.6795143
21
94.4901573
0
LINE
8
DEFAULT_255_2_778
10
13.6795143
20
94.4901573
11
4.1767143
21
95.5135573
0
ARC
8
DEFAULT_255_2_778
10
12.6765467
20
131.7150484
40
0.5002354
50
192.8139115
51
269.9391333
0
ARC
8
DEFAULT_255_2_778
10
12.6759532
20
131.7186384
40
0.5038251
50
270.0070658
51
276.3491285
0
ARC
8
DEFAULT_255_2_778
10
12.6763035
20
131.714997
40
0.5001672
50
276.3553709
51
359.8747489
0
ARC
8
DEFAULT_255_2_778
10
12.6764742
20
136.7127631
40
0.4999963
50
0.1192337
51
83.6621256
0
ARC
8
DEFAULT_255_2_778
10
12.6759254
20
136.7087267
40
0.5040687
50
83.6507787
51
89.9929098
0
ARC
8
DEFAULT_255_2_778
10
12.6764433
20
136.7126617
40
0.5001339
50
90.0521772
51
167.183791
0
ARC
8
DEFAULT_255_2_778
10
14.6762632
20
134.2140256
40
2.9995939
50
180.0398437
51
192.6838025
0
ARC
8
DEFAULT_255_2_778
10
14.3065279
20
134.2139911
40
2.6298585
50
180
51
180.0446925
0
ARC
8
DEFAULT_255_2_778
10
14.6752596
20
134.2139936
40
2.9985902
50
167.3140763
51
180.000048
0
ARC
8
DEFAULT_255_2_778
10
96.1772443
20
134.9447976
40
16.4995252
50
0.0000207
51
30.0005749
0
LINE
8
DEFAULT_255_2_778
10
13.1764695
20
131.7139036
11
13.1764695
21
136.7138036
0
LINE
8
DEFAULT_255_2_778
10
12.1887695
20
131.6041036
11
11.7498695
21
133.5554036
0
LINE
8
DEFAULT_255_2_778
10
11.7498695
20
134.8725036
11
12.1887695
21
136.8238036
0
LINE
8
DEFAULT_255_2_778
10
15.6764695
20
104.4137036
11
15.7545695
21
104.4917036
0
LINE
8
DEFAULT_255_2_778
10
15.7545695
20
104.4917036
11
15.8296695
21
104.5669036
0
LINE
8
DEFAULT_255_2_778
10
15.8296695
20
104.5669036
11
15.8987695
21
104.6359036
0
LINE
8
DEFAULT_255_2_778
10
15.8987695
20
104.6359036
11
15.9593695
21
104.6965036
0
LINE
8
DEFAULT_255_2_778
10
15.9593695
20
104.6965036
11
16.0090695
21
104.7463036
0
LINE
8
DEFAULT_255_2_778
10
16.0090695
20
104.7463036
11
16.0461695
21
104.7833036
0
LINE
8
DEFAULT_255_2_778
10
16.0461695
20
104.7833036
11
16.0688695
21
104.8061036
0
LINE
8
DEFAULT_255_2_778
10
16.0688695
20
104.8061036
11
16.0765695
21
104.8137036
0
LINE
8
DEFAULT_255_2_778
10
16.0765695
20
104.8137036
11
16.0765695
21
106.8137036
0
LINE
8
DEFAULT_255_2_778
10
16.0765695
20
106.8137036
11
16.0704695
21
106.8198036
0
LINE
8
DEFAULT_255_2_778
10
16.0704695
20
106.8198036
11
16.0524695
21
106.8378036
0
LINE
8
DEFAULT_255_2_778
10
16.0524695
20
106.8378036
11
16.0230695
21
106.8672036
0
LINE
8
DEFAULT_255_2_778
10
16.0230695
20
106.8672036
11
15.9831695
21
106.9071036
0
LINE
8
DEFAULT_255_2_778
10
15.9831695
20
106.9071036
11
15.9339695
21
106.9563036
0
LINE
8
DEFAULT_255_2_778
10
15.9339695
20
106.9563036
11
15.8767695
21
107.0135036
0
LINE
8
DEFAULT_255_2_778
10
15.8767695
20
107.0135036
11
15.8135695
21
107.0767036
0
LINE
8
DEFAULT_255_2_778
10
15.8135695
20
107.0767036
11
15.7460695
21
107.1442036
0
LINE
8
DEFAULT_255_2_778
10
15.7460695
20
107.1442036
11
15.6764695
21
107.2138036
0
LINE
8
DEFAULT_255_2_778
10
15.6764695
20
107.2138036
11
21.5753695
21
107.2138036
0
LINE
8
DEFAULT_255_2_778
10
21.5753695
20
107.2138036
11
21.5753695
21
104.4137036
0
LINE
8
DEFAULT_255_2_778
10
21.5753695
20
104.4137036
11
15.6764695
21
104.4137036
0
LINE
8
DEFAULT_255_2_778
10
15.6764695
20
104.4137036
11
15.6764695
21
107.2138036
0
LINE
8
DEFAULT_255_2_778
10
107.5265695
20
134.5638036
11
107.5265695
21
146.8137036
0
LINE
8
DEFAULT_255_2_778
10
107.5265695
20
146.8137036
11
108.3766695
21
146.8137036
0
LINE
8
DEFAULT_255_2_778
10
108.3766695
20
146.8137036
11
110.4661695
21
143.1947036
0
LINE
8
DEFAULT_255_2_778
10
112.6767695
20
134.9448036
11
112.6767695
21
134.5638036
0
LINE
8
DEFAULT_255_2_778
10
112.6767695
20
134.5638036
11
107.5265695
21
134.5638036
0
ARC
8
DEFAULT_255_2_778
10
96.1762503
20
134.9446523
40
15.4012155
50
2.9105239
51
32.884366
0
ARC
8
DEFAULT_255_2_778
10
108.8576632
20
143.1441495
40
0.2998917
50
32.8152181
51
89.9913123
0
ARC
8
DEFAULT_255_2_778
10
108.8577092
20
143.1452214
40
0.2988198
50
90.0001056
51
96.765515
0
ARC
8
DEFAULT_255_2_778
10
108.857939
20
143.1436201
40
0.300437
50
96.7730482
51
106.4425944
0
ARC
8
DEFAULT_255_2_778
10
108.8577111
20
143.1441
40
0.2999121
50
106.4267987
51
180.0247853
0
ARC
8
DEFAULT_255_2_778
10
21.4375502
20
107.2260668
40
0.1386949
50
304.0447176
51
354.9135398
0
ARC
8
DEFAULT_255_2_778
10
21.1787951
20
107.5415055
40
0.5462391
50
292.8182278
51
308.0137922
0
ARC
8
DEFAULT_255_2_778
10
20.8157502
20
108.363434
40
1.4447226
50
285.4075371
51
293.4480938
0
ARC
8
DEFAULT_255_2_778
10
20.4203308
20
109.7542728
40
2.890655
50
280.6218896
51
285.6391672
0
ARC
8
DEFAULT_255_2_778
10
20.0690352
20
111.5995921
40
4.7691106
50
276.6596658
51
280.6835718
0
ARC
8
DEFAULT_255_2_778
10
19.8303487
20
113.6029188
40
6.7866025
50
273.1423448
51
276.6997426
0
ARC
8
DEFAULT_255_2_778
10
19.7427823
20
115.102282
40
8.288513
50
269.9703906
51
273.1785986
0
ARC
8
DEFAULT_255_2_778
10
19.7447317
20
96.6379037
40
8.1758692
50
86.2058936
51
90.045781
0
ARC
8
DEFAULT_255_2_778
10
19.8610568
20
98.3602025
40
6.4496482
50
82.6798102
51
86.2245795
0
ARC
8
DEFAULT_255_2_778
10
20.1251469
20
100.3836024
40
4.4090929
50
78.473843
51
82.7334533
0
ARC
8
DEFAULT_255_2_778
10
20.497622
20
102.1931073
40
2.5616553
50
73.0780442
51
78.5498195
0
ARC
8
DEFAULT_255_2_778
10
20.8940656
20
103.4765144
40
1.218438
50
64.4185658
51
73.3469577
0
ARC
8
DEFAULT_255_2_778
10
21.2419336
20
104.1873873
40
0.4270976
50
46.8444601
51
65.333122
0
ARC
8
DEFAULT_255_2_778
10
21.4528429
20
104.4067825
40
0.1228493
50
3.2140594
51
48.6152004
0
ARC
8
DEFAULT_255_2_778
10
19.7447228
20
46.4871573
40
8.1764156
50
86.2060848
51
90.0457153
0
ARC
8
DEFAULT_255_2_778
10
19.8610187
20
48.2090805
40
6.4505714
50
82.6805227
51
86.2247818
0
ARC
8
DEFAULT_255_2_778
10
20.1250721
20
50.2323727
40
4.4101277
50
78.4755929
51
82.7341874
0
ARC
8
DEFAULT_255_2_778
10
20.497564
20
52.0422146
40
2.5623568
50
73.0814611
51
78.5516731
0
ARC
8
DEFAULT_255_2_778
10
20.8940362
20
53.3259781
40
1.2187907
50
64.4249683
51
73.3504743
0
ARC
8
DEFAULT_255_2_778
10
21.2419561
20
54.0371604
40
0.4271494
50
46.8551303
51
65.339641
0
ARC
8
DEFAULT_255_2_778
10
21.4529082
20
54.2566769
40
0.1227844
50
3.218397
51
48.6291141
0
ARC
8
DEFAULT_255_2_778
10
21.4372892
20
57.0759574
40
0.1387548
50
304.0582071
51
354.9196382
0
ARC
8
DEFAULT_255_2_778
10
21.1785817
20
57.3912373
40
0.5461468
50
292.8235693
51
308.0231033
0
ARC
8
DEFAULT_255_2_778
10
20.8156056
20
58.212798
40
1.4442661
50
285.409956
51
293.453453
0
ARC
8
DEFAULT_255_2_778
10
20.4202109
20
59.603277
40
2.8898457
50
280.622962
51
285.6418639
0
ARC
8
DEFAULT_255_2_778
10
20.0689026
20
61.4484141
40
4.7681248
50
276.6598453
51
280.6847884
0
ARC
8
DEFAULT_255_2_778
10
19.830113
20
63.4525232
40
6.7864056
50
273.1422331
51
276.699969
0
ARC
8
DEFAULT_255_2_778
10
19.742489
20
64.9531533
40
8.2895841
50
269.9703482
51
273.1784195
0
LINE
8
DEFAULT_255_2_778
10
108.5579989
20
143.1436703
11
108.5579989
21
135.7266703
0
LINE
8
DEFAULT_255_2_778
10
108.5579989
20
135.7266703
11
111.5575989
21
135.7266703
0
LINE
8
DEFAULT_255_2_778
10
19.7384989
20
106.8137703
11
16.0765989
21
106.8137703
0
LINE
8
DEFAULT_255_2_778
10
16.0765989
20
104.8137703
11
19.7381989
21
104.8137703
0
LINE
8
DEFAULT_255_2_778
10
15.6765989
20
54.2635703
11
15.7546989
21
54.3415703
0
LINE
8
DEFAULT_255_2_778
10
15.7546989
20
54.3415703
11
15.8297989
21
54.4167703
0
LINE
8
DEFAULT_255_2_778
10
15.8297989
20
54.4167703
11
15.8987989
21
54.4857703
0
LINE
8
DEFAULT_255_2_778
10
15.8987989
20
54.4857703
11
15.9593989
21
54.5463703
0
LINE
8
DEFAULT_255_2_778
10
15.9593989
20
54.5463703
11
16.0091989
21
54.5960703
0
LINE
8
DEFAULT_255_2_778
10
16.0091989
20
54.5960703
11
16.0461989
21
54.6331703
0
LINE
8
DEFAULT_255_2_778
10
16.0461989
20
54.6331703
11
16.0689989
21
54.6558703
0
LINE
8
DEFAULT_255_2_778
10
16.0689989
20
54.6558703
11
16.0765989
21
54.6635703
0
LINE
8
DEFAULT_255_2_778
10
16.0765989
20
54.6635703
11
19.7381989
21
54.6635703
0
LINE
8
DEFAULT_255_2_778
10
19.7381989
20
56.6635703
11
16.0765989
21
56.6635703
0
LINE
8
DEFAULT_255_2_778
10
16.0765989
20
56.6635703
11
16.0705989
21
56.6696703
0
LINE
8
DEFAULT_255_2_778
10
16.0705989
20
56.6696703
11
16.0525989
21
56.6876703
0
LINE
8
DEFAULT_255_2_778
10
16.0525989
20
56.6876703
11
16.0231989
21
56.7169703
0
LINE
8
DEFAULT_255_2_778
10
16.0231989
20
56.7169703
11
15.9832989
21
56.7569703
0
LINE
8
DEFAULT_255_2_778
10
15.9832989
20
56.7569703
11
15.9339989
21
56.8061703
0
LINE
8
DEFAULT_255_2_778
10
15.9339989
20
56.8061703
11
15.8768989
21
56.8633703
0
LINE
8
DEFAULT_255_2_778
10
15.8768989
20
56.8633703
11
15.8136989
21
56.9265703
0
LINE
8
DEFAULT_255_2_778
10
15.8136989
20
56.9265703
11
15.7461989
21
56.9940703
0
LINE
8
DEFAULT_255_2_778
10
15.7461989
20
56.9940703
11
15.6765989
21
57.0636703
0
LINE
8
DEFAULT_255_2_778
10
15.6765989
20
57.0636703
11
21.5754989
21
57.0636703
0
LINE
8
DEFAULT_255_2_778
10
21.5754989
20
57.0636703
11
21.5754989
21
54.2635703
0
LINE
8
DEFAULT_255_2_778
10
21.5754989
20
54.2635703
11
15.6765989
21
54.2635703
0
LINE
8
DEFAULT_255_2_778
10
15.6765989
20
54.2635703
11
15.6765989
21
57.0636703
0
ARC
8
DEFAULT_255_2_778
10
21.4374872
20
57.075899
40
0.1386949
50
304.0447176
51
354.9135398
0
ARC
8
DEFAULT_255_2_778
10
21.1787321
20
57.3913376
40
0.5462391
50
292.8182278
51
308.0137922
0
ARC
8
DEFAULT_255_2_778
10
20.8156871
20
58.2132662
40
1.4447226
50
285.4075371
51
293.4480938
0
ARC
8
DEFAULT_255_2_778
10
20.4202677
20
59.604105
40
2.890655
50
280.6218896
51
285.6391672
0
ARC
8
DEFAULT_255_2_778
10
20.0689722
20
61.4494242
40
4.7691106
50
276.6596658
51
280.6835718
0
ARC
8
DEFAULT_255_2_778
10
19.8302857
20
63.452751
40
6.7866025
50
273.1423448
51
276.6997426
0
ARC
8
DEFAULT_255_2_778
10
19.7427192
20
64.9521142
40
8.288513
50
269.9703906
51
273.1785986
0
ARC
8
DEFAULT_255_2_778
10
122.6791483
20
9.8172699
40
2.0024154
50
156.5736611
51
180.0992166
0
ARC
8
DEFAULT_255_2_778
10
122.6719234
20
9.8182581
40
1.995394
50
100.1947202
51
156.5172172
0
ARC
8
DEFAULT_255_2_778
10
122.6756168
20
9.7863158
40
2.0274868
50
89.9712021
51
100.13768
0
ARC
8
DEFAULT_255_2_778
10
122.6801056
20
9.811421
40
2.0023845
50
66.5733489
51
90.0992821
0
ARC
8
DEFAULT_255_2_778
10
122.6810526
20
9.818599
40
1.9954226
50
10.1929838
51
66.5163563
0
ARC
8
DEFAULT_255_2_778
10
122.6488323
20
9.814823
40
2.0278038
50
359.9711642
51
10.1368845
0
ARC
8
DEFAULT_255_2_778
10
122.6742544
20
9.8103327
40
2.0023845
50
336.5733489
51
0.0992821
0
ARC
8
DEFAULT_255_2_778
10
122.6814324
20
9.8093857
40
1.9954226
50
280.1929838
51
336.5163563
0
ARC
8
DEFAULT_255_2_778
10
122.6776564
20
9.8416061
40
2.0278038
50
269.9711642
51
280.1368845
0
ARC
8
DEFAULT_255_2_778
10
122.673168
20
9.8158954
40
2.002096
50
246.5280408
51
270.0992451
0
ARC
8
DEFAULT_255_2_778
10
122.6723428
20
9.8090024
40
1.9954456
50
190.1860908
51
246.4709419
0
ARC
8
DEFAULT_255_2_778
10
122.704576
20
9.8127846
40
2.0278404
50
179.9712399
51
190.1302094
0
LINE
8
DEFAULT_255_2_778
10
16.0765359
20
56.6636024
11
16.0765359
21
54.6636024
0
LINE
8
DEFAULT_255_2_778
10
19.7384359
20
56.6636024
11
16.0765359
21
56.6636024
0
LINE
8
DEFAULT_255_2_778
10
16.0765359
20
56.6636024
11
16.0705359
21
56.6696024
0
LINE
8
DEFAULT_255_2_778
10
16.0705359
20
56.6696024
11
16.0525359
21
56.6876024
0
LINE
8
DEFAULT_255_2_778
10
16.0525359
20
56.6876024
11
16.0231359
21
56.7170024
0
LINE
8
DEFAULT_255_2_778
10
16.0231359
20
56.7170024
11
15.9832359
21
56.7569024
0
LINE
8
DEFAULT_255_2_778
10
15.9832359
20
56.7569024
11
15.9339359
21
56.8062024
0
LINE
8
DEFAULT_255_2_778
10
15.9339359
20
56.8062024
11
15.8768359
21
56.8633024
0
LINE
8
DEFAULT_255_2_778
10
15.8768359
20
56.8633024
11
15.8136359
21
56.9265024
0
LINE
8
DEFAULT_255_2_778
10
15.8136359
20
56.9265024
11
15.7461359
21
56.9940024
0
LINE
8
DEFAULT_255_2_778
10
15.7461359
20
56.9940024
11
15.6765359
21
57.0636024
0
LINE
8
DEFAULT_255_2_778
10
15.6765359
20
57.0636024
11
21.5754359
21
57.0636024
0
LINE
8
DEFAULT_255_2_778
10
21.5754359
20
57.0636024
11
21.5754359
21
54.2635024
0
LINE
8
DEFAULT_255_2_778
10
21.5754359
20
54.2635024
11
15.6765359
21
54.2635024
0
LINE
8
DEFAULT_255_2_778
10
15.6765359
20
54.2635024
11
15.6765359
21
57.0636024
0
LINE
8
DEFAULT_255_2_778
10
120.6767359
20
9.8138024
11
120.6767359
21
9.8138024
0
ARC
8
DEFAULT_255_2_778
10
118.1741118
20
15.8065773
40
1.9928139
50
245.6879682
51
270.0735817
0
ARC
8
DEFAULT_255_2_778
10
118.1793048
20
15.8156009
40
2.0031756
50
189.8044729
51
245.65887
0
ARC
8
DEFAULT_255_2_778
10
118.1902723
20
15.8133346
40
2.0136013
50
179.9877538
51
189.6877868
0
ARC
8
DEFAULT_255_2_778
10
117.1390411
20
18.0163241
40
0.9623734
50
179.9956575
51
180.152359
0
ARC
8
DEFAULT_255_2_778
10
117.1741904
20
18.0162739
40
0.9975228
50
134.9970842
51
179.9929257
0
ARC
8
DEFAULT_255_2_778
10
117.1740876
20
18.0167663
40
0.9971021
50
89.9971868
51
135.0129141
0
ARC
8
DEFAULT_255_2_778
10
117.1742095
20
18.0497146
40
0.9641539
50
89.8477798
51
90.0043385
0
ARC
8
DEFAULT_255_2_778
10
126.6620798
20
20.3946387
40
0.9974434
50
273.3157893
51
318.081737
0
ARC
8
DEFAULT_255_2_778
10
126.6637453
20
20.3960381
40
0.9971414
50
317.9579665
51
0.0613989
0
ARC
8
DEFAULT_255_2_778
10
126.6439812
20
20.397105
40
1.016905
50
0.000092
51
0.3132711
0
ARC
8
DEFAULT_255_2_778
10
-869.9837113
20
14.8167709
40
997.6602202
50
0.3208004
51
6.7346466
0
LINE
8
DEFAULT_255_2_778
10
126.6766711
20
13.813765
11
118.1766711
21
13.813765
0
LINE
8
DEFAULT_255_2_778
10
116.1766711
20
15.813765
11
116.1766711
21
18.013765
0
LINE
8
DEFAULT_255_2_778
10
117.1767711
20
19.013865
11
118.9068711
21
19.013865
0
LINE
8
DEFAULT_255_2_778
10
118.9068711
20
19.013865
11
119.9898711
21
17.930965
0
LINE
8
DEFAULT_255_2_778
10
119.9898711
20
17.930965
11
121.1286711
21
19.069665
0
LINE
8
DEFAULT_255_2_778
10
121.1286711
20
19.069665
11
126.7197711
21
19.398865
0
LINE
8
DEFAULT_255_2_778
10
120.7925711
20
131.813665
11
119.6622711
21
131.813665
0
ARC
8
DEFAULT_255_2_778
10
122.6763815
20
9.8142746
40
5.0005651
50
243.7032681
51
270.0028575
0
ARC
8
DEFAULT_255_2_778
10
126.6803782
20
12.8150954
40
0.9963538
50
359.9145538
51
41.6422128
0
ARC
8
DEFAULT_255_2_778
10
126.6778433
20
12.8160986
40
0.9975846
50
41.5024107
51
88.2721781
0
ARC
8
DEFAULT_255_2_778
10
126.6766407
20
12.7946089
40
1.0191008
50
88.2410304
51
90.000554
0
ARC
8
DEFAULT_255_2_778
10
116.8757702
20
141.3191139
40
9.9054065
50
269.9994994
51
286.3382292
0
ARC
8
DEFAULT_255_2_778
10
116.8756775
20
141.3201864
40
9.906479
50
267.8654115
51
270.0000358
0
ARC
8
DEFAULT_255_2_778
10
116.8757117
20
141.3211071
40
9.9074003
50
266.507251
51
267.8654117
0
ARC
8
DEFAULT_255_2_778
10
116.7769198
20
143.3134389
40
2.2329889
50
120.002798
51
179.9981893
0
ARC
8
DEFAULT_255_2_778
10
116.7760456
20
143.3159903
40
2.2303423
50
98.3447707
51
120.0161235
0
ARC
8
DEFAULT_255_2_778
10
116.7767101
20
143.3117993
40
2.2345854
50
89.9994668
51
98.3460339
0
ARC
8
DEFAULT_255_2_778
10
116.7770964
20
143.315233
40
2.2311515
50
63.8102556
51
90.0093869
0
ARC
8
DEFAULT_255_2_778
10
116.7740836
20
143.3093838
40
2.2377299
50
59.9946096
51
63.8071318
0
ARC
8
DEFAULT_255_2_778
10
116.776542
20
143.3134389
40
2.2329889
50
0.0018107
51
59.997202
0
ARC
8
DEFAULT_255_2_778
10
116.776542
20
143.3135801
40
2.2329889
50
300.002798
51
359.9981893
0
ARC
8
DEFAULT_255_2_778
10
116.7774543
20
143.3114736
40
2.2307085
50
278.3424022
51
300.0095603
0
ARC
8
DEFAULT_255_2_778
10
116.7767534
20
143.3158509
40
2.2351414
50
269.9994234
51
278.343899
0
ARC
8
DEFAULT_255_2_778
10
116.7763553
20
143.3123196
40
2.2316102
50
243.8163349
51
270.0096428
0
ARC
8
DEFAULT_255_2_778
10
116.779191
20
143.3177886
40
2.2377692
50
240.0007252
51
243.8129684
0
ARC
8
DEFAULT_255_2_778
10
116.7769198
20
143.3135801
40
2.2329889
50
180.0018107
51
239.997202
0
ARC
8
DEFAULT_255_2_778
10
116.7918825
20
143.3171868
40
3.0152539
50
162.1238259
51
180.0698758
0
ARC
8
DEFAULT_255_2_778
10
116.7706413
20
143.3194576
40
2.9943443
50
105.6411039
51
162.0404171
0
ARC
8
DEFAULT_255_2_778
10
116.7737159
20
143.2918273
40
3.0217837
50
89.9428337
51
105.5559944
0
ARC
8
DEFAULT_255_2_778
10
116.7804082
20
143.2983578
40
3.0152539
50
72.1238259
51
90.0698758
0
ARC
8
DEFAULT_255_2_778
10
116.782679
20
143.319599
40
2.9943443
50
15.6411039
51
72.0404171
0
ARC
8
DEFAULT_255_2_778
10
116.7550487
20
143.3165244
40
3.0217837
50
359.9428337
51
15.5559944
0
ARC
8
DEFAULT_255_2_778
10
116.7615792
20
143.3098322
40
3.0152539
50
342.1238259
51
0.0698758
0
ARC
8
DEFAULT_255_2_778
10
116.7828204
20
143.3075614
40
2.9943443
50
285.6411039
51
342.0404171
0
ARC
8
DEFAULT_255_2_778
10
116.7797458
20
143.3351917
40
3.0217837
50
269.9428337
51
285.5559944
0
ARC
8
DEFAULT_255_2_778
10
116.7730536
20
143.3286611
40
3.0152539
50
252.1238259
51
270.0698758
0
ARC
8
DEFAULT_255_2_778
10
116.7707828
20
143.3074199
40
2.9943443
50
195.6411039
51
252.0404171
0
ARC
8
DEFAULT_255_2_778
10
116.7984131
20
143.3104945
40
3.0217837
50
179.9428337
51
195.5559944
0
ARC
8
DEFAULT_255_2_778
10
116.7918825
20
143.3171868
40
3.0152539
50
162.1238259
51
180.0698758
0
ARC
8
DEFAULT_255_2_778
10
116.7706413
20
143.3194576
40
2.9943443
50
105.6411039
51
162.0404171
0
ARC
8
DEFAULT_255_2_778
10
116.7737159
20
143.2918273
40
3.0217837
50
89.9428337
51
105.5559944
0
ARC
8
DEFAULT_255_2_778
10
116.7804082
20
143.2983578
40
3.0152539
50
72.1238259
51
90.0698758
0
ARC
8
DEFAULT_255_2_778
10
116.782679
20
143.319599
40
2.9943443
50
15.6411039
51
72.0404171
0
ARC
8
DEFAULT_255_2_778
10
116.7550487
20
143.3165244
40
3.0217837
50
359.9428337
51
15.5559944
0
ARC
8
DEFAULT_255_2_778
10
116.7615792
20
143.3098322
40
3.0152539
50
342.1238259
51
0.0698758
0
ARC
8
DEFAULT_255_2_778
10
116.7828204
20
143.3075614
40
2.9943443
50
285.6411039
51
342.0404171
0
ARC
8
DEFAULT_255_2_778
10
116.7797458
20
143.3351917
40
3.0217837
50
269.9428337
51
285.5559944
0
ARC
8
DEFAULT_255_2_778
10
116.7730536
20
143.3286611
40
3.0152539
50
252.1238259
51
270.0698758
0
ARC
8
DEFAULT_255_2_778
10
116.7707828
20
143.3074199
40
2.9943443
50
195.6411039
51
252.0404171
0
ARC
8
DEFAULT_255_2_778
10
116.7984131
20
143.3104945
40
3.0217837
50
179.9428337
51
195.5559944
0
LINE
8
DEFAULT_255_2_778
10
58.1765309
20
14.8136095
11
101.2766309
21
14.8136095
0
LINE
8
DEFAULT_255_2_778
10
101.2766309
20
14.8136095
11
120.4610309
21
5.3312095
0
LINE
8
DEFAULT_255_2_778
10
122.6766309
20
4.8137095
11
127.6767309
21
4.8137095
0
LINE
8
DEFAULT_255_2_778
10
127.6767309
20
4.8137095
11
127.6767309
21
12.8136095
0
LINE
8
DEFAULT_255_2_778
10
116.2721309
20
131.4321095
11
112.7765309
21
134.3137095
0
LINE
8
DEFAULT_255_2_778
10
112.7765309
20
134.3137095
11
107.3766309
21
134.3137095
0
LINE
8
DEFAULT_255_2_778
10
107.3766309
20
134.3137095
11
107.3766309
21
146.8137095
0
LINE
8
DEFAULT_255_2_778
10
107.3766309
20
146.8137095
11
58.1765309
21
146.8137095
0
LINE
8
DEFAULT_255_2_778
10
114.5439309
20
143.3135095
11
114.5439309
21
143.3135095
0
LINE
8
DEFAULT_255_2_778
10
113.7766309
20
143.3135095
11
113.7766309
21
143.3135095
0
LINE
8
DEFAULT_255_2_778
10
113.7766309
20
143.3135095
11
113.7766309
21
143.3135095
0
LINE
8
DEFAULT_255_2_778
10
10.6767309
20
94.8136095
11
10.6767309
21
75.2651095
0
LINE
8
DEFAULT_255_2_778
10
10.6767309
20
75.2651095
11
3.7766309
21
74.0485095
0
LINE
8
DEFAULT_255_2_778
10
3.7766309
20
74.0485095
11
3.7766309
21
37.0534095
0
LINE
8
DEFAULT_255_2_778
10
3.7766309
20
37.0534095
11
6.7767309
21
37.0534095
0
ARC
8
DEFAULT_255_2_778
10
10.4750991
20
128.2157002
40
2.2976929
50
113.6977614
51
146.3635793
0
ARC
8
DEFAULT_255_2_778
10
10.4745577
20
128.214466
40
2.2979264
50
146.3304813
51
179.7447257
0
ARC
8
DEFAULT_255_2_778
10
10.5142923
20
128.2138067
40
2.3376635
50
179.7329052
51
179.9989937
0
ARC
8
DEFAULT_255_2_778
10
6.6759414
20
136.3117887
40
16.9977412
50
250.4089675
51
269.9986927
0
LINE
8
DEFAULT_255_2_778
10
6.6755536
20
119.3140477
11
6.6764287
21
119.3140477
0
ARC
8
DEFAULT_255_2_778
10
10.1870914
20
26.0098695
40
0.7611057
50
164.8526851
51
168.435477
0
ARC
8
DEFAULT_255_2_778
10
10.1742961
20
26.0122765
40
0.7480875
50
168.4196205
51
179.9875134
0
ARC
8
DEFAULT_255_2_778
10
10.1761917
20
26.0131392
40
0.7499834
50
180.0534528
51
254.9008759
0
ARC
8
DEFAULT_255_2_778
10
10.1738847
20
26.0090733
40
0.9954629
50
219.3013826
51
254.9516543
0
ARC
8
DEFAULT_255_2_778
10
10.1779715
20
26.0139222
40
1.0016973
50
180.074353
51
219.3679379
0
ARC
8
DEFAULT_255_2_778
10
10.1743186
20
26.0124016
40
0.9980436
50
168.3730655
51
179.9873357
0
ARC
8
DEFAULT_255_2_778
10
10.1913862
20
26.0091925
40
1.0154078
50
164.8803071
51
168.3890855
0
ARC
8
DEFAULT_255_2_778
10
31.636626
20
8.6472202
40
3.0004579
50
183.1939254
51
237.5644519
0
ARC
8
DEFAULT_255_2_778
10
31.6360334
20
8.6463924
40
2.9994415
50
237.5655246
51
259.9474937
0
ARC
8
DEFAULT_255_2_778
10
31.6367662
20
8.649774
40
3.0028991
50
259.9449878
51
269.9996419
0
ARC
8
DEFAULT_255_2_778
10
31.6367356
20
8.6494391
40
3.0025642
50
270.0002261
51
271.5755831
0
ARC
8
DEFAULT_255_2_778
10
31.63697
20
8.6449691
40
2.9980894
50
271.5734547
51
289.3662728
0
ARC
8
DEFAULT_255_2_778
10
31.6343479
20
8.6527715
40
3.0063198
50
289.3641083
51
291.9382185
0
ARC
8
DEFAULT_255_2_778
10
58.1763062
20
-57.2185934
40
68.0113702
50
93.1572058
51
111.9466475
0
ARC
8
DEFAULT_255_2_778
10
54.2678666
20
13.6807421
40
2.9956139
50
273.1126976
51
292.516616
0
ARC
8
DEFAULT_255_2_778
10
54.2614527
20
13.6879145
40
3.0046976
50
292.5772214
51
349.5629201
0
ARC
8
DEFAULT_255_2_778
10
54.2507417
20
13.6843305
40
3.0145871
50
349.6667907
51
0.0117315
0
ARC
8
DEFAULT_255_2_778
10
10.1919278
20
138.3182943
40
1.0159545
50
191.6303024
51
195.1166959
0
ARC
8
DEFAULT_255_2_778
10
10.174678
20
138.3150417
40
0.9984032
50
180.0577808
51
191.6470443
0
ARC
8
DEFAULT_255_2_778
10
9.9366604
20
138.3146198
40
0.7603853
50
179.9853091
51
180.044074
0
ARC
8
DEFAULT_255_2_778
10
10.1769998
20
138.3138299
40
1.0007253
50
107.0043003
51
179.9436139
0
ARC
8
DEFAULT_255_2_778
10
10.1813488
20
138.2967633
40
1.018318
50
105.1375092
51
106.9574789
0
ARC
8
DEFAULT_255_2_778
10
10.1769839
20
138.3138775
40
0.7506523
50
105.1479818
51
179.9405826
0
ARC
8
DEFAULT_255_2_778
10
10.1748597
20
138.3148214
40
0.7485277
50
180.0126598
51
191.6214174
0
ARC
8
DEFAULT_255_2_778
10
10.1877804
20
138.3172535
40
0.7616736
50
191.6048274
51
195.1067277
0
LINE
8
DEFAULT_255_2_778
10
10.6767287
20
130.6138477
11
10.2213287
21
130.6138477
0
LINE
8
DEFAULT_255_2_778
10
10.2213287
20
130.6138477
11
9.5516287
21
130.3196477
0
LINE
8
DEFAULT_255_2_778
10
8.1766287
20
128.2138477
11
8.1766287
21
127.8137477
0
LINE
8
DEFAULT_255_2_778
10
8.1766287
20
127.8137477
11
0.9765287
21
124.8139477
0
LINE
8
DEFAULT_255_2_778
10
0.9765287
20
124.8139477
11
0.9765287
21
120.2980477
0
LINE
8
DEFAULT_255_2_778
10
6.6764287
20
119.3140477
11
10.6764287
21
119.3140477
0
LINE
8
DEFAULT_255_2_778
10
108.3767287
20
146.8137477
11
119.3304287
21
146.8137477
0
LINE
8
DEFAULT_255_2_778
10
112.6767287
20
134.5638477
11
112.9767287
21
134.5638477
0
LINE
8
DEFAULT_255_2_778
10
10.6764287
20
30.7357477
11
9.4524287
21
26.2087477
0
LINE
8
DEFAULT_255_2_778
10
9.9808287
20
25.2890477
11
9.9154287
21
25.0477477
0
LINE
8
DEFAULT_255_2_778
10
9.2111287
20
26.2740477
11
10.6764287
21
31.6938477
0
LINE
8
DEFAULT_255_2_778
10
57.2653287
20
13.6849477
11
57.2653287
21
14.8078477
0
LINE
8
DEFAULT_255_2_778
10
10.6764287
20
132.6336477
11
9.2111287
21
138.0533477
0
LINE
8
DEFAULT_255_2_778
10
9.9154287
20
139.2797477
11
9.9808287
21
139.0384477
0
LINE
8
DEFAULT_255_2_778
10
9.4524287
20
138.1187477
11
10.6764287
21
133.5917477
0
ARC
8
DEFAULT_255_2_778
10
31.0656886
20
8.7379473
40
3.3021373
50
270.0015405
51
296.8425783
0
ARC
8
DEFAULT_255_2_778
10
31.0657744
20
8.7375924
40
3.3017823
50
268.4530303
51
270.0000515
0
LINE
8
DEFAULT_255_2_778
10
30.976638
20
5.4370136
11
30.055338
21
5.4370136
0
LINE
8
DEFAULT_255_2_778
10
30.055338
20
5.4370136
11
29.972538
21
4.8079136
0
LINE
8
DEFAULT_255_2_778
10
29.972538
20
4.8079136
11
29.912538
21
4.3512136
0
LINE
8
DEFAULT_255_2_778
10
29.912538
20
4.3512136
11
29.876038
21
4.0742136
0
LINE
8
DEFAULT_255_2_778
10
29.876038
20
4.0742136
11
29.863838
21
3.9813136
0
LINE
8
DEFAULT_255_2_778
10
29.863838
20
3.9813136
11
28.776638
21
3.9813136
0
LINE
8
DEFAULT_255_2_778
10
28.776638
20
3.9813136
11
28.776638
21
7.7138136
0
LINE
8
DEFAULT_255_2_778
10
28.776638
20
7.7138136
11
26.992338
21
7.7138136
0
LINE
8
DEFAULT_255_2_778
10
25.576538
20
7.0147136
11
25.576538
21
3.7138136
0
LINE
8
DEFAULT_255_2_778
10
25.576538
20
3.7138136
11
24.476638
21
3.7138136
0
LINE
8
DEFAULT_255_2_778
10
24.476638
20
3.7138136
11
24.476638
21
6.4446136
0
LINE
8
DEFAULT_255_2_778
10
17.976638
20
2.5531136
11
17.976638
21
2.1139136
0
LINE
8
DEFAULT_255_2_778
10
17.976638
20
2.1139136
11
19.076538
21
2.1139136
0
LINE
8
DEFAULT_255_2_778
10
19.076538
20
2.1139136
11
19.076538
21
3.2783136
0
LINE
8
DEFAULT_255_2_778
10
8.326738
20
74.8507136
11
8.326738
21
95.0668136
0
LINE
8
DEFAULT_255_2_778
10
107.376638
20
146.8137136
11
107.526738
21
146.8137136
0
LINE
8
DEFAULT_255_2_778
10
121.878238
20
141.8226136
11
122.136438
21
142.0808136
0
LINE
8
DEFAULT_255_2_778
10
122.136438
20
142.0808136
11
121.965838
21
143.4717136
0
LINE
8
DEFAULT_255_2_778
10
121.965838
20
143.4717136
11
121.623738
21
143.8139136
0
LINE
8
DEFAULT_255_2_778
10
121.623738
20
143.8139136
11
121.621338
21
143.8139136
0
ENDSEC
0
EOF