0
SECTION
2
HEADER
9
$MEASUREMENT
70
1
0
ENDSEC
0
SECTION
2
TABLES
0
TABLE
2
LTYPE
0
LTYPE
72
65
70
64
2
CONTINUOUS
3
______
73
0
40
0
0
ENDTAB
0
TABLE
2
LAYER
0
LAYER
2
DEFAULT_255_2_778
70
0
62
255
6
CONTINUOUS
0
ENDTAB
0
ENDSEC
0
SECTION
2
ENTITIES
0
ARC
8
DEFAULT_255_2_778
10
34.695081
20
8.1133433
40
0.2997612
50
314.9994426
51
0.0448698
0
ARC
8
DEFAULT_255_2_778
10
34.6929806
20
8.1180587
40
0.3045864
50
270.3501833
51
314.6516221
0
ARC
8
DEFAULT_255_2_778
10
0.1937474
20
110.4865108
40
105.6730637
50
270.1636329
51
283.6852015
0
ARC
8
DEFAULT_255_2_778
10
0.4949769
20
4.9913712
40
0.1774941
50
269.9392289
51
270.182458
0
ARC
8
DEFAULT_255_2_778
10
0.4949496
20
5.1144642
40
0.3005872
50
225.1184342
51
269.9693173
0
ARC
8
DEFAULT_255_2_778
10
0.4950097
20
5.1142529
40
0.3002675
50
180.0142793
51
225.0414643
0
ARC
8
DEFAULT_255_2_778
10
25.9856613
20
6.0703335
40
0.2910999
50
182.0189562
51
269.9681232
0
ARC
8
DEFAULT_255_2_778
10
25.9854962
20
6.0753201
40
0.2960864
50
270.0006191
51
271.7894832
0
ARC
8
DEFAULT_255_2_778
10
26.5853868
20
10.6394552
40
4.8958361
50
263.0708301
51
263.123666
0
ARC
8
DEFAULT_255_2_778
10
26.0566822
20
6.1949445
40
0.4200573
50
262.1380897
51
268.9267895
0
ARC
8
DEFAULT_255_2_778
10
26.049274
20
5.9507141
40
0.1757539
50
269.8501981
51
275.1800666
0
ARC
8
DEFAULT_255_2_778
10
26.023194
20
6.0471956
40
0.2747389
50
278.7824814
51
298.2047446
0
LINE
8
DEFAULT_255_2_778
10
26.2292422
20
5.852678
11
26.2299394
21
5.8532606
0
LINE
8
DEFAULT_255_2_778
10
26.2299394
20
5.8532606
11
26.2303231
21
5.8535812
0
ARC
8
DEFAULT_255_2_778
10
25.4642778
20
6.9116201
40
1.3062434
50
305.9054304
51
328.6268871
0
ARC
8
DEFAULT_255_2_778
10
25.4103994
20
6.7565796
40
1.2816089
50
335.8176143
51
354.5293288
0
ARC
8
DEFAULT_255_2_778
10
13.6600745
20
8.4959618
40
13.1584425
50
351.8669018
51
352.1385393
0
LINE
8
DEFAULT_255_2_778
10
26.6948498
20
6.6961729
11
26.6949152
21
6.6966438
0
LINE
8
DEFAULT_255_2_778
10
26.6949152
20
6.6966438
11
26.6951422
21
6.698278
0
LINE
8
DEFAULT_255_2_778
10
30.0982422
20
136.262878
11
5.0913422
21
136.262878
0
LINE
8
DEFAULT_255_2_778
10
26.8446422
20
7.813778
11
26.8446422
21
6.261678
0
LINE
8
DEFAULT_255_2_778
10
26.8446422
20
6.261678
11
27.1917422
21
5.645778
0
LINE
8
DEFAULT_255_2_778
10
29.6455422
20
146.813678
11
34.9948422
21
146.813678
0
LINE
8
DEFAULT_255_2_778
10
34.9948422
20
146.813678
11
34.9948422
21
8.113578
0
LINE
8
DEFAULT_255_2_778
10
34.6948422
20
7.813478
11
25.1946422
21
7.813478
0
LINE
8
DEFAULT_255_2_778
10
4.7947422
20
146.813678
11
0.1947422
21
146.813678
0
LINE
8
DEFAULT_255_2_778
10
0.1947422
20
146.813678
11
0.1947422
21
5.114178
0
LINE
8
DEFAULT_255_2_778
10
30.0947422
20
146.813678
11
30.0947422
21
136.260478
0
LINE
8
DEFAULT_255_2_778
10
5.0948422
20
136.260478
11
5.0948422
21
146.813678
0
LINE
8
DEFAULT_255_2_778
10
4.7953422
20
146.813678
11
29.6947422
21
146.813678
0
LINE
8
DEFAULT_255_2_778
10
25.6947422
20
7.813778
11
25.6947422
21
6.060078
0
LINE
8
DEFAULT_255_2_778
10
26.1530422
20
5.805078
11
26.2292422
21
5.852678
0
LINE
8
DEFAULT_255_2_778
10
26.6951422
20
6.698278
11
26.6951422
21
7.813778
0
LINE
8
DEFAULT_255_2_778
10
24.7446422
20
7.704978
11
24.7446422
21
6.761478
0
LINE
8
DEFAULT_255_2_778
10
22.2448422
20
6.761478
11
22.2448422
21
7.139878
0
LINE
8
DEFAULT_255_2_778
10
24.2522422
20
7.588878
11
24.4676422
21
7.315578
0
LINE
8
DEFAULT_255_2_778
10
24.4676422
20
7.315578
11
24.2705422
21
7.162878
0
LINE
8
DEFAULT_255_2_778
10
24.2705422
20
7.162878
11
23.9839422
21
7.526678
0
ARC
8
DEFAULT_255_2_778
10
23.4973311
20
6.6634665
40
0.6436871
50
9.3675014
51
37.7597064
0
ARC
8
DEFAULT_255_2_778
10
23.4935978
20
6.6629312
40
0.6474578
50
1.6879422
51
9.3604675
0
ARC
8
DEFAULT_255_2_778
10
23.4906945
20
6.6628186
40
0.6503631
50
0.0008783
51
1.6903244
0
ARC
8
DEFAULT_255_2_778
10
23.4950629
20
6.6618919
40
0.6459954
50
311.5891804
51
0.0830784
0
ARC
8
DEFAULT_255_2_778
10
23.4886945
20
6.6695395
40
0.6559425
50
307.7552162
51
311.5618161
0
ARC
8
DEFAULT_255_2_778
10
23.4953625
20
6.6591251
40
0.6436267
50
279.5290833
51
307.8535504
0
ARC
8
DEFAULT_255_2_778
10
23.494831
20
6.6628447
40
0.6473829
50
271.6924565
51
279.5209779
0
ARC
8
DEFAULT_255_2_778
10
23.4947141
20
6.6657551
40
0.6502956
50
270.0008914
51
271.6951758
0
ARC
8
DEFAULT_255_2_778
10
23.4937671
20
6.6613223
40
0.6458635
50
221.4703589
51
270.0849119
0
ARC
8
DEFAULT_255_2_778
10
23.5014065
20
6.6676403
40
0.6557718
50
217.8535439
51
221.441962
0
ARC
8
DEFAULT_255_2_778
10
23.4945361
20
6.6613451
40
0.3971539
50
217.7995535
51
270.0770855
0
ARC
8
DEFAULT_255_2_778
10
23.4950755
20
6.663186
40
0.3989945
50
269.9992713
51
271.6478169
0
ARC
8
DEFAULT_255_2_778
10
23.4954157
20
6.6596089
40
0.395409
50
271.613445
51
307.8837491
0
ARC
8
DEFAULT_255_2_778
10
23.4951707
20
6.6616092
40
0.3971395
50
307.7344409
51
0.0768531
0
ARC
8
DEFAULT_255_2_778
10
23.49301
20
6.6621395
40
0.3992998
50
0.0003435
51
1.8098834
0
ARC
8
DEFAULT_255_2_778
10
23.4960578
20
6.6623835
40
0.3962458
50
1.7885396
51
37.7604395
0
ARC
8
DEFAULT_255_2_778
10
20.3621745
20
14.7442623
40
10.6242818
50
283.9433159
51
291.6010878
0
ARC
8
DEFAULT_255_2_778
10
15.0014739
20
15.0782684
40
10.9909298
50
255.7370952
51
263.1528368
0
ARC
8
DEFAULT_255_2_778
10
14.6541392
20
14.1979279
40
10.0528651
50
248.2238923
51
256.4195479
0
LINE
8
DEFAULT_255_2_778
10
23.6900211
20
7.4590291
11
24.0062211
21
7.0576291
0
LINE
8
DEFAULT_255_2_778
10
22.9836211
20
6.2652291
11
23.1807211
21
6.4179291
0
LINE
8
DEFAULT_255_2_778
10
23.8093211
20
6.9050291
11
23.4733211
21
7.3312291
0
LINE
8
DEFAULT_255_2_778
10
23.4733211
20
7.3312291
11
23.2574211
21
7.1640291
0
LINE
8
DEFAULT_255_2_778
10
23.2574211
20
7.1640291
11
23.6421211
21
6.6758291
0
LINE
8
DEFAULT_255_2_778
10
23.6421211
20
6.6758291
11
23.4450211
21
6.5232291
0
LINE
8
DEFAULT_255_2_778
10
23.4450211
20
6.5232291
11
22.8550211
21
7.2722291
0
LINE
8
DEFAULT_255_2_778
10
26.1528211
20
5.8051291
11
25.6998211
21
5.5384291
0
LINE
8
DEFAULT_255_2_778
10
25.6998211
20
5.5384291
11
25.5821211
21
5.4736291
0
LINE
8
DEFAULT_255_2_778
10
25.5821211
20
5.4736291
11
24.2734211
21
4.8661291
0
LINE
8
DEFAULT_255_2_778
10
22.9222211
20
4.4330291
11
22.4565211
21
4.3250291
0
LINE
8
DEFAULT_255_2_778
10
22.4565211
20
4.3250291
11
21.9874211
21
4.2366291
0
LINE
8
DEFAULT_255_2_778
10
21.9874211
20
4.2366291
11
21.5159211
21
4.1678291
0
LINE
8
DEFAULT_255_2_778
10
21.5159211
20
4.1678291
11
21.0429211
21
4.1189291
0
LINE
8
DEFAULT_255_2_778
10
21.0429211
20
4.1189291
11
20.5690211
21
4.0895291
0
LINE
8
DEFAULT_255_2_778
10
20.5690211
20
4.0895291
11
20.0949211
21
4.0797291
0
LINE
8
DEFAULT_255_2_778
10
20.0949211
20
4.0797291
11
15.0950211
21
4.0797291
0
LINE
8
DEFAULT_255_2_778
10
15.0950211
20
4.0797291
11
13.6911211
21
4.1657291
0
LINE
8
DEFAULT_255_2_778
10
10.9247211
20
4.8624291
11
10.0354211
21
5.2725291
0
ARC
8
DEFAULT_255_2_778
10
23.4894824
20
6.806924
40
1.2446557
50
180.2855118
51
214.8912311
0
ARC
8
DEFAULT_255_2_778
10
23.4943223
20
6.8078102
40
1.2491343
50
214.7975873
51
264.5952067
0
ARC
8
DEFAULT_255_2_778
10
23.4945661
20
6.823395
40
1.2646733
50
264.6507134
51
270.0079739
0
ARC
8
DEFAULT_255_2_778
10
23.4966727
20
6.8027528
40
1.2440325
50
269.9110848
51
304.5939535
0
ARC
8
DEFAULT_255_2_778
10
23.4952095
20
6.8083766
40
1.2494943
50
304.5027735
51
354.1760552
0
ARC
8
DEFAULT_255_2_778
10
23.4792662
20
6.8088313
40
1.265402
50
354.2288265
51
359.6328096
0
ARC
8
DEFAULT_255_2_778
10
27.3273513
20
6.044435
40
0.4099688
50
284.102348
51
346.771791
0
LINE
8
DEFAULT_255_2_778
10
33.2369422
20
-0.1861782
11
33.1938422
21
3.6333218
0
LINE
8
DEFAULT_255_2_778
10
33.1938422
20
3.6333218
11
33.1388422
21
7.8138218
0
LINE
8
DEFAULT_255_2_778
10
34.9948422
20
8.1138218
11
34.9948422
21
-0.1623782
0
LINE
8
DEFAULT_255_2_778
10
0.1947422
20
5.0438218
11
0.1947422
21
0.2136218
0
LINE
8
DEFAULT_255_2_778
10
2.0116422
20
4.8293218
11
1.9957422
21
3.6286218
0
LINE
8
DEFAULT_255_2_778
10
1.9957422
20
3.6286218
11
1.9526422
21
-0.1861782
0
LINE
8
DEFAULT_255_2_778
10
27.8241422
20
7.8138218
11
27.7267422
21
5.9577218
0
LINE
8
DEFAULT_255_2_778
10
27.7267422
20
5.9577218
11
27.7264422
21
5.9506218
0
LINE
8
DEFAULT_255_2_778
10
27.4272422
20
5.6468218
11
27.1896422
21
5.6468218
0
LINE
8
DEFAULT_255_2_778
10
34.9948422
20
-0.1863782
11
33.5401422
21
-0.1863782
0
LINE
8
DEFAULT_255_2_778
10
1.6494422
20
-0.1863782
11
0.1947422
21
-0.1863782
0
LINE
8
DEFAULT_255_2_778
10
1.6491422
20
-0.1863782
11
33.5401422
21
-0.1863782
0
ARC
8
DEFAULT_255_2_778
10
9.4948303
20
4.8306058
40
1.0000288
50
180.0024158
51
237.7703975
0
ARC
8
DEFAULT_255_2_778
10
15.0943509
20
13.7108369
40
11.4982733
50
237.7664733
51
269.999604
0
LINE
8
DEFAULT_255_2_778
10
15.0942714
20
2.2125636
11
15.0948015
21
2.2125636
0
LINE
8
DEFAULT_255_2_778
10
20.0949015
20
2.2125636
11
20.0954316
21
2.2125636
0
ARC
8
DEFAULT_255_2_778
10
20.0953521
20
13.7108369
40
11.4982733
50
270.000396
51
302.2335267
0
ARC
8
DEFAULT_255_2_778
10
25.6946419
20
4.830733
40
1.0002596
50
302.2368988
51
359.9902958
0
LINE
8
DEFAULT_255_2_778
10
1.9651015
20
1.3137636
11
33.2243015
21
1.3137636
0
LINE
8
DEFAULT_255_2_778
10
8.4948015
20
5.1401636
11
8.4948015
21
4.8305636
0
LINE
8
DEFAULT_255_2_778
10
15.0948015
20
2.2125636
11
20.0949015
21
2.2125636
0
LINE
8
DEFAULT_255_2_778
10
26.6949015
20
4.8305636
11
26.6949015
21
6.6979636
0
LINE
8
DEFAULT_255_2_778
10
22.6949015
20
143.9135636
11
22.6949015
21
141.7135636
0
LINE
8
DEFAULT_255_2_778
10
22.6949015
20
141.7135636
11
20.4949015
21
141.7135636
0
LINE
8
DEFAULT_255_2_778
10
20.4949015
20
141.7135636
11
20.4949015
21
143.9135636
0
LINE
8
DEFAULT_255_2_778
10
20.4949015
20
143.9135636
11
22.6949015
21
143.9135636
0
LINE
8
DEFAULT_255_2_778
10
18.6947015
20
143.9135636
11
18.6947015
21
141.7135636
0
LINE
8
DEFAULT_255_2_778
10
18.6947015
20
141.7135636
11
16.4947015
21
141.7135636
0
LINE
8
DEFAULT_255_2_778
10
16.4947015
20
141.7135636
11
16.4947015
21
143.9135636
0
LINE
8
DEFAULT_255_2_778
10
16.4947015
20
143.9135636
11
18.6947015
21
143.9135636
0
LINE
8
DEFAULT_255_2_778
10
5.1949015
20
146.8136636
11
5.1949015
21
136.6943636
0
LINE
8
DEFAULT_255_2_778
10
5.1949015
20
136.6943636
11
29.9948015
21
136.6943636
0
LINE
8
DEFAULT_255_2_778
10
29.9948015
20
136.6943636
11
29.9948015
21
146.8136636
0
LINE
8
DEFAULT_255_2_778
10
14.6946532
20
143.9136052
11
14.6946532
21
141.7136052
0
LINE
8
DEFAULT_255_2_778
10
14.6946532
20
141.7136052
11
12.4946532
21
141.7136052
0
LINE
8
DEFAULT_255_2_778
10
12.4946532
20
141.7136052
11
12.4946532
21
143.9136052
0
LINE
8
DEFAULT_255_2_778
10
12.4946532
20
143.9136052
11
14.6946532
21
143.9136052
0
LINE
8
DEFAULT_255_2_778
10
16.8769532
20
142.1544052
11
16.8769532
21
143.5543052
0
LINE
8
DEFAULT_255_2_778
10
16.8769532
20
143.5543052
11
16.6843532
21
143.7469052
0
ARC
8
DEFAULT_255_2_778
10
16.8783598
20
142.1175452
40
0.3003244
50
179.9718533
51
219.8029593
0
ARC
8
DEFAULT_255_2_778
10
16.8779005
20
142.1175986
40
0.3000058
50
219.8669531
51
270.0257901
0
ARC
8
DEFAULT_255_2_778
10
18.2782281
20
142.1168351
40
0.2992424
50
269.9631283
51
320.2013677
0
ARC
8
DEFAULT_255_2_778
10
18.2774112
20
142.1175452
40
0.3003244
50
320.1970407
51
0.0281467
0
ARC
8
DEFAULT_255_2_778
10
18.2776263
20
143.5176838
40
0.3001092
50
359.9826268
51
44.9729802
0
ARC
8
DEFAULT_255_2_778
10
18.2778258
20
143.5174826
40
0.3001103
50
45.0270678
51
90.0172365
0
LINE
8
DEFAULT_255_2_778
10
16.8778355
20
143.8175928
11
16.8774109
21
143.8175931
0
ARC
8
DEFAULT_255_2_778
10
16.8775706
20
143.5184217
40
0.2991714
50
90.0305962
51
129.8829458
0
ARC
8
DEFAULT_255_2_778
10
16.8780408
20
143.517728
40
0.3000053
50
129.8669055
51
180.0258305
0
LINE
8
DEFAULT_255_2_778
10
16.8780355
20
141.8175928
11
18.2780355
21
141.8175928
0
LINE
8
DEFAULT_255_2_778
10
18.5777355
20
142.1176928
11
18.5777355
21
143.5175928
0
LINE
8
DEFAULT_255_2_778
10
18.2777355
20
143.8175928
11
16.8778355
21
143.8175928
0
LINE
8
DEFAULT_255_2_778
10
16.5780355
20
143.5175928
11
16.5780355
21
142.1178928
0
LINE
8
DEFAULT_255_2_778
10
12.8770355
20
142.1543928
11
12.8770355
21
143.5542928
0
LINE
8
DEFAULT_255_2_778
10
12.8770355
20
143.5542928
11
12.6844355
21
143.7469928
0
ARC
8
DEFAULT_255_2_778
10
12.8785906
20
142.117591
40
0.3007833
50
179.9806347
51
219.741519
0
ARC
8
DEFAULT_255_2_778
10
12.8774539
20
142.1173447
40
0.2997523
50
219.8442169
51
270.0675534
0
ARC
8
DEFAULT_255_2_778
10
14.2778329
20
142.1171913
40
0.2995987
50
269.9759865
51
320.1694573
0
ARC
8
DEFAULT_255_2_778
10
14.277183
20
142.1175451
40
0.3003244
50
320.1970407
51
0.0281467
0
ARC
8
DEFAULT_255_2_778
10
14.2764584
20
143.5171942
40
0.3010492
50
0.0758365
51
44.9259159
0
ARC
8
DEFAULT_255_2_778
10
14.2778578
20
143.5183528
40
0.2992402
50
44.9580712
51
90.0862498
0
ARC
8
DEFAULT_255_2_778
10
12.8774354
20
143.5173356
40
0.3002571
50
89.9862801
51
129.8075994
0
ARC
8
DEFAULT_255_2_778
10
12.8775127
20
143.5177277
40
0.3000055
50
129.8668718
51
180.025778
0
LINE
8
DEFAULT_255_2_778
10
12.8778073
20
141.8175927
11
14.2777073
21
141.8175927
0
LINE
8
DEFAULT_255_2_778
10
14.5775073
20
142.1176927
11
14.5775073
21
143.5175927
0
LINE
8
DEFAULT_255_2_778
10
14.2774073
20
143.8175927
11
12.8775073
21
143.8175927
0
LINE
8
DEFAULT_255_2_778
10
12.5775073
20
143.5175927
11
12.5775073
21
142.1178927
0
LINE
8
DEFAULT_255_2_778
10
18.2768324
20
143.5543541
11
16.8769324
21
143.5543541
0
LINE
8
DEFAULT_255_2_778
10
18.4705324
20
143.7477541
11
18.2771324
21
143.5543541
0
LINE
8
DEFAULT_255_2_778
10
18.2771324
20
143.5543541
11
18.2771324
21
142.1544541
0
LINE
8
DEFAULT_255_2_778
10
18.5073324
20
141.9242541
11
18.2771324
21
142.1544541
0
LINE
8
DEFAULT_255_2_778
10
18.2771324
20
142.1544541
11
16.8772324
21
142.1544541
0
LINE
8
DEFAULT_255_2_778
10
16.8772324
20
142.1544541
11
16.6478324
21
141.9250541
0
LINE
8
DEFAULT_255_2_778
10
14.2768324
20
143.5543541
11
12.8769324
21
143.5543541
0
LINE
8
DEFAULT_255_2_778
10
14.4705324
20
143.7477541
11
14.2771324
21
143.5543541
0
LINE
8
DEFAULT_255_2_778
10
14.2771324
20
143.5543541
11
14.2771324
21
142.1544541
0
LINE
8
DEFAULT_255_2_778
10
14.5073324
20
141.9242541
11
14.2771324
21
142.1544541
0
LINE
8
DEFAULT_255_2_778
10
14.2771324
20
142.1544541
11
12.8772324
21
142.1544541
0
LINE
8
DEFAULT_255_2_778
10
12.8772324
20
142.1544541
11
12.6478324
21
141.9250541
0
LINE
8
DEFAULT_255_2_778
10
20.8771324
20
142.1544541
11
20.8771324
21
143.5543541
0
LINE
8
DEFAULT_255_2_778
10
20.8771324
20
143.5543541
11
20.6845324
21
143.7469541
0
ARC
8
DEFAULT_255_2_778
10
20.8787906
20
142.117591
40
0.3007833
50
179.9806347
51
219.741519
0
ARC
8
DEFAULT_255_2_778
10
20.8776539
20
142.1173447
40
0.2997523
50
219.8442169
51
270.0675534
0
ARC
8
DEFAULT_255_2_778
10
22.2780329
20
142.1171913
40
0.2995987
50
269.9759865
51
320.1694573
0
ARC
8
DEFAULT_255_2_778
10
22.277383
20
142.1175451
40
0.3003244
50
320.1970407
51
0.0281467
0
ARC
8
DEFAULT_255_2_778
10
22.2766584
20
143.5171942
40
0.3010492
50
0.0758365
51
44.9259159
0
ARC
8
DEFAULT_255_2_778
10
22.2780578
20
143.5183528
40
0.2992402
50
44.9580712
51
90.0862498
0
ARC
8
DEFAULT_255_2_778
10
20.8776354
20
143.5173356
40
0.3002571
50
89.9862801
51
129.8075994
0
ARC
8
DEFAULT_255_2_778
10
20.8777127
20
143.5177277
40
0.3000055
50
129.8668718
51
180.025778
0
LINE
8
DEFAULT_255_2_778
10
20.8780073
20
141.8175927
11
22.2779073
21
141.8175927
0
LINE
8
DEFAULT_255_2_778
10
22.5777073
20
142.1176927
11
22.5777073
21
143.5175927
0
LINE
8
DEFAULT_255_2_778
10
22.2776073
20
143.8175927
11
20.8777073
21
143.8175927
0
LINE
8
DEFAULT_255_2_778
10
20.5777073
20
143.5175927
11
20.5777073
21
142.1178927
0
ARC
8
DEFAULT_255_2_778
10
6.4590334
20
140.0557063
40
0.4576453
50
332.1523744
51
1.6954761
0
ARC
8
DEFAULT_255_2_778
10
6.5593028
20
140.0126227
40
0.3489721
50
317.9849861
51
330.7166413
0
ARC
8
DEFAULT_255_2_778
10
6.5676094
20
140.0126894
40
0.3428911
50
267.0693502
51
317.0476253
0
ARC
8
DEFAULT_255_2_778
10
6.5353502
20
140.0044966
40
0.3345741
50
213.9088088
51
272.523002
0
ARC
8
DEFAULT_255_2_778
10
6.7228749
20
140.1251649
40
0.5575412
50
189.82052
51
213.449541
0
ARC
8
DEFAULT_255_2_778
10
7.2317461
20
140.2275512
40
1.0765114
50
179.4839568
51
190.5705552
0
ARC
8
DEFAULT_255_2_778
10
7.369504
20
140.2498126
40
1.2142907
50
168.9110177
51
180.5929237
0
ARC
8
DEFAULT_255_2_778
10
6.7872809
20
140.369357
40
0.6199685
50
147.9720254
51
169.4037467
0
ARC
8
DEFAULT_255_2_778
10
6.5507475
20
140.5230366
40
0.3379712
50
88.2313867
51
148.793659
0
ARC
8
DEFAULT_255_2_778
10
6.5751091
20
140.5188216
40
0.3423088
50
56.7644585
51
92.3323743
0
ARC
8
DEFAULT_255_2_778
10
6.5692711
20
140.5470467
40
0.3225431
50
13.6254978
51
53.146645
0
ARC
8
DEFAULT_255_2_778
10
6.3908981
20
140.4806169
40
0.5120417
50
15.2206565
51
16.148477
0
ARC
8
DEFAULT_255_2_778
10
6.5687437
20
140.5554737
40
0.1807057
50
10.5780753
51
92.9072646
0
ARC
8
DEFAULT_255_2_778
10
6.5582128
20
140.5243995
40
0.2115518
50
89.6301518
51
154.0574886
0
ARC
8
DEFAULT_255_2_778
10
6.8212986
20
140.3716854
40
0.5154148
50
151.5851312
51
172.8155465
0
ARC
8
DEFAULT_255_2_778
10
7.3334537
20
140.2893496
40
1.0339964
50
171.838189
51
180.3658769
0
ARC
8
DEFAULT_255_2_778
10
6.5460388
20
140.1631155
40
0.2740505
50
119.6229358
51
154.117297
0
ARC
8
DEFAULT_255_2_778
10
6.5686669
20
140.1151437
40
0.3269621
50
88.9114677
51
118.9147274
0
ARC
8
DEFAULT_255_2_778
10
6.5882648
20
140.1207831
40
0.3215425
50
43.090768
51
92.3860187
0
ARC
8
DEFAULT_255_2_778
10
6.5421825
20
140.0939304
40
0.3737283
50
0.21485
51
41.270448
0
ARC
8
DEFAULT_255_2_778
10
6.3285008
20
140.0694428
40
0.5879777
50
359.9809047
51
2.5235824
0
ARC
8
DEFAULT_255_2_778
10
6.4722763
20
140.0755969
40
0.2970977
50
357.4438601
51
31.5614095
0
ARC
8
DEFAULT_255_2_778
10
6.5531902
20
140.1154678
40
0.2074529
50
33.8759616
51
41.950192
0
ARC
8
DEFAULT_255_2_778
10
6.5504051
20
140.1093692
40
0.2136178
50
42.6673959
51
92.7171858
0
ARC
8
DEFAULT_255_2_778
10
6.5397345
20
140.0885392
40
0.2342083
50
89.8669662
51
118.6118721
0
ARC
8
DEFAULT_255_2_778
10
6.5261217
20
140.1074085
40
0.2111445
50
117.8209676
51
149.5080565
0
ARC
8
DEFAULT_255_2_778
10
6.5358754
20
140.1027373
40
0.2219214
50
149.746631
51
180.8495684
0
ARC
8
DEFAULT_255_2_778
10
6.6682078
20
140.0867129
40
0.3544583
50
177.9411992
51
215.2880399
0
ARC
8
DEFAULT_255_2_778
10
6.5434424
20
139.9933826
40
0.1987442
50
214.1041711
51
270.5292793
0
ARC
8
DEFAULT_255_2_778
10
6.5534438
20
139.9972801
40
0.2027977
50
267.6924288
51
319.8606694
0
ARC
8
DEFAULT_255_2_778
10
6.4838742
20
140.0424827
40
0.2853077
50
321.9278608
51
0.9750599
0
ARC
8
DEFAULT_255_2_778
10
6.2832858
20
140.0625411
40
0.4860924
50
358.207693
51
0.0124572
0
LINE
8
DEFAULT_255_2_778
10
22.2771784
20
143.5543468
11
20.8771784
21
143.5543468
0
LINE
8
DEFAULT_255_2_778
10
22.4705784
20
143.7477468
11
22.2771784
21
143.5543468
0
LINE
8
DEFAULT_255_2_778
10
22.2771784
20
143.5543468
11
22.2771784
21
142.1544468
0
LINE
8
DEFAULT_255_2_778
10
22.5072784
20
141.9242468
11
22.2771784
21
142.1544468
0
LINE
8
DEFAULT_255_2_778
10
22.2771784
20
142.1544468
11
20.8771784
21
142.1544468
0
LINE
8
DEFAULT_255_2_778
10
20.8771784
20
142.1544468
11
20.6478784
21
141.9250468
0
LINE
8
DEFAULT_255_2_778
10
6.8849784
20
140.6150468
11
6.7463784
21
140.5886468
0
LINE
8
DEFAULT_255_2_778
10
6.9164784
20
140.0692468
11
6.9164784
21
140.0692468
0
LINE
8
DEFAULT_255_2_778
10
6.7693784
20
140.0626468
11
6.7690784
21
140.0623468
0
ARC
8
DEFAULT_255_2_778
10
8.6227949
20
139.9890884
40
0.2993259
50
309.5866413
51
2.8956232
0
ARC
8
DEFAULT_255_2_778
10
8.5676387
20
140.0794091
40
0.4043607
50
276.413431
51
307.4537045
0
ARC
8
DEFAULT_255_2_778
10
8.5080244
20
140.4179552
40
0.747754
50
269.7329083
51
278.055322
0
ARC
8
DEFAULT_255_2_778
10
8.4918848
20
140.2658234
40
0.5957484
50
251.2543369
51
271.217064
0
ARC
8
DEFAULT_255_2_778
10
8.4131445
20
140.0215569
40
0.3391573
50
187.5645119
51
250.5894195
0
ARC
8
DEFAULT_255_2_778
10
8.4743767
20
140.0450395
40
0.2510948
50
188.3422094
51
229.9470043
0
ARC
8
DEFAULT_255_2_778
10
8.4315221
20
140.0067753
40
0.1944011
50
232.3586613
51
234.7551075
0
ARC
8
DEFAULT_255_2_778
10
8.4866155
20
140.1055251
40
0.3070764
50
236.9930882
51
270.0295766
0
ARC
8
DEFAULT_255_2_778
10
8.5083318
20
140.3270163
40
0.5290069
50
267.6644617
51
270.022398
0
ARC
8
DEFAULT_255_2_778
10
8.5208467
20
140.1649107
40
0.3671078
50
268.0786743
51
292.3958407
0
ARC
8
DEFAULT_255_2_778
10
8.5785383
20
140.007934
40
0.2000951
50
294.2483936
51
308.4408346
0
ARC
8
DEFAULT_255_2_778
10
8.5874796
20
139.9920666
40
0.1821306
50
309.3410555
51
3.1294005
0
ARC
8
DEFAULT_255_2_778
10
8.6016732
20
140.0095547
40
0.1678351
50
357.423286
51
32.4906434
0
ARC
8
DEFAULT_255_2_778
10
8.5746837
20
139.980674
40
0.2063497
50
35.2301662
51
61.0905571
0
ARC
8
DEFAULT_255_2_778
10
8.4689972
20
139.791372
40
0.4231546
50
60.9547803
51
75.0531228
0
ARC
8
DEFAULT_255_2_778
10
6.81442
20
133.9488829
40
6.4953665
50
74.244378
51
75.2364481
0
ARC
8
DEFAULT_255_2_778
10
8.9113081
20
141.8635482
40
1.6923872
50
250.3372628
51
254.872121
0
ARC
8
DEFAULT_255_2_778
10
8.5192042
20
140.7675833
40
0.5283924
50
243.6455474
51
250.3878761
0
ARC
8
DEFAULT_255_2_778
10
8.4170647
20
140.5670834
40
0.3033999
50
223.3770699
51
244.1208937
0
ARC
8
DEFAULT_255_2_778
10
8.3799543
20
140.5251599
40
0.2476835
50
199.5422386
51
222.223878
0
ARC
8
DEFAULT_255_2_778
10
8.4570454
20
140.5463469
40
0.3274725
50
178.8517259
51
198.5237956
0
ARC
8
DEFAULT_255_2_778
10
8.4073397
20
140.5689659
40
0.2781649
50
130.2694579
51
183.309132
0
ARC
8
DEFAULT_255_2_778
10
8.4521359
20
140.4882289
40
0.3691632
50
95.540921
51
127.473584
0
ARC
8
DEFAULT_255_2_778
10
8.5054687
20
140.1698307
40
0.6915842
50
89.7705183
51
97.3920594
0
ARC
8
DEFAULT_255_2_778
10
8.5205721
20
140.2698413
40
0.5916966
50
73.7257329
51
91.1943712
0
ARC
8
DEFAULT_255_2_778
10
8.5983137
20
140.5495289
40
0.3014532
50
55.4815641
51
73.0126344
0
ARC
8
DEFAULT_255_2_778
10
8.5811783
20
140.550443
40
0.310755
50
16.4294469
51
52.7819041
0
ARC
8
DEFAULT_255_2_778
10
8.3382578
20
140.4538862
40
0.5715666
50
13.1490888
51
18.8267727
0
ARC
8
DEFAULT_255_2_778
10
8.5235262
20
140.5249501
40
0.2220255
50
7.9112214
51
48.7836968
0
ARC
8
DEFAULT_255_2_778
10
8.570988
20
140.5667526
40
0.1595167
50
51.7152832
51
53.3361171
0
ARC
8
DEFAULT_255_2_778
10
8.5245751
20
140.4835898
40
0.2542441
50
56.137951
51
91.7536592
0
ARC
8
DEFAULT_255_2_778
10
8.5074946
20
140.2806521
40
0.4571571
50
88.8343472
51
90.0070154
0
ARC
8
DEFAULT_255_2_778
10
8.4952055
20
140.4141475
40
0.3238929
50
87.8354857
51
112.9332451
0
ARC
8
DEFAULT_255_2_778
10
8.4366216
20
140.5697265
40
0.1579241
50
115.3535906
51
185.1650501
0
ARC
8
DEFAULT_255_2_778
10
8.427383
20
140.5490183
40
0.1481866
50
177.4894588
51
211.3557609
0
ARC
8
DEFAULT_255_2_778
10
8.4407071
20
140.5663044
40
0.1687412
50
214.014786
51
240.9374394
0
ARC
8
DEFAULT_255_2_778
10
8.5455022
20
140.7563054
40
0.3857255
50
241.0407371
51
254.7799165
0
ARC
8
DEFAULT_255_2_778
10
12.5878097
20
155.0201188
40
15.2112443
50
254.1927592
51
254.6002655
0
ARC
8
DEFAULT_255_2_778
10
7.9754898
20
138.1691755
40
2.2596769
50
72.2649934
51
75.3121152
0
ARC
8
DEFAULT_255_2_778
10
8.4520432
20
139.6612641
40
0.6933339
50
68.1987953
51
72.2148132
0
ARC
8
DEFAULT_255_2_778
10
8.5317044
20
139.8593563
40
0.4798246
50
56.4425209
51
68.2459334
0
ARC
8
DEFAULT_255_2_778
10
8.6417805
20
140.0260125
40
0.2800979
50
37.9873896
51
56.3620987
0
ARC
8
DEFAULT_255_2_778
10
8.639861
20
140.0293589
40
0.2795771
50
18.0768133
51
37.2047313
0
ARC
8
DEFAULT_255_2_778
10
8.5658684
20
140.011737
40
0.3554397
50
358.8670856
51
17.0761706
0
ARC
8
DEFAULT_255_2_778
10
12.5148422
20
138.974329
40
3.1757961
50
146.5769657
51
153.5450761
0
ARC
8
DEFAULT_255_2_778
10
11.521342
20
139.4644665
40
2.0679805
50
153.4402019
51
163.3978245
0
ARC
8
DEFAULT_255_2_778
10
10.8053627
20
139.6730643
40
1.3222558
50
163.1954116
51
179.1504454
0
ARC
8
DEFAULT_255_2_778
10
10.5488803
20
139.687246
40
1.0656418
50
179.708404
51
180.0019719
0
ARC
8
DEFAULT_255_2_778
10
10.5894039
20
139.6747247
40
1.2576272
50
163.6189383
51
179.4312083
0
ARC
8
DEFAULT_255_2_778
10
11.0728105
20
139.5485149
40
1.7570714
50
159.1739702
51
164.1160904
0
ARC
8
DEFAULT_255_2_778
10
11.5926896
20
139.3418486
40
2.3164752
50
149.7590035
51
158.9679311
0
ARC
8
DEFAULT_255_2_778
10
12.3542675
20
138.9109942
40
3.1914284
50
145.5028269
51
149.9625614
0
ARC
8
DEFAULT_255_2_778
10
10.438254
20
140.0577187
40
0.4401913
50
333.0778863
51
1.2614514
0
ARC
8
DEFAULT_255_2_778
10
10.5375276
20
140.0120882
40
0.3310437
50
297.7837065
51
332.3399089
0
ARC
8
DEFAULT_255_2_778
10
10.48711
20
140.1192256
40
0.4493626
50
268.5371935
51
297.1034089
0
ARC
8
DEFAULT_255_2_778
10
10.4625288
20
140.1261793
40
0.4563582
50
244.8473383
51
271.6461667
0
ARC
8
DEFAULT_255_2_778
10
10.4122287
20
139.9993699
40
0.3203032
50
233.0163816
51
243.3504026
0
ARC
8
DEFAULT_255_2_778
10
10.4251787
20
140.0046688
40
0.3324035
50
188.2782139
51
231.7826845
0
ARC
8
DEFAULT_255_2_778
10
10.4573732
20
140.013563
40
0.2180067
50
190.2395207
51
272.9402415
0
ARC
8
DEFAULT_255_2_778
10
10.4787784
20
140.1862865
40
0.390577
50
268.5002078
51
270.00884
0
ARC
8
DEFAULT_255_2_778
10
10.4896984
20
140.0328551
40
0.2373943
50
267.3780542
51
315.8865445
0
ARC
8
DEFAULT_255_2_778
10
10.4543375
20
140.0482459
40
0.2738315
50
318.7258115
51
2.8316314
0
ARC
8
DEFAULT_255_2_778
10
10.2601248
20
140.0637078
40
0.4677137
50
359.7630452
51
0.0001951
0
ARC
8
DEFAULT_255_2_778
10
10.4916224
20
140.0725595
40
0.236382
50
357.8543373
51
44.2516089
0
ARC
8
DEFAULT_255_2_778
10
10.4934308
20
140.0650884
40
0.240391
50
45.8280603
51
92.716279
0
ARC
8
DEFAULT_255_2_778
10
10.4795402
20
140.0063421
40
0.2988777
50
89.5210448
51
110.9781185
0
ARC
8
DEFAULT_255_2_778
10
10.4949278
20
139.9889222
40
0.3207549
50
112.4307242
51
134.2423878
0
ARC
8
DEFAULT_255_2_778
10
10.4996978
20
140.0731972
40
0.3582213
50
88.0417589
51
128.3287683
0
ARC
8
DEFAULT_255_2_778
10
10.527431
20
140.0716955
40
0.3598475
50
46.0140335
51
92.4674912
0
ARC
8
DEFAULT_255_2_778
10
10.5236876
20
140.0822949
40
0.3549632
50
357.5965738
51
44.3908981
0
LINE
8
DEFAULT_255_2_778
10
7.9269386
20
139.6872094
11
7.1538386
21
139.6872094
0
LINE
8
DEFAULT_255_2_778
10
7.1538386
20
139.6872094
11
7.1538386
21
140.8426094
0
LINE
8
DEFAULT_255_2_778
10
7.1538386
20
140.8426094
11
7.8941386
21
140.8426094
0
LINE
8
DEFAULT_255_2_778
10
7.8941386
20
140.8426094
11
7.8941386
21
140.7090094
0
LINE
8
DEFAULT_255_2_778
10
7.8941386
20
140.7090094
11
7.3078386
21
140.7090094
0
LINE
8
DEFAULT_255_2_778
10
7.3078386
20
140.7090094
11
7.3078386
21
140.3476094
0
LINE
8
DEFAULT_255_2_778
10
7.3078386
20
140.3476094
11
7.8459386
21
140.3476094
0
LINE
8
DEFAULT_255_2_778
10
7.8459386
20
140.3476094
11
7.8459386
21
140.2156094
0
LINE
8
DEFAULT_255_2_778
10
7.8459386
20
140.2156094
11
7.3081386
21
140.2156094
0
LINE
8
DEFAULT_255_2_778
10
7.3081386
20
140.2156094
11
7.3081386
21
139.8208094
0
LINE
8
DEFAULT_255_2_778
10
7.3081386
20
139.8208094
11
7.9274386
21
139.8208094
0
LINE
8
DEFAULT_255_2_778
10
7.9274386
20
139.8208094
11
7.9274386
21
139.6872094
0
LINE
8
DEFAULT_255_2_778
10
7.9274386
20
139.6872094
11
7.9269386
21
139.6872094
0
LINE
8
DEFAULT_255_2_778
10
8.0769386
20
139.9769094
11
8.2259386
21
140.0086094
0
LINE
8
DEFAULT_255_2_778
10
8.8948386
20
140.5839094
11
8.7434386
21
140.5555094
0
LINE
8
DEFAULT_255_2_778
10
8.9212386
20
140.0047094
11
8.9217386
21
140.0042094
0
LINE
8
DEFAULT_255_2_778
10
9.8642386
20
140.8426094
11
9.8642386
21
140.7236094
0
LINE
8
DEFAULT_255_2_778
10
9.4832386
20
139.6872094
11
9.3318386
21
139.6872094
0
LINE
8
DEFAULT_255_2_778
10
9.7240386
20
140.7185094
11
9.1305386
21
140.7185094
0
LINE
8
DEFAULT_255_2_778
10
9.1305386
20
140.7185094
11
9.1305386
21
140.8426094
0
LINE
8
DEFAULT_255_2_778
10
9.1305386
20
140.8426094
11
9.8642386
21
140.8426094
0
LINE
8
DEFAULT_255_2_778
10
9.8642386
20
140.8426094
11
9.8642386
21
140.8426094
0
LINE
8
DEFAULT_255_2_778
10
10.0962386
20
139.9568094
11
10.2428386
21
139.9748094
0
LINE
8
DEFAULT_255_2_778
10
10.2711386
20
140.2187094
11
10.1293386
21
140.2187094
0
LINE
8
DEFAULT_255_2_778
10
10.1293386
20
140.2187094
11
10.1671386
21
140.8424094
0
LINE
8
DEFAULT_255_2_778
10
10.1671386
20
140.8424094
11
10.8122386
21
140.8424094
0
LINE
8
DEFAULT_255_2_778
10
10.8122386
20
140.8424094
11
10.8122386
21
140.7183094
0
LINE
8
DEFAULT_255_2_778
10
10.8122386
20
140.7183094
11
10.3008386
21
140.7183094
0
LINE
8
DEFAULT_255_2_778
10
10.3008386
20
140.7183094
11
10.2775386
21
140.3542094
0
LINE
8
DEFAULT_255_2_778
10
10.8783386
20
140.0674094
11
10.8783386
21
140.0674094
0
LINE
8
DEFAULT_255_2_778
10
11.8890386
20
139.9602094
11
11.7377386
21
139.9602094
0
LINE
8
DEFAULT_255_2_778
10
11.7377386
20
139.9602094
11
11.7377386
21
139.6869094
0
LINE
8
DEFAULT_255_2_778
10
11.7377386
20
139.6869094
11
11.5927386
21
139.6869094
0
LINE
8
DEFAULT_255_2_778
10
11.5927386
20
139.6869094
11
11.5927386
21
139.9602094
0
LINE
8
DEFAULT_255_2_778
10
11.5927386
20
139.9602094
11
11.0659386
21
139.9602094
0
LINE
8
DEFAULT_255_2_778
10
11.0659386
20
139.9602094
11
11.0659386
21
140.0801094
0
LINE
8
DEFAULT_255_2_778
10
11.0659386
20
140.0801094
11
11.5774386
21
140.8424094
0
LINE
8
DEFAULT_255_2_778
10
11.5774386
20
140.8424094
11
11.7377386
21
140.8424094
0
LINE
8
DEFAULT_255_2_778
10
11.7377386
20
140.8424094
11
11.7377386
21
140.0817094
0
LINE
8
DEFAULT_255_2_778
10
11.7377386
20
140.0817094
11
11.8890386
21
140.0817094
0
LINE
8
DEFAULT_255_2_778
10
11.8890386
20
140.0817094
11
11.8890386
21
139.9600094
0
LINE
8
DEFAULT_255_2_778
10
11.8890386
20
139.9600094
11
11.8890386
21
139.9602094
0
LINE
8
DEFAULT_255_2_778
10
11.5927386
20
140.0819094
11
11.5927386
21
140.6757094
0
LINE
8
DEFAULT_255_2_778
10
11.5927386
20
140.6757094
11
11.1900386
21
140.0819094
0
LINE
8
DEFAULT_255_2_778
10
11.1900386
20
140.0819094
11
11.5927386
21
140.0819094
0
LINE
8
DEFAULT_255_2_778
10
11.5927386
20
140.0819094
11
11.5927386
21
140.0819094
0
LINE
8
DEFAULT_255_2_778
10
13.6829386
20
140.0846094
11
13.2318386
21
140.0846094
0
LINE
8
DEFAULT_255_2_778
10
13.2318386
20
140.0846094
11
13.2318386
21
140.2216094
0
LINE
8
DEFAULT_255_2_778
10
13.2318386
20
140.2216094
11
13.6829386
21
140.2216094
0
LINE
8
DEFAULT_255_2_778
10
13.6829386
20
140.2216094
11
13.6829386
21
140.0846094
0
LINE
8
DEFAULT_255_2_778
10
13.6829386
20
140.0846094
11
13.6829386
21
140.0846094
0
ARC
8
DEFAULT_255_2_778
10
14.2447552
20
140.7832433
40
0.2114996
50
297.3288822
51
332.6118239
0
ARC
8
DEFAULT_255_2_778
10
14.0945429
20
141.0179145
40
0.4896158
50
293.6878608
51
300.3388437
0
ARC
8
DEFAULT_255_2_778
10
14.0654132
20
141.0563211
40
0.5366073
50
270.6657205
51
294.888676
0
ARC
8
DEFAULT_255_2_778
10
14.0732071
20
141.1240052
40
0.4775577
50
269.8129321
51
297.9240723
0
ARC
8
DEFAULT_255_2_778
10
14.1572151
20
140.997132
40
0.3264518
50
295.3235168
51
331.7368455
0
LINE
8
DEFAULT_255_2_778
10
14.8627479
20
139.68715
11
14.0790479
21
139.68715
0
LINE
8
DEFAULT_255_2_778
10
14.0790479
20
139.68715
11
14.0790479
21
139.81125
0
LINE
8
DEFAULT_255_2_778
10
14.0790479
20
139.81125
11
14.4325479
21
139.81125
0
LINE
8
DEFAULT_255_2_778
10
14.4325479
20
139.81125
11
14.4325479
21
140.68595
0
LINE
8
DEFAULT_255_2_778
10
14.0716479
20
140.51975
11
14.0716479
21
140.64645
0
LINE
8
DEFAULT_255_2_778
10
14.4447479
20
140.84255
11
14.5783479
21
140.84255
0
LINE
8
DEFAULT_255_2_778
10
14.5783479
20
140.84255
11
14.5783479
21
139.81125
0
LINE
8
DEFAULT_255_2_778
10
14.5783479
20
139.81125
11
14.8627479
21
139.81125
0
LINE
8
DEFAULT_255_2_778
10
14.8627479
20
139.81125
11
14.8627479
21
139.68685
0
LINE
8
DEFAULT_255_2_778
10
14.8627479
20
139.68685
11
14.8627479
21
139.68715
0
LINE
8
DEFAULT_255_2_778
10
15.9314251
20
139.6872177
11
15.7750251
21
139.6872177
0
LINE
8
DEFAULT_255_2_778
10
15.7750251
20
139.6872177
11
15.6639251
21
140.0145177
0
LINE
8
DEFAULT_255_2_778
10
15.6639251
20
140.0145177
11
15.2104251
21
140.0145177
0
LINE
8
DEFAULT_255_2_778
10
15.2104251
20
140.0145177
11
15.1001251
21
139.6872177
0
LINE
8
DEFAULT_255_2_778
10
15.1001251
20
139.6872177
11
14.9421251
21
139.6872177
0
LINE
8
DEFAULT_255_2_778
10
14.9421251
20
139.6872177
11
15.3530251
21
140.8426177
0
LINE
8
DEFAULT_255_2_778
10
15.3530251
20
140.8426177
11
15.5279251
21
140.8426177
0
LINE
8
DEFAULT_255_2_778
10
15.5279251
20
140.8426177
11
15.9314251
21
139.6872177
0
LINE
8
DEFAULT_255_2_778
10
15.9314251
20
139.6872177
11
15.9314251
21
139.6872177
0
LINE
8
DEFAULT_255_2_778
10
15.4850251
20
140.5703177
11
15.4382251
21
140.7193177
0
LINE
8
DEFAULT_255_2_778
10
15.4382251
20
140.7193177
11
15.4287251
21
140.6860177
0
LINE
8
DEFAULT_255_2_778
10
15.4287251
20
140.6860177
11
15.3731251
21
140.5045177
0
LINE
8
DEFAULT_255_2_778
10
15.3731251
20
140.5045177
11
15.2514251
21
140.1422177
0
LINE
8
DEFAULT_255_2_778
10
15.2514251
20
140.1422177
11
15.6242251
21
140.1422177
0
LINE
8
DEFAULT_255_2_778
10
15.6242251
20
140.1422177
11
15.4848251
21
140.5706177
0
LINE
8
DEFAULT_255_2_778
10
15.4848251
20
140.5706177
11
15.4850251
21
140.5703177
0
LINE
8
DEFAULT_255_2_778
10
19.6220251
20
140.0846177
11
19.1709251
21
140.0846177
0
LINE
8
DEFAULT_255_2_778
10
19.1709251
20
140.0846177
11
19.1709251
21
140.2216177
0
LINE
8
DEFAULT_255_2_778
10
19.1709251
20
140.2216177
11
19.6220251
21
140.2216177
0
LINE
8
DEFAULT_255_2_778
10
19.6220251
20
140.2216177
11
19.6220251
21
140.0846177
0
LINE
8
DEFAULT_255_2_778
10
19.6220251
20
140.0846177
11
19.6220251
21
140.0846177
0
LINE
8
DEFAULT_255_2_778
10
21.7384615
20
139.6872177
11
21.5820615
21
139.6872177
0
LINE
8
DEFAULT_255_2_778
10
21.5820615
20
139.6872177
11
21.4709615
21
140.0145177
0
LINE
8
DEFAULT_255_2_778
10
21.4709615
20
140.0145177
11
21.0174615
21
140.0145177
0
LINE
8
DEFAULT_255_2_778
10
21.0174615
20
140.0145177
11
20.9071615
21
139.6872177
0
LINE
8
DEFAULT_255_2_778
10
20.9071615
20
139.6872177
11
20.7491615
21
139.6872177
0
LINE
8
DEFAULT_255_2_778
10
20.7491615
20
139.6872177
11
21.1597615
21
140.8426177
0
LINE
8
DEFAULT_255_2_778
10
21.1597615
20
140.8426177
11
21.3346615
21
140.8426177
0
LINE
8
DEFAULT_255_2_778
10
21.3346615
20
140.8426177
11
21.7381615
21
139.6872177
0
LINE
8
DEFAULT_255_2_778
10
21.7381615
20
139.6872177
11
21.7384615
21
139.6872177
0
LINE
8
DEFAULT_255_2_778
10
21.2923615
20
140.5703177
11
21.2455615
21
140.7193177
0
LINE
8
DEFAULT_255_2_778
10
21.2455615
20
140.7193177
11
21.2357615
21
140.6860177
0
LINE
8
DEFAULT_255_2_778
10
21.2357615
20
140.6860177
11
21.1801615
21
140.5045177
0
LINE
8
DEFAULT_255_2_778
10
21.1801615
20
140.5045177
11
21.0584615
21
140.1422177
0
LINE
8
DEFAULT_255_2_778
10
21.0584615
20
140.1422177
11
21.4312615
21
140.1422177
0
LINE
8
DEFAULT_255_2_778
10
21.4312615
20
140.1422177
11
21.2918615
21
140.5706177
0
LINE
8
DEFAULT_255_2_778
10
21.2918615
20
140.5706177
11
21.2923615
21
140.5703177
0
LINE
8
DEFAULT_255_2_778
10
22.8605615
20
139.6872177
11
22.7041615
21
139.6872177
0
LINE
8
DEFAULT_255_2_778
10
22.7041615
20
139.6872177
11
22.5930615
21
140.0145177
0
LINE
8
DEFAULT_255_2_778
10
22.5930615
20
140.0145177
11
22.1395615
21
140.0145177
0
LINE
8
DEFAULT_255_2_778
10
22.1395615
20
140.0145177
11
22.0292615
21
139.6872177
0
LINE
8
DEFAULT_255_2_778
10
22.0292615
20
139.6872177
11
21.8712615
21
139.6872177
0
LINE
8
DEFAULT_255_2_778
10
21.8712615
20
139.6872177
11
22.2818615
21
140.8426177
0
LINE
8
DEFAULT_255_2_778
10
22.2818615
20
140.8426177
11
22.4567615
21
140.8426177
0
LINE
8
DEFAULT_255_2_778
10
22.4567615
20
140.8426177
11
22.8602615
21
139.6872177
0
LINE
8
DEFAULT_255_2_778
10
22.8602615
20
139.6872177
11
22.8605615
21
139.6872177
0
LINE
8
DEFAULT_255_2_778
10
22.4144615
20
140.5703177
11
22.3676615
21
140.7193177
0
LINE
8
DEFAULT_255_2_778
10
22.3676615
20
140.7193177
11
22.3578615
21
140.6860177
0
LINE
8
DEFAULT_255_2_778
10
22.3578615
20
140.6860177
11
22.3022615
21
140.5045177
0
LINE
8
DEFAULT_255_2_778
10
22.3022615
20
140.5045177
11
22.1805615
21
140.1422177
0
LINE
8
DEFAULT_255_2_778
10
22.1805615
20
140.1422177
11
22.5533615
21
140.1422177
0
LINE
8
DEFAULT_255_2_778
10
22.5533615
20
140.1422177
11
22.4139615
21
140.5706177
0
LINE
8
DEFAULT_255_2_778
10
22.4139615
20
140.5706177
11
22.4144615
21
140.5703177
0
LINE
8
DEFAULT_255_2_778
10
17.1574927
20
140.5060448
11
17.1354927
21
140.3792448
0
LINE
8
DEFAULT_255_2_778
10
17.1354927
20
140.3792448
11
17.1354927
21
140.1512448
0
LINE
8
DEFAULT_255_2_778
10
17.1354927
20
140.1512448
11
17.1574927
21
140.0244448
0
LINE
8
DEFAULT_255_2_778
10
17.1574927
20
140.0244448
11
17.1793927
21
139.9485448
0
LINE
8
DEFAULT_255_2_778
10
17.1793927
20
139.9485448
11
17.2235927
21
139.8471448
0
LINE
8
DEFAULT_255_2_778
10
17.2235927
20
139.8471448
11
17.2897927
21
139.7709448
0
LINE
8
DEFAULT_255_2_778
10
17.2897927
20
139.7709448
11
17.4000927
21
139.6950448
0
LINE
8
DEFAULT_255_2_778
10
17.4000927
20
139.6950448
11
17.5323927
21
139.6696448
0
LINE
8
DEFAULT_255_2_778
10
17.5323927
20
139.6696448
11
17.6648927
21
139.6950448
0
LINE
8
DEFAULT_255_2_778
10
17.6648927
20
139.6950448
11
17.7749927
21
139.7709448
0
LINE
8
DEFAULT_255_2_778
10
17.7749927
20
139.7709448
11
17.8410927
21
139.8471448
0
LINE
8
DEFAULT_255_2_778
10
17.8410927
20
139.8471448
11
17.8852927
21
139.9485448
0
LINE
8
DEFAULT_255_2_778
10
17.8852927
20
139.9485448
11
17.9075927
21
140.0244448
0
LINE
8
DEFAULT_255_2_778
10
17.9075927
20
140.0244448
11
17.9294927
21
140.1512448
0
LINE
8
DEFAULT_255_2_778
10
17.9294927
20
140.1512448
11
17.9294927
21
140.3792448
0
LINE
8
DEFAULT_255_2_778
10
17.9294927
20
140.3792448
11
17.9075927
21
140.5060448
0
LINE
8
DEFAULT_255_2_778
10
17.9075927
20
140.5060448
11
17.8852927
21
140.5819448
0
LINE
8
DEFAULT_255_2_778
10
17.8852927
20
140.5819448
11
17.8410927
21
140.6832448
0
LINE
8
DEFAULT_255_2_778
10
17.8410927
20
140.6832448
11
17.7749927
21
140.7594448
0
LINE
8
DEFAULT_255_2_778
10
17.7749927
20
140.7594448
11
17.6648927
21
140.8354448
0
LINE
8
DEFAULT_255_2_778
10
17.6648927
20
140.8354448
11
17.5323927
21
140.8605448
0
LINE
8
DEFAULT_255_2_778
10
17.5323927
20
140.8605448
11
17.4000927
21
140.8354448
0
LINE
8
DEFAULT_255_2_778
10
17.4000927
20
140.8354448
11
17.2897927
21
140.7594448
0
LINE
8
DEFAULT_255_2_778
10
17.2897927
20
140.7594448
11
17.2235927
21
140.6832448
0
LINE
8
DEFAULT_255_2_778
10
17.2235927
20
140.6832448
11
17.1793927
21
140.5819448
0
LINE
8
DEFAULT_255_2_778
10
17.1793927
20
140.5819448
11
17.1574927
21
140.5060448
0
LINE
8
DEFAULT_255_2_778
10
17.2457927
20
140.1766448
11
17.2677927
21
140.0244448
0
LINE
8
DEFAULT_255_2_778
10
17.2677927
20
140.0244448
11
17.3561927
21
139.8725448
0
LINE
8
DEFAULT_255_2_778
10
17.3561927
20
139.8725448
11
17.4222927
21
139.8220448
0
LINE
8
DEFAULT_255_2_778
10
17.4222927
20
139.8220448
11
17.5325927
21
139.7966448
0
LINE
8
DEFAULT_255_2_778
10
17.5325927
20
139.7966448
11
17.6429927
21
139.8220448
0
LINE
8
DEFAULT_255_2_778
10
17.6429927
20
139.8220448
11
17.7090927
21
139.8725448
0
LINE
8
DEFAULT_255_2_778
10
17.7090927
20
139.8725448
11
17.7974927
21
140.0244448
0
LINE
8
DEFAULT_255_2_778
10
17.7974927
20
140.0244448
11
17.8193927
21
140.1766448
0
LINE
8
DEFAULT_255_2_778
10
17.8193927
20
140.1766448
11
17.8193927
21
140.3541448
0
LINE
8
DEFAULT_255_2_778
10
17.8193927
20
140.3541448
11
17.7974927
21
140.5060448
0
LINE
8
DEFAULT_255_2_778
10
17.7974927
20
140.5060448
11
17.7090927
21
140.6581448
0
LINE
8
DEFAULT_255_2_778
10
17.7090927
20
140.6581448
11
17.6429927
21
140.7086448
0
LINE
8
DEFAULT_255_2_778
10
17.6429927
20
140.7086448
11
17.5325927
21
140.7338448
0
LINE
8
DEFAULT_255_2_778
10
17.5325927
20
140.7338448
11
17.4222927
21
140.7086448
0
LINE
8
DEFAULT_255_2_778
10
17.4222927
20
140.7086448
11
17.3561927
21
140.6581448
0
LINE
8
DEFAULT_255_2_778
10
17.3561927
20
140.6581448
11
17.2677927
21
140.5060448
0
LINE
8
DEFAULT_255_2_778
10
17.2677927
20
140.5060448
11
17.2457927
21
140.3541448
0
LINE
8
DEFAULT_255_2_778
10
17.2457927
20
140.3541448
11
17.2457927
21
140.1766448
0
LINE
8
DEFAULT_255_2_778
10
18.0834927
20
140.5060448
11
18.0614927
21
140.3792448
0
LINE
8
DEFAULT_255_2_778
10
18.0614927
20
140.3792448
11
18.0614927
21
140.1512448
0
LINE
8
DEFAULT_255_2_778
10
18.0614927
20
140.1512448
11
18.0834927
21
140.0244448
0
LINE
8
DEFAULT_255_2_778
10
18.0834927
20
140.0244448
11
18.1053927
21
139.9485448
0
LINE
8
DEFAULT_255_2_778
10
18.1053927
20
139.9485448
11
18.1495927
21
139.8471448
0
LINE
8
DEFAULT_255_2_778
10
18.1495927
20
139.8471448
11
18.2157927
21
139.7709448
0
LINE
8
DEFAULT_255_2_778
10
18.2157927
20
139.7709448
11
18.3260927
21
139.6950448
0
LINE
8
DEFAULT_255_2_778
10
18.3260927
20
139.6950448
11
18.4583927
21
139.6696448
0
LINE
8
DEFAULT_255_2_778
10
18.4583927
20
139.6696448
11
18.5908927
21
139.6950448
0
LINE
8
DEFAULT_255_2_778
10
18.5908927
20
139.6950448
11
18.7009927
21
139.7709448
0
LINE
8
DEFAULT_255_2_778
10
18.7009927
20
139.7709448
11
18.7670927
21
139.8471448
0
LINE
8
DEFAULT_255_2_778
10
18.7670927
20
139.8471448
11
18.8112927
21
139.9485448
0
LINE
8
DEFAULT_255_2_778
10
18.8112927
20
139.9485448
11
18.8335927
21
140.0244448
0
LINE
8
DEFAULT_255_2_778
10
18.8335927
20
140.0244448
11
18.8554927
21
140.1512448
0
LINE
8
DEFAULT_255_2_778
10
18.8554927
20
140.1512448
11
18.8554927
21
140.3792448
0
LINE
8
DEFAULT_255_2_778
10
18.8554927
20
140.3792448
11
18.8335927
21
140.5060448
0
LINE
8
DEFAULT_255_2_778
10
18.8335927
20
140.5060448
11
18.8112927
21
140.5819448
0
LINE
8
DEFAULT_255_2_778
10
18.8112927
20
140.5819448
11
18.7670927
21
140.6832448
0
LINE
8
DEFAULT_255_2_778
10
18.7670927
20
140.6832448
11
18.7009927
21
140.7594448
0
LINE
8
DEFAULT_255_2_778
10
18.7009927
20
140.7594448
11
18.5908927
21
140.8354448
0
LINE
8
DEFAULT_255_2_778
10
18.5908927
20
140.8354448
11
18.4583927
21
140.8605448
0
LINE
8
DEFAULT_255_2_778
10
18.4583927
20
140.8605448
11
18.3260927
21
140.8354448
0
LINE
8
DEFAULT_255_2_778
10
18.3260927
20
140.8354448
11
18.2157927
21
140.7594448
0
LINE
8
DEFAULT_255_2_778
10
18.2157927
20
140.7594448
11
18.1495927
21
140.6832448
0
LINE
8
DEFAULT_255_2_778
10
18.1495927
20
140.6832448
11
18.1053927
21
140.5819448
0
LINE
8
DEFAULT_255_2_778
10
18.1053927
20
140.5819448
11
18.0834927
21
140.5060448
0
LINE
8
DEFAULT_255_2_778
10
18.1717927
20
140.1766448
11
18.1937927
21
140.0244448
0
LINE
8
DEFAULT_255_2_778
10
18.1937927
20
140.0244448
11
18.2821927
21
139.8725448
0
LINE
8
DEFAULT_255_2_778
10
18.2821927
20
139.8725448
11
18.3482927
21
139.8220448
0
LINE
8
DEFAULT_255_2_778
10
18.3482927
20
139.8220448
11
18.4585927
21
139.7966448
0
LINE
8
DEFAULT_255_2_778
10
18.4585927
20
139.7966448
11
18.5689927
21
139.8220448
0
LINE
8
DEFAULT_255_2_778
10
18.5689927
20
139.8220448
11
18.6350927
21
139.8725448
0
LINE
8
DEFAULT_255_2_778
10
18.6350927
20
139.8725448
11
18.7234927
21
140.0244448
0
LINE
8
DEFAULT_255_2_778
10
18.7234927
20
140.0244448
11
18.7453927
21
140.1766448
0
LINE
8
DEFAULT_255_2_778
10
18.7453927
20
140.1766448
11
18.7453927
21
140.3541448
0
LINE
8
DEFAULT_255_2_778
10
18.7453927
20
140.3541448
11
18.7234927
21
140.5060448
0
LINE
8
DEFAULT_255_2_778
10
18.7234927
20
140.5060448
11
18.6350927
21
140.6581448
0
LINE
8
DEFAULT_255_2_778
10
18.6350927
20
140.6581448
11
18.5689927
21
140.7086448
0
LINE
8
DEFAULT_255_2_778
10
18.5689927
20
140.7086448
11
18.4585927
21
140.7338448
0
LINE
8
DEFAULT_255_2_778
10
18.4585927
20
140.7338448
11
18.3482927
21
140.7086448
0
LINE
8
DEFAULT_255_2_778
10
18.3482927
20
140.7086448
11
18.2821927
21
140.6581448
0
LINE
8
DEFAULT_255_2_778
10
18.2821927
20
140.6581448
11
18.1937927
21
140.5060448
0
LINE
8
DEFAULT_255_2_778
10
18.1937927
20
140.5060448
11
18.1717927
21
140.3541448
0
LINE
8
DEFAULT_255_2_778
10
18.1717927
20
140.3541448
11
18.1717927
21
140.1766448
0
LINE
8
DEFAULT_255_2_778
10
19.9355927
20
140.5060448
11
19.9135927
21
140.3792448
0
LINE
8
DEFAULT_255_2_778
10
19.9135927
20
140.3792448
11
19.9135927
21
140.1512448
0
LINE
8
DEFAULT_255_2_778
10
19.9135927
20
140.1512448
11
19.9355927
21
140.0244448
0
LINE
8
DEFAULT_255_2_778
10
19.9355927
20
140.0244448
11
19.9574927
21
139.9485448
0
LINE
8
DEFAULT_255_2_778
10
19.9574927
20
139.9485448
11
20.0016927
21
139.8471448
0
LINE
8
DEFAULT_255_2_778
10
20.0016927
20
139.8471448
11
20.0678927
21
139.7709448
0
LINE
8
DEFAULT_255_2_778
10
20.0678927
20
139.7709448
11
20.1781927
21
139.6950448
0
LINE
8
DEFAULT_255_2_778
10
20.1781927
20
139.6950448
11
20.3104927
21
139.6696448
0
LINE
8
DEFAULT_255_2_778
10
20.3104927
20
139.6696448
11
20.4429927
21
139.6950448
0
LINE
8
DEFAULT_255_2_778
10
20.4429927
20
139.6950448
11
20.5530927
21
139.7709448
0
LINE
8
DEFAULT_255_2_778
10
20.5530927
20
139.7709448
11
20.6191927
21
139.8471448
0
LINE
8
DEFAULT_255_2_778
10
20.6191927
20
139.8471448
11
20.6633927
21
139.9485448
0
LINE
8
DEFAULT_255_2_778
10
20.6633927
20
139.9485448
11
20.6856927
21
140.0244448
0
LINE
8
DEFAULT_255_2_778
10
20.6856927
20
140.0244448
11
20.7075927
21
140.1512448
0
LINE
8
DEFAULT_255_2_778
10
20.7075927
20
140.1512448
11
20.7075927
21
140.3792448
0
LINE
8
DEFAULT_255_2_778
10
20.7075927
20
140.3792448
11
20.6856927
21
140.5060448
0
LINE
8
DEFAULT_255_2_778
10
20.6856927
20
140.5060448
11
20.6633927
21
140.5819448
0
LINE
8
DEFAULT_255_2_778
10
20.6633927
20
140.5819448
11
20.6191927
21
140.6832448
0
LINE
8
DEFAULT_255_2_778
10
20.6191927
20
140.6832448
11
20.5530927
21
140.7594448
0
LINE
8
DEFAULT_255_2_778
10
20.5530927
20
140.7594448
11
20.4429927
21
140.8354448
0
LINE
8
DEFAULT_255_2_778
10
20.4429927
20
140.8354448
11
20.3104927
21
140.8605448
0
LINE
8
DEFAULT_255_2_778
10
20.3104927
20
140.8605448
11
20.1781927
21
140.8354448
0
LINE
8
DEFAULT_255_2_778
10
20.1781927
20
140.8354448
11
20.0678927
21
140.7594448
0
LINE
8
DEFAULT_255_2_778
10
20.0678927
20
140.7594448
11
20.0016927
21
140.6832448
0
LINE
8
DEFAULT_255_2_778
10
20.0016927
20
140.6832448
11
19.9574927
21
140.5819448
0
LINE
8
DEFAULT_255_2_778
10
19.9574927
20
140.5819448
11
19.9355927
21
140.5060448
0
LINE
8
DEFAULT_255_2_778
10
20.0238927
20
140.1766448
11
20.0458927
21
140.0244448
0
LINE
8
DEFAULT_255_2_778
10
20.0458927
20
140.0244448
11
20.1342927
21
139.8725448
0
LINE
8
DEFAULT_255_2_778
10
20.1342927
20
139.8725448
11
20.2003927
21
139.8220448
0
LINE
8
DEFAULT_255_2_778
10
20.2003927
20
139.8220448
11
20.3106927
21
139.7966448
0
LINE
8
DEFAULT_255_2_778
10
20.3106927
20
139.7966448
11
20.4210927
21
139.8220448
0
LINE
8
DEFAULT_255_2_778
10
20.4210927
20
139.8220448
11
20.4871927
21
139.8725448
0
LINE
8
DEFAULT_255_2_778
10
20.4871927
20
139.8725448
11
20.5755927
21
140.0244448
0
LINE
8
DEFAULT_255_2_778
10
20.5755927
20
140.0244448
11
20.5974927
21
140.1766448
0
LINE
8
DEFAULT_255_2_778
10
20.5974927
20
140.1766448
11
20.5974927
21
140.3541448
0
LINE
8
DEFAULT_255_2_778
10
20.5974927
20
140.3541448
11
20.5755927
21
140.5060448
0
LINE
8
DEFAULT_255_2_778
10
20.5755927
20
140.5060448
11
20.4871927
21
140.6581448
0
LINE
8
DEFAULT_255_2_778
10
20.4871927
20
140.6581448
11
20.4210927
21
140.7086448
0
LINE
8
DEFAULT_255_2_778
10
20.4210927
20
140.7086448
11
20.3106927
21
140.7338448
0
LINE
8
DEFAULT_255_2_778
10
20.3106927
20
140.7338448
11
20.2003927
21
140.7086448
0
LINE
8
DEFAULT_255_2_778
10
20.2003927
20
140.7086448
11
20.1342927
21
140.6581448
0
LINE
8
DEFAULT_255_2_778
10
20.1342927
20
140.6581448
11
20.0458927
21
140.5060448
0
LINE
8
DEFAULT_255_2_778
10
20.0458927
20
140.5060448
11
20.0238927
21
140.3541448
0
LINE
8
DEFAULT_255_2_778
10
20.0238927
20
140.3541448
11
20.0238927
21
140.1766448
0
LINE
8
DEFAULT_255_2_778
10
22.9782927
20
140.5060448
11
22.9562927
21
140.3792448
0
LINE
8
DEFAULT_255_2_778
10
22.9562927
20
140.3792448
11
22.9562927
21
140.1512448
0
LINE
8
DEFAULT_255_2_778
10
22.9562927
20
140.1512448
11
22.9782927
21
140.0244448
0
LINE
8
DEFAULT_255_2_778
10
22.9782927
20
140.0244448
11
23.0001927
21
139.9485448
0
LINE
8
DEFAULT_255_2_778
10
23.0001927
20
139.9485448
11
23.0443927
21
139.8471448
0
LINE
8
DEFAULT_255_2_778
10
23.0443927
20
139.8471448
11
23.1105927
21
139.7709448
0
LINE
8
DEFAULT_255_2_778
10
23.1105927
20
139.7709448
11
23.2208927
21
139.6950448
0
LINE
8
DEFAULT_255_2_778
10
23.2208927
20
139.6950448
11
23.3531927
21
139.6696448
0
LINE
8
DEFAULT_255_2_778
10
23.3531927
20
139.6696448
11
23.4856927
21
139.6950448
0
LINE
8
DEFAULT_255_2_778
10
23.4856927
20
139.6950448
11
23.5957927
21
139.7709448
0
LINE
8
DEFAULT_255_2_778
10
23.5957927
20
139.7709448
11
23.6618927
21
139.8471448
0
LINE
8
DEFAULT_255_2_778
10
23.6618927
20
139.8471448
11
23.7060927
21
139.9485448
0
LINE
8
DEFAULT_255_2_778
10
23.7060927
20
139.9485448
11
23.7283927
21
140.0244448
0
LINE
8
DEFAULT_255_2_778
10
23.7283927
20
140.0244448
11
23.7502927
21
140.1512448
0
LINE
8
DEFAULT_255_2_778
10
23.7502927
20
140.1512448
11
23.7502927
21
140.3792448
0
LINE
8
DEFAULT_255_2_778
10
23.7502927
20
140.3792448
11
23.7283927
21
140.5060448
0
LINE
8
DEFAULT_255_2_778
10
23.7283927
20
140.5060448
11
23.7060927
21
140.5819448
0
LINE
8
DEFAULT_255_2_778
10
23.7060927
20
140.5819448
11
23.6618927
21
140.6832448
0
LINE
8
DEFAULT_255_2_778
10
23.6618927
20
140.6832448
11
23.5957927
21
140.7594448
0
LINE
8
DEFAULT_255_2_778
10
23.5957927
20
140.7594448
11
23.4856927
21
140.8354448
0
LINE
8
DEFAULT_255_2_778
10
23.4856927
20
140.8354448
11
23.3531927
21
140.8605448
0
LINE
8
DEFAULT_255_2_778
10
23.3531927
20
140.8605448
11
23.2208927
21
140.8354448
0
LINE
8
DEFAULT_255_2_778
10
23.2208927
20
140.8354448
11
23.1105927
21
140.7594448
0
LINE
8
DEFAULT_255_2_778
10
23.1105927
20
140.7594448
11
23.0443927
21
140.6832448
0
LINE
8
DEFAULT_255_2_778
10
23.0443927
20
140.6832448
11
23.0001927
21
140.5819448
0
LINE
8
DEFAULT_255_2_778
10
23.0001927
20
140.5819448
11
22.9782927
21
140.5060448
0
LINE
8
DEFAULT_255_2_778
10
23.0665927
20
140.1766448
11
23.0885927
21
140.0244448
0
LINE
8
DEFAULT_255_2_778
10
23.0885927
20
140.0244448
11
23.1769927
21
139.8725448
0
LINE
8
DEFAULT_255_2_778
10
23.1769927
20
139.8725448
11
23.2430927
21
139.8220448
0
LINE
8
DEFAULT_255_2_778
10
23.2430927
20
139.8220448
11
23.3533927
21
139.7966448
0
LINE
8
DEFAULT_255_2_778
10
23.3533927
20
139.7966448
11
23.4637927
21
139.8220448
0
LINE
8
DEFAULT_255_2_778
10
23.4637927
20
139.8220448
11
23.5298927
21
139.8725448
0
LINE
8
DEFAULT_255_2_778
10
23.5298927
20
139.8725448
11
23.6182927
21
140.0244448
0
LINE
8
DEFAULT_255_2_778
10
23.6182927
20
140.0244448
11
23.6401927
21
140.1766448
0
LINE
8
DEFAULT_255_2_778
10
23.6401927
20
140.1766448
11
23.6401927
21
140.3541448
0
LINE
8
DEFAULT_255_2_778
10
23.6401927
20
140.3541448
11
23.6182927
21
140.5060448
0
LINE
8
DEFAULT_255_2_778
10
23.6182927
20
140.5060448
11
23.5298927
21
140.6581448
0
LINE
8
DEFAULT_255_2_778
10
23.5298927
20
140.6581448
11
23.4637927
21
140.7086448
0
LINE
8
DEFAULT_255_2_778
10
23.4637927
20
140.7086448
11
23.3533927
21
140.7338448
0
LINE
8
DEFAULT_255_2_778
10
23.3533927
20
140.7338448
11
23.2430927
21
140.7086448
0
LINE
8
DEFAULT_255_2_778
10
23.2430927
20
140.7086448
11
23.1769927
21
140.6581448
0
LINE
8
DEFAULT_255_2_778
10
23.1769927
20
140.6581448
11
23.0885927
21
140.5060448
0
LINE
8
DEFAULT_255_2_778
10
23.0885927
20
140.5060448
11
23.0665927
21
140.3541448
0
LINE
8
DEFAULT_255_2_778
10
23.0665927
20
140.3541448
11
23.0665927
21
140.1766448
0
ARC
8
DEFAULT_255_2_778
10
12.3926552
20
140.7832433
40
0.2114996
50
297.3288822
51
332.6118239
0
ARC
8
DEFAULT_255_2_778
10
12.2424429
20
141.0179145
40
0.4896158
50
293.6878608
51
300.3388437
0
ARC
8
DEFAULT_255_2_778
10
12.2133132
20
141.0563211
40
0.5366073
50
270.6657205
51
294.888676
0
ARC
8
DEFAULT_255_2_778
10
12.2211071
20
141.1240052
40
0.4775577
50
269.8129321
51
297.9240723
0
ARC
8
DEFAULT_255_2_778
10
12.3051151
20
140.997132
40
0.3264518
50
295.3235168
51
331.7368455
0
LINE
8
DEFAULT_255_2_778
10
13.0106479
20
139.68715
11
12.2269479
21
139.68715
0
LINE
8
DEFAULT_255_2_778
10
12.2269479
20
139.68715
11
12.2269479
21
139.81125
0
LINE
8
DEFAULT_255_2_778
10
12.2269479
20
139.81125
11
12.5804479
21
139.81125
0
LINE
8
DEFAULT_255_2_778
10
12.5804479
20
139.81125
11
12.5804479
21
140.68595
0
LINE
8
DEFAULT_255_2_778
10
12.2195479
20
140.51975
11
12.2195479
21
140.64645
0
LINE
8
DEFAULT_255_2_778
10
12.5926479
20
140.84255
11
12.7262479
21
140.84255
0
LINE
8
DEFAULT_255_2_778
10
12.7262479
20
140.84255
11
12.7262479
21
139.81125
0
LINE
8
DEFAULT_255_2_778
10
12.7262479
20
139.81125
11
13.0106479
21
139.81125
0
LINE
8
DEFAULT_255_2_778
10
13.0106479
20
139.81125
11
13.0106479
21
139.68685
0
LINE
8
DEFAULT_255_2_778
10
13.0106479
20
139.68685
11
13.0106479
21
139.68715
0
ARC
8
DEFAULT_255_2_778
10
16.0455514
20
140.2554871
40
0.8915336
50
345.1519737
51
0.8142897
0
ARC
8
DEFAULT_255_2_778
10
16.419608
20
140.1557684
40
0.5044138
50
320.798974
51
345.2127074
0
ARC
8
DEFAULT_255_2_778
10
16.4853234
20
140.1158494
40
0.4283893
50
271.77164
51
319.3810703
0
ARC
8
DEFAULT_255_2_778
10
16.4489158
20
140.3686514
40
0.6827943
50
269.9479035
51
274.1701355
0
ARC
8
DEFAULT_255_2_778
10
16.4120298
20
140.0837349
40
0.7439262
50
73.4851836
51
90.9577558
0
ARC
8
DEFAULT_255_2_778
10
16.5046613
20
140.3954816
40
0.4187085
50
44.3847916
51
73.5114531
0
ARC
8
DEFAULT_255_2_778
10
16.4574996
20
140.3724183
40
0.4688359
50
10.6379588
51
42.3671957
0
ARC
8
DEFAULT_255_2_778
10
16.0431204
20
140.2767974
40
0.8939161
50
359.4461957
51
11.7585453
0
ARC
8
DEFAULT_255_2_778
10
16.050258
20
140.2805324
40
0.7286421
50
359.026847
51
14.1479448
0
ARC
8
DEFAULT_255_2_778
10
16.4352582
20
140.3798296
40
0.3310561
50
13.7704691
51
40.2328476
0
ARC
8
DEFAULT_255_2_778
10
16.4628376
20
140.3793153
40
0.3108669
50
43.5903172
51
83.4750044
0
ARC
8
DEFAULT_255_2_778
10
16.4038019
20
140.0818014
40
0.6136654
50
81.1546996
51
90.318101
0
ARC
8
DEFAULT_255_2_778
10
16.4477817
20
140.1628884
40
0.3452947
50
267.7615377
51
301.5524093
0
ARC
8
DEFAULT_255_2_778
10
16.4826455
20
140.0887742
40
0.2640497
50
303.5214704
51
323.1335885
0
ARC
8
DEFAULT_255_2_778
10
16.3548168
20
140.1704306
40
0.4154627
50
324.7008217
51
351.135451
0
ARC
8
DEFAULT_255_2_778
10
15.8986234
20
140.2600541
40
0.8802072
50
349.9471482
51
0.5144453
0
ARC
8
DEFAULT_255_2_778
10
6.5418905
20
144.9009743
40
0.3875211
50
309.9634759
51
355.2756407
0
ARC
8
DEFAULT_255_2_778
10
6.5219825
20
144.9537974
40
0.4411897
50
273.24784
51
307.5381868
0
ARC
8
DEFAULT_255_2_778
10
6.4843469
20
145.2225712
40
0.7120148
50
269.9153484
51
275.0464515
0
ARC
8
DEFAULT_255_2_778
10
6.4651642
20
144.9388597
40
0.428686
50
222.7154379
51
272.4239734
0
ARC
8
DEFAULT_255_2_778
10
6.5212196
20
144.9742696
40
0.4940383
50
183.6260035
51
221.3225941
0
ARC
8
DEFAULT_255_2_778
10
6.7935867
20
145.0149945
40
0.7687925
50
179.9133449
51
185.3715367
0
ARC
8
DEFAULT_255_2_778
10
6.5994857
20
145.1328301
40
0.5748261
50
153.8957124
51
181.243329
0
ARC
8
DEFAULT_255_2_778
10
6.4548798
20
145.2020369
40
0.4145219
50
119.7965332
51
153.6911255
0
ARC
8
DEFAULT_255_2_778
10
6.4867111
20
145.1319775
40
0.4911895
50
88.7886626
51
118.9576942
0
ARC
8
DEFAULT_255_2_778
10
6.510522
20
145.1258946
40
0.4973439
50
64.3916557
51
91.5470348
0
ARC
8
DEFAULT_255_2_778
10
6.5601952
20
145.2491977
40
0.3647822
50
49.5428122
51
63.0564604
0
ARC
8
DEFAULT_255_2_778
10
6.538157
20
145.2338529
40
0.3908174
50
3.8445681
51
48.5441306
0
ARC
8
DEFAULT_255_2_778
10
6.4180727
20
145.2176209
40
0.3569538
50
6.8277271
51
32.4566815
0
ARC
8
DEFAULT_255_2_778
10
6.5529052
20
145.2953745
40
0.2015681
50
34.3760759
51
48.9814891
0
ARC
8
DEFAULT_255_2_778
10
6.5202731
20
145.2391979
40
0.2656523
50
51.6240778
51
90.2116659
0
ARC
8
DEFAULT_255_2_778
10
6.497323
20
145.0308749
40
0.4744823
50
87.3462302
51
90.0275353
0
ARC
8
DEFAULT_255_2_778
10
6.4832765
20
145.2190287
40
0.2866618
50
87.2370003
51
139.7475203
0
ARC
8
DEFAULT_255_2_778
10
6.56116
20
145.1720982
40
0.3767067
50
141.9545984
51
174.2803903
0
ARC
8
DEFAULT_255_2_778
10
6.8717428
20
145.119214
40
0.6913533
50
172.4843507
51
180.2284708
0
ARC
8
DEFAULT_255_2_778
10
6.7042694
20
144.998706
40
0.5240345
50
178.5838194
51
201.8276528
0
ARC
8
DEFAULT_255_2_778
10
6.5322185
20
144.9377207
40
0.3417223
50
203.0614902
51
217.1912649
0
ARC
8
DEFAULT_255_2_778
10
6.4709595
20
144.892397
40
0.2655265
50
217.3906104
51
272.6627232
0
ARC
8
DEFAULT_255_2_778
10
6.4957005
20
144.99812
40
0.3711702
50
268.0846494
51
292.9302643
0
ARC
8
DEFAULT_255_2_778
10
6.551946
20
144.847529
40
0.2106772
50
294.7992077
51
307.8424921
0
ARC
8
DEFAULT_255_2_778
10
6.519782
20
144.8673227
40
0.2463975
50
310.9265872
51
346.7099256
0
ARC
8
DEFAULT_255_2_778
10
6.2582785
20
144.9548399
40
0.5216183
50
343.9563682
51
350.5344316
0
ARC
8
DEFAULT_255_2_778
10
9.4337068
20
145.0540911
40
0.5543119
50
69.3611315
51
91.3140578
0
ARC
8
DEFAULT_255_2_778
10
9.5000057
20
145.2477125
40
0.3498031
50
50.4814846
51
68.3450379
0
ARC
8
DEFAULT_255_2_778
10
9.5351761
20
145.2873026
40
0.2968889
50
358.0609903
51
50.8556588
0
ARC
8
DEFAULT_255_2_778
10
9.5397791
20
145.2608438
40
0.2925766
50
309.2755626
51
3.2159629
0
ARC
8
DEFAULT_255_2_778
10
9.4841275
20
145.3559782
40
0.4018173
50
276.5272204
51
306.8301703
0
ARC
8
DEFAULT_255_2_778
10
9.4228126
20
145.7043472
40
0.7551992
50
269.7179447
51
278.144684
0
ARC
8
DEFAULT_255_2_778
10
9.4337742
20
145.4054744
40
0.3395466
50
267.89375
51
294.7705038
0
ARC
8
DEFAULT_255_2_778
10
9.4861981
20
145.2745672
40
0.1988511
50
296.8592522
51
309.0578053
0
ARC
8
DEFAULT_255_2_778
10
9.4885588
20
145.2642362
40
0.1893992
50
310.4726415
51
3.5480361
0
ARC
8
DEFAULT_255_2_778
10
9.4816824
20
145.2838145
40
0.19607
50
357.7033232
51
48.5418916
0
ARC
8
DEFAULT_255_2_778
10
9.4413099
20
145.219957
40
0.2709237
50
51.0850595
51
90.819541
0
ARC
8
DEFAULT_255_2_778
10
9.4206868
20
145.0301875
40
0.4609699
50
87.9178686
51
88.8056799
0
ARC
8
DEFAULT_255_2_778
10
11.4596068
20
145.0540911
40
0.5543119
50
69.3611315
51
91.3140578
0
ARC
8
DEFAULT_255_2_778
10
11.5259057
20
145.2477125
40
0.3498031
50
50.4814846
51
68.3450379
0
ARC
8
DEFAULT_255_2_778
10
11.5610761
20
145.2873026
40
0.2968889
50
358.0609903
51
50.8556588
0
ARC
8
DEFAULT_255_2_778
10
11.5656791
20
145.2608438
40
0.2925766
50
309.2755626
51
3.2159629
0
ARC
8
DEFAULT_255_2_778
10
11.509938
20
145.356116
40
0.4019813
50
276.4963953
51
306.8285985
0
ARC
8
DEFAULT_255_2_778
10
11.4487854
20
145.7042004
40
0.7550522
50
269.7199554
51
278.1188006
0
ARC
8
DEFAULT_255_2_778
10
11.4597197
20
145.4054155
40
0.3394894
50
267.8857095
51
294.7733216
0
ARC
8
DEFAULT_255_2_778
10
11.5123649
20
145.2740121
40
0.1982519
50
296.8723982
51
309.0990059
0
ARC
8
DEFAULT_255_2_778
10
11.5146871
20
145.2642605
40
0.1892696
50
310.4152759
51
3.5430851
0
ARC
8
DEFAULT_255_2_778
10
11.5078184
20
145.2837888
40
0.1959331
50
357.7092331
51
48.5985769
0
ARC
8
DEFAULT_255_2_778
10
11.4673062
20
145.2202353
40
0.2706467
50
51.0639271
51
90.839497
0
ARC
8
DEFAULT_255_2_778
10
11.4465811
20
145.0294824
40
0.4616749
50
87.9195883
51
88.806795
0
ARC
8
DEFAULT_255_2_778
10
12.8640732
20
144.9748788
40
0.6335013
50
72.9125798
51
91.1286409
0
ARC
8
DEFAULT_255_2_778
10
12.9437907
20
145.2465186
40
0.3504477
50
52.6101549
51
72.3211475
0
ARC
8
DEFAULT_255_2_778
10
12.9746661
20
145.3001918
40
0.289167
50
356.5036952
51
51.0127193
0
ARC
8
DEFAULT_255_2_778
10
12.9873946
20
145.2773326
40
0.2759498
50
321.7138879
51
1.0848569
0
ARC
8
DEFAULT_255_2_778
10
12.931165
20
145.3299618
40
0.3527537
50
287.8332297
51
320.6628146
0
ARC
8
DEFAULT_255_2_778
10
12.8694898
20
145.3720122
40
0.2921622
50
267.3722213
51
302.9692771
0
ARC
8
DEFAULT_255_2_778
10
12.9060857
20
145.299991
40
0.211994
50
305.2646209
51
308.9641644
0
ARC
8
DEFAULT_255_2_778
10
12.9275027
20
145.2761617
40
0.1800059
50
308.4333095
51
2.0361308
0
ARC
8
DEFAULT_255_2_778
10
12.91962
20
145.2941787
40
0.1881342
50
356.4584562
51
49.182237
0
ARC
8
DEFAULT_255_2_778
10
12.8843901
20
145.2259773
40
0.2633869
50
53.0831177
51
88.3078907
0
ARC
8
DEFAULT_255_2_778
10
12.8530703
20
144.9847476
40
0.5060145
50
85.568622
51
89.7481
0
ARC
8
DEFAULT_255_2_778
10
14.0991004
20
146.0836263
40
1.1098468
50
245.8437971
51
255.7439777
0
ARC
8
DEFAULT_255_2_778
10
13.8399505
20
145.5102324
40
0.4806159
50
230.7857954
51
246.0595144
0
ARC
8
DEFAULT_255_2_778
10
13.6849442
20
145.3256879
40
0.2396591
50
179.4813759
51
231.604404
0
ARC
8
DEFAULT_255_2_778
10
13.7004854
20
145.3289728
40
0.2551929
50
124.4312722
51
180.2504737
0
ARC
8
DEFAULT_255_2_778
10
13.8121733
20
145.1822757
40
0.4394355
50
92.1425805
51
125.6277203
0
ARC
8
DEFAULT_255_2_778
10
13.8436739
20
144.9276456
40
0.695412
50
89.9488278
51
93.9520964
0
ARC
8
DEFAULT_255_2_778
10
13.8534495
20
145.1080509
40
0.5150877
50
66.3720005
51
91.0183559
0
ARC
8
DEFAULT_255_2_778
10
13.9239437
20
145.2628402
40
0.3450304
50
35.0234667
51
66.7947013
0
ARC
8
DEFAULT_255_2_778
10
13.9707214
20
145.2960305
40
0.2876751
50
359.8061525
51
34.9569832
0
ARC
8
DEFAULT_255_2_778
10
13.913534
20
145.3039255
40
0.1894686
50
357.3172154
51
50.0895962
0
ARC
8
DEFAULT_255_2_778
10
13.8707945
20
145.2325462
40
0.2719527
50
52.8322418
51
89.3345921
0
ARC
8
DEFAULT_255_2_778
10
13.8444068
20
145.0070872
40
0.4982702
50
86.6005361
51
90.0473605
0
ARC
8
DEFAULT_255_2_778
10
13.831529
20
145.1736399
40
0.3319515
50
87.8478329
51
114.9575267
0
ARC
8
DEFAULT_255_2_778
10
13.7815676
20
145.2991021
40
0.1972718
50
117.1777171
51
125.9709626
0
ARC
8
DEFAULT_255_2_778
10
13.752217
20
145.3354511
40
0.1506335
50
125.0567625
51
182.2043524
0
ARC
8
DEFAULT_255_2_778
10
13.7378384
20
145.3311621
40
0.1361517
50
180.6332966
51
236.4009099
0
ARC
8
DEFAULT_255_2_778
10
13.8946395
20
145.5513501
40
0.4064176
50
235.1662581
51
251.3868667
0
ARC
8
DEFAULT_255_2_778
10
14.1419257
20
146.2119493
40
1.1116409
50
250.1753337
51
255.824613
0
ARC
8
DEFAULT_255_2_778
10
13.5661161
20
143.9115595
40
1.2597243
50
68.0238776
51
76.0551216
0
ARC
8
DEFAULT_255_2_778
10
13.8042256
20
144.5133101
40
0.6126073
50
61.2807152
51
67.6143415
0
ARC
8
DEFAULT_255_2_778
10
13.9433807
20
144.7485061
40
0.3395974
50
35.1373105
51
62.8028418
0
ARC
8
DEFAULT_255_2_778
10
14.0038884
20
144.8062579
40
0.2571766
50
358.6630006
51
32.3728825
0
ARC
8
DEFAULT_255_2_778
10
14.0139645
20
144.7956772
40
0.2470729
50
303.3782218
51
1.062157
0
ARC
8
DEFAULT_255_2_778
10
13.9002372
20
144.9604604
40
0.4472656
50
274.5466381
51
303.930487
0
ARC
8
DEFAULT_255_2_778
10
13.8544077
20
145.2723282
40
0.7620733
50
269.8561875
51
276.1229454
0
ARC
8
DEFAULT_255_2_778
10
13.8477012
20
145.1001989
40
0.5899611
50
248.01017
51
270.4655655
0
ARC
8
DEFAULT_255_2_778
10
13.7593887
20
144.9062441
40
0.3771624
50
218.7134076
51
249.4174666
0
ARC
8
DEFAULT_255_2_778
10
13.6789315
20
144.8362681
40
0.270652
50
179.3883734
51
217.8070675
0
ARC
8
DEFAULT_255_2_778
10
13.7450781
20
144.83356
40
0.1813696
50
178.2315269
51
235.5175053
0
ARC
8
DEFAULT_255_2_778
10
13.8271778
20
144.9595382
40
0.3317144
50
236.1476912
51
269.4725538
0
ARC
8
DEFAULT_255_2_778
10
13.8518916
20
145.1936925
40
0.5665355
50
267.19066
51
270.0306819
0
ARC
8
DEFAULT_255_2_778
10
13.864387
20
145.0128132
40
0.3858486
50
268.1892713
51
290.7612583
0
ARC
8
DEFAULT_255_2_778
10
13.9233134
20
144.8393907
40
0.2028996
50
292.5614242
51
305.0355402
0
ARC
8
DEFAULT_255_2_778
10
13.9596069
20
144.7948413
40
0.1456462
50
303.4059446
51
1.6193619
0
ARC
8
DEFAULT_255_2_778
10
13.9628285
20
144.8053771
40
0.1425111
50
357.4180504
51
54.8892807
0
ARC
8
DEFAULT_255_2_778
10
13.8126299
20
144.5722654
40
0.4197439
50
56.4192838
51
70.9815227
0
ARC
8
DEFAULT_255_2_778
10
13.4894248
20
143.7118744
40
1.3387299
50
69.9036108
51
75.4478784
0
ARC
8
DEFAULT_255_2_778
10
14.6606123
20
145.9455729
40
1.2882757
50
315.5964911
51
321.7420129
0
ARC
8
DEFAULT_255_2_778
10
15.2965658
20
145.4422674
40
0.4772592
50
321.9132495
51
329.0555293
0
ARC
8
DEFAULT_255_2_778
10
15.5027722
20
145.3199841
40
0.237527
50
328.7770111
51
359.6557958
0
ARC
8
DEFAULT_255_2_778
10
15.555587
20
145.3245355
40
0.1848047
50
358.1461988
51
45.7703344
0
ARC
8
DEFAULT_255_2_778
10
15.5456021
20
145.3062255
40
0.2049665
50
47.3407696
51
92.742525
0
ARC
8
DEFAULT_255_2_778
10
15.5222309
20
145.2605357
40
0.2507886
50
86.8996112
51
126.679388
0
ARC
8
DEFAULT_255_2_778
10
15.490405
20
145.3171123
40
0.1865872
50
129.2200652
51
133.2768068
0
ARC
8
DEFAULT_255_2_778
10
15.5108175
20
145.3034803
40
0.2105776
50
134.7779085
51
183.3276332
0
ARC
8
DEFAULT_255_2_778
10
15.4548386
20
145.3018737
40
0.3039291
50
130.9121811
51
182.0017879
0
ARC
8
DEFAULT_255_2_778
10
15.506439
20
145.2307242
40
0.3915647
50
91.3576017
51
129.7999344
0
ARC
8
DEFAULT_255_2_778
10
15.5355659
20
144.9969467
40
0.6264108
50
89.9607604
51
93.5149014
0
ARC
8
DEFAULT_255_2_778
10
15.5490838
20
145.173916
40
0.4496318
50
65.3729552
51
91.6681281
0
ARC
8
DEFAULT_255_2_778
10
15.6027599
20
145.3101053
40
0.3035673
50
50.5629559
51
63.8708339
0
ARC
8
DEFAULT_255_2_778
10
15.6330139
20
145.3439241
40
0.2582368
50
358.0100835
51
50.9807612
0
ARC
8
DEFAULT_255_2_778
10
15.5523581
20
145.3479812
40
0.3389871
50
328.8761655
51
357.7981433
0
ARC
8
DEFAULT_255_2_778
10
15.1038727
20
145.5977789
40
0.8522215
50
317.3775527
51
330.0849009
0
ARC
8
DEFAULT_255_2_778
10
14.6234471
20
146.0142109
40
1.4878471
50
314.68397
51
318.1055176
0
LINE
8
DEFAULT_255_2_778
10
16.4482949
20
139.6858572
11
16.1432949
21
139.6858572
0
LINE
8
DEFAULT_255_2_778
10
16.1432949
20
139.6858572
11
16.1432949
21
140.8275572
0
LINE
8
DEFAULT_255_2_778
10
16.1432949
20
140.8275572
11
16.3995949
21
140.8275572
0
LINE
8
DEFAULT_255_2_778
10
16.9369949
20
140.2681572
11
16.9369949
21
140.2681572
0
LINE
8
DEFAULT_255_2_778
10
16.4003949
20
140.6954572
11
16.3006949
21
140.6954572
0
LINE
8
DEFAULT_255_2_778
10
16.3006949
20
140.6954572
11
16.3006949
21
139.8178572
0
LINE
8
DEFAULT_255_2_778
10
16.3006949
20
139.8178572
11
16.4342949
21
139.8178572
0
LINE
8
DEFAULT_255_2_778
10
16.7787949
20
140.2679572
11
16.7787949
21
140.2681572
0
LINE
8
DEFAULT_255_2_778
10
6.7724949
20
144.8690572
11
6.9280949
21
144.8690572
0
LINE
8
DEFAULT_255_2_778
10
6.0247949
20
145.0161572
11
6.0247949
21
145.1203572
0
LINE
8
DEFAULT_255_2_778
10
6.9280949
20
145.2600572
11
6.7724949
21
145.2600572
0
LINE
8
DEFAULT_255_2_778
10
6.1803949
20
145.1164572
11
6.1803949
21
145.0116572
0
LINE
8
DEFAULT_255_2_778
10
6.7727949
20
144.8690572
11
6.7724949
21
144.8690572
0
LINE
8
DEFAULT_255_2_778
10
7.1391949
20
145.6082572
11
7.3389949
21
145.6082572
0
LINE
8
DEFAULT_255_2_778
10
7.3389949
20
145.6082572
11
7.7225949
21
144.7248572
0
LINE
8
DEFAULT_255_2_778
10
7.7225949
20
144.7248572
11
8.1062949
21
145.6082572
0
LINE
8
DEFAULT_255_2_778
10
8.1062949
20
145.6082572
11
8.3067949
21
145.6082572
0
LINE
8
DEFAULT_255_2_778
10
8.3067949
20
145.6082572
11
8.3067949
21
144.5255572
0
LINE
8
DEFAULT_255_2_778
10
8.3067949
20
144.5255572
11
8.1519949
21
144.5255572
0
LINE
8
DEFAULT_255_2_778
10
8.1519949
20
144.5255572
11
8.1519949
21
144.9470572
0
LINE
8
DEFAULT_255_2_778
10
8.1519949
20
144.9470572
11
8.1665949
21
145.4021572
0
LINE
8
DEFAULT_255_2_778
10
8.1665949
20
145.4021572
11
7.7813949
21
144.5253572
0
LINE
8
DEFAULT_255_2_778
10
7.7813949
20
144.5253572
11
7.6627949
21
144.5253572
0
LINE
8
DEFAULT_255_2_778
10
7.6627949
20
144.5253572
11
7.2783949
21
145.3997572
0
LINE
8
DEFAULT_255_2_778
10
7.2783949
20
145.3997572
11
7.2936949
21
144.9468572
0
LINE
8
DEFAULT_255_2_778
10
7.2936949
20
144.9468572
11
7.2936949
21
144.5250572
0
LINE
8
DEFAULT_255_2_778
10
7.2936949
20
144.5250572
11
7.1389949
21
144.5250572
0
LINE
8
DEFAULT_255_2_778
10
7.1389949
20
144.5250572
11
7.1389949
21
145.6082572
0
LINE
8
DEFAULT_255_2_778
10
7.1389949
20
145.6082572
11
7.1391949
21
145.6082572
0
LINE
8
DEFAULT_255_2_778
10
9.4193949
20
144.9494572
11
9.1428949
21
144.9494572
0
LINE
8
DEFAULT_255_2_778
10
9.1428949
20
144.9494572
11
9.1428949
21
144.5255572
0
LINE
8
DEFAULT_255_2_778
10
9.1428949
20
144.5255572
11
8.9880949
21
144.5255572
0
LINE
8
DEFAULT_255_2_778
10
8.9880949
20
144.5255572
11
8.9880949
21
145.6082572
0
LINE
8
DEFAULT_255_2_778
10
8.9880949
20
145.6082572
11
9.4209949
21
145.6082572
0
LINE
8
DEFAULT_255_2_778
10
9.4190949
20
144.9491572
11
9.4193949
21
144.9494572
0
LINE
8
DEFAULT_255_2_778
10
9.1431949
20
145.4907572
11
9.1431949
21
145.0661572
0
LINE
8
DEFAULT_255_2_778
10
9.1431949
20
145.0661572
11
9.4212949
21
145.0661572
0
LINE
8
DEFAULT_255_2_778
10
9.4302949
20
145.4910572
11
9.1433949
21
145.4910572
0
LINE
8
DEFAULT_255_2_778
10
9.1433949
20
145.4910572
11
9.1431949
21
145.4907572
0
LINE
8
DEFAULT_255_2_778
10
10.8401949
20
145.6082572
11
10.8401949
21
145.4907572
0
LINE
8
DEFAULT_255_2_778
10
10.8401949
20
145.4907572
11
10.4631949
21
145.4907572
0
LINE
8
DEFAULT_255_2_778
10
10.4631949
20
145.4907572
11
10.4631949
21
144.5255572
0
LINE
8
DEFAULT_255_2_778
10
10.4631949
20
144.5255572
11
10.3091949
21
144.5255572
0
LINE
8
DEFAULT_255_2_778
10
10.3091949
20
144.5255572
11
10.3091949
21
145.4907572
0
LINE
8
DEFAULT_255_2_778
10
10.3091949
20
145.4907572
11
9.9329949
21
145.4907572
0
LINE
8
DEFAULT_255_2_778
10
9.9329949
20
145.4907572
11
9.9329949
21
145.6082572
0
LINE
8
DEFAULT_255_2_778
10
9.9329949
20
145.6082572
11
10.8401949
21
145.6082572
0
LINE
8
DEFAULT_255_2_778
10
10.8401949
20
145.6082572
11
10.8401949
21
145.6082572
0
LINE
8
DEFAULT_255_2_778
10
11.4452949
20
144.9494572
11
11.1687949
21
144.9494572
0
LINE
8
DEFAULT_255_2_778
10
11.1687949
20
144.9494572
11
11.1687949
21
144.5255572
0
LINE
8
DEFAULT_255_2_778
10
11.1687949
20
144.5255572
11
11.0139949
21
144.5255572
0
LINE
8
DEFAULT_255_2_778
10
11.0139949
20
144.5255572
11
11.0139949
21
145.6082572
0
LINE
8
DEFAULT_255_2_778
10
11.0139949
20
145.6082572
11
11.4468949
21
145.6082572
0
LINE
8
DEFAULT_255_2_778
10
11.4450949
20
144.9491572
11
11.4452949
21
144.9494572
0
LINE
8
DEFAULT_255_2_778
10
11.1690949
20
145.4907572
11
11.1690949
21
145.0661572
0
LINE
8
DEFAULT_255_2_778
10
11.1690949
20
145.0661572
11
11.4471949
21
145.0661572
0
LINE
8
DEFAULT_255_2_778
10
11.4561949
20
145.4910572
11
11.1693949
21
145.4910572
0
LINE
8
DEFAULT_255_2_778
10
11.1693949
20
145.4910572
11
11.1690949
21
145.4907572
0
LINE
8
DEFAULT_255_2_778
10
13.1486949
20
144.5255572
11
12.8941949
21
144.9634572
0
LINE
8
DEFAULT_255_2_778
10
12.8941949
20
144.9634572
11
12.6186949
21
144.9634572
0
LINE
8
DEFAULT_255_2_778
10
12.6186949
20
144.9634572
11
12.6186949
21
144.5255572
0
LINE
8
DEFAULT_255_2_778
10
12.6186949
20
144.5255572
11
12.4631949
21
144.5255572
0
LINE
8
DEFAULT_255_2_778
10
12.4631949
20
144.5255572
11
12.4631949
21
145.6082572
0
LINE
8
DEFAULT_255_2_778
10
12.4631949
20
145.6082572
11
12.8515949
21
145.6082572
0
LINE
8
DEFAULT_255_2_778
10
13.0391949
20
144.9941572
11
13.3145949
21
144.5345572
0
LINE
8
DEFAULT_255_2_778
10
13.3145949
20
144.5345572
11
13.3145949
21
144.5255572
0
LINE
8
DEFAULT_255_2_778
10
13.3145949
20
144.5255572
11
13.1486949
21
144.5255572
0
LINE
8
DEFAULT_255_2_778
10
13.1486949
20
144.5255572
11
13.1486949
21
144.5255572
0
LINE
8
DEFAULT_255_2_778
10
12.6184949
20
145.4907572
11
12.6184949
21
145.0801572
0
LINE
8
DEFAULT_255_2_778
10
12.6184949
20
145.0801572
11
12.8560949
21
145.0801572
0
LINE
8
DEFAULT_255_2_778
10
12.8552949
20
145.4907572
11
12.6184949
21
145.4907572
0
LINE
8
DEFAULT_255_2_778
10
12.6184949
20
145.4907572
11
12.6184949
21
145.4907572
0
LINE
8
DEFAULT_255_2_778
10
14.2583949
20
145.2950572
11
14.1027949
21
145.2950572
0
LINE
8
DEFAULT_255_2_778
10
13.4082949
20
144.8391572
11
13.5637949
21
144.8391572
0
LINE
8
DEFAULT_255_2_778
10
13.8257949
20
145.0076572
11
13.8257949
21
145.0079572
0
LINE
8
DEFAULT_255_2_778
10
15.9445949
20
144.6433572
11
15.9445949
21
144.5316572
0
LINE
8
DEFAULT_255_2_778
10
15.9445949
20
144.5316572
11
15.1735949
21
144.5316572
0
LINE
8
DEFAULT_255_2_778
10
15.1735949
20
144.5316572
11
15.1735949
21
144.6301572
0
LINE
8
DEFAULT_255_2_778
10
15.1735949
20
144.6301572
11
15.5809949
21
145.0441572
0
LINE
8
DEFAULT_255_2_778
10
15.3005949
20
145.2912572
11
15.1510949
21
145.2912572
0
LINE
8
DEFAULT_255_2_778
10
15.6696949
20
144.9563572
11
15.3544949
21
144.6435572
0
LINE
8
DEFAULT_255_2_778
10
15.3544949
20
144.6435572
11
15.9453949
21
144.6435572
0
LINE
8
DEFAULT_255_2_778
10
15.9453949
20
144.6435572
11
15.9445949
21
144.6433572
0
ARC
8
DEFAULT_255_2_778
10
16.5161519
20
145.3735304
40
0.2309018
50
267.5748122
51
308.6236582
0
ARC
8
DEFAULT_255_2_778
10
16.5503544
20
145.3177756
40
0.16619
50
311.4108102
51
2.5382058
0
ARC
8
DEFAULT_255_2_778
10
16.5226737
20
145.3382588
40
0.1941516
50
356.1242066
51
38.462434
0
ARC
8
DEFAULT_255_2_778
10
16.5470354
20
145.3306727
40
0.1810277
50
45.1536651
51
91.7858292
0
ARC
8
DEFAULT_255_2_778
10
16.5260363
20
145.1467047
40
0.3652308
50
87.5900382
51
90.0243119
0
ARC
8
DEFAULT_255_2_778
10
16.5157114
20
145.3112655
40
0.2009274
50
87.0987527
51
131.4206904
0
ARC
8
DEFAULT_255_2_778
10
16.5016795
20
145.3368876
40
0.1725507
50
133.5559449
51
182.4088172
0
ARC
8
DEFAULT_255_2_778
10
16.4594745
20
145.3349711
40
0.2683462
50
130.3643039
51
181.1393327
0
ARC
8
DEFAULT_255_2_778
10
16.5125667
20
145.2744189
40
0.3488707
50
87.8127907
51
130.567428
0
ARC
8
DEFAULT_255_2_778
10
16.5391006
20
145.2397365
40
0.3835268
50
61.964977
51
91.9752554
0
ARC
8
DEFAULT_255_2_778
10
16.5846831
20
145.343087
40
0.2710075
50
47.6694887
51
60.2010426
0
ARC
8
DEFAULT_255_2_778
10
16.5710427
20
145.3382206
40
0.2838722
50
356.8325372
51
46.2954699
0
ARC
8
DEFAULT_255_2_778
10
16.6255892
20
145.3260094
40
0.2289184
50
323.0289881
51
359.1304555
0
ARC
8
DEFAULT_255_2_778
10
16.5823519
20
145.3506389
40
0.2783468
50
291.2601394
51
324.3312458
0
ARC
8
DEFAULT_255_2_778
10
16.611516
20
144.8321253
40
0.2688649
50
38.4830695
51
74.518957
0
ARC
8
DEFAULT_255_2_778
10
16.6193803
20
144.8502219
40
0.2516184
50
358.2494387
51
36.3712599
0
ARC
8
DEFAULT_255_2_778
10
16.584001
20
144.8296387
40
0.28717
50
311.792543
51
2.5740047
0
ARC
8
DEFAULT_255_2_778
10
16.5437785
20
144.8924336
40
0.3609882
50
268.0435999
51
309.9097418
0
ARC
8
DEFAULT_255_2_778
10
16.526665
20
145.088469
40
0.5568337
50
270.0016772
51
270.4928468
0
ARC
8
DEFAULT_255_2_778
10
16.5122626
20
144.9146896
40
0.3833255
50
235.9680838
51
272.1556663
0
ARC
8
DEFAULT_255_2_778
10
16.4816933
20
144.8538876
40
0.3159487
50
229.7808709
51
234.391176
0
ARC
8
DEFAULT_255_2_778
10
16.4474912
20
144.8173359
40
0.2659656
50
178.0393545
51
230.322501
0
ARC
8
DEFAULT_255_2_778
10
16.4918172
20
144.8191918
40
0.171389
50
177.5777247
51
227.7953286
0
ARC
8
DEFAULT_255_2_778
10
16.5156664
20
144.8583261
40
0.216571
50
230.0773112
51
272.9153363
0
ARC
8
DEFAULT_255_2_778
10
16.5400815
20
144.8592415
40
0.2176191
50
266.4696801
51
308.0990511
0
ARC
8
DEFAULT_255_2_778
10
16.57124
20
144.8063658
40
0.1569926
50
311.0585372
51
313.789809
0
ARC
8
DEFAULT_255_2_778
10
16.5387674
20
144.8268001
40
0.194438
50
316.5314954
51
3.7849694
0
ARC
8
DEFAULT_255_2_778
10
16.5559773
20
144.8504676
40
0.1771355
50
356.4940557
51
47.9663857
0
ARC
8
DEFAULT_255_2_778
10
16.5276549
20
144.7918723
40
0.240311
50
52.3091288
51
89.4449796
0
ARC
8
DEFAULT_255_2_778
10
16.5014713
20
144.5769694
40
0.4560947
50
86.4159811
51
89.3580564
0
ARC
8
DEFAULT_255_2_778
10
16.6447987
20
145.9455511
40
1.2882757
50
315.5964911
51
321.7420129
0
ARC
8
DEFAULT_255_2_778
10
17.2807521
20
145.4422456
40
0.4772592
50
321.9132495
51
329.0555293
0
ARC
8
DEFAULT_255_2_778
10
17.4869585
20
145.3199623
40
0.237527
50
328.7770111
51
359.6557958
0
ARC
8
DEFAULT_255_2_778
10
17.5397733
20
145.3245137
40
0.1848047
50
358.1461988
51
45.7703344
0
ARC
8
DEFAULT_255_2_778
10
17.5298679
20
145.3064224
40
0.2047518
50
47.3156387
51
92.7676559
0
ARC
8
DEFAULT_255_2_778
10
17.5064172
20
145.2605139
40
0.2507886
50
86.8996112
51
126.679388
0
ARC
8
DEFAULT_255_2_778
10
17.4745913
20
145.3170905
40
0.1865872
50
129.2200652
51
133.2768068
0
ARC
8
DEFAULT_255_2_778
10
17.4947231
20
145.3034361
40
0.2103958
50
134.7193391
51
183.3244062
0
ARC
8
DEFAULT_255_2_778
10
17.4390249
20
145.3018519
40
0.3039291
50
130.9121811
51
182.0017879
0
ARC
8
DEFAULT_255_2_778
10
17.4906253
20
145.2307024
40
0.3915647
50
91.3576017
51
129.7999344
0
ARC
8
DEFAULT_255_2_778
10
17.5197523
20
144.9969249
40
0.6264108
50
89.9607604
51
93.5149014
0
ARC
8
DEFAULT_255_2_778
10
17.5332702
20
145.1738942
40
0.4496318
50
65.3729552
51
91.6681281
0
ARC
8
DEFAULT_255_2_778
10
17.5869463
20
145.3100834
40
0.3035673
50
50.5629559
51
63.8708339
0
ARC
8
DEFAULT_255_2_778
10
17.6172002
20
145.3439023
40
0.2582368
50
358.0100835
51
50.9807612
0
ARC
8
DEFAULT_255_2_778
10
17.5366582
20
145.3479643
40
0.3388736
50
328.8635961
51
357.7965749
0
ARC
8
DEFAULT_255_2_778
10
17.0881131
20
145.5979082
40
0.852231
50
317.364323
51
330.0735473
0
ARC
8
DEFAULT_255_2_778
10
16.6074997
20
146.0146998
40
1.4882339
50
314.6710662
51
318.0924594
0
LINE
8
DEFAULT_255_2_778
10
16.4025813
20
145.0328354
11
16.4025813
21
145.1428354
0
LINE
8
DEFAULT_255_2_778
10
16.4025813
20
145.1428354
11
16.5063813
21
145.1428354
0
LINE
8
DEFAULT_255_2_778
10
16.3292813
20
145.3296354
11
16.1911813
21
145.3296354
0
LINE
8
DEFAULT_255_2_778
10
16.1816813
20
144.8264354
11
16.3205813
21
144.8264354
0
LINE
8
DEFAULT_255_2_778
10
16.5065813
20
145.0330354
11
16.4028813
21
145.0330354
0
LINE
8
DEFAULT_255_2_778
10
16.4028813
20
145.0330354
11
16.4025813
21
145.0328354
0
LINE
8
DEFAULT_255_2_778
10
17.9289813
20
144.6433354
11
17.9289813
21
144.5316354
0
LINE
8
DEFAULT_255_2_778
10
17.9289813
20
144.5316354
11
17.1576813
21
144.5316354
0
LINE
8
DEFAULT_255_2_778
10
17.1576813
20
144.5316354
11
17.1576813
21
144.6301354
0
LINE
8
DEFAULT_255_2_778
10
17.1576813
20
144.6301354
11
17.5651813
21
145.0441354
0
LINE
8
DEFAULT_255_2_778
10
17.2846813
20
145.2912354
11
17.1352813
21
145.2912354
0
LINE
8
DEFAULT_255_2_778
10
17.6537813
20
144.9563354
11
17.3386813
21
144.6435354
0
LINE
8
DEFAULT_255_2_778
10
17.3386813
20
144.6435354
11
17.9294813
21
144.6435354
0
LINE
8
DEFAULT_255_2_778
10
17.9294813
20
144.6435354
11
17.9289813
21
144.6433354
0
ENDSEC
0
EOF