0
SECTION
2
HEADER
9
$MEASUREMENT
70
1
0
ENDSEC
0
SECTION
2
TABLES
0
TABLE
2
LTYPE
0
LTYPE
72
65
70
64
2
CONTINUOUS
3
______
73
0
40
0
0
ENDTAB
0
TABLE
2
LAYER
0
LAYER
2
DEFAULT_255_2_778
70
0
62
255
6
CONTINUOUS
0
ENDTAB
0
ENDSEC
0
SECTION
2
ENTITIES
0
ARC
8
DEFAULT_255_2_778
10
6.6388972
20
151.1257914
40
1.7321619
50
32.5538243
51
89.9994845
0
LINE
8
DEFAULT_255_2_778
10
0.3209128
20
95.8262533
11
0.3209128
21
134.6258533
0
LINE
8
DEFAULT_255_2_778
10
18.7391128
20
151.6578533
11
18.7391128
21
155.1577533
0
LINE
8
DEFAULT_255_2_778
10
9.7390128
20
155.1577533
11
9.7390128
21
151.6578533
0
LINE
8
DEFAULT_255_2_778
10
18.7391128
20
155.1577533
11
18.6139128
21
156.8658533
0
LINE
8
DEFAULT_255_2_778
10
18.6139128
20
156.8658533
11
18.2567128
21
158.3419533
0
LINE
8
DEFAULT_255_2_778
10
18.2567128
20
158.3419533
11
17.6786128
21
159.5971533
0
LINE
8
DEFAULT_255_2_778
10
17.6786128
20
159.5971533
11
17.0928128
21
160.3864533
0
LINE
8
DEFAULT_255_2_778
10
17.0928128
20
160.3864533
11
16.3541128
21
161.0227533
0
LINE
8
DEFAULT_255_2_778
10
16.3541128
20
161.0227533
11
15.7620128
21
161.3473533
0
LINE
8
DEFAULT_255_2_778
10
15.7620128
20
161.3473533
11
15.0693128
21
161.5714533
0
LINE
8
DEFAULT_255_2_778
10
15.0693128
20
161.5714533
11
14.2390128
21
161.6577533
0
LINE
8
DEFAULT_255_2_778
10
14.2390128
20
161.6577533
11
13.4088128
21
161.5714533
0
LINE
8
DEFAULT_255_2_778
10
13.4088128
20
161.5714533
11
12.7161128
21
161.3473533
0
LINE
8
DEFAULT_255_2_778
10
12.7161128
20
161.3473533
11
12.1240128
21
161.0227533
0
LINE
8
DEFAULT_255_2_778
10
12.1240128
20
161.0227533
11
11.3852128
21
160.3864533
0
LINE
8
DEFAULT_255_2_778
10
11.3852128
20
160.3864533
11
10.7995128
21
159.5971533
0
LINE
8
DEFAULT_255_2_778
10
10.7995128
20
159.5971533
11
10.2213128
21
158.3419533
0
LINE
8
DEFAULT_255_2_778
10
10.2213128
20
158.3419533
11
9.8642128
21
156.8658533
0
LINE
8
DEFAULT_255_2_778
10
9.8642128
20
156.8658533
11
9.7390128
21
155.1577533
0
LINE
8
DEFAULT_255_2_778
10
8.1338128
20
151.6578533
11
8.0989128
21
152.0578533
0
ARC
8
DEFAULT_255_2_778
10
3.8390716
20
151.1257457
40
1.7319897
50
90.0007032
51
147.4492974
0
ARC
8
DEFAULT_255_2_778
10
15.1562404
20
6.8779688
40
0.2001334
50
207.765644
51
269.9741986
0
ARC
8
DEFAULT_255_2_778
10
16.8692633
20
2.7779926
40
0.5001574
50
195.000828
51
269.9755934
0
ARC
8
DEFAULT_255_2_778
10
21.0852422
20
2.4789629
40
0.2011276
50
270.0592769
51
314.7946537
0
ARC
8
DEFAULT_255_2_778
10
21.0859578
20
2.4773686
40
0.199493
50
314.9714167
51
0.1340596
0
LINE
8
DEFAULT_255_2_778
10
6.6391503
20
152.8577354
11
3.8390503
21
152.8577354
0
LINE
8
DEFAULT_255_2_778
10
2.3791503
20
152.0576354
11
2.2391503
21
150.4577354
0
LINE
8
DEFAULT_255_2_778
10
2.2391503
20
150.4577354
11
2.2391503
21
149.4575354
0
LINE
8
DEFAULT_255_2_778
10
2.2391503
20
149.4575354
11
4.4891503
21
149.4575354
0
LINE
8
DEFAULT_255_2_778
10
21.2388503
20
148.9577354
11
21.2388503
21
151.6578354
0
LINE
8
DEFAULT_255_2_778
10
21.2388503
20
151.6578354
11
7.2389503
21
151.6578354
0
LINE
8
DEFAULT_255_2_778
10
7.2389503
20
151.6578354
11
7.2389503
21
148.9577354
0
LINE
8
DEFAULT_255_2_778
10
2.5055503
20
149.4578354
11
2.5055503
21
148.9577354
0
LINE
8
DEFAULT_255_2_778
10
5.9901503
20
115.8033354
11
5.8986503
21
115.7184354
0
LINE
8
DEFAULT_255_2_778
10
5.8986503
20
115.7184354
11
5.9054503
21
115.6001354
0
LINE
8
DEFAULT_255_2_778
10
5.9054503
20
115.6001354
11
5.9277503
21
115.6046354
0
LINE
8
DEFAULT_255_2_778
10
5.9277503
20
115.6046354
11
5.9737503
21
115.6340354
0
LINE
8
DEFAULT_255_2_778
10
5.9737503
20
115.6340354
11
6.0562503
21
115.7110354
0
LINE
8
DEFAULT_255_2_778
10
6.0562503
20
115.7110354
11
6.1959503
21
115.8573354
0
LINE
8
DEFAULT_255_2_778
10
6.1959503
20
115.8573354
11
6.1959503
21
114.4037354
0
LINE
8
DEFAULT_255_2_778
10
6.1959503
20
114.4037354
11
6.3089503
21
114.4037354
0
LINE
8
DEFAULT_255_2_778
10
6.3089503
20
114.4037354
11
6.3089503
21
115.9949354
0
LINE
8
DEFAULT_255_2_778
10
6.3089503
20
115.9949354
11
6.1671503
21
115.9949354
0
LINE
8
DEFAULT_255_2_778
10
6.1671503
20
115.9949354
11
5.9904503
21
115.8039354
0
LINE
8
DEFAULT_255_2_778
10
4.7487503
20
97.8902354
11
5.3958503
21
97.8902354
0
LINE
8
DEFAULT_255_2_778
10
5.3958503
20
97.8902354
11
5.3958503
21
98.0032354
0
LINE
8
DEFAULT_255_2_778
10
5.3958503
20
98.0032354
11
4.6357503
21
98.0032354
0
LINE
8
DEFAULT_255_2_778
10
4.6357503
20
98.0032354
11
4.6357503
21
96.4099354
0
LINE
8
DEFAULT_255_2_778
10
4.6357503
20
96.4099354
11
4.7487503
21
96.4099354
0
LINE
8
DEFAULT_255_2_778
10
4.7487503
20
96.4099354
11
4.7487503
21
97.1944354
0
LINE
8
DEFAULT_255_2_778
10
4.7487503
20
97.1944354
11
5.3559503
21
97.1944354
0
LINE
8
DEFAULT_255_2_778
10
5.3559503
20
97.1944354
11
5.3559503
21
97.3074354
0
LINE
8
DEFAULT_255_2_778
10
5.3559503
20
97.3074354
11
4.7487503
21
97.3074354
0
LINE
8
DEFAULT_255_2_778
10
4.7487503
20
97.3074354
11
4.7487503
21
97.8902354
0
LINE
8
DEFAULT_255_2_778
10
8.4351503
20
12.5060354
11
8.4351503
21
7.8779354
0
LINE
8
DEFAULT_255_2_778
10
8.4351503
20
7.8779354
11
14.4036503
21
7.8779354
0
LINE
8
DEFAULT_255_2_778
10
14.4036503
20
7.8779354
11
14.9791503
21
6.7847354
0
LINE
8
DEFAULT_255_2_778
10
15.1561503
20
6.6778354
11
15.3063503
21
6.6778354
0
LINE
8
DEFAULT_255_2_778
10
15.3063503
20
6.6778354
11
16.3861503
21
2.6485354
0
LINE
8
DEFAULT_255_2_778
10
16.8690503
20
2.2778354
11
21.0854503
21
2.2778354
0
LINE
8
DEFAULT_255_2_778
10
21.2854503
20
2.4778354
11
23.4354503
21
2.4778354
0
LINE
8
DEFAULT_255_2_778
10
23.4354503
20
2.4778354
11
23.4354503
21
3.4779354
0
LINE
8
DEFAULT_255_2_778
10
23.4354503
20
3.4779354
11
22.8353503
21
3.4779354
0
LINE
8
DEFAULT_255_2_778
10
22.8353503
20
3.4779354
11
22.8353503
21
10.7577354
0
LINE
8
DEFAULT_255_2_778
10
7.2389503
20
0.8228354
11
7.2389503
21
5.9282354
0
ARC
8
DEFAULT_255_2_778
10
18.242468
20
0.8214346
40
0.996477
50
318.3575081
51
0.0830578
0
ARC
8
DEFAULT_255_2_778
10
18.2399654
20
0.820299
40
0.9975959
50
271.7327121
51
318.5017548
0
ARC
8
DEFAULT_255_2_778
10
18.2388536
20
0.8414383
40
1.0187592
50
269.9994554
51
271.7592612
0
ARC
8
DEFAULT_255_2_778
10
8.2377204
20
0.8189598
40
0.9962817
50
228.352397
51
270.0818679
0
ARC
8
DEFAULT_255_2_778
10
8.2368246
20
0.8217247
40
0.9977557
50
181.7308645
51
228.4963478
0
ARC
8
DEFAULT_255_2_778
10
8.2581677
20
0.8228694
40
1.0191238
50
179.9994553
51
181.7589451
0
ARC
8
DEFAULT_255_2_778
10
9.7391196
20
3.8229546
40
0.5000756
50
179.9972001
51
269.9913338
0
LINE
8
DEFAULT_255_2_778
10
19.2389439
20
2.2780791
11
19.2389439
21
0.8228791
0
LINE
8
DEFAULT_255_2_778
10
18.2388439
20
-0.1773209
11
8.2391439
21
-0.1773209
0
LINE
8
DEFAULT_255_2_778
10
9.2390439
20
5.9578791
11
9.2390439
21
3.8229791
0
ARC
8
DEFAULT_255_2_778
10
7.142045
20
11.759875
40
1.4931507
50
359.9175555
51
29.8594812
0
ARC
8
DEFAULT_255_2_778
10
7.1347321
20
11.7568545
40
1.500997
50
29.820494
51
82.1202577
0
ARC
8
DEFAULT_255_2_778
10
7.1355226
20
11.7442831
40
1.5133435
50
82.2151554
51
90.0086523
0
ARC
8
DEFAULT_255_2_778
10
21.9208647
20
2.9160005
40
0.9582399
50
269.9992047
51
270.6714513
0
ARC
8
DEFAULT_255_2_778
10
21.9207228
20
2.9139796
40
0.9562191
50
219.4164203
51
270.0077075
0
LINE
8
DEFAULT_255_2_778
10
9.7389941
20
3.3228264
11
16.2051941
21
3.3228264
0
LINE
8
DEFAULT_255_2_778
10
5.2392941
20
149.4575264
11
4.4891941
21
149.4575264
0
LINE
8
DEFAULT_255_2_778
10
4.4891941
20
149.4575264
11
4.4891941
21
150.4576264
0
LINE
8
DEFAULT_255_2_778
10
4.4891941
20
150.4576264
11
5.2392941
21
150.4576264
0
LINE
8
DEFAULT_255_2_778
10
5.2392941
20
150.4576264
11
5.2392941
21
149.4575264
0
LINE
8
DEFAULT_255_2_778
10
5.2392941
20
149.4575264
11
6.2393941
21
149.4575264
0
LINE
8
DEFAULT_255_2_778
10
6.2393941
20
149.4575264
11
6.2393941
21
150.4576264
0
LINE
8
DEFAULT_255_2_778
10
6.2393941
20
150.4576264
11
5.2392941
21
150.4576264
0
LINE
8
DEFAULT_255_2_778
10
4.4891941
20
150.4576264
11
2.2391941
21
150.4576264
0
LINE
8
DEFAULT_255_2_778
10
23.2390941
20
148.9577264
11
23.2390941
21
149.0754264
0
LINE
8
DEFAULT_255_2_778
10
23.2390941
20
149.0754264
11
26.2431941
21
149.0754264
0
LINE
8
DEFAULT_255_2_778
10
26.2431941
20
149.0754264
11
26.2431941
21
148.9577264
0
LINE
8
DEFAULT_255_2_778
10
0.2351941
20
131.7579264
11
0.2351941
21
134.5575264
0
LINE
8
DEFAULT_255_2_778
10
0.2351941
20
107.7581264
11
0.2351941
21
110.5576264
0
LINE
8
DEFAULT_255_2_778
10
0.2351941
20
95.7579264
11
0.2351941
21
98.5575264
0
LINE
8
DEFAULT_255_2_778
10
0.2351941
20
101.7579264
11
0.2351941
21
104.5574264
0
LINE
8
DEFAULT_255_2_778
10
0.2351941
20
119.7580264
11
0.2351941
21
122.5575264
0
LINE
8
DEFAULT_255_2_778
10
0.2351941
20
125.7579264
11
0.2351941
21
128.5575264
0
LINE
8
DEFAULT_255_2_778
10
0.2351941
20
113.7580264
11
0.2351941
21
116.5576264
0
LINE
8
DEFAULT_255_2_778
10
8.6351941
20
11.7577264
11
8.6351941
21
10.7576264
0
LINE
8
DEFAULT_255_2_778
10
8.6351941
20
10.7576264
11
24.8850941
21
10.7576264
0
LINE
8
DEFAULT_255_2_778
10
24.8850941
20
10.7576264
11
24.8850941
21
22.1278264
0
LINE
8
DEFAULT_255_2_778
10
7.1352941
20
13.2576264
11
4.5851941
21
13.2576264
0
LINE
8
DEFAULT_255_2_778
10
4.5851941
20
13.2576264
11
3.5850941
21
13.2576264
0
LINE
8
DEFAULT_255_2_778
10
3.5850941
20
13.2576264
11
3.5850941
21
22.1278264
0
LINE
8
DEFAULT_255_2_778
10
22.8025941
20
148.9577264
11
22.7744941
21
150.5576264
0
LINE
8
DEFAULT_255_2_778
10
22.7744941
20
150.5576264
11
21.4036941
21
150.5576264
0
LINE
8
DEFAULT_255_2_778
10
21.4036941
20
150.5576264
11
21.3843941
21
149.4577264
0
LINE
8
DEFAULT_255_2_778
10
21.3843941
20
149.4577264
11
21.2388941
21
149.4577264
0
LINE
8
DEFAULT_255_2_778
10
26.2431941
20
22.1278264
11
26.2431941
21
148.9577264
0
LINE
8
DEFAULT_255_2_778
10
26.2431941
20
148.9577264
11
0.2351941
21
148.9577264
0
LINE
8
DEFAULT_255_2_778
10
0.2351941
20
148.9577264
11
0.2351941
21
134.5575264
0
LINE
8
DEFAULT_255_2_778
10
0.2351941
20
134.5575264
11
3.0392941
21
134.5575264
0
LINE
8
DEFAULT_255_2_778
10
3.0392941
20
134.5575264
11
3.0392941
21
131.7579264
0
LINE
8
DEFAULT_255_2_778
10
3.0392941
20
131.7579264
11
0.2351941
21
131.7579264
0
LINE
8
DEFAULT_255_2_778
10
0.2351941
20
131.7579264
11
0.2351941
21
128.5575264
0
LINE
8
DEFAULT_255_2_778
10
0.2351941
20
128.5575264
11
3.0392941
21
128.5575264
0
LINE
8
DEFAULT_255_2_778
10
3.0392941
20
128.5575264
11
3.0392941
21
125.7579264
0
LINE
8
DEFAULT_255_2_778
10
3.0392941
20
125.7579264
11
0.2351941
21
125.7579264
0
LINE
8
DEFAULT_255_2_778
10
0.2351941
20
125.7579264
11
0.2351941
21
122.5575264
0
LINE
8
DEFAULT_255_2_778
10
0.2351941
20
122.5575264
11
3.0392941
21
122.5575264
0
LINE
8
DEFAULT_255_2_778
10
3.0392941
20
122.5575264
11
3.0392941
21
119.7580264
0
LINE
8
DEFAULT_255_2_778
10
3.0392941
20
119.7580264
11
0.2351941
21
119.7580264
0
LINE
8
DEFAULT_255_2_778
10
0.2351941
20
119.7580264
11
0.2351941
21
116.5576264
0
LINE
8
DEFAULT_255_2_778
10
0.2351941
20
116.5576264
11
3.0392941
21
116.5576264
0
LINE
8
DEFAULT_255_2_778
10
3.0392941
20
116.5576264
11
3.0392941
21
113.7580264
0
LINE
8
DEFAULT_255_2_778
10
3.0392941
20
113.7580264
11
0.2351941
21
113.7580264
0
LINE
8
DEFAULT_255_2_778
10
0.2351941
20
113.7580264
11
0.2351941
21
110.5576264
0
LINE
8
DEFAULT_255_2_778
10
0.2351941
20
110.5576264
11
3.0392941
21
110.5576264
0
LINE
8
DEFAULT_255_2_778
10
3.0392941
20
110.5576264
11
3.0392941
21
107.7581264
0
LINE
8
DEFAULT_255_2_778
10
3.0392941
20
107.7581264
11
0.2351941
21
107.7581264
0
LINE
8
DEFAULT_255_2_778
10
0.2351941
20
107.7581264
11
0.2351941
21
104.5577264
0
LINE
8
DEFAULT_255_2_778
10
0.2351941
20
104.5577264
11
3.0392941
21
104.5577264
0
LINE
8
DEFAULT_255_2_778
10
3.0392941
20
104.5577264
11
3.0392941
21
101.7581264
0
LINE
8
DEFAULT_255_2_778
10
3.0392941
20
101.7581264
11
0.2351941
21
101.7581264
0
LINE
8
DEFAULT_255_2_778
10
0.2351941
20
101.7581264
11
0.2351941
21
98.5577264
0
LINE
8
DEFAULT_255_2_778
10
0.2351941
20
98.5577264
11
3.0392941
21
98.5577264
0
LINE
8
DEFAULT_255_2_778
10
3.0392941
20
98.5577264
11
3.0392941
21
95.7582264
0
LINE
8
DEFAULT_255_2_778
10
3.0392941
20
95.7582264
11
0.2351941
21
95.7582264
0
LINE
8
DEFAULT_255_2_778
10
0.2351941
20
95.7582264
11
0.2351941
21
22.1281264
0
LINE
8
DEFAULT_255_2_778
10
0.2351941
20
22.1281264
11
26.2431941
21
22.1281264
0
LINE
8
DEFAULT_255_2_778
10
26.2431941
20
22.1281264
11
26.2431941
21
1.9578264
0
LINE
8
DEFAULT_255_2_778
10
26.2431941
20
1.9578264
11
21.9320941
21
1.9578264
0
ARC
8
DEFAULT_255_2_778
10
7.4320898
20
4.9575585
40
1.0000279
50
89.9989862
51
159.4320415
0
ARC
8
DEFAULT_255_2_778
10
4.5460246
20
2.9580055
40
1.000119
50
270.004752
51
339.4345446
0
LINE
8
DEFAULT_255_2_778
10
15.4993075
20
5.9575865
11
7.4321075
21
5.9575865
0
LINE
8
DEFAULT_255_2_778
10
6.4958075
20
5.3088865
11
5.4824075
21
2.6066865
0
LINE
8
DEFAULT_255_2_778
10
4.5461075
20
1.9578865
11
0.2352075
21
1.9578865
0
LINE
8
DEFAULT_255_2_778
10
0.2352075
20
1.9578865
11
0.2352075
21
22.1281865
0
LINE
8
DEFAULT_255_2_778
10
0.2151075
20
23.1099865
11
0.2151075
21
24.2394865
0
LINE
8
DEFAULT_255_2_778
10
0.2151075
20
26.6138865
11
0.2151075
21
26.3302865
0
LINE
8
DEFAULT_255_2_778
10
0.2151075
20
30.5130865
11
0.2151075
21
32.7130865
0
LINE
8
DEFAULT_255_2_778
10
0.2151075
20
24.3834865
11
0.2151075
21
26.5588865
0
LINE
8
DEFAULT_255_2_778
10
0.2151075
20
26.8297865
11
0.2151075
21
29.5131865
0
LINE
8
DEFAULT_255_2_778
10
6.2391075
20
149.4577865
11
7.2393075
21
149.4577865
0
LINE
8
DEFAULT_255_2_778
10
7.2393075
20
150.4576865
11
6.2391075
21
150.4576865
0
ARC
8
DEFAULT_255_2_778
10
7.2588133
20
25.5799334
40
0.3422232
50
89.9547015
51
155.2881519
0
ARC
8
DEFAULT_255_2_778
10
7.2590725
20
25.5768691
40
0.3452873
50
86.4702993
51
89.9980985
0
ARC
8
DEFAULT_255_2_778
10
7.2820309
20
25.5600622
40
0.3614433
50
90.000033
51
90.2695634
0
ARC
8
DEFAULT_255_2_778
10
7.2820988
20
25.5520348
40
0.3694706
50
40.3603822
51
90.0105686
0
ARC
8
DEFAULT_255_2_778
10
7.2826159
20
25.5521084
40
0.3690292
50
0.0114056
51
40.4036672
0
ARC
8
DEFAULT_255_2_778
10
7.283104
20
25.5521872
40
0.368541
50
354.4913893
51
359.9991591
0
ARC
8
DEFAULT_255_2_778
10
7.2824809
20
25.5522495
40
0.3691672
50
350.3555344
51
354.4910508
0
ARC
8
DEFAULT_255_2_778
10
7.3226723
20
25.4824349
40
0.3238561
50
359.9985538
51
1.4095703
0
ARC
8
DEFAULT_255_2_778
10
7.3239709
20
25.4826197
40
0.3225576
50
290.0450521
51
359.9657267
0
ARC
8
DEFAULT_255_2_778
10
7.3095667
20
24.8461478
40
0.3561001
50
1.5856358
51
69.4562169
0
ARC
8
DEFAULT_255_2_778
10
7.2659246
20
24.7859341
40
0.4057021
50
5.3850398
51
9.9452231
0
ARC
8
DEFAULT_255_2_778
10
7.2672985
20
24.7860643
40
0.4043221
50
0.0008383
51
5.3849366
0
ARC
8
DEFAULT_255_2_778
10
7.2690837
20
24.7859216
40
0.4025369
50
319.9304091
51
0.0211487
0
ARC
8
DEFAULT_255_2_778
10
7.2681671
20
24.7865344
40
0.4036329
50
269.9947933
51
319.9476015
0
ARC
8
DEFAULT_255_2_778
10
7.247067
20
24.6989134
40
0.3167131
50
270.0022177
51
273.813332
0
ARC
8
DEFAULT_255_2_778
10
7.2471739
20
24.697112
40
0.3149116
50
201.577248
51
269.982791
0
ARC
8
DEFAULT_255_2_778
10
7.2443498
20
24.7089302
40
0.2117347
50
203.2640648
51
269.9899551
0
ARC
8
DEFAULT_255_2_778
10
7.2442958
20
24.7098992
40
0.2127037
50
270.0045573
51
276.3524988
0
ARC
8
DEFAULT_255_2_778
10
7.2820015
20
25.5347815
40
0.2721826
50
349.5045736
51
354.7704056
0
ARC
8
DEFAULT_255_2_778
10
7.2827137
20
25.5347098
40
0.271467
50
354.771767
51
359.9990159
0
ARC
8
DEFAULT_255_2_778
10
7.282978
20
25.534699
40
0.2712028
50
0.0013089
51
40.1316078
0
ARC
8
DEFAULT_255_2_778
10
7.2819468
20
25.5339157
40
0.272496
50
40.1177822
51
90.0124686
0
ARC
8
DEFAULT_255_2_778
10
7.2819117
20
25.528468
40
0.2779436
50
90.0049894
51
90.4909026
0
ARC
8
DEFAULT_255_2_778
10
7.2581372
20
25.5650293
40
0.2423184
50
84.9350259
51
89.997104
0
ARC
8
DEFAULT_255_2_778
10
7.258355
20
25.5649382
40
0.2424097
50
90.0485728
51
152.811063
0
ARC
8
DEFAULT_255_2_778
10
18.8242272
20
24.706445
40
0.309331
50
224.4560237
51
269.9955676
0
ARC
8
DEFAULT_255_2_778
10
18.8241948
20
24.707014
40
0.3098998
50
270.0015586
51
274.3370203
0
ARC
8
DEFAULT_255_2_778
10
18.8681459
20
24.7179792
40
0.3206347
50
266.3314834
51
269.9990047
0
ARC
8
DEFAULT_255_2_778
10
18.868157
20
24.7161132
40
0.3187687
50
269.9970006
51
314.4359017
0
ARC
8
DEFAULT_255_2_778
10
18.8652464
20
25.5923574
40
0.3303008
50
46.1113682
51
90.0059629
0
ARC
8
DEFAULT_255_2_778
10
18.8652181
20
25.5915062
40
0.3311521
50
90.0010507
51
93.0097999
0
ARC
8
DEFAULT_255_2_778
10
18.8304611
20
25.592207
40
0.3304513
50
86.9870162
51
89.9990471
0
ARC
8
DEFAULT_255_2_778
10
18.8304945
20
25.592407
40
0.3302512
50
90.0048311
51
133.8921097
0
ARC
8
DEFAULT_255_2_778
10
18.8268946
20
24.7180388
40
0.2147337
50
226.2968726
51
270.0114619
0
ARC
8
DEFAULT_255_2_778
10
18.8269314
20
24.7188011
40
0.2154959
50
270.0016411
51
275.5119296
0
ARC
8
DEFAULT_255_2_778
10
18.8644645
20
24.7241399
40
0.220482
50
265.62112
51
269.9992663
0
ARC
8
DEFAULT_255_2_778
10
18.8644871
20
24.7235543
40
0.2198964
50
269.9933747
51
313.0264532
0
ARC
8
DEFAULT_255_2_778
10
18.8618684
20
25.5834327
40
0.2328922
50
47.5592625
51
89.9971932
0
ARC
8
DEFAULT_255_2_778
10
18.861883
20
25.5829116
40
0.2334134
50
90.0007879
51
93.4515739
0
ARC
8
DEFAULT_255_2_778
10
18.8300395
20
25.5914557
40
0.2251498
50
85.4678856
51
89.9999299
0
ARC
8
DEFAULT_255_2_778
10
18.8300968
20
25.5912686
40
0.2253369
50
90.0144931
51
133.0998605
0
LINE
8
DEFAULT_255_2_778
10
10.1364304
20
24.4065015
11
10.1364304
21
25.9056015
0
LINE
8
DEFAULT_255_2_778
10
10.1364304
20
25.9056015
11
10.0028304
21
25.9056015
0
LINE
8
DEFAULT_255_2_778
10
10.0028304
20
25.9056015
11
9.8364304
21
25.7254015
0
LINE
8
DEFAULT_255_2_778
10
9.8364304
20
25.7254015
11
9.7748304
21
25.6659015
0
LINE
8
DEFAULT_255_2_778
10
9.7748304
20
25.6659015
11
9.7499304
21
25.6460015
0
LINE
8
DEFAULT_255_2_778
10
9.7499304
20
25.6460015
11
9.7565304
21
25.5338015
0
LINE
8
DEFAULT_255_2_778
10
9.7565304
20
25.5338015
11
9.7774304
21
25.5381015
0
LINE
8
DEFAULT_255_2_778
10
9.7774304
20
25.5381015
11
9.7957304
21
25.5468015
0
LINE
8
DEFAULT_255_2_778
10
9.7957304
20
25.5468015
11
9.8208304
21
25.5656015
0
LINE
8
DEFAULT_255_2_778
10
9.8208304
20
25.5656015
11
9.8986304
21
25.6381015
0
LINE
8
DEFAULT_255_2_778
10
9.8986304
20
25.6381015
11
10.0301304
21
25.7759015
0
LINE
8
DEFAULT_255_2_778
10
10.0301304
20
25.7759015
11
10.0301304
21
24.4062015
0
LINE
8
DEFAULT_255_2_778
10
10.0301304
20
24.4062015
11
10.1364304
21
24.4062015
0
LINE
8
DEFAULT_255_2_778
10
14.8868304
20
24.9306015
11
14.8868304
21
25.0370015
0
LINE
8
DEFAULT_255_2_778
10
14.8868304
20
25.0370015
11
14.4108304
21
25.0370015
0
LINE
8
DEFAULT_255_2_778
10
14.4108304
20
25.0370015
11
14.4108304
21
24.9306015
0
LINE
8
DEFAULT_255_2_778
10
14.4108304
20
24.9306015
11
14.8868304
21
24.9306015
0
LINE
8
DEFAULT_255_2_778
10
10.6709304
20
25.8074015
11
11.2805304
21
25.8074015
0
LINE
8
DEFAULT_255_2_778
10
11.2805304
20
25.8074015
11
11.2805304
21
25.9138015
0
LINE
8
DEFAULT_255_2_778
10
11.2805304
20
25.9138015
11
10.5643304
21
25.9138015
0
LINE
8
DEFAULT_255_2_778
10
10.5643304
20
25.9138015
11
10.5643304
21
24.4125015
0
LINE
8
DEFAULT_255_2_778
10
10.5643304
20
24.4125015
11
10.6706304
21
24.4125015
0
LINE
8
DEFAULT_255_2_778
10
10.6706304
20
24.4125015
11
10.6706304
21
25.1518015
0
LINE
8
DEFAULT_255_2_778
10
10.6706304
20
25.1518015
11
11.2427304
21
25.1518015
0
LINE
8
DEFAULT_255_2_778
10
11.2427304
20
25.1518015
11
11.2427304
21
25.2581015
0
LINE
8
DEFAULT_255_2_778
10
11.2427304
20
25.2581015
11
10.6706304
21
25.2581015
0
LINE
8
DEFAULT_255_2_778
10
10.6706304
20
25.2581015
11
10.6706304
21
25.8074015
0
LINE
8
DEFAULT_255_2_778
10
9.3869304
20
24.9306015
11
9.3869304
21
25.0370015
0
LINE
8
DEFAULT_255_2_778
10
9.3869304
20
25.0370015
11
8.9109304
21
25.0370015
0
LINE
8
DEFAULT_255_2_778
10
8.9109304
20
25.0370015
11
8.9109304
21
24.9306015
0
LINE
8
DEFAULT_255_2_778
10
8.9109304
20
24.9306015
11
9.3869304
21
24.9306015
0
LINE
8
DEFAULT_255_2_778
10
7.0435304
20
25.6751015
11
6.9479304
21
25.7230015
0
LINE
8
DEFAULT_255_2_778
10
6.9543304
20
24.5813015
11
7.0498304
21
24.6253015
0
LINE
8
DEFAULT_255_2_778
10
7.2678304
20
24.4985015
11
7.3996304
21
24.5202015
0
LINE
8
DEFAULT_255_2_778
10
7.3996304
20
24.5202015
11
7.4591304
21
24.5536015
0
LINE
8
DEFAULT_255_2_778
10
7.4591304
20
24.5536015
11
7.5054304
21
24.6025015
0
LINE
8
DEFAULT_255_2_778
10
7.5054304
20
24.6025015
11
7.5557304
21
24.7279015
0
LINE
8
DEFAULT_255_2_778
10
7.5557304
20
24.7279015
11
7.5689304
21
24.8634015
0
LINE
8
DEFAULT_255_2_778
10
7.5689304
20
24.8634015
11
7.5676304
21
24.8904015
0
LINE
8
DEFAULT_255_2_778
10
7.5676304
20
24.8904015
11
7.5631304
21
24.9168015
0
LINE
8
DEFAULT_255_2_778
10
7.5631304
20
24.9168015
11
7.5430304
21
24.9671015
0
LINE
8
DEFAULT_255_2_778
10
7.5430304
20
24.9671015
11
7.5110304
21
25.0105015
0
LINE
8
DEFAULT_255_2_778
10
7.5110304
20
25.0105015
11
7.4713304
21
25.0467015
0
LINE
8
DEFAULT_255_2_778
10
7.4713304
20
25.0467015
11
7.3760304
21
25.0960015
0
LINE
8
DEFAULT_255_2_778
10
7.3760304
20
25.0960015
11
7.2715304
21
25.1224015
0
LINE
8
DEFAULT_255_2_778
10
7.2715304
20
25.1224015
11
7.2652304
21
25.2261015
0
LINE
8
DEFAULT_255_2_778
10
7.2652304
20
25.2261015
11
7.3663304
21
25.2571015
0
LINE
8
DEFAULT_255_2_778
10
7.3663304
20
25.2571015
11
7.4602304
21
25.3037015
0
LINE
8
DEFAULT_255_2_778
10
7.4602304
20
25.3037015
11
7.4991304
21
25.3391015
0
LINE
8
DEFAULT_255_2_778
10
7.4991304
20
25.3391015
11
7.5287304
21
25.3828015
0
LINE
8
DEFAULT_255_2_778
10
7.5287304
20
25.3828015
11
7.5451304
21
25.4325015
0
LINE
8
DEFAULT_255_2_778
10
7.5451304
20
25.4325015
11
7.5496304
21
25.4852015
0
LINE
8
DEFAULT_255_2_778
10
6.8125304
20
25.7635015
11
6.8125304
21
25.9159015
0
LINE
8
DEFAULT_255_2_778
10
6.8125304
20
25.9159015
11
6.0608304
21
25.9159015
0
LINE
8
DEFAULT_255_2_778
10
6.0608304
20
25.9159015
11
6.0608304
21
25.8095015
0
LINE
8
DEFAULT_255_2_778
10
6.0608304
20
25.8095015
11
6.7080304
21
25.8095015
0
LINE
8
DEFAULT_255_2_778
10
6.7080304
20
25.8095015
11
6.7080304
21
25.7804015
0
LINE
8
DEFAULT_255_2_778
10
6.7080304
20
25.7804015
11
6.6873304
21
25.7177015
0
LINE
8
DEFAULT_255_2_778
10
6.6873304
20
25.7177015
11
6.6373304
21
25.5632015
0
LINE
8
DEFAULT_255_2_778
10
6.6373304
20
25.5632015
11
6.5701304
21
25.3463015
0
LINE
8
DEFAULT_255_2_778
10
6.5701304
20
25.3463015
11
6.4918304
21
25.1023015
0
LINE
8
DEFAULT_255_2_778
10
6.4918304
20
25.1023015
11
6.2841304
21
24.4358015
0
LINE
8
DEFAULT_255_2_778
10
6.2841304
20
24.4358015
11
6.3844304
21
24.4025015
0
LINE
8
DEFAULT_255_2_778
10
6.3844304
20
24.4025015
11
6.8125304
21
25.7638015
0
LINE
8
DEFAULT_255_2_778
10
11.8676304
20
25.2854015
11
11.4916304
21
25.9368015
0
LINE
8
DEFAULT_255_2_778
10
11.4916304
20
25.9368015
11
11.4019304
21
25.8847015
0
LINE
8
DEFAULT_255_2_778
10
11.4019304
20
25.8847015
11
11.8091304
21
25.1809015
0
LINE
8
DEFAULT_255_2_778
10
11.8091304
20
25.1809015
11
11.3853304
21
24.4356015
0
LINE
8
DEFAULT_255_2_778
10
11.3853304
20
24.4356015
11
11.4771304
21
24.3834015
0
LINE
8
DEFAULT_255_2_778
10
11.4771304
20
24.3834015
11
11.8697304
21
25.0745015
0
LINE
8
DEFAULT_255_2_778
10
11.8697304
20
25.0745015
11
12.2706304
21
24.3834015
0
LINE
8
DEFAULT_255_2_778
10
12.2706304
20
24.3834015
11
12.3624304
21
24.4356015
0
LINE
8
DEFAULT_255_2_778
10
12.3624304
20
24.4356015
11
11.9301304
21
25.1788015
0
LINE
8
DEFAULT_255_2_778
10
11.9301304
20
25.1788015
11
12.3309304
21
25.8844015
0
LINE
8
DEFAULT_255_2_778
10
12.3309304
20
25.8844015
11
12.2370304
21
25.9365015
0
LINE
8
DEFAULT_255_2_778
10
12.2370304
20
25.9365015
11
11.8673304
21
25.2851015
0
LINE
8
DEFAULT_255_2_778
10
19.0913304
20
24.4885015
11
19.1722304
21
24.6107015
0
LINE
8
DEFAULT_255_2_778
10
19.1722304
20
24.6107015
11
19.2154304
21
24.7634015
0
LINE
8
DEFAULT_255_2_778
10
19.2154304
20
24.7634015
11
19.2310304
21
24.9430015
0
LINE
8
DEFAULT_255_2_778
10
19.2310304
20
24.9430015
11
19.2341304
21
25.1475015
0
LINE
8
DEFAULT_255_2_778
10
19.2341304
20
25.1475015
11
19.2341304
21
25.1706015
0
LINE
8
DEFAULT_255_2_778
10
19.2341304
20
25.1706015
11
19.2310304
21
25.3751015
0
LINE
8
DEFAULT_255_2_778
10
19.2310304
20
25.3751015
11
19.2151304
21
25.5569015
0
LINE
8
DEFAULT_255_2_778
10
19.2151304
20
25.5569015
11
19.1757304
21
25.7093015
0
LINE
8
DEFAULT_255_2_778
10
19.1757304
20
25.7093015
11
19.0942304
21
25.8304015
0
LINE
8
DEFAULT_255_2_778
10
18.6015304
20
25.8304015
11
18.5200304
21
25.7093015
0
LINE
8
DEFAULT_255_2_778
10
18.5200304
20
25.7093015
11
18.4785304
21
25.5569015
0
LINE
8
DEFAULT_255_2_778
10
18.4785304
20
25.5569015
11
18.4626304
21
25.3754015
0
LINE
8
DEFAULT_255_2_778
10
18.4626304
20
25.3754015
11
18.4626304
21
24.9430015
0
LINE
8
DEFAULT_255_2_778
10
18.4626304
20
24.9430015
11
18.4782304
21
24.7634015
0
LINE
8
DEFAULT_255_2_778
10
18.4782304
20
24.7634015
11
18.5200304
21
24.6110015
0
LINE
8
DEFAULT_255_2_778
10
18.5200304
20
24.6110015
11
18.5560304
21
24.5438015
0
LINE
8
DEFAULT_255_2_778
10
18.5560304
20
24.5438015
11
18.6034304
21
24.4898015
0
LINE
8
DEFAULT_255_2_778
10
18.6134304
20
24.6649015
11
18.6409304
21
24.6081015
0
LINE
8
DEFAULT_255_2_778
10
18.6409304
20
24.6081015
11
18.6785304
21
24.5628015
0
LINE
8
DEFAULT_255_2_778
10
19.0145304
20
24.5628015
11
19.0508304
21
24.6086015
0
LINE
8
DEFAULT_255_2_778
10
19.0508304
20
24.6086015
11
19.0788304
21
24.6655015
0
LINE
8
DEFAULT_255_2_778
10
19.0788304
20
24.6655015
11
19.1119304
21
24.8012015
0
LINE
8
DEFAULT_255_2_778
10
19.1119304
20
24.8012015
11
19.1243304
21
24.9639015
0
LINE
8
DEFAULT_255_2_778
10
19.1243304
20
24.9639015
11
19.1275304
21
25.1475015
0
LINE
8
DEFAULT_255_2_778
10
19.1275304
20
25.1475015
11
19.1275304
21
25.1706015
0
LINE
8
DEFAULT_255_2_778
10
19.1275304
20
25.1706015
11
19.1243304
21
25.3584015
0
LINE
8
DEFAULT_255_2_778
10
19.1243304
20
25.3584015
11
19.1130304
21
25.5214015
0
LINE
8
DEFAULT_255_2_778
10
19.1130304
20
25.5214015
11
19.0804304
21
25.6545015
0
LINE
8
DEFAULT_255_2_778
10
19.0804304
20
25.6545015
11
19.0190304
21
25.7553015
0
LINE
8
DEFAULT_255_2_778
10
18.6761304
20
25.7558015
11
18.6391304
21
25.7087015
0
LINE
8
DEFAULT_255_2_778
10
18.6391304
20
25.7087015
11
18.6124304
21
25.6550015
0
LINE
8
DEFAULT_255_2_778
10
18.6124304
20
25.6550015
11
18.5806304
21
25.5214015
0
LINE
8
DEFAULT_255_2_778
10
18.5806304
20
25.5214015
11
18.5692304
21
25.3584015
0
LINE
8
DEFAULT_255_2_778
10
18.5692304
20
25.3584015
11
18.5692304
21
24.9637015
0
LINE
8
DEFAULT_255_2_778
10
18.5692304
20
24.9637015
11
18.5817304
21
24.8007015
0
LINE
8
DEFAULT_255_2_778
10
18.5817304
20
24.8007015
11
18.6134304
21
24.6649015
0
ARC
8
DEFAULT_255_2_778
10
17.6820144
20
25.4710858
40
0.4298851
50
95.9206071
51
96.9157087
0
ARC
8
DEFAULT_255_2_778
10
17.6819299
20
25.4720244
40
0.428943
50
90.0003682
51
95.9223236
0
ARC
8
DEFAULT_255_2_778
10
17.6819277
20
25.4721275
40
0.4288399
50
49.6903082
51
90.0000632
0
ARC
8
DEFAULT_255_2_778
10
17.682218
20
25.4724415
40
0.4284127
50
2.4082537
51
49.6927448
0
ARC
8
DEFAULT_255_2_778
10
17.7604561
20
25.473391
40
0.3502116
50
0.0006307
51
2.7909129
0
ARC
8
DEFAULT_255_2_778
10
17.7613491
20
25.4734254
40
0.3493186
50
307.3247819
51
359.99499
0
ARC
8
DEFAULT_255_2_778
10
17.7982927
20
24.8864282
40
0.3552321
50
359.9622851
51
60.5120464
0
ARC
8
DEFAULT_255_2_778
10
17.7957804
20
24.886212
40
0.3577444
50
354.2939362
51
359.9971738
0
ARC
8
DEFAULT_255_2_778
10
17.7016755
20
24.841612
40
0.4501674
50
359.9993646
51
1.14954
0
ARC
8
DEFAULT_255_2_778
10
17.7019311
20
24.8417085
40
0.4499119
50
310.5882701
51
359.987083
0
ARC
8
DEFAULT_255_2_778
10
17.7004517
20
24.8430399
40
0.4518857
50
270.0214023
51
310.6208788
0
ARC
8
DEFAULT_255_2_778
10
17.7006173
20
24.8413021
40
0.450148
50
264.9612176
51
270.000413
0
ARC
8
DEFAULT_255_2_778
10
17.7006696
20
24.8418294
40
0.4506777
50
260.2635155
51
264.9604803
0
ARC
8
DEFAULT_255_2_778
10
17.7896144
20
25.4695705
40
0.2258881
50
266.761208
51
269.9990144
0
ARC
8
DEFAULT_255_2_778
10
17.7897221
20
25.4682547
40
0.2245723
50
269.9715339
51
316.0317484
0
ARC
8
DEFAULT_255_2_778
10
17.7900794
20
25.4685456
40
0.2245175
50
315.9150207
51
359.9836041
0
ARC
8
DEFAULT_255_2_778
10
17.7902073
20
25.4684779
40
0.2243895
50
0.0008707
51
5.2585517
0
ARC
8
DEFAULT_255_2_778
10
17.6904986
20
25.4625585
40
0.3242372
50
4.6853334
51
51.8802994
0
ARC
8
DEFAULT_255_2_778
10
17.6910033
20
25.4643896
40
0.3224859
50
51.7500043
51
89.9999455
0
ARC
8
DEFAULT_255_2_778
10
17.6910045
20
25.4645257
40
0.3223499
50
90.0001678
51
94.8651304
0
ARC
8
DEFAULT_255_2_778
10
17.6910243
20
25.4643034
40
0.3225729
50
94.8652767
51
99.1817572
0
ARC
8
DEFAULT_255_2_778
10
17.7082409
20
24.8515364
40
0.3464615
50
257.5337765
51
265.6214714
0
ARC
8
DEFAULT_255_2_778
10
17.7082034
20
24.8511627
40
0.3460862
50
265.622932
51
270.0000838
0
ARC
8
DEFAULT_255_2_778
10
17.7081344
20
24.852049
40
0.3469724
50
270.0114773
51
308.8007808
0
ARC
8
DEFAULT_255_2_778
10
17.7080982
20
24.8518684
40
0.3468543
50
308.8241452
51
0.0072699
0
ARC
8
DEFAULT_255_2_778
10
17.9181433
20
24.8519951
40
0.1368092
50
359.9653603
51
0.1039231
0
ARC
8
DEFAULT_255_2_778
10
17.8009818
20
24.8848695
40
0.2560576
50
352.6796024
51
353.1419058
0
ARC
8
DEFAULT_255_2_778
10
17.8098217
20
24.8837846
40
0.2471514
50
353.1469157
51
359.9983656
0
ARC
8
DEFAULT_255_2_778
10
17.8093942
20
24.8836728
40
0.2475788
50
0.0242384
51
45.132937
0
ARC
8
DEFAULT_255_2_778
10
17.8097906
20
24.8836851
40
0.2472907
50
45.1960125
51
90.0152
0
ARC
8
DEFAULT_255_2_778
10
17.8097249
20
24.8834437
40
0.2475322
50
89.9999736
51
96.3045339
0
ARC
8
DEFAULT_255_2_778
10
17.8098927
20
24.8819929
40
0.2489926
50
96.306264
51
97.6950937
0
ARC
8
DEFAULT_255_2_778
10
15.4171599
20
24.7180447
40
0.2145241
50
226.2642891
51
269.9719019
0
ARC
8
DEFAULT_255_2_778
10
15.4170525
20
24.7176061
40
0.2140856
50
270.0005836
51
275.6023543
0
ARC
8
DEFAULT_255_2_778
10
15.4548475
20
24.7252248
40
0.2213274
50
265.622021
51
269.9988381
0
ARC
8
DEFAULT_255_2_778
10
15.4550764
20
24.7231097
40
0.2192124
50
269.9389967
51
313.0977761
0
ARC
8
DEFAULT_255_2_778
10
15.4519236
20
25.5835024
40
0.2330642
50
47.5756955
51
89.9854942
0
ARC
8
DEFAULT_255_2_778
10
15.4519844
20
25.5838312
40
0.2327356
50
90.0004424
51
93.4565707
0
ARC
8
DEFAULT_255_2_778
10
15.4201347
20
25.5910214
40
0.2258258
50
85.4746717
51
89.9996329
0
ARC
8
DEFAULT_255_2_778
10
15.4200757
20
25.5918721
40
0.2249751
50
89.9846124
51
133.1362242
0
ARC
8
DEFAULT_255_2_778
10
15.4145491
20
24.7063868
40
0.309331
50
224.4560237
51
269.9955676
0
ARC
8
DEFAULT_255_2_778
10
15.4145167
20
24.7069557
40
0.3098998
50
270.0015586
51
274.3370203
0
ARC
8
DEFAULT_255_2_778
10
15.4584678
20
24.717921
40
0.3206347
50
266.3314834
51
269.9990047
0
ARC
8
DEFAULT_255_2_778
10
15.4584789
20
24.7160549
40
0.3187687
50
269.9970006
51
314.4359017
0
ARC
8
DEFAULT_255_2_778
10
15.455323
20
25.5919849
40
0.3306974
50
46.1184911
51
90.0045735
0
ARC
8
DEFAULT_255_2_778
10
15.4553048
20
25.5912678
40
0.3314145
50
90.0014135
51
92.9493813
0
ARC
8
DEFAULT_255_2_778
10
15.4211817
20
25.5905654
40
0.3321169
50
87.0537259
51
89.9984902
0
ARC
8
DEFAULT_255_2_778
10
15.4211015
20
25.5919353
40
0.330747
50
89.9845935
51
133.8780401
0
ARC
8
DEFAULT_255_2_778
10
13.8236145
20
24.7065429
40
0.309487
50
224.4681787
51
269.9874546
0
ARC
8
DEFAULT_255_2_778
10
13.8235404
20
24.706332
40
0.309276
50
270.0011683
51
274.3413852
0
ARC
8
DEFAULT_255_2_778
10
13.8674686
20
24.7179457
40
0.3206595
50
266.3316244
51
269.9991464
0
ARC
8
DEFAULT_255_2_778
10
13.8675559
20
24.7158661
40
0.3185799
50
269.9834339
51
314.4497857
0
ARC
8
DEFAULT_255_2_778
10
13.8644666
20
25.5923411
40
0.3303411
50
46.0936098
51
90.0264425
0
ARC
8
DEFAULT_255_2_778
10
13.8643229
20
25.5905659
40
0.3321164
50
90.0015106
51
92.9462748
0
ARC
8
DEFAULT_255_2_778
10
13.8301822
20
25.5905832
40
0.332099
50
87.0536593
51
89.9983886
0
ARC
8
DEFAULT_255_2_778
10
13.8301142
20
25.5921521
40
0.3305302
50
89.9865961
51
133.8931822
0
ARC
8
DEFAULT_255_2_778
10
13.8262204
20
24.7177409
40
0.2144941
50
226.2712001
51
270.0174926
0
ARC
8
DEFAULT_255_2_778
10
13.8262829
20
24.7181292
40
0.2148823
50
270.0008069
51
275.5197839
0
ARC
8
DEFAULT_255_2_778
10
13.8637876
20
24.7241125
40
0.2205128
50
265.6214273
51
269.9995752
0
ARC
8
DEFAULT_255_2_778
10
13.8638259
20
24.7237072
40
0.2201075
50
269.9896007
51
313.0047783
0
ARC
8
DEFAULT_255_2_778
10
13.8612236
20
25.5832024
40
0.2330642
50
47.5756955
51
89.9854942
0
ARC
8
DEFAULT_255_2_778
10
13.8612844
20
25.5835312
40
0.2327356
50
90.0004424
51
93.4565707
0
ARC
8
DEFAULT_255_2_778
10
13.8294602
20
25.5913671
40
0.2251801
50
85.4681866
51
90.0002323
0
ARC
8
DEFAULT_255_2_778
10
13.8294404
20
25.5914084
40
0.2251388
50
89.9951959
51
133.1197548
0
ARC
8
DEFAULT_255_2_778
10
12.8927599
20
24.7180447
40
0.2145241
50
226.2642891
51
269.9719019
0
ARC
8
DEFAULT_255_2_778
10
12.8926525
20
24.7176061
40
0.2140856
50
270.0005836
51
275.6023543
0
ARC
8
DEFAULT_255_2_778
10
12.9304475
20
24.7252248
40
0.2213274
50
265.622021
51
269.9988381
0
ARC
8
DEFAULT_255_2_778
10
12.9306764
20
24.7231097
40
0.2192124
50
269.9389967
51
313.0977761
0
ARC
8
DEFAULT_255_2_778
10
12.9278093
20
25.5837232
40
0.2328434
50
47.5546166
51
89.9823566
0
ARC
8
DEFAULT_255_2_778
10
12.9278836
20
25.5838573
40
0.2327094
50
90.000638
51
93.4567655
0
ARC
8
DEFAULT_255_2_778
10
12.8960346
20
25.5910203
40
0.2258269
50
85.4746756
51
89.9996369
0
ARC
8
DEFAULT_255_2_778
10
12.8960367
20
25.5914646
40
0.2253826
50
90.0001648
51
133.0952529
0
ARC
8
DEFAULT_255_2_778
10
12.8902145
20
24.7065429
40
0.309487
50
224.4681787
51
269.9874546
0
ARC
8
DEFAULT_255_2_778
10
12.8901404
20
24.706332
40
0.309276
50
270.0011683
51
274.3413852
0
ARC
8
DEFAULT_255_2_778
10
12.9340686
20
24.7179457
40
0.3206595
50
266.3316244
51
269.9991464
0
ARC
8
DEFAULT_255_2_778
10
12.9341559
20
24.7158661
40
0.3185799
50
269.9834339
51
314.4497857
0
ARC
8
DEFAULT_255_2_778
10
12.930923
20
25.5919849
40
0.3306974
50
46.1184911
51
90.0045735
0
ARC
8
DEFAULT_255_2_778
10
12.9309048
20
25.5912678
40
0.3314145
50
90.0014135
51
92.9493813
0
ARC
8
DEFAULT_255_2_778
10
12.8967817
20
25.5905654
40
0.3321169
50
87.0537259
51
89.9984902
0
ARC
8
DEFAULT_255_2_778
10
12.8967015
20
25.5919353
40
0.330747
50
89.9845935
51
133.8780401
0
ARC
8
DEFAULT_255_2_778
10
8.5679568
20
24.7270564
40
0.6218113
50
153.1560078
51
159.8906459
0
LINE
8
DEFAULT_255_2_778
10
17.2979523
20
25.8978433
11
17.6302523
21
25.8978433
0
LINE
8
DEFAULT_255_2_778
10
17.6244523
20
24.3976433
11
17.2982523
21
24.3976433
0
LINE
8
DEFAULT_255_2_778
10
17.2982523
20
24.3976433
11
17.2979523
21
25.8978433
0
LINE
8
DEFAULT_255_2_778
10
17.6395523
20
25.7825433
11
17.4133523
21
25.7825433
0
LINE
8
DEFAULT_255_2_778
10
17.4133523
20
25.7825433
11
17.4133523
21
25.2440433
0
LINE
8
DEFAULT_255_2_778
10
17.4133523
20
25.2440433
11
17.7768523
21
25.2440433
0
LINE
8
DEFAULT_255_2_778
10
17.6395523
20
25.7827433
11
17.6395523
21
25.7825433
0
LINE
8
DEFAULT_255_2_778
10
17.7765523
20
25.1287433
11
17.4130523
21
25.1287433
0
LINE
8
DEFAULT_255_2_778
10
17.4130523
20
25.1287433
11
17.4130523
21
24.5132433
0
LINE
8
DEFAULT_255_2_778
10
17.4130523
20
24.5132433
11
17.6334523
21
24.5132433
0
LINE
8
DEFAULT_255_2_778
10
17.0854523
20
24.4312433
11
16.5989523
21
25.9158433
0
LINE
8
DEFAULT_255_2_778
10
16.5989523
20
25.9158433
11
16.4653523
21
25.9158433
0
LINE
8
DEFAULT_255_2_778
10
16.4653523
20
25.9158433
11
15.9663523
21
24.4312433
0
LINE
8
DEFAULT_255_2_778
10
15.9663523
20
24.4312433
11
16.0665523
21
24.3979433
0
LINE
8
DEFAULT_255_2_778
10
16.0665523
20
24.3979433
11
16.2044523
21
24.8051433
0
LINE
8
DEFAULT_255_2_778
10
16.2044523
20
24.8051433
11
16.8497523
21
24.8051433
0
LINE
8
DEFAULT_255_2_778
10
16.8497523
20
24.8051433
11
16.8994523
21
24.6442433
0
LINE
8
DEFAULT_255_2_778
10
16.8994523
20
24.6442433
11
16.9833523
21
24.3979433
0
LINE
8
DEFAULT_255_2_778
10
16.9833523
20
24.3979433
11
17.0854523
21
24.4312433
0
LINE
8
DEFAULT_255_2_778
10
16.5677523
20
25.6674433
11
16.5436523
21
25.7436433
0
LINE
8
DEFAULT_255_2_778
10
16.5436523
20
25.7436433
11
16.5322523
21
25.7822433
0
LINE
8
DEFAULT_255_2_778
10
16.5322523
20
25.7822433
11
16.4936523
21
25.6676433
0
LINE
8
DEFAULT_255_2_778
10
16.4936523
20
25.6676433
11
16.4227523
21
25.4567433
0
LINE
8
DEFAULT_255_2_778
10
16.4227523
20
25.4567433
11
16.3920523
21
25.3668433
0
LINE
8
DEFAULT_255_2_778
10
16.3920523
20
25.3668433
11
16.3327523
21
25.1914433
0
LINE
8
DEFAULT_255_2_778
10
16.3327523
20
25.1914433
11
16.2396523
21
24.9112433
0
LINE
8
DEFAULT_255_2_778
10
16.2396523
20
24.9112433
11
16.8137523
21
24.9112433
0
LINE
8
DEFAULT_255_2_778
10
16.8137523
20
24.9112433
11
16.7679523
21
25.0511433
0
LINE
8
DEFAULT_255_2_778
10
16.7679523
20
25.0511433
11
16.7386523
21
25.1398433
0
LINE
8
DEFAULT_255_2_778
10
16.7386523
20
25.1398433
11
16.7216523
21
25.1911433
0
LINE
8
DEFAULT_255_2_778
10
16.7216523
20
25.1911433
11
16.6351523
21
25.4560433
0
LINE
8
DEFAULT_255_2_778
10
16.6351523
20
25.4560433
11
16.5677523
21
25.6674433
0
LINE
8
DEFAULT_255_2_778
10
15.2037523
20
24.6651433
11
15.2312523
21
24.6082433
0
LINE
8
DEFAULT_255_2_778
10
15.2312523
20
24.6082433
11
15.2688523
21
24.5630433
0
LINE
8
DEFAULT_255_2_778
10
15.6048523
20
24.5630433
11
15.6411523
21
24.6088433
0
LINE
8
DEFAULT_255_2_778
10
15.6411523
20
24.6088433
11
15.6691523
21
24.6656433
0
LINE
8
DEFAULT_255_2_778
10
15.6691523
20
24.6656433
11
15.7019523
21
24.8014433
0
LINE
8
DEFAULT_255_2_778
10
15.7019523
20
24.8014433
11
15.7144523
21
24.9641433
0
LINE
8
DEFAULT_255_2_778
10
15.7144523
20
24.9641433
11
15.7176523
21
25.1477433
0
LINE
8
DEFAULT_255_2_778
10
15.7176523
20
25.1477433
11
15.7176523
21
25.1707433
0
LINE
8
DEFAULT_255_2_778
10
15.7176523
20
25.1707433
11
15.7144523
21
25.3586433
0
LINE
8
DEFAULT_255_2_778
10
15.7144523
20
25.3586433
11
15.7030523
21
25.5216433
0
LINE
8
DEFAULT_255_2_778
10
15.7030523
20
25.5216433
11
15.6705523
21
25.6547433
0
LINE
8
DEFAULT_255_2_778
10
15.6705523
20
25.6547433
11
15.6091523
21
25.7555433
0
LINE
8
DEFAULT_255_2_778
10
15.2662523
20
25.7560433
11
15.2291523
21
25.7089433
0
LINE
8
DEFAULT_255_2_778
10
15.2291523
20
25.7089433
11
15.2024523
21
25.6552433
0
LINE
8
DEFAULT_255_2_778
10
15.2024523
20
25.6552433
11
15.1707523
21
25.5216433
0
LINE
8
DEFAULT_255_2_778
10
15.1707523
20
25.5216433
11
15.1593523
21
25.3586433
0
LINE
8
DEFAULT_255_2_778
10
15.1593523
20
25.3586433
11
15.1593523
21
24.9638433
0
LINE
8
DEFAULT_255_2_778
10
15.1593523
20
24.9638433
11
15.1717523
21
24.8008433
0
LINE
8
DEFAULT_255_2_778
10
15.1717523
20
24.8008433
11
15.2037523
21
24.6651433
0
LINE
8
DEFAULT_255_2_778
10
15.6816523
20
24.4884433
11
15.7625523
21
24.6106433
0
LINE
8
DEFAULT_255_2_778
10
15.7625523
20
24.6106433
11
15.8057523
21
24.7633433
0
LINE
8
DEFAULT_255_2_778
10
15.8057523
20
24.7633433
11
15.8213523
21
24.9429433
0
LINE
8
DEFAULT_255_2_778
10
15.8213523
20
24.9429433
11
15.8244523
21
25.1475433
0
LINE
8
DEFAULT_255_2_778
10
15.8244523
20
25.1475433
11
15.8244523
21
25.1705433
0
LINE
8
DEFAULT_255_2_778
10
15.8244523
20
25.1705433
11
15.8213523
21
25.3750433
0
LINE
8
DEFAULT_255_2_778
10
15.8213523
20
25.3750433
11
15.8054523
21
25.5568433
0
LINE
8
DEFAULT_255_2_778
10
15.8054523
20
25.5568433
11
15.7660523
21
25.7092433
0
LINE
8
DEFAULT_255_2_778
10
15.7660523
20
25.7092433
11
15.6845523
21
25.8303433
0
LINE
8
DEFAULT_255_2_778
10
15.1918523
20
25.8303433
11
15.1103523
21
25.7092433
0
LINE
8
DEFAULT_255_2_778
10
15.1103523
20
25.7092433
11
15.0688523
21
25.5568433
0
LINE
8
DEFAULT_255_2_778
10
15.0688523
20
25.5568433
11
15.0529523
21
25.3753433
0
LINE
8
DEFAULT_255_2_778
10
15.0529523
20
25.3753433
11
15.0529523
21
24.9429433
0
LINE
8
DEFAULT_255_2_778
10
15.0529523
20
24.9429433
11
15.0685523
21
24.7633433
0
LINE
8
DEFAULT_255_2_778
10
15.0685523
20
24.7633433
11
15.1103523
21
24.6109433
0
LINE
8
DEFAULT_255_2_778
10
15.1103523
20
24.6109433
11
15.1463523
21
24.5437433
0
LINE
8
DEFAULT_255_2_778
10
15.1463523
20
24.5437433
11
15.1937523
21
24.4897433
0
LINE
8
DEFAULT_255_2_778
10
14.0906523
20
24.4884433
11
14.1716523
21
24.6106433
0
LINE
8
DEFAULT_255_2_778
10
14.1716523
20
24.6106433
11
14.2147523
21
24.7633433
0
LINE
8
DEFAULT_255_2_778
10
14.2147523
20
24.7633433
11
14.2303523
21
24.9429433
0
LINE
8
DEFAULT_255_2_778
10
14.2303523
20
24.9429433
11
14.2335523
21
25.1475433
0
LINE
8
DEFAULT_255_2_778
10
14.2335523
20
25.1475433
11
14.2335523
21
25.1705433
0
LINE
8
DEFAULT_255_2_778
10
14.2335523
20
25.1705433
11
14.2303523
21
25.3750433
0
LINE
8
DEFAULT_255_2_778
10
14.2303523
20
25.3750433
11
14.2145523
21
25.5568433
0
LINE
8
DEFAULT_255_2_778
10
14.2145523
20
25.5568433
11
14.1750523
21
25.7092433
0
LINE
8
DEFAULT_255_2_778
10
14.1750523
20
25.7092433
11
14.0935523
21
25.8303433
0
LINE
8
DEFAULT_255_2_778
10
13.6009523
20
25.8303433
11
13.5194523
21
25.7092433
0
LINE
8
DEFAULT_255_2_778
10
13.5194523
20
25.7092433
11
13.4779523
21
25.5568433
0
LINE
8
DEFAULT_255_2_778
10
13.4779523
20
25.5568433
11
13.4620523
21
25.3753433
0
LINE
8
DEFAULT_255_2_778
10
13.4620523
20
25.3753433
11
13.4620523
21
24.9429433
0
LINE
8
DEFAULT_255_2_778
10
13.4620523
20
24.9429433
11
13.4776523
21
24.7633433
0
LINE
8
DEFAULT_255_2_778
10
13.4776523
20
24.7633433
11
13.5194523
21
24.6109433
0
LINE
8
DEFAULT_255_2_778
10
13.5194523
20
24.6109433
11
13.5554523
21
24.5437433
0
LINE
8
DEFAULT_255_2_778
10
13.5554523
20
24.5437433
11
13.6027523
21
24.4897433
0
LINE
8
DEFAULT_255_2_778
10
13.5808523
20
24.8006433
11
13.6128523
21
24.6649433
0
LINE
8
DEFAULT_255_2_778
10
13.6128523
20
24.6649433
11
13.6403523
21
24.6080433
0
LINE
8
DEFAULT_255_2_778
10
13.6403523
20
24.6080433
11
13.6779523
21
24.5627433
0
LINE
8
DEFAULT_255_2_778
10
14.0139523
20
24.5627433
11
14.0501523
21
24.6085433
0
LINE
8
DEFAULT_255_2_778
10
14.0501523
20
24.6085433
11
14.0782523
21
24.6654433
0
LINE
8
DEFAULT_255_2_778
10
14.0782523
20
24.6654433
11
14.1113523
21
24.8011433
0
LINE
8
DEFAULT_255_2_778
10
14.1113523
20
24.8011433
11
14.1237523
21
24.9638433
0
LINE
8
DEFAULT_255_2_778
10
14.1237523
20
24.9638433
11
14.1269523
21
25.1475433
0
LINE
8
DEFAULT_255_2_778
10
14.1269523
20
25.1475433
11
14.1269523
21
25.1705433
0
LINE
8
DEFAULT_255_2_778
10
14.1269523
20
25.1705433
11
14.1237523
21
25.3583433
0
LINE
8
DEFAULT_255_2_778
10
14.1237523
20
25.3583433
11
14.1123523
21
25.5213433
0
LINE
8
DEFAULT_255_2_778
10
14.1123523
20
25.5213433
11
14.0798523
21
25.6544433
0
LINE
8
DEFAULT_255_2_778
10
14.0798523
20
25.6544433
11
14.0184523
21
25.7552433
0
LINE
8
DEFAULT_255_2_778
10
13.6755523
20
25.7557433
11
13.6385523
21
25.7086433
0
LINE
8
DEFAULT_255_2_778
10
13.6385523
20
25.7086433
11
13.6117523
21
25.6549433
0
LINE
8
DEFAULT_255_2_778
10
13.6117523
20
25.6549433
11
13.5800523
21
25.5213433
0
LINE
8
DEFAULT_255_2_778
10
13.5800523
20
25.5213433
11
13.5686523
21
25.3583433
0
LINE
8
DEFAULT_255_2_778
10
13.5686523
20
25.3583433
11
13.5686523
21
24.9636433
0
LINE
8
DEFAULT_255_2_778
10
13.5686523
20
24.9636433
11
13.5808523
21
24.8006433
0
LINE
8
DEFAULT_255_2_778
10
12.6793523
20
24.6651433
11
12.7069523
21
24.6082433
0
LINE
8
DEFAULT_255_2_778
10
12.7069523
20
24.6082433
11
12.7444523
21
24.5630433
0
LINE
8
DEFAULT_255_2_778
10
13.0804523
20
24.5630433
11
13.1167523
21
24.6088433
0
LINE
8
DEFAULT_255_2_778
10
13.1167523
20
24.6088433
11
13.1447523
21
24.6656433
0
LINE
8
DEFAULT_255_2_778
10
13.1447523
20
24.6656433
11
13.1778523
21
24.8014433
0
LINE
8
DEFAULT_255_2_778
10
13.1778523
20
24.8014433
11
13.1903523
21
24.9641433
0
LINE
8
DEFAULT_255_2_778
10
13.1903523
20
24.9641433
11
13.1934523
21
25.1477433
0
LINE
8
DEFAULT_255_2_778
10
13.1934523
20
25.1477433
11
13.1934523
21
25.1707433
0
LINE
8
DEFAULT_255_2_778
10
13.1934523
20
25.1707433
11
13.1903523
21
25.3586433
0
LINE
8
DEFAULT_255_2_778
10
13.1903523
20
25.3586433
11
13.1789523
21
25.5216433
0
LINE
8
DEFAULT_255_2_778
10
13.1789523
20
25.5216433
11
13.1463523
21
25.6547433
0
LINE
8
DEFAULT_255_2_778
10
13.1463523
20
25.6547433
11
13.0849523
21
25.7555433
0
LINE
8
DEFAULT_255_2_778
10
12.7420523
20
25.7560433
11
12.7050523
21
25.7089433
0
LINE
8
DEFAULT_255_2_778
10
12.7050523
20
25.7089433
11
12.6783523
21
25.6552433
0
LINE
8
DEFAULT_255_2_778
10
12.6783523
20
25.6552433
11
12.6465523
21
25.5216433
0
LINE
8
DEFAULT_255_2_778
10
12.6465523
20
25.5216433
11
12.6352523
21
25.3586433
0
LINE
8
DEFAULT_255_2_778
10
12.6352523
20
25.3586433
11
12.6352523
21
24.9638433
0
LINE
8
DEFAULT_255_2_778
10
12.6352523
20
24.9638433
11
12.6476523
21
24.8008433
0
LINE
8
DEFAULT_255_2_778
10
12.6476523
20
24.8008433
11
12.6793523
21
24.6651433
0
LINE
8
DEFAULT_255_2_778
10
13.1572523
20
24.4884433
11
13.2381523
21
24.6106433
0
LINE
8
DEFAULT_255_2_778
10
13.2381523
20
24.6106433
11
13.2813523
21
24.7633433
0
LINE
8
DEFAULT_255_2_778
10
13.2813523
20
24.7633433
11
13.2969523
21
24.9429433
0
LINE
8
DEFAULT_255_2_778
10
13.2969523
20
24.9429433
11
13.3001523
21
25.1475433
0
LINE
8
DEFAULT_255_2_778
10
13.3001523
20
25.1475433
11
13.3001523
21
25.1705433
0
LINE
8
DEFAULT_255_2_778
10
13.3001523
20
25.1705433
11
13.2969523
21
25.3750433
0
LINE
8
DEFAULT_255_2_778
10
13.2969523
20
25.3750433
11
13.2810523
21
25.5568433
0
LINE
8
DEFAULT_255_2_778
10
13.2810523
20
25.5568433
11
13.2416523
21
25.7092433
0
LINE
8
DEFAULT_255_2_778
10
13.2416523
20
25.7092433
11
13.1601523
21
25.8303433
0
LINE
8
DEFAULT_255_2_778
10
12.6674523
20
25.8303433
11
12.5859523
21
25.7092433
0
LINE
8
DEFAULT_255_2_778
10
12.5859523
20
25.7092433
11
12.5444523
21
25.5568433
0
LINE
8
DEFAULT_255_2_778
10
12.5444523
20
25.5568433
11
12.5285523
21
25.3753433
0
LINE
8
DEFAULT_255_2_778
10
12.5285523
20
25.3753433
11
12.5285523
21
24.9429433
0
LINE
8
DEFAULT_255_2_778
10
12.5285523
20
24.9429433
11
12.5441523
21
24.7633433
0
LINE
8
DEFAULT_255_2_778
10
12.5441523
20
24.7633433
11
12.5859523
21
24.6109433
0
LINE
8
DEFAULT_255_2_778
10
12.5859523
20
24.6109433
11
12.6219523
21
24.5437433
0
LINE
8
DEFAULT_255_2_778
10
12.6219523
20
24.5437433
11
12.6693523
21
24.4897433
0
LINE
8
DEFAULT_255_2_778
10
8.3703523
20
25.8113433
11
8.4434523
21
25.8113433
0
LINE
8
DEFAULT_255_2_778
10
8.4434523
20
25.8113433
11
8.4434523
21
24.9136433
0
LINE
8
DEFAULT_255_2_778
10
8.4434523
20
24.9136433
11
7.9840523
21
24.9136433
0
LINE
8
DEFAULT_255_2_778
10
7.9840523
20
24.9136433
11
7.9840523
21
24.9408433
0
LINE
8
DEFAULT_255_2_778
10
8.0131523
20
25.0078433
11
8.0825523
21
25.1620433
0
LINE
8
DEFAULT_255_2_778
10
8.0825523
20
25.1620433
11
8.1711523
21
25.3610433
0
LINE
8
DEFAULT_255_2_778
10
8.1711523
20
25.3610433
11
8.2608523
21
25.5634433
0
LINE
8
DEFAULT_255_2_778
10
8.2608523
20
25.5634433
11
8.3328523
21
25.7279433
0
LINE
8
DEFAULT_255_2_778
10
8.3328523
20
25.7279433
11
8.3703523
21
25.8113433
0
LINE
8
DEFAULT_255_2_778
10
8.5500523
20
25.9137433
11
8.3015523
21
25.9137433
0
LINE
8
DEFAULT_255_2_778
10
8.3015523
20
25.9137433
11
7.8798523
21
24.9614433
0
LINE
8
DEFAULT_255_2_778
10
7.8798523
20
24.9614433
11
7.8798523
21
24.8069433
0
LINE
8
DEFAULT_255_2_778
10
7.8798523
20
24.8069433
11
8.4436523
21
24.8069433
0
LINE
8
DEFAULT_255_2_778
10
8.4436523
20
24.8069433
11
8.4436523
21
24.4082433
0
LINE
8
DEFAULT_255_2_778
10
8.4436523
20
24.4082433
11
8.5500523
21
24.4082433
0
LINE
8
DEFAULT_255_2_778
10
8.5500523
20
24.4082433
11
8.5500523
21
24.8069433
0
LINE
8
DEFAULT_255_2_778
10
8.5500523
20
24.8069433
11
8.7714523
21
24.8069433
0
LINE
8
DEFAULT_255_2_778
10
8.7714523
20
24.8069433
11
8.7714523
21
24.9133433
0
LINE
8
DEFAULT_255_2_778
10
8.7714523
20
24.9133433
11
8.5500523
21
24.9133433
0
LINE
8
DEFAULT_255_2_778
10
8.5500523
20
24.9133433
11
8.5500523
21
25.9137433
0
LINE
8
DEFAULT_255_2_778
10
4.7710281
20
115.8903094
11
5.0258281
21
115.8903094
0
LINE
8
DEFAULT_255_2_778
10
5.0258281
20
115.8903094
11
5.1721281
21
115.8636094
0
LINE
8
DEFAULT_255_2_778
10
5.1721281
20
115.8636094
11
5.2784281
21
115.7927094
0
LINE
8
DEFAULT_255_2_778
10
5.2784281
20
115.7927094
11
5.3427281
21
115.6951094
0
LINE
8
DEFAULT_255_2_778
10
5.3427281
20
115.6951094
11
5.3650281
21
115.5866094
0
LINE
8
DEFAULT_255_2_778
10
5.3650281
20
115.5866094
11
5.3454281
21
115.4823094
0
LINE
8
DEFAULT_255_2_778
10
5.3454281
20
115.4823094
11
5.2824281
21
115.3921094
0
LINE
8
DEFAULT_255_2_778
10
5.2824281
20
115.3921094
11
5.1768281
21
115.3262094
0
LINE
8
DEFAULT_255_2_778
10
5.1768281
20
115.3262094
11
5.0258281
21
115.3027094
0
LINE
8
DEFAULT_255_2_778
10
5.0258281
20
115.3027094
11
4.7710281
21
115.3027094
0
LINE
8
DEFAULT_255_2_778
10
4.7710281
20
115.3027094
11
4.7710281
21
115.8903094
0
LINE
8
DEFAULT_255_2_778
10
4.6580281
20
116.0033094
11
4.6580281
21
114.4055094
0
LINE
8
DEFAULT_255_2_778
10
4.6580281
20
114.4055094
11
4.7710281
21
114.4055094
0
LINE
8
DEFAULT_255_2_778
10
4.7710281
20
114.4055094
11
4.7710281
21
115.1900094
0
LINE
8
DEFAULT_255_2_778
10
4.7710281
20
115.1900094
11
5.0258281
21
115.1900094
0
LINE
8
DEFAULT_255_2_778
10
5.0258281
20
115.1900094
11
5.2147281
21
115.2220094
0
LINE
8
DEFAULT_255_2_778
10
5.2147281
20
115.2220094
11
5.3631281
21
115.3114094
0
LINE
8
DEFAULT_255_2_778
10
5.3631281
20
115.3114094
11
5.4486281
21
115.4384094
0
LINE
8
DEFAULT_255_2_778
10
5.4486281
20
115.4384094
11
5.4779281
21
115.5866094
0
LINE
8
DEFAULT_255_2_778
10
5.4779281
20
115.5866094
11
5.4480281
21
115.7369094
0
LINE
8
DEFAULT_255_2_778
10
5.4480281
20
115.7369094
11
5.3626281
21
115.8702094
0
LINE
8
DEFAULT_255_2_778
10
5.3626281
20
115.8702094
11
5.2208281
21
115.9655094
0
LINE
8
DEFAULT_255_2_778
10
5.2208281
20
115.9655094
11
5.0258281
21
116.0030094
0
LINE
8
DEFAULT_255_2_778
10
5.0258281
20
116.0030094
11
4.6580281
21
116.0033094
0
ARC
8
DEFAULT_255_2_778
10
6.0652091
20
109.6412922
40
0.3729663
50
90.0073479
51
153.7874908
0
ARC
8
DEFAULT_255_2_778
10
6.0651423
20
109.6353937
40
0.3788646
50
89.3261569
51
89.9971286
0
ARC
8
DEFAULT_255_2_778
10
6.0885181
20
109.6390889
40
0.2631151
50
39.241219
51
90.0194886
0
ARC
8
DEFAULT_255_2_778
10
6.0884305
20
109.6379807
40
0.2642233
50
90.0004238
51
94.0872364
0
ARC
8
DEFAULT_255_2_778
10
6.0662039
20
109.6373311
40
0.2642227
50
89.2639902
51
90.0030035
0
ARC
8
DEFAULT_255_2_778
10
6.0662231
20
109.6378709
40
0.263683
50
90.0071717
51
153.5712635
0
ARC
8
DEFAULT_255_2_778
10
4.9071262
20
102.8297856
40
0.4437797
50
355.2752619
51
359.9991722
0
ARC
8
DEFAULT_255_2_778
10
4.9092861
20
102.8299479
40
0.44162
50
359.9781166
51
36.8232137
0
ARC
8
DEFAULT_255_2_778
10
5.0337147
20
102.8744707
40
0.3177265
50
43.8622626
51
90.0114976
0
ARC
8
DEFAULT_255_2_778
10
5.0336466
20
102.8742168
40
0.3179804
50
89.9992133
51
91.8469842
0
LINE
8
DEFAULT_255_2_778
10
6.069598
20
110.014232
11
6.186998
21
110.000732
0
LINE
8
DEFAULT_255_2_778
10
6.186998
20
110.000732
11
6.275698
21
109.967732
0
LINE
8
DEFAULT_255_2_778
10
6.275698
20
109.967732
11
6.342098
21
109.921132
0
LINE
8
DEFAULT_255_2_778
10
6.342098
20
109.921132
11
6.386298
21
109.872432
0
LINE
8
DEFAULT_255_2_778
10
6.386298
20
109.872432
11
6.438398
21
109.754732
0
LINE
8
DEFAULT_255_2_778
10
6.438398
20
109.754732
11
6.455098
21
109.628732
0
LINE
8
DEFAULT_255_2_778
10
6.455098
20
109.628732
11
6.444198
21
109.515832
0
LINE
8
DEFAULT_255_2_778
10
6.444198
20
109.515832
11
6.417198
21
109.413932
0
LINE
8
DEFAULT_255_2_778
10
6.417198
20
109.413932
11
6.328598
21
109.247732
0
LINE
8
DEFAULT_255_2_778
10
6.328598
20
109.247732
11
6.182298
21
109.048232
0
LINE
8
DEFAULT_255_2_778
10
6.182298
20
109.048232
11
5.781198
21
108.571732
0
LINE
8
DEFAULT_255_2_778
10
5.781198
20
108.571732
11
5.781198
21
108.518532
0
LINE
8
DEFAULT_255_2_778
10
5.781198
20
108.518532
11
6.521198
21
108.518532
0
LINE
8
DEFAULT_255_2_778
10
6.521198
20
108.518532
11
6.521198
21
108.405632
0
LINE
8
DEFAULT_255_2_778
10
6.521198
20
108.405632
11
5.670798
21
108.405632
0
LINE
8
DEFAULT_255_2_778
10
5.670798
20
108.405632
11
5.670798
21
108.609632
0
LINE
8
DEFAULT_255_2_778
10
5.670798
20
108.609632
11
6.031998
21
109.032932
0
LINE
8
DEFAULT_255_2_778
10
6.031998
20
109.032932
11
6.153698
21
109.188232
0
LINE
8
DEFAULT_255_2_778
10
6.153698
20
109.188232
11
6.250498
21
109.330332
0
LINE
8
DEFAULT_255_2_778
10
6.250498
20
109.330332
11
6.311098
21
109.449632
0
LINE
8
DEFAULT_255_2_778
10
6.311098
20
109.449632
11
6.332298
21
109.534032
0
LINE
8
DEFAULT_255_2_778
10
6.332298
20
109.534032
11
6.342098
21
109.629032
0
LINE
8
DEFAULT_255_2_778
10
6.342098
20
109.629032
11
6.329898
21
109.721932
0
LINE
8
DEFAULT_255_2_778
10
6.329898
20
109.721932
11
6.292298
21
109.805532
0
LINE
8
DEFAULT_255_2_778
10
5.830098
20
109.755232
11
5.730598
21
109.806032
0
LINE
8
DEFAULT_255_2_778
10
4.657998
20
110.003132
11
5.025798
21
110.003132
0
LINE
8
DEFAULT_255_2_778
10
5.025798
20
110.003132
11
5.220798
21
109.965632
0
LINE
8
DEFAULT_255_2_778
10
5.220798
20
109.965632
11
5.362598
21
109.870332
0
LINE
8
DEFAULT_255_2_778
10
5.362598
20
109.870332
11
5.448098
21
109.737032
0
LINE
8
DEFAULT_255_2_778
10
5.448098
20
109.737032
11
5.477998
21
109.586732
0
LINE
8
DEFAULT_255_2_778
10
5.477998
20
109.586732
11
5.448598
21
109.438532
0
LINE
8
DEFAULT_255_2_778
10
5.448598
20
109.438532
11
5.363098
21
109.311532
0
LINE
8
DEFAULT_255_2_778
10
5.363098
20
109.311532
11
5.214698
21
109.222132
0
LINE
8
DEFAULT_255_2_778
10
5.214698
20
109.222132
11
5.025798
21
109.190132
0
LINE
8
DEFAULT_255_2_778
10
5.025798
20
109.190132
11
4.770998
21
109.190132
0
LINE
8
DEFAULT_255_2_778
10
4.770998
20
109.190132
11
4.770998
21
108.405632
0
LINE
8
DEFAULT_255_2_778
10
4.770998
20
108.405632
11
4.657998
21
108.405632
0
LINE
8
DEFAULT_255_2_778
10
4.657998
20
108.405632
11
4.657998
21
110.003132
0
LINE
8
DEFAULT_255_2_778
10
4.770998
20
109.890132
11
4.770998
21
109.302832
0
LINE
8
DEFAULT_255_2_778
10
4.770998
20
109.302832
11
5.025798
21
109.302832
0
LINE
8
DEFAULT_255_2_778
10
5.025798
20
109.302832
11
5.176898
21
109.326332
0
LINE
8
DEFAULT_255_2_778
10
5.176898
20
109.326332
11
5.282398
21
109.392232
0
LINE
8
DEFAULT_255_2_778
10
5.282398
20
109.392232
11
5.345398
21
109.482432
0
LINE
8
DEFAULT_255_2_778
10
5.345398
20
109.482432
11
5.364998
21
109.586732
0
LINE
8
DEFAULT_255_2_778
10
5.364998
20
109.586732
11
5.342798
21
109.695132
0
LINE
8
DEFAULT_255_2_778
10
5.342798
20
109.695132
11
5.278498
21
109.792532
0
LINE
8
DEFAULT_255_2_778
10
5.278498
20
109.792532
11
5.172098
21
109.863432
0
LINE
8
DEFAULT_255_2_778
10
5.172098
20
109.863432
11
5.025798
21
109.890132
0
LINE
8
DEFAULT_255_2_778
10
5.025798
20
109.890132
11
4.770998
21
109.890132
0
LINE
8
DEFAULT_255_2_778
10
6.222198
20
103.994232
11
6.363998
21
103.994232
0
LINE
8
DEFAULT_255_2_778
10
6.363998
20
103.994232
11
6.363998
21
102.403032
0
LINE
8
DEFAULT_255_2_778
10
6.363998
20
102.403032
11
6.251098
21
102.403032
0
LINE
8
DEFAULT_255_2_778
10
6.251098
20
102.403032
11
6.251098
21
103.856632
0
LINE
8
DEFAULT_255_2_778
10
6.251098
20
103.856632
11
6.111398
21
103.710332
0
LINE
8
DEFAULT_255_2_778
10
6.111398
20
103.710332
11
6.028798
21
103.633332
0
LINE
8
DEFAULT_255_2_778
10
6.028798
20
103.633332
11
5.982798
21
103.603932
0
LINE
8
DEFAULT_255_2_778
10
5.982798
20
103.603932
11
5.960598
21
103.599432
0
LINE
8
DEFAULT_255_2_778
10
5.960598
20
103.599432
11
5.953698
21
103.717732
0
LINE
8
DEFAULT_255_2_778
10
5.953698
20
103.717732
11
6.045198
21
103.802932
0
LINE
8
DEFAULT_255_2_778
10
6.045198
20
103.802932
11
6.222198
21
103.994232
0
LINE
8
DEFAULT_255_2_778
10
5.466798
20
102.549532
11
5.497798
21
102.434232
0
LINE
8
DEFAULT_255_2_778
10
5.497798
20
102.434232
11
5.391398
21
102.394232
0
LINE
8
DEFAULT_255_2_778
10
5.391398
20
102.394232
11
5.355998
21
102.522832
0
LINE
8
DEFAULT_255_2_778
10
5.355998
20
102.522832
11
5.347198
21
102.633732
0
LINE
8
DEFAULT_255_2_778
10
5.347198
20
102.633732
11
5.349398
21
102.653532
0
LINE
8
DEFAULT_255_2_778
10
5.349398
20
102.653532
11
5.349398
21
102.793232
0
LINE
8
DEFAULT_255_2_778
10
5.023398
20
103.192032
11
4.755398
21
103.192032
0
LINE
8
DEFAULT_255_2_778
10
4.755398
20
103.192032
11
4.755398
21
102.405332
0
LINE
8
DEFAULT_255_2_778
10
4.755398
20
102.405332
11
4.642398
21
102.405332
0
LINE
8
DEFAULT_255_2_778
10
4.642398
20
102.405332
11
4.642398
21
104.003232
0
LINE
8
DEFAULT_255_2_778
10
4.642398
20
104.003232
11
5.010198
21
104.003232
0
LINE
8
DEFAULT_255_2_778
10
5.010198
20
104.003232
11
5.206798
21
103.966432
0
LINE
8
DEFAULT_255_2_778
10
5.206798
20
103.966432
11
5.349098
21
103.872532
0
LINE
8
DEFAULT_255_2_778
10
5.349098
20
103.872532
11
5.434298
21
103.739932
0
LINE
8
DEFAULT_255_2_778
10
5.434298
20
103.739932
11
5.464498
21
103.588832
0
LINE
8
DEFAULT_255_2_778
10
5.464498
20
103.588832
11
5.450998
21
103.491732
0
LINE
8
DEFAULT_255_2_778
10
5.450998
20
103.491732
11
5.413398
21
103.395932
0
LINE
8
DEFAULT_255_2_778
10
5.413398
20
103.395932
11
5.347798
21
103.311832
0
LINE
8
DEFAULT_255_2_778
10
5.347798
20
103.311832
11
5.255998
21
103.247532
0
LINE
8
DEFAULT_255_2_778
10
5.255998
20
103.247532
11
5.335898
21
103.179332
0
LINE
8
DEFAULT_255_2_778
10
5.335898
20
103.179332
11
5.401798
21
103.085332
0
LINE
8
DEFAULT_255_2_778
10
5.401798
20
103.085332
11
5.446198
21
102.949332
0
LINE
8
DEFAULT_255_2_778
10
5.446198
20
102.949332
11
5.462098
21
102.771032
0
LINE
8
DEFAULT_255_2_778
10
5.462098
20
102.771032
11
5.459998
21
102.649032
0
LINE
8
DEFAULT_255_2_778
10
5.459998
20
102.649032
11
5.466798
21
102.549532
0
LINE
8
DEFAULT_255_2_778
10
4.755398
20
103.305232
11
5.027898
21
103.305232
0
LINE
8
DEFAULT_255_2_778
10
5.027898
20
103.305232
11
5.169998
21
103.328732
0
LINE
8
DEFAULT_255_2_778
10
5.169998
20
103.328732
11
5.271598
21
103.393832
0
LINE
8
DEFAULT_255_2_778
10
5.271598
20
103.393832
11
5.329498
21
103.484632
0
LINE
8
DEFAULT_255_2_778
10
5.329498
20
103.484632
11
5.349098
21
103.588832
0
LINE
8
DEFAULT_255_2_778
10
5.349098
20
103.588832
11
5.326898
21
103.697332
0
LINE
8
DEFAULT_255_2_778
10
5.326898
20
103.697332
11
5.299898
21
103.748432
0
LINE
8
DEFAULT_255_2_778
10
5.299898
20
103.748432
11
5.262098
21
103.794432
0
LINE
8
DEFAULT_255_2_778
10
5.262098
20
103.794432
11
5.156198
21
103.863732
0
LINE
8
DEFAULT_255_2_778
10
5.156198
20
103.863732
11
5.009898
21
103.890532
0
LINE
8
DEFAULT_255_2_778
10
5.009898
20
103.890532
11
4.755098
21
103.890532
0
LINE
8
DEFAULT_255_2_778
10
4.755098
20
103.890532
11
4.755398
21
103.305232
0
LINE
8
DEFAULT_255_2_778
10
6.807498
20
122.003332
11
6.807498
21
120.410032
0
LINE
8
DEFAULT_255_2_778
10
6.807498
20
120.410032
11
7.605198
21
120.410032
0
LINE
8
DEFAULT_255_2_778
10
7.605198
20
120.410032
11
7.605198
21
120.523032
0
LINE
8
DEFAULT_255_2_778
10
7.605198
20
120.523032
11
6.920498
21
120.523032
0
LINE
8
DEFAULT_255_2_778
10
6.920498
20
120.523032
11
6.920498
21
121.194532
0
LINE
8
DEFAULT_255_2_778
10
6.920498
20
121.194532
11
7.563098
21
121.194532
0
LINE
8
DEFAULT_255_2_778
10
7.563098
20
121.194532
11
7.563098
21
121.307432
0
LINE
8
DEFAULT_255_2_778
10
7.563098
20
121.307432
11
6.920498
21
121.307432
0
LINE
8
DEFAULT_255_2_778
10
6.920498
20
121.307432
11
6.920498
21
121.890332
0
LINE
8
DEFAULT_255_2_778
10
6.920498
20
121.890332
11
7.605198
21
121.890332
0
LINE
8
DEFAULT_255_2_778
10
7.605198
20
121.890332
11
7.605198
21
122.003332
0
LINE
8
DEFAULT_255_2_778
10
7.605198
20
122.003332
11
6.807498
21
122.003332
0
LINE
8
DEFAULT_255_2_778
10
4.7710281
20
121.8903094
11
5.0258281
21
121.8903094
0
LINE
8
DEFAULT_255_2_778
10
5.0258281
20
121.8903094
11
5.1721281
21
121.8636094
0
LINE
8
DEFAULT_255_2_778
10
5.1721281
20
121.8636094
11
5.2784281
21
121.7927094
0
LINE
8
DEFAULT_255_2_778
10
5.2784281
20
121.7927094
11
5.3427281
21
121.6951094
0
LINE
8
DEFAULT_255_2_778
10
5.3427281
20
121.6951094
11
5.3650281
21
121.5866094
0
LINE
8
DEFAULT_255_2_778
10
5.3650281
20
121.5866094
11
5.3454281
21
121.4823094
0
LINE
8
DEFAULT_255_2_778
10
5.3454281
20
121.4823094
11
5.2824281
21
121.3921094
0
LINE
8
DEFAULT_255_2_778
10
5.2824281
20
121.3921094
11
5.1768281
21
121.3262094
0
LINE
8
DEFAULT_255_2_778
10
5.1768281
20
121.3262094
11
5.0258281
21
121.3027094
0
LINE
8
DEFAULT_255_2_778
10
5.0258281
20
121.3027094
11
4.7710281
21
121.3027094
0
LINE
8
DEFAULT_255_2_778
10
4.7710281
20
121.3027094
11
4.7710281
21
121.8903094
0
LINE
8
DEFAULT_255_2_778
10
4.6580281
20
122.0033094
11
4.6580281
21
120.4055094
0
LINE
8
DEFAULT_255_2_778
10
4.6580281
20
120.4055094
11
4.7710281
21
120.4055094
0
LINE
8
DEFAULT_255_2_778
10
4.7710281
20
120.4055094
11
4.7710281
21
121.1900094
0
LINE
8
DEFAULT_255_2_778
10
4.7710281
20
121.1900094
11
5.0258281
21
121.1900094
0
LINE
8
DEFAULT_255_2_778
10
5.0258281
20
121.1900094
11
5.2147281
21
121.2220094
0
LINE
8
DEFAULT_255_2_778
10
5.2147281
20
121.2220094
11
5.3631281
21
121.3114094
0
LINE
8
DEFAULT_255_2_778
10
5.3631281
20
121.3114094
11
5.4486281
21
121.4384094
0
LINE
8
DEFAULT_255_2_778
10
5.4486281
20
121.4384094
11
5.4779281
21
121.5866094
0
LINE
8
DEFAULT_255_2_778
10
5.4779281
20
121.5866094
11
5.4480281
21
121.7369094
0
LINE
8
DEFAULT_255_2_778
10
5.4480281
20
121.7369094
11
5.3626281
21
121.8702094
0
LINE
8
DEFAULT_255_2_778
10
5.3626281
20
121.8702094
11
5.2208281
21
121.9655094
0
LINE
8
DEFAULT_255_2_778
10
5.2208281
20
121.9655094
11
5.0258281
21
122.0030094
0
LINE
8
DEFAULT_255_2_778
10
5.0258281
20
122.0030094
11
4.6580281
21
122.0033094
0
ARC
8
DEFAULT_255_2_778
10
6.1340962
20
121.1666234
40
0.2620476
50
90.012687
51
143.18813
0
ARC
8
DEFAULT_255_2_778
10
6.134049
20
121.1674677
40
0.2612033
50
89.1115859
51
90.0023747
0
ARC
8
DEFAULT_255_2_778
10
6.1538748
20
121.166792
40
0.2623224
50
90.0008739
51
93.4477871
0
ARC
8
DEFAULT_255_2_778
10
6.153928
20
121.1675417
40
0.2615726
50
41.8738895
51
90.0125304
0
ARC
8
DEFAULT_255_2_778
10
5.9797612
20
121.099877
40
0.4413685
50
359.9900968
51
33.2908556
0
ARC
8
DEFAULT_255_2_778
10
5.978874
20
121.0998045
40
0.4422558
50
355.2314663
51
359.9995098
0
LINE
8
DEFAULT_255_2_778
10
6.417499
20
120.9616396
11
6.415399
21
120.8973396
0
LINE
8
DEFAULT_255_2_778
10
6.415399
20
120.8973396
11
6.410899
21
120.8397396
0
LINE
8
DEFAULT_255_2_778
10
6.410899
20
120.8397396
11
6.402699
21
120.7600396
0
LINE
8
DEFAULT_255_2_778
10
6.402699
20
120.7600396
11
6.368799
21
120.6468396
0
LINE
8
DEFAULT_255_2_778
10
6.368799
20
120.6468396
11
6.306599
21
120.5669396
0
LINE
8
DEFAULT_255_2_778
10
6.306599
20
120.5669396
11
6.224399
21
120.5195396
0
LINE
8
DEFAULT_255_2_778
10
6.224399
20
120.5195396
11
6.133899
21
120.5050396
0
LINE
8
DEFAULT_255_2_778
10
6.133899
20
120.5050396
11
6.043399
21
120.5195396
0
LINE
8
DEFAULT_255_2_778
10
6.043399
20
120.5195396
11
5.961399
21
120.5653396
0
LINE
8
DEFAULT_255_2_778
10
5.961399
20
120.5653396
11
5.899199
21
120.6447396
0
LINE
8
DEFAULT_255_2_778
10
5.899199
20
120.6447396
11
5.865599
21
120.7598396
0
LINE
8
DEFAULT_255_2_778
10
5.865599
20
120.7598396
11
5.861099
21
120.7907396
0
LINE
8
DEFAULT_255_2_778
10
5.861099
20
120.7907396
11
5.854499
21
120.8460396
0
LINE
8
DEFAULT_255_2_778
10
5.854499
20
120.8460396
11
5.849999
21
120.8881396
0
LINE
8
DEFAULT_255_2_778
10
5.849999
20
120.8881396
11
5.849999
21
120.9989396
0
LINE
8
DEFAULT_255_2_778
10
5.849999
20
120.9989396
11
5.869599
21
121.1889396
0
LINE
8
DEFAULT_255_2_778
10
5.869599
20
121.1889396
11
5.924299
21
121.3236396
0
LINE
8
DEFAULT_255_2_778
10
6.419599
20
121.0630396
11
6.417499
21
120.9616396
0
LINE
8
DEFAULT_255_2_778
10
6.465399
20
120.5875396
11
6.517499
21
120.7465396
0
LINE
8
DEFAULT_255_2_778
10
6.517499
20
120.7465396
11
6.525999
21
120.8219396
0
LINE
8
DEFAULT_255_2_778
10
6.525999
20
120.8219396
11
6.530499
21
120.8841396
0
LINE
8
DEFAULT_255_2_778
10
6.530499
20
120.8841396
11
6.532599
21
120.9995396
0
LINE
8
DEFAULT_255_2_778
10
6.532599
20
120.9995396
11
6.525999
21
121.1236396
0
LINE
8
DEFAULT_255_2_778
10
6.525999
20
121.1236396
11
6.515699
21
121.2053396
0
LINE
8
DEFAULT_255_2_778
10
6.515699
20
121.2053396
11
6.467499
21
121.3514396
0
LINE
8
DEFAULT_255_2_778
10
6.467499
20
121.3514396
11
6.376999
21
121.4575396
0
LINE
8
DEFAULT_255_2_778
10
6.376999
20
121.4575396
11
6.260099
21
121.5199396
0
LINE
8
DEFAULT_255_2_778
10
6.260099
20
121.5199396
11
6.133899
21
121.5424396
0
LINE
8
DEFAULT_255_2_778
10
6.133899
20
121.5424396
11
5.969799
21
121.5157396
0
LINE
8
DEFAULT_255_2_778
10
5.969799
20
121.5157396
11
5.903199
21
121.4778396
0
LINE
8
DEFAULT_255_2_778
10
5.903199
20
121.4778396
11
5.844899
21
121.4210396
0
LINE
8
DEFAULT_255_2_778
10
5.844899
20
121.4210396
11
5.764999
21
121.2368396
0
LINE
8
DEFAULT_255_2_778
10
5.764999
20
121.2368396
11
5.736999
21
120.9352396
0
LINE
8
DEFAULT_255_2_778
10
5.736999
20
120.9352396
11
5.739099
21
120.8577396
0
LINE
8
DEFAULT_255_2_778
10
5.739099
20
120.8577396
11
5.743599
21
120.8111396
0
LINE
8
DEFAULT_255_2_778
10
5.743599
20
120.8111396
11
5.754199
21
120.7468396
0
LINE
8
DEFAULT_255_2_778
10
5.754199
20
120.7468396
11
5.807899
21
120.5896396
0
LINE
8
DEFAULT_255_2_778
10
5.807899
20
120.5896396
11
5.900499
21
120.4782396
0
LINE
8
DEFAULT_255_2_778
10
5.900499
20
120.4782396
11
6.014299
21
120.4134396
0
LINE
8
DEFAULT_255_2_778
10
6.014299
20
120.4134396
11
6.135999
21
120.3925396
0
LINE
8
DEFAULT_255_2_778
10
6.135999
20
120.3925396
11
6.259599
21
120.4137396
0
LINE
8
DEFAULT_255_2_778
10
6.259599
20
120.4137396
11
6.375199
21
120.4767396
0
LINE
8
DEFAULT_255_2_778
10
6.375199
20
120.4767396
11
6.465399
21
120.5875396
0
LINE
8
DEFAULT_255_2_778
10
4.6024406
20
134.0011187
11
4.6024406
21
132.4057187
0
LINE
8
DEFAULT_255_2_778
10
4.6024406
20
132.4057187
11
5.3493406
21
132.4057187
0
LINE
8
DEFAULT_255_2_778
10
5.3493406
20
132.4057187
11
5.3493406
21
132.5186187
0
LINE
8
DEFAULT_255_2_778
10
5.3493406
20
132.5186187
11
4.7156406
21
132.5186187
0
LINE
8
DEFAULT_255_2_778
10
4.7156406
20
132.5186187
11
4.7156406
21
134.0011187
0
LINE
8
DEFAULT_255_2_778
10
4.7156406
20
134.0011187
11
4.6027406
21
134.0011187
0
LINE
8
DEFAULT_255_2_778
10
5.7975833
20
133.8034021
11
5.7054833
21
133.7179021
0
LINE
8
DEFAULT_255_2_778
10
5.7054833
20
133.7179021
11
5.7125833
21
133.5999021
0
LINE
8
DEFAULT_255_2_778
10
5.7125833
20
133.5999021
11
5.7348833
21
133.6044021
0
LINE
8
DEFAULT_255_2_778
10
5.7348833
20
133.6044021
11
5.7808833
21
133.6338021
0
LINE
8
DEFAULT_255_2_778
10
5.7808833
20
133.6338021
11
5.8634833
21
133.7108021
0
LINE
8
DEFAULT_255_2_778
10
5.8634833
20
133.7108021
11
6.0031833
21
133.8571021
0
LINE
8
DEFAULT_255_2_778
10
6.0031833
20
133.8571021
11
6.0031833
21
132.4035021
0
LINE
8
DEFAULT_255_2_778
10
6.0031833
20
132.4035021
11
6.1160833
21
132.4035021
0
LINE
8
DEFAULT_255_2_778
10
6.1160833
20
132.4035021
11
6.1160833
21
133.9947021
0
LINE
8
DEFAULT_255_2_778
10
6.1160833
20
133.9947021
11
5.9742833
21
133.9947021
0
LINE
8
DEFAULT_255_2_778
10
5.9742833
20
133.9947021
11
5.7975833
21
133.8037021
0
LINE
8
DEFAULT_255_2_778
10
4.6024406
20
128.0011187
11
4.6024406
21
126.4057187
0
LINE
8
DEFAULT_255_2_778
10
4.6024406
20
126.4057187
11
5.3493406
21
126.4057187
0
LINE
8
DEFAULT_255_2_778
10
5.3493406
20
126.4057187
11
5.3493406
21
126.5186187
0
LINE
8
DEFAULT_255_2_778
10
5.3493406
20
126.5186187
11
4.7156406
21
126.5186187
0
LINE
8
DEFAULT_255_2_778
10
4.7156406
20
126.5186187
11
4.7156406
21
128.0011187
0
LINE
8
DEFAULT_255_2_778
10
4.7156406
20
128.0011187
11
4.6027406
21
128.0011187
0
ARC
8
DEFAULT_255_2_778
10
5.8724984
20
127.6371497
40
0.3769461
50
89.3643029
51
89.9997447
0
ARC
8
DEFAULT_255_2_778
10
5.8724458
20
127.6410401
40
0.3730558
50
89.9916701
51
153.7784018
0
ARC
8
DEFAULT_255_2_778
10
5.873486
20
127.6376043
40
0.2634901
50
90.0009637
51
153.5972398
0
ARC
8
DEFAULT_255_2_778
10
5.8734954
20
127.6382784
40
0.262816
50
89.2620034
51
90.003015
0
ARC
8
DEFAULT_255_2_778
10
5.8957345
20
127.6369181
40
0.2648265
50
90.0006171
51
94.0825568
0
ARC
8
DEFAULT_255_2_778
10
5.8958818
20
127.6385901
40
0.2631546
50
39.2452738
51
90.0326919
0
ARC
8
DEFAULT_255_2_778
10
2.8237584
20
139.7119998
40
0.5005442
50
129.0405531
51
179.9969408
0
ARC
8
DEFAULT_255_2_778
10
2.824367
20
139.7120303
40
0.5011528
50
180.0004352
51
180.9326913
0
ARC
8
DEFAULT_255_2_778
10
2.771499
20
139.6902819
40
0.4484245
50
178.2632335
51
180.0003149
0
ARC
8
DEFAULT_255_2_778
10
2.7690155
20
139.6899963
40
0.4459412
50
179.9636199
51
227.0344651
0
ARC
8
DEFAULT_255_2_778
10
3.1427985
20
138.7113094
40
0.3220181
50
1.6662014
51
66.5237545
0
ARC
8
DEFAULT_255_2_778
10
3.1100552
20
138.726675
40
0.3546761
50
302.5685975
51
359.0303107
0
ARC
8
DEFAULT_255_2_778
10
2.8202144
20
138.7125384
40
0.3611136
50
180.0531356
51
233.0178239
0
ARC
8
DEFAULT_255_2_778
10
2.8197159
20
138.7121991
40
0.3606148
50
178.1926376
51
179.9993088
0
ARC
8
DEFAULT_255_2_778
10
2.8527147
20
138.745126
40
0.5766371
50
182.1420852
51
229.8339089
0
ARC
8
DEFAULT_255_2_778
10
3.1341242
20
138.7317044
40
0.5131626
50
308.3155023
51
359.7173187
0
ARC
8
DEFAULT_255_2_778
10
2.8533517
20
139.7152296
40
0.3471791
50
180.0000701
51
180.3889726
0
ARC
8
DEFAULT_255_2_778
10
2.8470723
20
139.715283
40
0.3408999
50
130.0143648
51
180.0090502
0
ARC
8
DEFAULT_255_2_778
10
3.1077543
20
139.7474034
40
0.3225569
50
5.2062592
51
56.7562822
0
ARC
8
DEFAULT_255_2_778
10
3.1857661
20
139.7758057
40
0.4261153
50
0.1165645
51
60.0377527
0
ARC
8
DEFAULT_255_2_778
10
4.8640536
20
138.9599102
40
0.6222276
50
270.0012589
51
272.0287008
0
ARC
8
DEFAULT_255_2_778
10
4.8640736
20
138.9570971
40
0.6194144
50
213.7718314
51
269.9994118
0
ARC
8
DEFAULT_255_2_778
10
4.8418776
20
139.4983375
40
0.5849566
50
90.0017508
51
146.0080869
0
ARC
8
DEFAULT_255_2_778
10
4.8418458
20
139.4957976
40
0.5874966
50
88.4262577
51
89.9986361
0
ARC
8
DEFAULT_255_2_778
10
4.9783322
20
139.7071477
40
0.3489994
50
4.8529609
51
55.385805
0
ARC
8
DEFAULT_255_2_778
10
4.9225728
20
139.5779178
40
0.6667757
50
44.9360235
51
89.9924842
0
ARC
8
DEFAULT_255_2_778
10
4.9226654
20
139.5777975
40
0.6668958
50
90.0004479
51
93.1705535
0
ARC
8
DEFAULT_255_2_778
10
4.8433781
20
139.4281568
40
0.8166174
50
87.0236117
51
89.9998103
0
ARC
8
DEFAULT_255_2_778
10
4.8434797
20
139.4295255
40
0.8152487
50
90.0069503
51
143.5420774
0
ARC
8
DEFAULT_255_2_778
10
4.8032718
20
138.9222821
40
0.7460303
50
215.4422402
51
269.9983218
0
ARC
8
DEFAULT_255_2_778
10
4.8032423
20
138.9246362
40
0.7483843
50
270.0005849
51
272.5148792
0
ARC
8
DEFAULT_255_2_778
10
13.9469536
20
138.9599102
40
0.6222276
50
270.0012589
51
272.0287008
0
ARC
8
DEFAULT_255_2_778
10
13.9469736
20
138.9570971
40
0.6194144
50
213.7718314
51
269.9994118
0
ARC
8
DEFAULT_255_2_778
10
13.9247776
20
139.4983375
40
0.5849566
50
90.0017508
51
146.0080869
0
ARC
8
DEFAULT_255_2_778
10
13.9247458
20
139.4957976
40
0.5874966
50
88.4262577
51
89.9986361
0
ARC
8
DEFAULT_255_2_778
10
14.0609387
20
139.7069776
40
0.3493061
50
4.8766837
51
55.3620249
0
ARC
8
DEFAULT_255_2_778
10
14.00514
20
139.577
40
0.6676596
50
44.9716056
51
90.0126387
0
ARC
8
DEFAULT_255_2_778
10
14.0050005
20
139.575771
40
0.6688884
50
90.0006677
51
93.1126367
0
ARC
8
DEFAULT_255_2_778
10
13.9262634
20
139.4275883
40
0.8171859
50
87.0246484
51
89.9997566
0
ARC
8
DEFAULT_255_2_778
10
13.9263128
20
139.4296582
40
0.8151161
50
90.0032283
51
143.5467797
0
ARC
8
DEFAULT_255_2_778
10
13.8861718
20
138.9222821
40
0.7460303
50
215.4422402
51
269.9983218
0
ARC
8
DEFAULT_255_2_778
10
13.8861423
20
138.9246362
40
0.7483843
50
270.0005849
51
272.5148792
0
ARC
8
DEFAULT_255_2_778
10
22.2637874
20
139.6082683
40
0.4008265
50
10.9014333
51
87.3698831
0
ARC
8
DEFAULT_255_2_778
10
22.3013311
20
139.6067886
40
0.4023401
50
92.7282015
51
168.7802868
0
ARC
8
DEFAULT_255_2_778
10
22.3048745
20
138.7423497
40
0.4102054
50
192.0986306
51
266.8285808
0
ARC
8
DEFAULT_255_2_778
10
22.2636225
20
138.7321595
40
0.3998178
50
272.6604041
51
348.7666171
0
ARC
8
DEFAULT_255_2_778
10
22.266964
20
138.7145371
40
0.5369742
50
212.1399619
51
269.9887313
0
ARC
8
DEFAULT_255_2_778
10
22.2668518
20
138.7159478
40
0.5383848
50
270.0006993
51
271.5995892
0
ARC
8
DEFAULT_255_2_778
10
22.2872725
20
138.7411929
40
0.5634461
50
269.4516958
51
270.0018741
0
ARC
8
DEFAULT_255_2_778
10
22.2873616
20
138.7399231
40
0.5621763
50
269.9927932
51
343.7141944
0
ARC
8
DEFAULT_255_2_778
10
22.2918477
20
139.6277815
40
0.5362932
50
31.5474681
51
89.9791438
0
ARC
8
DEFAULT_255_2_778
10
22.2920394
20
139.6267519
40
0.5373226
50
89.9996286
51
91.1153262
0
ARC
8
DEFAULT_255_2_778
10
22.2743884
20
139.5968222
40
0.567196
50
89.2734672
51
89.9995849
0
ARC
8
DEFAULT_255_2_778
10
22.2746461
20
139.6023766
40
0.5616417
50
90.025865
51
163.735935
0
ARC
8
DEFAULT_255_2_778
10
23.8041875
20
139.6082685
40
0.4008264
50
10.9014148
51
87.3698961
0
ARC
8
DEFAULT_255_2_778
10
23.8417309
20
139.6067889
40
0.4023397
50
92.7281748
51
168.7803249
0
ARC
8
DEFAULT_255_2_778
10
23.8452745
20
138.7423497
40
0.4102054
50
192.0986306
51
266.8285808
0
ARC
8
DEFAULT_255_2_778
10
23.8041726
20
138.7319851
40
0.3996367
50
272.6400748
51
348.7869464
0
ARC
8
DEFAULT_255_2_778
10
23.8078288
20
138.7147323
40
0.5374619
50
212.1696391
51
269.998389
0
ARC
8
DEFAULT_255_2_778
10
23.8078222
20
138.7159688
40
0.5386984
50
269.9990966
51
271.5698879
0
ARC
8
DEFAULT_255_2_778
10
23.8279724
20
138.7408881
40
0.5634413
50
269.4516952
51
270.0018735
0
ARC
8
DEFAULT_255_2_778
10
23.8279077
20
138.7396563
40
0.5622094
50
270.008472
51
343.7222736
0
ARC
8
DEFAULT_255_2_778
10
23.8324201
20
139.627353
40
0.5365215
50
31.5611355
51
89.9666076
0
ARC
8
DEFAULT_255_2_778
10
23.8327293
20
139.627584
40
0.5362904
50
89.9996285
51
91.116392
0
ARC
8
DEFAULT_255_2_778
10
23.8152892
20
139.5954566
40
0.568359
50
89.2951962
51
89.9979775
0
ARC
8
DEFAULT_255_2_778
10
23.8154288
20
139.6020622
40
0.5617533
50
90.0121865
51
163.7270994
0
LINE
8
DEFAULT_255_2_778
10
5.9896805
20
127.0480726
11
6.1359805
21
127.2475726
0
LINE
8
DEFAULT_255_2_778
10
6.1359805
20
127.2475726
11
6.2245805
21
127.4136726
0
LINE
8
DEFAULT_255_2_778
10
6.2245805
20
127.4136726
11
6.2515805
21
127.5155726
0
LINE
8
DEFAULT_255_2_778
10
6.2515805
20
127.5155726
11
6.2623805
21
127.6285726
0
LINE
8
DEFAULT_255_2_778
10
6.2623805
20
127.6285726
11
6.2457805
21
127.7544726
0
LINE
8
DEFAULT_255_2_778
10
6.2457805
20
127.7544726
11
6.1936805
21
127.8722726
0
LINE
8
DEFAULT_255_2_778
10
6.1936805
20
127.8722726
11
6.1491805
21
127.9209726
0
LINE
8
DEFAULT_255_2_778
10
6.1491805
20
127.9209726
11
6.0827805
21
127.9674726
0
LINE
8
DEFAULT_255_2_778
10
6.0827805
20
127.9674726
11
5.9941805
21
128.0005726
0
LINE
8
DEFAULT_255_2_778
10
5.9941805
20
128.0005726
11
5.8766805
21
128.0140726
0
LINE
8
DEFAULT_255_2_778
10
5.5377805
20
127.8058726
11
5.6374805
21
127.7547726
0
LINE
8
DEFAULT_255_2_778
10
6.0996805
20
127.8050726
11
6.1372805
21
127.7214726
0
LINE
8
DEFAULT_255_2_778
10
6.1372805
20
127.7214726
11
6.1494805
21
127.6285726
0
LINE
8
DEFAULT_255_2_778
10
6.1494805
20
127.6285726
11
6.1393805
21
127.5335726
0
LINE
8
DEFAULT_255_2_778
10
6.1393805
20
127.5335726
11
6.1181805
21
127.4491726
0
LINE
8
DEFAULT_255_2_778
10
6.1181805
20
127.4491726
11
6.0576805
21
127.3298726
0
LINE
8
DEFAULT_255_2_778
10
6.0576805
20
127.3298726
11
5.9607805
21
127.1877726
0
LINE
8
DEFAULT_255_2_778
10
5.9607805
20
127.1877726
11
5.8390805
21
127.0324726
0
LINE
8
DEFAULT_255_2_778
10
5.8390805
20
127.0324726
11
5.4779805
21
126.6090726
0
LINE
8
DEFAULT_255_2_778
10
5.4779805
20
126.6090726
11
5.4779805
21
126.4051726
0
LINE
8
DEFAULT_255_2_778
10
5.4779805
20
126.4051726
11
6.3288805
21
126.4051726
0
LINE
8
DEFAULT_255_2_778
10
6.3288805
20
126.4051726
11
6.3288805
21
126.5180726
0
LINE
8
DEFAULT_255_2_778
10
6.3288805
20
126.5180726
11
5.5887805
21
126.5180726
0
LINE
8
DEFAULT_255_2_778
10
5.5887805
20
126.5180726
11
5.5887805
21
126.5712726
0
LINE
8
DEFAULT_255_2_778
10
5.5887805
20
126.5712726
11
5.9898805
21
127.0477726
0
LINE
8
DEFAULT_255_2_778
10
2.9855805
20
140.2441726
11
2.7228805
21
140.2063726
0
LINE
8
DEFAULT_255_2_778
10
2.7228805
20
140.2063726
11
2.5084805
21
140.1007726
0
LINE
8
DEFAULT_255_2_778
10
2.4650805
20
139.3636726
11
2.9275805
21
139.1373726
0
LINE
8
DEFAULT_255_2_778
10
2.9275805
20
139.1373726
11
3.2710805
21
139.0066726
0
LINE
8
DEFAULT_255_2_778
10
3.3009805
20
138.4277726
11
3.1434805
21
138.3621726
0
LINE
8
DEFAULT_255_2_778
10
3.1434805
20
138.3621726
11
2.9469805
21
138.3386726
0
LINE
8
DEFAULT_255_2_778
10
2.9469805
20
138.3386726
11
2.7519805
21
138.3610726
0
LINE
8
DEFAULT_255_2_778
10
2.7519805
20
138.3610726
11
2.6029805
21
138.4240726
0
LINE
8
DEFAULT_255_2_778
10
2.4592805
20
138.7235726
11
2.2764805
21
138.7235726
0
LINE
8
DEFAULT_255_2_778
10
2.4807805
20
138.3044726
11
2.6788805
21
138.2113726
0
LINE
8
DEFAULT_255_2_778
10
2.6788805
20
138.2113726
11
2.9355805
21
138.1780726
0
LINE
8
DEFAULT_255_2_778
10
2.9355805
20
138.1780726
11
3.2252805
21
138.2179726
0
LINE
8
DEFAULT_255_2_778
10
3.2252805
20
138.2179726
11
3.4522805
21
138.3290726
0
LINE
8
DEFAULT_255_2_778
10
3.6472805
20
138.7291726
11
3.6096805
21
138.9167726
0
LINE
8
DEFAULT_255_2_778
10
3.6096805
20
138.9167726
11
3.5678805
21
138.9990726
0
LINE
8
DEFAULT_255_2_778
10
3.5678805
20
138.9990726
11
3.5117805
21
139.0672726
0
LINE
8
DEFAULT_255_2_778
10
3.5117805
20
139.0672726
11
3.2898805
21
139.1998726
0
LINE
8
DEFAULT_255_2_778
10
3.2898805
20
139.1998726
11
3.0537805
21
139.2842726
0
LINE
8
DEFAULT_255_2_778
10
3.0537805
20
139.2842726
11
2.6145805
21
139.5072726
0
LINE
8
DEFAULT_255_2_778
10
2.6145805
20
139.5072726
11
2.5346805
21
139.6049726
0
LINE
8
DEFAULT_255_2_778
10
2.5346805
20
139.6049726
11
2.5140805
21
139.6575726
0
LINE
8
DEFAULT_255_2_778
10
2.5140805
20
139.6575726
11
2.5061805
21
139.7128726
0
LINE
8
DEFAULT_255_2_778
10
2.6278805
20
139.9763726
11
2.7881805
21
140.0554726
0
LINE
8
DEFAULT_255_2_778
10
2.7881805
20
140.0554726
11
2.9966805
21
140.0840726
0
LINE
8
DEFAULT_255_2_778
10
2.9966805
20
140.0840726
11
3.1577805
21
140.0663726
0
LINE
8
DEFAULT_255_2_778
10
3.1577805
20
140.0663726
11
3.2845805
21
140.0171726
0
LINE
8
DEFAULT_255_2_778
10
3.4289805
20
139.7766726
11
3.6118805
21
139.7766726
0
LINE
8
DEFAULT_255_2_778
10
3.3985805
20
140.1449726
11
3.2093805
21
140.2184726
0
LINE
8
DEFAULT_255_2_778
10
3.2093805
20
140.2184726
11
2.9860805
21
140.2449726
0
LINE
8
DEFAULT_255_2_778
10
21.3013805
20
139.9504726
11
21.3013805
21
140.1221726
0
LINE
8
DEFAULT_255_2_778
10
21.3013805
20
140.1221726
11
20.0797805
21
140.1221726
0
LINE
8
DEFAULT_255_2_778
10
20.0797805
20
140.1221726
11
20.0797805
21
139.9615726
0
LINE
8
DEFAULT_255_2_778
10
20.0797805
20
139.9615726
11
21.1129805
21
139.9615726
0
LINE
8
DEFAULT_255_2_778
10
21.1129805
20
139.9615726
11
20.3456805
21
138.2052726
0
LINE
8
DEFAULT_255_2_778
10
20.3456805
20
138.2052726
11
20.5588805
21
138.2052726
0
LINE
8
DEFAULT_255_2_778
10
20.5588805
20
138.2052726
11
21.3013805
21
139.9504726
0
LINE
8
DEFAULT_255_2_778
10
5.5424805
20
138.6899726
11
5.3458805
21
138.6899726
0
LINE
8
DEFAULT_255_2_778
10
5.3458805
20
138.6899726
11
5.2995805
21
138.5624726
0
LINE
8
DEFAULT_255_2_778
10
5.2995805
20
138.5624726
11
5.2154805
21
138.4550726
0
LINE
8
DEFAULT_255_2_778
10
5.2154805
20
138.4550726
11
5.0680805
21
138.3690726
0
LINE
8
DEFAULT_255_2_778
10
5.0680805
20
138.3690726
11
4.8860805
21
138.3380726
0
LINE
8
DEFAULT_255_2_778
10
4.3491805
20
138.6127726
11
4.2356805
21
138.8627726
0
LINE
8
DEFAULT_255_2_778
10
4.2356805
20
138.8627726
11
4.1904805
21
139.2188726
0
LINE
8
DEFAULT_255_2_778
10
4.1904805
20
139.2188726
11
4.2375805
21
139.5736726
0
LINE
8
DEFAULT_255_2_778
10
4.2375805
20
139.5736726
11
4.3568805
21
139.8253726
0
LINE
8
DEFAULT_255_2_778
10
4.8579805
20
140.0830726
11
5.0286805
21
140.0597726
0
LINE
8
DEFAULT_255_2_778
10
5.0286805
20
140.0597726
11
5.1765805
21
139.9943726
0
LINE
8
DEFAULT_255_2_778
10
5.3260805
20
139.7366726
11
5.5199805
21
139.7366726
0
LINE
8
DEFAULT_255_2_778
10
5.5199805
20
139.7366726
11
5.4869805
21
139.9004726
0
LINE
8
DEFAULT_255_2_778
10
5.4869805
20
139.9004726
11
5.3945805
21
140.0488726
0
LINE
8
DEFAULT_255_2_778
10
4.1877805
20
139.9139726
11
4.0470805
21
139.6046726
0
LINE
8
DEFAULT_255_2_778
10
4.0470805
20
139.6046726
11
3.9965805
21
139.2241726
0
LINE
8
DEFAULT_255_2_778
10
3.9965805
20
139.2241726
11
4.0486805
21
138.8172726
0
LINE
8
DEFAULT_255_2_778
10
4.0486805
20
138.8172726
11
4.1954805
21
138.4896726
0
LINE
8
DEFAULT_255_2_778
10
4.8360805
20
138.1769726
11
5.0969805
21
138.2145726
0
LINE
8
DEFAULT_255_2_778
10
5.0969805
20
138.2145726
11
5.3120805
21
138.3190726
0
LINE
8
DEFAULT_255_2_778
10
5.3120805
20
138.3190726
11
5.4622805
21
138.4835726
0
LINE
8
DEFAULT_255_2_778
10
5.4622805
20
138.4835726
11
5.5424805
21
138.6894726
0
LINE
8
DEFAULT_255_2_778
10
18.6946805
20
140.2052726
11
18.4729805
21
140.2052726
0
LINE
8
DEFAULT_255_2_778
10
18.4729805
20
140.2052726
11
17.8855805
21
138.3851726
0
LINE
8
DEFAULT_255_2_778
10
17.8855805
20
138.3851726
11
17.4145805
21
140.2052726
0
LINE
8
DEFAULT_255_2_778
10
17.4145805
20
140.2052726
11
17.2235805
21
140.2052726
0
LINE
8
DEFAULT_255_2_778
10
17.2235805
20
140.2052726
11
17.7442805
21
138.2052726
0
LINE
8
DEFAULT_255_2_778
10
17.7442805
20
138.2052726
11
18.0019805
21
138.2052726
0
LINE
8
DEFAULT_255_2_778
10
18.0019805
20
138.2052726
11
18.5782805
21
140.0086726
0
LINE
8
DEFAULT_255_2_778
10
18.5782805
20
140.0086726
11
19.1737805
21
138.2052726
0
LINE
8
DEFAULT_255_2_778
10
19.1737805
20
138.2052726
11
19.4203805
21
138.2052726
0
LINE
8
DEFAULT_255_2_778
10
19.4203805
20
138.2052726
11
19.9466805
21
140.2052726
0
LINE
8
DEFAULT_255_2_778
10
19.9466805
20
140.2052726
11
19.7720805
21
140.2052726
0
LINE
8
DEFAULT_255_2_778
10
19.7720805
20
140.2052726
11
19.3066805
21
138.3825726
0
LINE
8
DEFAULT_255_2_778
10
19.3066805
20
138.3825726
11
18.6943805
21
140.2052726
0
LINE
8
DEFAULT_255_2_778
10
16.2377805
20
138.2052726
11
16.2377805
21
138.3658726
0
LINE
8
DEFAULT_255_2_778
10
16.2377805
20
138.3658726
11
15.1852805
21
138.3658726
0
LINE
8
DEFAULT_255_2_778
10
15.1852805
20
138.3658726
11
15.1852805
21
139.1609726
0
LINE
8
DEFAULT_255_2_778
10
15.1852805
20
139.1609726
11
16.1575805
21
139.1609726
0
LINE
8
DEFAULT_255_2_778
10
16.1575805
20
139.1609726
11
16.1575805
21
139.3215726
0
LINE
8
DEFAULT_255_2_778
10
16.1575805
20
139.3215726
11
15.1852805
21
139.3215726
0
LINE
8
DEFAULT_255_2_778
10
15.1852805
20
139.3215726
11
15.1852805
21
140.0446726
0
LINE
8
DEFAULT_255_2_778
10
15.1852805
20
140.0446726
11
16.1959805
21
140.0446726
0
LINE
8
DEFAULT_255_2_778
10
16.1959805
20
140.0446726
11
16.1959805
21
140.2052726
0
LINE
8
DEFAULT_255_2_778
10
16.1959805
20
140.2052726
11
15.0076805
21
140.2052726
0
LINE
8
DEFAULT_255_2_778
10
15.0076805
20
140.2052726
11
15.0076805
21
138.2052726
0
LINE
8
DEFAULT_255_2_778
10
15.0076805
20
138.2052726
11
16.2377805
21
138.2052726
0
LINE
8
DEFAULT_255_2_778
10
14.3948805
20
138.3195726
11
14.5451805
21
138.4841726
0
LINE
8
DEFAULT_255_2_778
10
14.5451805
20
138.4841726
11
14.6253805
21
138.6899726
0
LINE
8
DEFAULT_255_2_778
10
14.6253805
20
138.6899726
11
14.4287805
21
138.6899726
0
LINE
8
DEFAULT_255_2_778
10
14.4287805
20
138.6899726
11
14.3824805
21
138.5624726
0
LINE
8
DEFAULT_255_2_778
10
14.3824805
20
138.5624726
11
14.2983805
21
138.4550726
0
LINE
8
DEFAULT_255_2_778
10
14.2983805
20
138.4550726
11
14.1509805
21
138.3690726
0
LINE
8
DEFAULT_255_2_778
10
14.1509805
20
138.3690726
11
13.9689805
21
138.3380726
0
LINE
8
DEFAULT_255_2_778
10
13.4320805
20
138.6127726
11
13.3185805
21
138.8627726
0
LINE
8
DEFAULT_255_2_778
10
13.3185805
20
138.8627726
11
13.2733805
21
139.2188726
0
LINE
8
DEFAULT_255_2_778
10
13.2733805
20
139.2188726
11
13.3204805
21
139.5736726
0
LINE
8
DEFAULT_255_2_778
10
13.3204805
20
139.5736726
11
13.4397805
21
139.8253726
0
LINE
8
DEFAULT_255_2_778
10
13.9408805
20
140.0830726
11
14.1115805
21
140.0597726
0
LINE
8
DEFAULT_255_2_778
10
14.1115805
20
140.0597726
11
14.2594805
21
139.9943726
0
LINE
8
DEFAULT_255_2_778
10
14.4089805
20
139.7366726
11
14.6028805
21
139.7366726
0
LINE
8
DEFAULT_255_2_778
10
14.6028805
20
139.7366726
11
14.5697805
21
139.9004726
0
LINE
8
DEFAULT_255_2_778
10
14.5697805
20
139.9004726
11
14.4774805
21
140.0488726
0
LINE
8
DEFAULT_255_2_778
10
13.2706805
20
139.9139726
11
13.1299805
21
139.6046726
0
LINE
8
DEFAULT_255_2_778
10
13.1299805
20
139.6046726
11
13.0793805
21
139.2241726
0
LINE
8
DEFAULT_255_2_778
10
13.0793805
20
139.2241726
11
13.1315805
21
138.8172726
0
LINE
8
DEFAULT_255_2_778
10
13.1315805
20
138.8172726
11
13.2783805
21
138.4896726
0
LINE
8
DEFAULT_255_2_778
10
13.9189805
20
138.1769726
11
14.1797805
21
138.2145726
0
LINE
8
DEFAULT_255_2_778
10
14.1797805
20
138.2145726
11
14.3948805
21
138.3190726
0
LINE
8
DEFAULT_255_2_778
10
8.9579805
20
138.2052726
11
8.9579805
21
138.3658726
0
LINE
8
DEFAULT_255_2_778
10
8.9579805
20
138.3658726
11
7.9496805
21
138.3658726
0
LINE
8
DEFAULT_255_2_778
10
7.9496805
20
138.3658726
11
7.9496805
21
140.2052726
0
LINE
8
DEFAULT_255_2_778
10
7.9496805
20
140.2052726
11
7.7723805
21
140.2052726
0
LINE
8
DEFAULT_255_2_778
10
7.7723805
20
140.2052726
11
7.7723805
21
138.2052726
0
LINE
8
DEFAULT_255_2_778
10
7.7723805
20
138.2052726
11
8.9579805
21
138.2052726
0
LINE
8
DEFAULT_255_2_778
10
11.1600805
20
140.2052726
11
11.1600805
21
138.2052726
0
LINE
8
DEFAULT_255_2_778
10
11.1600805
20
138.2052726
11
11.3373805
21
138.2052726
0
LINE
8
DEFAULT_255_2_778
10
11.3373805
20
138.2052726
11
11.3373805
21
139.9144726
0
LINE
8
DEFAULT_255_2_778
10
11.3373805
20
139.9144726
11
12.4094805
21
138.2052726
0
LINE
8
DEFAULT_255_2_778
10
12.4094805
20
138.2052726
11
12.6227805
21
138.2052726
0
LINE
8
DEFAULT_255_2_778
10
12.6227805
20
138.2052726
11
12.6227805
21
140.2052726
0
LINE
8
DEFAULT_255_2_778
10
12.6227805
20
140.2052726
11
12.4454805
21
140.2052726
0
LINE
8
DEFAULT_255_2_778
10
12.4454805
20
140.2052726
11
12.4454805
21
138.4629726
0
LINE
8
DEFAULT_255_2_778
10
12.4454805
20
138.4629726
11
11.3595805
21
140.2052726
0
LINE
8
DEFAULT_255_2_778
10
11.3595805
20
140.2052726
11
11.1600805
21
140.2052726
0
LINE
8
DEFAULT_255_2_778
10
6.6836805
20
140.2052726
11
6.4703805
21
140.2052726
0
LINE
8
DEFAULT_255_2_778
10
6.4703805
20
140.2052726
11
5.6752805
21
138.2052726
0
LINE
8
DEFAULT_255_2_778
10
5.6752805
20
138.2052726
11
5.8636805
21
138.2052726
0
LINE
8
DEFAULT_255_2_778
10
5.8636805
20
138.2052726
11
6.0798805
21
138.7537726
0
LINE
8
DEFAULT_255_2_778
10
6.0798805
20
138.7537726
11
7.0714805
21
138.7537726
0
LINE
8
DEFAULT_255_2_778
10
7.0714805
20
138.7537726
11
7.2876805
21
138.2052726
0
LINE
8
DEFAULT_255_2_778
10
7.2876805
20
138.2052726
11
7.4815805
21
138.2052726
0
LINE
8
DEFAULT_255_2_778
10
7.4815805
20
138.2052726
11
6.6836805
21
140.2052726
0
LINE
8
DEFAULT_255_2_778
10
7.0048805
20
138.9032726
11
6.1351805
21
138.9032726
0
LINE
8
DEFAULT_255_2_778
10
6.1351805
20
138.9032726
11
6.5756805
21
140.0417726
0
LINE
8
DEFAULT_255_2_778
10
6.5756805
20
140.0417726
11
7.0048805
21
138.9032726
0
LINE
8
DEFAULT_255_2_778
10
10.8693805
20
138.2052726
11
10.0716805
21
140.2052726
0
LINE
8
DEFAULT_255_2_778
10
10.0716805
20
140.2052726
11
9.8583805
21
140.2052726
0
LINE
8
DEFAULT_255_2_778
10
9.8583805
20
140.2052726
11
9.0632805
21
138.2052726
0
LINE
8
DEFAULT_255_2_778
10
9.0632805
20
138.2052726
11
9.2516805
21
138.2052726
0
LINE
8
DEFAULT_255_2_778
10
9.2516805
20
138.2052726
11
9.4678805
21
138.7537726
0
LINE
8
DEFAULT_255_2_778
10
9.4678805
20
138.7537726
11
10.4594805
21
138.7537726
0
LINE
8
DEFAULT_255_2_778
10
10.4594805
20
138.7537726
11
10.6756805
21
138.2052726
0
LINE
8
DEFAULT_255_2_778
10
10.6756805
20
138.2052726
11
10.8693805
21
138.2052726
0
LINE
8
DEFAULT_255_2_778
10
9.9633805
20
140.0417726
11
10.3928805
21
138.9032726
0
LINE
8
DEFAULT_255_2_778
10
10.3928805
20
138.9032726
11
9.5231805
21
138.9032726
0
LINE
8
DEFAULT_255_2_778
10
9.5231805
20
138.9032726
11
9.9633805
21
140.0417726
0
LINE
8
DEFAULT_255_2_778
10
22.6554805
20
138.6542726
11
22.7279805
21
139.1693726
0
LINE
8
DEFAULT_255_2_778
10
22.7279805
20
139.1693726
11
22.6573805
21
139.6840726
0
LINE
8
DEFAULT_255_2_778
10
21.9066805
20
139.6850726
11
21.8360805
21
139.1693726
0
LINE
8
DEFAULT_255_2_778
10
21.8360805
20
139.1693726
11
21.9037805
21
138.6563726
0
LINE
8
DEFAULT_255_2_778
10
22.6557805
20
138.6542726
11
22.6554805
21
138.6542726
0
LINE
8
DEFAULT_255_2_778
10
21.6502805
20
139.1693726
11
21.6928805
21
138.7415726
0
LINE
8
DEFAULT_255_2_778
10
21.6928805
20
138.7415726
11
21.8122805
21
138.4288726
0
LINE
8
DEFAULT_255_2_778
10
22.8269805
20
138.5822726
11
22.9134805
21
139.1693726
0
LINE
8
DEFAULT_255_2_778
10
22.9134805
20
139.1693726
11
22.8700805
21
139.5932726
0
LINE
8
DEFAULT_255_2_778
10
22.8700805
20
139.5932726
11
22.7488805
21
139.9083726
0
LINE
8
DEFAULT_255_2_778
10
21.7354805
20
139.7596726
11
21.6502805
21
139.1693726
0
LINE
8
DEFAULT_255_2_778
10
24.2683805
20
139.1693726
11
24.1977805
21
139.6840726
0
LINE
8
DEFAULT_255_2_778
10
23.4470805
20
139.6850726
11
23.3764805
21
139.1693726
0
LINE
8
DEFAULT_255_2_778
10
23.3764805
20
139.1693726
11
23.4441805
21
138.6563726
0
LINE
8
DEFAULT_255_2_778
10
24.1961805
20
138.6542726
11
24.2683805
21
139.1693726
0
LINE
8
DEFAULT_255_2_778
10
23.2764805
20
139.7594726
11
23.1909805
21
139.1691726
0
LINE
8
DEFAULT_255_2_778
10
23.1909805
20
139.1691726
11
23.2335805
21
138.7413726
0
LINE
8
DEFAULT_255_2_778
10
23.2335805
20
138.7413726
11
23.3528805
21
138.4285726
0
LINE
8
DEFAULT_255_2_778
10
24.3675805
20
138.5820726
11
24.4540805
21
139.1691726
0
LINE
8
DEFAULT_255_2_778
10
24.4540805
20
139.1691726
11
24.4106805
21
139.5929726
0
LINE
8
DEFAULT_255_2_778
10
24.4106805
20
139.5929726
11
24.2895805
21
139.9081726
0
LINE
8
DEFAULT_255_2_778
10
23.2761805
20
139.7594726
11
23.2764805
21
139.7594726
0
LINE
8
DEFAULT_255_2_778
10
4.4801805
20
147.4008726
11
4.4801805
21
142.8389726
0
LINE
8
DEFAULT_255_2_778
10
4.4801805
20
142.8389726
11
21.7802805
21
142.8389726
0
LINE
8
DEFAULT_255_2_778
10
21.7802805
20
142.8389726
11
21.7802805
21
147.4008726
0
LINE
8
DEFAULT_255_2_778
10
21.7802805
20
147.4008726
11
4.4801805
21
147.4008726
0
LINE
8
DEFAULT_255_2_778
10
19.8479566
20
146.3131983
11
19.8473493
21
146.3131984
0
ARC
8
DEFAULT_255_2_778
10
19.8473741
20
145.0569247
40
1.2562737
50
90.0011315
51
118.1309008
0
ARC
8
DEFAULT_255_2_778
10
19.5319611
20
145.6440086
40
0.5898287
50
117.9996291
51
163.93827
0
ARC
8
DEFAULT_255_2_778
10
19.5313503
20
145.6437707
40
0.5893079
50
163.8996106
51
177.8645063
0
ARC
8
DEFAULT_255_2_778
10
19.5317807
20
145.6437539
40
0.5897386
50
177.8644395
51
179.9994328
0
ARC
8
DEFAULT_255_2_778
10
19.5311262
20
145.6436853
40
0.5890841
50
179.9927545
51
209.8815792
0
ARC
8
DEFAULT_255_2_778
10
19.6070753
20
145.6896453
40
0.6778371
50
210.0515973
51
241.7226393
0
ARC
8
DEFAULT_255_2_778
10
19.9402083
20
144.5758325
40
0.1454284
50
0.0241042
51
61.3852302
0
ARC
8
DEFAULT_255_2_778
10
19.9399101
20
144.5759056
40
0.1457267
50
352.7036915
51
359.9953191
0
ARC
8
DEFAULT_255_2_778
10
19.9399849
20
144.5759743
40
0.1456611
50
284.094521
51
352.673177
0
ARC
8
DEFAULT_255_2_778
10
19.7845998
20
145.2034437
40
0.7920833
50
269.983419
51
283.9429435
0
ARC
8
DEFAULT_255_2_778
10
19.784376
20
145.2100202
40
0.7986595
50
268.3340093
51
269.99961
0
ARC
8
DEFAULT_255_2_778
10
19.8421007
20
147.1149074
40
2.7044208
50
251.0409811
51
268.284865
0
ARC
8
DEFAULT_255_2_778
10
19.7119697
20
147.2827031
40
3.2831682
50
256.8215316
51
270.002253
0
ARC
8
DEFAULT_255_2_778
10
19.7120978
20
147.2857958
40
3.2862611
50
270.000017
51
271.4040042
0
ARC
8
DEFAULT_255_2_778
10
19.7120894
20
147.2860725
40
3.2865379
50
271.4040328
51
274.232639
0
ARC
8
DEFAULT_255_2_778
10
19.8707562
20
145.1495336
40
1.1441158
50
274.2053983
51
294.0573848
0
ARC
8
DEFAULT_255_2_778
10
20.0889512
20
144.6690618
40
0.6164408
50
293.7434921
51
357.8465322
0
ARC
8
DEFAULT_255_2_778
10
20.0865584
20
144.6689796
40
0.6188288
50
357.862459
51
359.999666
0
ARC
8
DEFAULT_255_2_778
10
20.0886453
20
144.6688504
40
0.6167418
50
0.0116698
51
61.9401522
0
ARC
8
DEFAULT_255_2_778
10
19.6894168
20
145.7487812
40
0.1454607
50
180.1508482
51
241.7899289
0
ARC
8
DEFAULT_255_2_778
10
19.6884852
20
145.7484745
40
0.1445285
50
117.9894103
51
180.0302161
0
ARC
8
DEFAULT_255_2_778
10
19.8794942
20
145.3944906
40
0.5467566
50
90.0397152
51
118.2555795
0
ARC
8
DEFAULT_255_2_778
10
19.8791067
20
145.3973182
40
0.5439289
50
88.2669545
51
89.9991093
0
ARC
8
DEFAULT_255_2_778
10
19.8146709
20
143.2328829
40
2.709323
50
74.5339988
51
88.2892035
0
ARC
8
DEFAULT_255_2_778
10
19.8477639
20
143.034949
40
3.2785492
50
77.861606
51
89.9966311
0
LINE
8
DEFAULT_255_2_778
10
6.4613566
20
146.3131983
11
6.4607496
21
146.3131984
0
ARC
8
DEFAULT_255_2_778
10
6.4608481
20
145.0566291
40
1.2565693
50
90.0044901
51
118.1275206
0
ARC
8
DEFAULT_255_2_778
10
6.1453615
20
145.6440079
40
0.5898296
50
117.9996332
51
163.9382147
0
ARC
8
DEFAULT_255_2_778
10
6.1442432
20
145.6439319
40
0.588776
50
163.9010012
51
177.8782782
0
ARC
8
DEFAULT_255_2_778
10
6.144831
20
145.6438845
40
0.5893653
50
177.8757888
51
179.9999775
0
ARC
8
DEFAULT_255_2_778
10
6.1454257
20
145.6438773
40
0.5899598
50
179.9992718
51
209.8542211
0
ARC
8
DEFAULT_255_2_778
10
6.2201487
20
145.6891707
40
0.6773167
50
210.0306876
51
245.2847593
0
ARC
8
DEFAULT_255_2_778
10
6.5556705
20
144.6304092
40
0.1440867
50
359.8366028
51
62.7443678
0
ARC
8
DEFAULT_255_2_778
10
6.5550707
20
144.6298518
40
0.144686
50
297.4006789
51
0.0579988
0
ARC
8
DEFAULT_255_2_778
10
6.2553542
20
145.202048
40
0.7906248
50
269.9895495
51
297.6007459
0
ARC
8
DEFAULT_255_2_778
10
6.2552183
20
145.2047035
40
0.7932803
50
266.7508395
51
269.999399
0
ARC
8
DEFAULT_255_2_778
10
6.3641548
20
147.1185184
40
2.7101932
50
253.112395
51
266.744712
0
ARC
8
DEFAULT_255_2_778
10
6.3253056
20
147.2821479
40
3.2826131
50
256.8204117
51
270.0018856
0
ARC
8
DEFAULT_255_2_778
10
6.3254101
20
147.2855605
40
3.2860258
50
270.0000625
51
271.5062238
0
ARC
8
DEFAULT_255_2_778
10
6.3253831
20
147.2861761
40
3.2866418
50
271.5064109
51
274.2326145
0
ARC
8
DEFAULT_255_2_778
10
6.4841871
20
145.1494976
40
1.1440703
50
274.1989908
51
294.056706
0
ARC
8
DEFAULT_255_2_778
10
6.7023512
20
144.6690618
40
0.6164408
50
293.7434921
51
357.8465322
0
ARC
8
DEFAULT_255_2_778
10
6.6999584
20
144.6689796
40
0.6188288
50
357.862459
51
359.999666
0
ARC
8
DEFAULT_255_2_778
10
6.7020453
20
144.6688504
40
0.6167418
50
0.0116698
51
61.9401522
0
ARC
8
DEFAULT_255_2_778
10
6.3028166
20
145.748781
40
0.1454605
50
180.150778
51
241.7899548
0
ARC
8
DEFAULT_255_2_778
10
6.3018854
20
145.7484744
40
0.1445288
50
117.9894988
51
180.0301835
0
ARC
8
DEFAULT_255_2_778
10
6.4928857
20
145.3945239
40
0.5467233
50
90.0373288
51
118.2564482
0
ARC
8
DEFAULT_255_2_778
10
6.4925223
20
145.398347
40
0.5429
50
88.2653148
51
89.9992393
0
ARC
8
DEFAULT_255_2_778
10
6.427943
20
143.23129
40
2.710919
50
74.5383333
51
88.2875059
0
ARC
8
DEFAULT_255_2_778
10
6.4610894
20
143.0333085
40
3.2801898
50
77.864652
51
89.9953317
0
LINE
8
DEFAULT_255_2_778
10
16.9396566
20
144.0155983
11
16.9396566
21
145.4847983
0
LINE
8
DEFAULT_255_2_778
10
16.9396566
20
145.4847983
11
17.8402566
21
144.0155983
0
LINE
8
DEFAULT_255_2_778
10
17.8402566
20
144.0155983
11
18.5565566
21
144.0155983
0
LINE
8
DEFAULT_255_2_778
10
18.5565566
20
144.0155983
11
18.5565566
21
146.2756983
0
LINE
8
DEFAULT_255_2_778
10
18.5565566
20
146.2756983
11
18.1061566
21
146.2756983
0
LINE
8
DEFAULT_255_2_778
10
18.1061566
20
146.2756983
11
18.1061566
21
144.8442983
0
LINE
8
DEFAULT_255_2_778
10
18.1061566
20
144.8442983
11
17.2055566
21
146.2756983
0
LINE
8
DEFAULT_255_2_778
10
17.2055566
20
146.2756983
11
16.4893566
21
146.2756983
0
LINE
8
DEFAULT_255_2_778
10
16.4893566
20
146.2756983
11
16.4893566
21
144.0155983
0
LINE
8
DEFAULT_255_2_778
10
16.4893566
20
144.0155983
11
16.9396566
21
144.0155983
0
LINE
8
DEFAULT_255_2_778
10
16.1093566
20
144.0155983
11
16.1093566
21
144.4298983
0
LINE
8
DEFAULT_255_2_778
10
16.1093566
20
144.4298983
11
15.0566566
21
144.4298983
0
LINE
8
DEFAULT_255_2_778
10
15.0566566
20
144.4298983
11
15.0566566
21
145.0111983
0
LINE
8
DEFAULT_255_2_778
10
15.0566566
20
145.0111983
11
15.9628566
21
145.0111983
0
LINE
8
DEFAULT_255_2_778
10
15.9628566
20
145.0111983
11
15.9628566
21
145.3501983
0
LINE
8
DEFAULT_255_2_778
10
15.9628566
20
145.3501983
11
15.0566566
21
145.3501983
0
LINE
8
DEFAULT_255_2_778
10
15.0566566
20
145.3501983
11
15.0566566
21
145.8991983
0
LINE
8
DEFAULT_255_2_778
10
15.0566566
20
145.8991983
11
16.1093566
21
145.8991983
0
LINE
8
DEFAULT_255_2_778
10
16.1093566
20
145.8991983
11
16.1093566
21
146.2758983
0
LINE
8
DEFAULT_255_2_778
10
16.1093566
20
146.2758983
11
14.4163566
21
146.2758983
0
LINE
8
DEFAULT_255_2_778
10
14.4163566
20
146.2758983
11
14.4163566
21
144.0158983
0
LINE
8
DEFAULT_255_2_778
10
14.4163566
20
144.0158983
11
16.1093566
21
144.0158983
0
LINE
8
DEFAULT_255_2_778
10
19.2859566
20
145.0926983
11
20.0098566
21
144.7034983
0
LINE
8
DEFAULT_255_2_778
10
18.9634566
20
144.5571983
11
18.9634566
21
144.0859983
0
LINE
8
DEFAULT_255_2_778
10
20.3787566
20
145.2130983
11
19.6206566
21
145.6205983
0
LINE
8
DEFAULT_255_2_778
10
20.5371566
20
145.8440983
11
20.5371566
21
146.2401983
0
LINE
8
DEFAULT_255_2_778
10
11.5241566
20
144.0155983
11
11.5241566
21
145.4469983
0
LINE
8
DEFAULT_255_2_778
10
11.5241566
20
145.4469983
11
12.2242566
21
144.0155983
0
LINE
8
DEFAULT_255_2_778
10
12.2242566
20
144.0155983
11
12.6367566
21
144.0155983
0
LINE
8
DEFAULT_255_2_778
10
12.6367566
20
144.0155983
11
13.2553566
21
145.4400983
0
LINE
8
DEFAULT_255_2_778
10
13.2553566
20
145.4400983
11
13.2553566
21
144.0155983
0
LINE
8
DEFAULT_255_2_778
10
13.2553566
20
144.0155983
11
13.8956566
21
144.0155983
0
LINE
8
DEFAULT_255_2_778
10
13.8956566
20
144.0155983
11
13.8956566
21
146.2756983
0
LINE
8
DEFAULT_255_2_778
10
13.8956566
20
146.2756983
11
13.1412566
21
146.2756983
0
LINE
8
DEFAULT_255_2_778
10
13.1412566
20
146.2756983
11
12.5391566
21
144.8886983
0
LINE
8
DEFAULT_255_2_778
10
12.5391566
20
144.8886983
11
11.8607566
21
146.2756983
0
LINE
8
DEFAULT_255_2_778
10
11.8607566
20
146.2756983
11
11.0738566
21
146.2756983
0
LINE
8
DEFAULT_255_2_778
10
11.0738566
20
146.2756983
11
11.0738566
21
144.0155983
0
LINE
8
DEFAULT_255_2_778
10
11.0738566
20
144.0155983
11
11.5241566
21
144.0155983
0
LINE
8
DEFAULT_255_2_778
10
8.4801566
20
144.0314983
11
8.4801566
21
146.2647983
0
LINE
8
DEFAULT_255_2_778
10
8.4801566
20
146.2647983
11
7.8398566
21
146.2647983
0
LINE
8
DEFAULT_255_2_778
10
7.8398566
20
146.2647983
11
7.8398566
21
144.0314983
0
LINE
8
DEFAULT_255_2_778
10
7.8398566
20
144.0314983
11
8.4801566
21
144.0314983
0
LINE
8
DEFAULT_255_2_778
10
9.0010566
20
146.2756983
11
9.0010566
21
144.0155983
0
LINE
8
DEFAULT_255_2_778
10
9.0010566
20
144.0155983
11
10.6941566
21
144.0155983
0
LINE
8
DEFAULT_255_2_778
10
10.6941566
20
144.0155983
11
10.6941566
21
144.4298983
0
LINE
8
DEFAULT_255_2_778
10
10.6941566
20
144.4298983
11
9.6414566
21
144.4298983
0
LINE
8
DEFAULT_255_2_778
10
9.6414566
20
144.4298983
11
9.6414566
21
145.0111983
0
LINE
8
DEFAULT_255_2_778
10
9.6414566
20
145.0111983
11
10.5475566
21
145.0111983
0
LINE
8
DEFAULT_255_2_778
10
10.5475566
20
145.0111983
11
10.5475566
21
145.3501983
0
LINE
8
DEFAULT_255_2_778
10
10.5475566
20
145.3501983
11
9.6414566
21
145.3501983
0
LINE
8
DEFAULT_255_2_778
10
9.6414566
20
145.3501983
11
9.6414566
21
145.8991983
0
LINE
8
DEFAULT_255_2_778
10
9.6414566
20
145.8991983
11
10.6941566
21
145.8991983
0
LINE
8
DEFAULT_255_2_778
10
10.6941566
20
145.8991983
11
10.6941566
21
146.2758983
0
LINE
8
DEFAULT_255_2_778
10
10.6941566
20
146.2758983
11
9.0010566
21
146.2758983
0
LINE
8
DEFAULT_255_2_778
10
5.9369566
20
145.0738983
11
6.6216566
21
144.7584983
0
LINE
8
DEFAULT_255_2_778
10
5.5768566
20
144.5251983
11
5.5768566
21
144.0859983
0
LINE
8
DEFAULT_255_2_778
10
6.9921566
20
145.2130983
11
6.2340566
21
145.6205983
0
LINE
8
DEFAULT_255_2_778
10
7.1506566
20
145.8440983
11
7.1506566
21
146.2401983
0
ENDSEC
0
EOF