0
SECTION
2
HEADER
9
$MEASUREMENT
70
1
0
ENDSEC
0
SECTION
2
TABLES
0
TABLE
2
LTYPE
0
LTYPE
72
65
70
64
2
CONTINUOUS
3
______
73
0
40
0
0
ENDTAB
0
TABLE
2
LAYER
0
LAYER
2
DEFAULT_255_2_778
70
0
62
255
6
CONTINUOUS
0
LAYER
2
DEFAULT_255_1_388
70
0
62
255
6
CONTINUOUS
0
ENDTAB
0
ENDSEC
0
SECTION
2
ENTITIES
0
ARC
8
DEFAULT_255_2_778
10
3.5695693
20
28.1802037
40
0.7914215
50
129.1312896
51
180.1450914
0
ARC
8
DEFAULT_255_2_778
10
3.5698345
20
28.1806908
40
0.7912112
50
89.854026
51
129.1684493
0
ARC
8
DEFAULT_255_2_778
10
25.7988937
20
28.1803773
40
0.7915249
50
39.4792447
51
90.147911
0
ARC
8
DEFAULT_255_2_778
10
25.7994935
20
28.180224
40
0.7911595
50
359.8533901
51
39.5154338
0
ARC
8
DEFAULT_255_2_778
10
25.7991693
20
-1.9863486
40
0.7914836
50
309.4761667
51
0.1482649
0
ARC
8
DEFAULT_255_2_778
10
25.798898
20
-1.9867797
40
0.7913235
50
269.8517415
51
309.511178
0
ARC
8
DEFAULT_255_2_778
10
3.569842
20
-1.9867215
40
0.7913815
50
219.1282118
51
270.1454017
0
ARC
8
DEFAULT_255_2_778
10
3.5695247
20
-1.986339
40
0.7913769
50
179.8524075
51
219.1641908
0
LINE
8
DEFAULT_255_2_778
10
3.5718503
20
28.9718996
11
25.7968503
21
28.9718996
0
LINE
8
DEFAULT_255_2_778
10
26.5906503
20
28.1781996
11
26.5906503
21
-1.9843004
0
LINE
8
DEFAULT_255_2_778
10
25.7968503
20
-2.7781004
11
3.5718503
21
-2.7781004
0
LINE
8
DEFAULT_255_2_778
10
2.7781503
20
-1.9843004
11
2.7781503
21
28.1781996
0
LINE
8
DEFAULT_255_1_388
10
5.7240015
20
0.6766934
11
5.7538191
21
0.6766934
0
LINE
8
DEFAULT_255_1_388
10
5.7538191
20
0.6766934
11
5.7538191
21
0.5348338
0
LINE
8
DEFAULT_255_1_388
10
5.7538191
20
0.5348338
11
5.7230979
21
0.5348338
0
LINE
8
DEFAULT_255_1_388
10
5.1077705
20
-0.1392253
11
5.1077705
21
-0.0750722
0
LINE
8
DEFAULT_255_1_388
10
5.2758335
20
-0.0967578
11
5.2758335
21
-0.1582001
0
ARC
8
DEFAULT_255_1_388
10
5.7289871
20
-0.0274174
40
0.562282
50
90.6001079
51
104.5146616
0
ARC
8
DEFAULT_255_1_388
10
5.685283
20
0.13511
40
0.3939917
50
104.2855758
51
133.8630124
0
ARC
8
DEFAULT_255_1_388
10
5.7037083
20
0.1229243
40
0.4155734
50
134.5304124
51
161.6210222
0
ARC
8
DEFAULT_255_1_388
10
5.8897015
20
0.0573421
40
0.6127682
50
161.2850533
51
174.2074364
0
ARC
8
DEFAULT_255_1_388
10
6.0486582
20
0.0354437
40
0.7731446
50
173.7817938
51
174.9251711
0
ARC
8
DEFAULT_255_1_388
10
5.5360775
20
-0.120073
40
0.3412588
50
95.8332067
51
138.995412
0
ARC
8
DEFAULT_255_1_388
10
5.5612056
20
-0.2639305
40
0.4870358
50
89.8755506
51
97.0540979
0
ARC
8
DEFAULT_255_1_388
10
5.5665445
20
-0.1699159
40
0.3930432
50
71.6407016
51
90.6240821
0
ARC
8
DEFAULT_255_1_388
10
5.5834838
20
-0.1075567
40
0.3285421
50
39.6368051
51
71.0190743
0
ARC
8
DEFAULT_255_1_388
10
5.5118746
20
-0.1694414
40
0.4231706
50
10.6588054
51
39.9044509
0
ARC
8
DEFAULT_255_1_388
10
5.3377291
20
-0.2072777
40
0.60133
50
359.6827842
51
11.1326896
0
ARC
8
DEFAULT_255_1_388
10
5.3332627
20
-0.2152285
40
0.6058047
50
347.2485908
51
0.4371098
0
ARC
8
DEFAULT_255_1_388
10
5.5208413
20
-0.2603621
40
0.4128987
50
318.1408565
51
347.6118497
0
ARC
8
DEFAULT_255_1_388
10
5.5574009
20
-0.2904097
40
0.3656244
50
275.6342406
51
317.824739
0
ARC
8
DEFAULT_255_1_388
10
5.532553
20
-0.1442173
40
0.513655
50
269.8872513
51
276.7916069
0
ARC
8
DEFAULT_255_1_388
10
5.5263723
20
-0.2595819
40
0.398323
50
246.9139443
51
270.7436787
0
ARC
8
DEFAULT_255_1_388
10
5.5270919
20
-0.2755956
40
0.3839368
50
218.1665534
51
245.8780431
0
ARC
8
DEFAULT_255_1_388
10
5.6260291
20
-0.1928097
40
0.5128958
50
191.4115343
51
218.6077624
0
ARC
8
DEFAULT_255_1_388
10
5.8440607
20
-0.1439223
40
0.7363054
50
179.6344971
51
191.7836758
0
ARC
8
DEFAULT_255_1_388
10
6.4720482
20
-0.0675505
40
1.3642984
50
171.4523743
51
180.3158856
0
ARC
8
DEFAULT_255_1_388
10
5.9776209
20
0.0093895
40
0.8639311
50
157.9802296
51
171.6246761
0
ARC
8
DEFAULT_255_1_388
10
5.7285559
20
0.1087038
40
0.5958004
50
141.4299236
51
157.8541251
0
ARC
8
DEFAULT_255_1_388
10
5.6563643
20
0.1597746
40
0.5075416
50
102.871586
51
140.8564533
0
ARC
8
DEFAULT_255_1_388
10
5.7292195
20
-0.1147057
40
0.7914163
50
90.377773
51
103.5868422
0
ARC
8
DEFAULT_255_1_388
10
5.5336717
20
-0.1827457
40
0.2667015
50
89.8751238
51
126.2072139
0
ARC
8
DEFAULT_255_1_388
10
5.5388188
20
-0.2001153
40
0.2838229
50
124.9742447
51
144.8960197
0
ARC
8
DEFAULT_255_1_388
10
5.5190433
20
-0.1840019
40
0.2583845
50
145.2974778
51
160.2660922
0
ARC
8
DEFAULT_255_1_388
10
5.8646921
20
-0.1617849
40
0.5888695
50
179.6512124
51
190.285571
0
ARC
8
DEFAULT_255_1_388
10
5.6741401
20
-0.1977032
40
0.3949683
50
190.0944895
51
207.5099647
0
ARC
8
DEFAULT_255_1_388
10
5.6104982
20
-0.2279823
40
0.3245464
50
207.9585471
51
216.325377
0
ARC
8
DEFAULT_255_1_388
10
5.5722619
20
-0.2594288
40
0.2751259
50
215.7661336
51
232.5457193
0
ARC
8
DEFAULT_255_1_388
10
5.5291735
20
-0.3141727
40
0.2054668
50
232.8005815
51
270.6605497
0
ARC
8
DEFAULT_255_1_388
10
5.534316
20
-0.2732147
40
0.2464268
50
269.3550767
51
288.474612
0
ARC
8
DEFAULT_255_1_388
10
5.5447667
20
-0.3125279
40
0.2058436
50
289.1831976
51
322.9685307
0
ARC
8
DEFAULT_255_1_388
10
5.4759768
20
-0.2582721
40
0.2934408
50
322.6007085
51
346.5183319
0
ARC
8
DEFAULT_255_1_388
10
5.3457524
20
-0.2250566
40
0.4278249
50
346.2584622
51
358.7739592
0
ARC
8
DEFAULT_255_1_388
10
5.23061
20
-0.2188171
40
0.5430876
50
358.3757628
51
0.0082477
0
ARC
8
DEFAULT_255_1_388
10
5.3162918
20
-0.2157144
40
0.4574157
50
359.6211417
51
11.28403
0
ARC
8
DEFAULT_255_1_388
10
5.4599524
20
-0.1857465
40
0.3106708
50
11.0483152
51
31.8145585
0
ARC
8
DEFAULT_255_1_388
10
5.4947229
20
-0.1668955
40
0.2711963
50
32.3028554
51
38.0820598
0
ARC
8
DEFAULT_255_1_388
10
5.5420462
20
-0.1240283
40
0.2075566
50
36.8249851
51
85.741667
0
ARC
8
DEFAULT_255_1_388
10
5.5344875
20
-0.1803935
40
0.2643487
50
85.0150021
51
90.050843
0
LINE
8
DEFAULT_255_1_388
10
6.9239351
20
0.1101585
11
6.9239351
21
-0.0317011
0
LINE
8
DEFAULT_255_1_388
10
6.9239351
20
-0.0317011
11
6.3537859
21
-0.0317011
0
LINE
8
DEFAULT_255_1_388
10
6.3537859
20
-0.0317011
11
6.3537859
21
-0.4979404
0
LINE
8
DEFAULT_255_1_388
10
6.3537859
20
-0.4979404
11
7.0160986
21
-0.4979404
0
LINE
8
DEFAULT_255_1_388
10
7.0160986
20
-0.4979404
11
7.0160986
21
-0.6398
0
LINE
8
DEFAULT_255_1_388
10
7.0160986
20
-0.6398
11
6.1803015
21
-0.6398
0
LINE
8
DEFAULT_255_1_388
10
6.1803015
20
-0.6398
11
6.1803015
21
0.6757898
0
LINE
8
DEFAULT_255_1_388
10
6.1803015
20
0.6757898
11
7.007063
21
0.6757898
0
LINE
8
DEFAULT_255_1_388
10
7.007063
20
0.6757898
11
7.007063
21
0.5330267
0
LINE
8
DEFAULT_255_1_388
10
7.007063
20
0.5330267
11
6.3537859
21
0.5330267
0
LINE
8
DEFAULT_255_1_388
10
6.3537859
20
0.5330267
11
6.3537859
21
0.1101585
0
LINE
8
DEFAULT_255_1_388
10
6.3537859
20
0.1101585
11
6.9239351
21
0.1101585
0
LINE
8
DEFAULT_255_1_388
10
8.1048938
20
0.2953892
11
7.9305059
21
0.2953892
0
LINE
8
DEFAULT_255_1_388
10
7.1516333
20
-0.2584958
11
7.3260212
21
-0.2584958
0
ARC
8
DEFAULT_255_1_388
10
8.0045786
20
1.3017821
40
1.4087688
50
248.9196578
51
254.1442424
0
ARC
8
DEFAULT_255_1_388
10
7.8155666
20
0.8151805
40
0.8867498
50
241.6337352
51
249.0064643
0
ARC
8
DEFAULT_255_1_388
10
7.6435979
20
0.5000764
40
0.5277799
50
230.4982261
51
241.8087583
0
ARC
8
DEFAULT_255_1_388
10
7.555375
20
0.3876686
40
0.3849419
50
227.4062979
51
229.9877433
0
ARC
8
DEFAULT_255_1_388
10
7.5005097
20
0.3341155
40
0.3084129
50
200.6782127
51
228.1765252
0
ARC
8
DEFAULT_255_1_388
10
7.5086466
20
0.3324277
40
0.315461
50
179.506278
51
199.8695278
0
ARC
8
DEFAULT_255_1_388
10
7.5076054
20
0.3407671
40
0.3144584
50
132.4834401
51
181.0242352
0
ARC
8
DEFAULT_255_1_388
10
7.5745259
20
0.2775788
40
0.4063094
50
129.2526113
51
133.4249077
0
ARC
8
DEFAULT_255_1_388
10
7.5910851
20
0.2527619
40
0.436014
50
101.9878945
51
128.8741833
0
ARC
8
DEFAULT_255_1_388
10
7.6359267
20
0.059136
40
0.6347415
50
89.5906376
51
102.3170567
0
ARC
8
DEFAULT_255_1_388
10
7.6438578
20
0.0949586
40
0.5989122
50
77.2359491
51
90.3248968
0
ARC
8
DEFAULT_255_1_388
10
7.6671509
20
0.2037554
40
0.4876594
50
63.8379856
51
77.0808925
0
ARC
8
DEFAULT_255_1_388
10
7.6984043
20
0.2619882
40
0.4216191
50
45.9863127
51
64.1608798
0
ARC
8
DEFAULT_255_1_388
10
7.7277436
20
0.295499
40
0.3771394
50
32.2747934
51
45.6544796
0
ARC
8
DEFAULT_255_1_388
10
7.7352243
20
0.2976426
40
0.3696765
50
359.6507495
51
32.6129943
0
ARC
8
DEFAULT_255_1_388
10
7.6291425
20
0.2981788
40
0.3013762
50
359.469654
51
14.983205
0
ARC
8
DEFAULT_255_1_388
10
7.7084678
20
0.3194288
40
0.2192542
50
14.9781954
51
48.2004799
0
ARC
8
DEFAULT_255_1_388
10
7.6899788
20
0.2961937
40
0.2489048
50
48.5926661
51
74.1242559
0
ARC
8
DEFAULT_255_1_388
10
7.6524591
20
0.1723607
40
0.3782845
50
73.7889321
51
86.6653996
0
ARC
8
DEFAULT_255_1_388
10
7.6409405
20
0.0365955
40
0.5145025
50
86.2642725
51
90.0533288
0
ARC
8
DEFAULT_255_1_388
10
7.6377498
20
0.0810376
40
0.4700681
50
89.669455
51
99.2313411
0
ARC
8
DEFAULT_255_1_388
10
7.6104658
20
0.2435401
40
0.3052945
50
99.0695987
51
113.7659242
0
ARC
8
DEFAULT_255_1_388
10
7.5796652
20
0.3161772
40
0.226407
50
114.0402885
51
127.9848946
0
ARC
8
DEFAULT_255_1_388
10
7.5526129
20
0.3494884
40
0.1835045
50
127.7287217
51
176.7106493
0
ARC
8
DEFAULT_255_1_388
10
7.6289794
20
0.338121
40
0.2604907
50
175.1780759
51
180.0581213
0
ARC
8
DEFAULT_255_1_388
10
7.5341137
20
0.3367411
40
0.1656287
50
179.6140658
51
228.124674
0
ARC
8
DEFAULT_255_1_388
10
7.5838495
20
0.382794
40
0.2332038
50
226.5785315
51
230.8792476
0
ARC
8
DEFAULT_255_1_388
10
7.6367981
20
0.4530908
40
0.3211664
50
231.4636401
51
241.9261664
0
ARC
8
DEFAULT_255_1_388
10
7.7714765
20
0.7009349
40
0.6032345
50
241.7177136
51
248.3259138
0
ARC
8
DEFAULT_255_1_388
10
7.9273359
20
1.0870771
40
1.0196417
50
248.2007377
51
252.4527713
0
ARC
8
DEFAULT_255_1_388
10
8.0626886
20
1.5055092
40
1.4594143
50
252.3388938
51
254.347037
0
ARC
8
DEFAULT_255_1_388
10
7.2142187
20
-1.5292905
40
1.6917621
50
71.0197462
51
74.4085467
0
ARC
8
DEFAULT_255_1_388
10
7.4049275
20
-0.9787856
40
1.1091618
50
66.1845203
51
71.086519
0
ARC
8
DEFAULT_255_1_388
10
7.5799823
20
-0.5846561
40
0.6779073
50
59.3537334
51
66.269255
0
ARC
8
DEFAULT_255_1_388
10
7.6799549
20
-0.4155223
40
0.4814366
50
49.1021732
51
59.3294421
0
ARC
8
DEFAULT_255_1_388
10
7.7720538
20
-0.3105425
40
0.3417875
50
32.7924183
51
49.2503526
0
ARC
8
DEFAULT_255_1_388
10
7.8070152
20
-0.2855689
40
0.2988789
50
31.121225
51
32.3977355
0
ARC
8
DEFAULT_255_1_388
10
7.798233
20
-0.2888272
40
0.3080861
50
8.1116803
51
30.7958224
0
ARC
8
DEFAULT_255_1_388
10
7.7070675
20
-0.3043563
40
0.4005385
50
359.8390945
51
8.4707348
0
ARC
8
DEFAULT_255_1_388
10
7.7774723
20
-0.3098249
40
0.3301608
50
337.4732479
51
0.7538283
0
ARC
8
DEFAULT_255_1_388
10
7.7975748
20
-0.3120446
40
0.3107929
50
307.5917028
51
336.4313755
0
ARC
8
DEFAULT_255_1_388
10
7.7464806
20
-0.2552491
40
0.3870096
50
307.6560665
51
308.4561779
0
ARC
8
DEFAULT_255_1_388
10
7.7199022
20
-0.2144168
40
0.435591
50
284.3733666
51
307.1426212
0
ARC
8
DEFAULT_255_1_388
10
7.6641917
20
-0.0094609
40
0.6479685
50
272.4384566
51
284.6464689
0
ARC
8
DEFAULT_255_1_388
10
7.6499302
20
0.1929434
40
0.8508149
50
269.9708517
51
272.8180721
0
ARC
8
DEFAULT_255_1_388
10
7.6450984
20
-0.0362717
40
0.6216151
50
248.2707343
51
270.4054609
0
ARC
8
DEFAULT_255_1_388
10
7.6389856
20
-0.0577327
40
0.5994203
50
246.1380358
51
248.054058
0
ARC
8
DEFAULT_255_1_388
10
7.5918998
20
-0.1566295
40
0.4899388
50
233.1671897
51
246.4951656
0
ARC
8
DEFAULT_255_1_388
10
7.5295633
20
-0.2407863
40
0.3852115
50
215.3403381
51
233.084328
0
ARC
8
DEFAULT_255_1_388
10
7.4988997
20
-0.2630907
40
0.3472969
50
179.2419235
51
215.2648426
0
ARC
8
DEFAULT_255_1_388
10
7.5852548
20
-0.2615021
40
0.259251
50
179.3355796
51
199.1045873
0
ARC
8
DEFAULT_255_1_388
10
7.547869
20
-0.2712777
40
0.2207454
50
199.8830064
51
232.7061328
0
ARC
8
DEFAULT_255_1_388
10
7.6009965
20
-0.2044544
40
0.306101
50
232.3736206
51
255.5136621
0
ARC
8
DEFAULT_255_1_388
10
7.639347
20
-0.0644823
40
0.4512213
50
255.2447928
51
267.5318292
0
ARC
8
DEFAULT_255_1_388
10
7.6491937
20
0.0741709
40
0.5901825
50
267.1564563
51
270.0294721
0
ARC
8
DEFAULT_255_1_388
10
7.6523263
20
0.0242623
40
0.5402814
50
269.6999944
51
278.1662446
0
ARC
8
DEFAULT_255_1_388
10
7.681129
20
-0.1704026
40
0.3435003
50
278.0229022
51
290.6255326
0
ARC
8
DEFAULT_255_1_388
10
7.7202457
20
-0.2747453
40
0.2320666
50
290.6616368
51
307.0374127
0
ARC
8
DEFAULT_255_1_388
10
7.7540357
20
-0.316196
40
0.1786372
50
306.3942078
51
355.303191
0
ARC
8
DEFAULT_255_1_388
10
7.696465
20
-0.3075814
40
0.2367516
50
354.3662092
51
0.0709489
0
ARC
8
DEFAULT_255_1_388
10
7.7124518
20
-0.3050439
40
0.2207761
50
359.4175379
51
16.1975911
0
ARC
8
DEFAULT_255_1_388
10
7.7636636
20
-0.2910046
40
0.1676828
50
16.4721294
51
52.6261798
0
ARC
8
DEFAULT_255_1_388
10
7.6713144
20
-0.4129394
40
0.3206412
50
52.7381828
51
62.4979144
0
ARC
8
DEFAULT_255_1_388
10
7.5154896
20
-0.7061764
40
0.6527035
50
62.2517425
51
68.1219454
0
ARC
8
DEFAULT_255_1_388
10
7.3220384
20
-1.1816049
40
1.1659797
50
68.006043
51
71.8055127
0
ARC
8
DEFAULT_255_1_388
10
7.1200292
20
-1.7874277
40
1.8045908
50
71.718361
51
73.9260743
0
LINE
8
DEFAULT_255_1_388
10
9.1358608
20
0.6757898
11
9.1358608
21
0.5818191
0
LINE
8
DEFAULT_255_1_388
10
9.1358608
20
0.5818191
11
8.5910115
21
-0.6398
0
LINE
8
DEFAULT_255_1_388
10
8.5910115
20
-0.6398
11
8.41572
21
-0.6398
0
LINE
8
DEFAULT_255_1_388
10
8.41572
20
-0.6398
11
8.9587622
21
0.538448
0
LINE
8
DEFAULT_255_1_388
10
8.9587622
20
0.538448
11
8.2467534
21
0.538448
0
LINE
8
DEFAULT_255_1_388
10
8.2467534
20
0.538448
11
8.2467534
21
0.6757898
0
LINE
8
DEFAULT_255_1_388
10
8.2467534
20
0.6757898
11
9.1358608
21
0.6757898
0
LINE
8
DEFAULT_255_1_388
10
9.5686682
20
-0.0371225
11
9.5686682
21
0.0993157
0
LINE
8
DEFAULT_255_1_388
10
9.5686682
20
0.0993157
11
9.6942637
21
0.0993157
0
LINE
8
DEFAULT_255_1_388
10
9.4801189
20
0.3306282
11
9.3129595
21
0.3306282
0
LINE
8
DEFAULT_255_1_388
10
9.3012131
20
-0.2928313
11
9.4692761
21
-0.2928313
0
LINE
8
DEFAULT_255_1_388
10
9.6942637
20
-0.0371225
11
9.5686682
21
-0.0371225
0
ARC
8
DEFAULT_255_1_388
10
9.6909863
20
0.4809922
40
0.3816905
50
270.491971
51
281.8953028
0
ARC
8
DEFAULT_255_1_388
10
9.718129
20
0.3570199
40
0.2547877
50
281.6690378
51
301.2943765
0
ARC
8
DEFAULT_255_1_388
10
9.7372741
20
0.3219926
40
0.2149197
50
301.7834992
51
311.754567
0
ARC
8
DEFAULT_255_1_388
10
9.7475783
20
0.310565
40
0.1995326
50
311.7325027
51
354.2803031
0
ARC
8
DEFAULT_255_1_388
10
9.6658199
20
0.324628
40
0.2823461
50
353.0941646
51
0.1174696
0
ARC
8
DEFAULT_255_1_388
10
9.6139757
20
0.3299874
40
0.3342238
50
359.1804452
51
15.0452323
0
ARC
8
DEFAULT_255_1_388
10
9.7653815
20
0.3741546
40
0.1765747
50
13.957816
51
77.6713812
0
ARC
8
DEFAULT_255_1_388
10
9.7219051
20
0.2183464
40
0.3381982
50
76.111571
51
90.7028736
0
ARC
8
DEFAULT_255_1_388
10
9.7152463
20
0.249125
40
0.3074046
50
89.5321574
51
103.5319393
0
ARC
8
DEFAULT_255_1_388
10
9.6926847
20
0.3390443
40
0.2147041
50
103.2930114
51
133.5619756
0
ARC
8
DEFAULT_255_1_388
10
9.6876788
20
0.3457351
40
0.2064084
50
133.8349761
51
173.5343225
0
ARC
8
DEFAULT_255_1_388
10
9.7690446
20
0.3313144
40
0.2889266
50
172.5097183
51
180.1360699
0
ARC
8
DEFAULT_255_1_388
10
9.662021
20
0.335188
40
0.3490913
50
155.3483706
51
180.7484035
0
ARC
8
DEFAULT_255_1_388
10
9.6565185
20
0.3319519
40
0.3454798
50
131.5745177
51
154.4799474
0
ARC
8
DEFAULT_255_1_388
10
9.6917468
20
0.2963422
40
0.3955058
50
96.9874487
51
131.9690874
0
ARC
8
DEFAULT_255_1_388
10
9.716436
20
0.1562407
40
0.537622
50
89.8592909
51
97.7827481
0
ARC
8
DEFAULT_255_1_388
10
9.7218469
20
0.126736
40
0.5671399
50
78.3654493
51
90.4132586
0
ARC
8
DEFAULT_255_1_388
10
9.7621111
20
0.3133918
40
0.3762034
50
56.6229818
51
78.6387103
0
ARC
8
DEFAULT_255_1_388
10
9.786294
20
0.3556846
40
0.3275964
50
47.0254604
51
56.085558
0
ARC
8
DEFAULT_255_1_388
10
9.7885191
20
0.3601189
40
0.3228382
50
10.9207523
51
46.777927
0
ARC
8
DEFAULT_255_1_388
10
9.6350785
20
0.3246401
40
0.4802559
50
359.6364235
51
11.6087615
0
ARC
8
DEFAULT_255_1_388
10
9.841495
20
0.3229404
40
0.273833
50
332.3549969
51
359.7179765
0
ARC
8
DEFAULT_255_1_388
10
9.7683351
20
0.3576285
40
0.3547505
50
325.2332381
51
332.8746682
0
ARC
8
DEFAULT_255_1_388
10
9.7854934
20
0.3456763
40
0.3338396
50
292.9803892
51
325.2391113
0
ARC
8
DEFAULT_255_1_388
10
9.754413
20
0.4061679
40
0.4016959
50
292.542178
51
293.6931461
0
ARC
8
DEFAULT_255_1_388
10
9.7987702
20
-0.3203964
40
0.372079
50
57.643292
51
72.8626085
0
ARC
8
DEFAULT_255_1_388
10
9.8386536
20
-0.2557727
40
0.2961455
50
36.7246661
51
57.4701329
0
ARC
8
DEFAULT_255_1_388
10
9.8373693
20
-0.254353
40
0.2963321
50
8.054535
51
36.3561529
0
ARC
8
DEFAULT_255_1_388
10
9.7403366
20
-0.2717927
40
0.3948682
50
359.8316595
51
8.5873361
0
ARC
8
DEFAULT_255_1_388
10
9.698084
20
-0.277203
40
0.4371398
50
343.9831631
51
0.557075
0
ARC
8
DEFAULT_255_1_388
10
9.7977889
20
-0.3045037
40
0.3337749
50
311.6358204
51
343.7652116
0
ARC
8
DEFAULT_255_1_388
10
9.7552143
20
-0.2565045
40
0.3979351
50
279.7829743
51
311.625622
0
ARC
8
DEFAULT_255_1_388
10
9.7213278
20
-0.0948358
40
0.5630417
50
269.7285092
51
280.3857694
0
ARC
8
DEFAULT_255_1_388
10
9.7143591
20
-0.0994759
40
0.5584119
50
256.6827433
51
270.4412869
0
ARC
8
DEFAULT_255_1_388
10
9.6762578
20
-0.2552302
40
0.3980715
50
229.4223821
51
256.8554507
0
ARC
8
DEFAULT_255_1_388
10
9.6296131
20
-0.3077317
40
0.3278564
50
181.8183354
51
229.6455015
0
ARC
8
DEFAULT_255_1_388
10
9.7465741
20
-0.2930175
40
0.4453611
50
179.9760419
51
183.2330638
0
ARC
8
DEFAULT_255_1_388
10
9.7272293
20
-0.2953219
40
0.2579652
50
179.4467996
51
196.2871626
0
ARC
8
DEFAULT_255_1_388
10
9.6723747
20
-0.3103291
40
0.2011057
50
196.5661293
51
227.7059371
0
ARC
8
DEFAULT_255_1_388
10
9.6908354
20
-0.2896845
40
0.2287994
50
227.7653015
51
257.8763321
0
ARC
8
DEFAULT_255_1_388
10
9.7161437
20
-0.1836039
40
0.3378385
50
257.4583525
51
270.4267406
0
ARC
8
DEFAULT_255_1_388
10
9.7212686
20
-0.150977
40
0.3704652
50
269.5965319
51
280.8788143
0
ARC
8
DEFAULT_255_1_388
10
9.7470915
20
-0.2799471
40
0.2389415
50
280.6347277
51
299.8594068
0
ARC
8
DEFAULT_255_1_388
10
9.7685684
20
-0.3207264
40
0.19289
50
300.3575552
51
314.5515667
0
ARC
8
DEFAULT_255_1_388
10
9.759236
20
-0.3138975
40
0.204312
50
315.0730962
51
345.0429362
0
ARC
8
DEFAULT_255_1_388
10
9.6553867
20
-0.2836461
40
0.31246
50
344.598526
51
357.9270698
0
ARC
8
DEFAULT_255_1_388
10
9.5544172
20
-0.2767295
40
0.4136265
50
357.4755098
51
0.0224936
0
ARC
8
DEFAULT_255_1_388
10
9.669705
20
-0.2739901
40
0.2983498
50
359.5051035
51
13.4236939
0
ARC
8
DEFAULT_255_1_388
10
9.767214
20
-0.2490363
40
0.1977186
50
12.9497905
51
48.7550905
0
ARC
8
DEFAULT_255_1_388
10
9.7467062
20
-0.2770627
40
0.2323321
50
49.509109
51
72.1832965
0
ARC
8
DEFAULT_255_1_388
10
9.706453
20
-0.3965368
40
0.358397
50
71.9008458
51
84.3555134
0
ARC
8
DEFAULT_255_1_388
10
9.6882925
20
-0.5497288
40
0.512641
50
84.019632
51
89.3326067
0
LINE
8
DEFAULT_255_1_388
10
11.1896628
20
0.138169
11
11.1896628
21
-0.0786865
0
LINE
8
DEFAULT_255_1_388
10
10.3592871
20
-0.1012756
11
10.3592871
21
0.1219048
0
LINE
8
DEFAULT_255_1_388
10
11.0225034
20
-0.1238647
11
11.0225034
21
0.1499153
0
LINE
8
DEFAULT_255_1_388
10
10.5264465
20
0.1625652
11
10.5264465
21
-0.1048898
0
ARC
8
DEFAULT_255_1_388
10
9.8118962
20
-0.0841882
40
1.3777776
50
353.8440855
51
0.2287917
0
ARC
8
DEFAULT_255_1_388
10
10.333798
20
-0.1424586
40
0.852639
50
344.4934746
51
353.9763743
0
ARC
8
DEFAULT_255_1_388
10
10.6704787
20
-0.2381809
40
0.5026273
50
329.2803599
51
344.7473406
0
ARC
8
DEFAULT_255_1_388
10
10.7820283
20
-0.2993962
40
0.3754848
50
324.9361395
51
328.6153007
0
ARC
8
DEFAULT_255_1_388
10
10.8245932
20
-0.3291414
40
0.3235566
50
280.5801797
51
324.9173226
0
ARC
8
DEFAULT_255_1_388
10
10.7794561
20
-0.1411764
40
0.5167077
50
269.5979457
51
281.6732777
0
ARC
8
DEFAULT_255_1_388
10
10.7713465
20
-0.1546887
40
0.5032026
50
256.6228565
51
270.5105488
0
ARC
8
DEFAULT_255_1_388
10
10.7261207
20
-0.3288655
40
0.3233092
50
215.8618351
51
257.2787793
0
ARC
8
DEFAULT_255_1_388
10
10.8409914
20
-0.2517894
40
0.4615831
50
197.9695203
51
215.2622745
0
ARC
8
DEFAULT_255_1_388
10
11.120559
20
-0.1574359
40
0.7566307
50
187.8816486
51
198.2346584
0
ARC
8
DEFAULT_255_1_388
10
11.5658828
20
-0.0931547
40
1.2065653
50
180.8977266
51
188.0054894
0
ARC
8
DEFAULT_255_1_388
10
11.8709042
20
-0.08166
40
1.5117443
50
180.7434591
51
181.152202
0
ARC
8
DEFAULT_255_1_388
10
11.7034038
20
0.1273371
40
1.3441277
50
173.7674302
51
180.2315596
0
ARC
8
DEFAULT_255_1_388
10
11.1951907
20
0.1847779
40
0.8326847
50
164.3058537
51
173.9000553
0
ARC
8
DEFAULT_255_1_388
10
10.8675907
20
0.2791652
40
0.4917711
50
148.7922028
51
164.5682288
0
ARC
8
DEFAULT_255_1_388
10
10.7606644
20
0.3388457
40
0.3694204
50
144.5883979
51
148.1161588
0
ARC
8
DEFAULT_255_1_388
10
10.721939
20
0.3658667
40
0.322202
50
101.6440149
51
144.5142619
0
ARC
8
DEFAULT_255_1_388
10
10.7697582
20
0.1758337
40
0.5180451
50
89.528284
51
102.5820197
0
ARC
8
DEFAULT_255_1_388
10
10.7786574
20
0.1714376
40
0.5224441
50
77.0437914
51
90.508231
0
ARC
8
DEFAULT_255_1_388
10
10.8238827
20
0.3562272
40
0.3322297
50
48.2777708
51
77.4996087
0
ARC
8
DEFAULT_255_1_388
10
10.8320567
20
0.3707557
40
0.315966
50
36.3141586
51
47.6307332
0
ARC
8
DEFAULT_255_1_388
10
10.734329
20
0.3049159
40
0.4337313
50
18.2931065
51
35.6770203
0
ARC
8
DEFAULT_255_1_388
10
10.448213
20
0.2067107
40
0.7362203
50
8.0246996
51
18.5605636
0
ARC
8
DEFAULT_255_1_388
10
9.9798486
20
0.1375432
40
1.2096583
50
1.127539
51
8.1718423
0
ARC
8
DEFAULT_255_1_388
10
9.6149619
20
0.1232374
40
1.5747719
50
0.5432713
51
1.38669
0
ARC
8
DEFAULT_255_1_388
10
9.8206998
20
0.1539163
40
1.2018103
50
359.8092569
51
4.9408001
0
ARC
8
DEFAULT_255_1_388
10
10.2943579
20
0.19619
40
0.7262727
50
4.8364937
51
12.2906017
0
ARC
8
DEFAULT_255_1_388
10
10.6043044
20
0.2652485
40
0.4087324
50
12.0806994
51
23.8171225
0
ARC
8
DEFAULT_255_1_388
10
10.736344
20
0.3211508
40
0.2653719
50
24.2874621
51
31.3934353
0
ARC
8
DEFAULT_255_1_388
10
10.7953876
20
0.3597822
40
0.1948607
50
30.7407708
51
82.4658033
0
ARC
8
DEFAULT_255_1_388
10
10.7751537
20
0.2604017
40
0.2961198
50
81.1057101
51
90.2187368
0
ARC
8
DEFAULT_255_1_388
10
10.7711349
20
0.2894421
40
0.2670929
50
89.380395
51
105.6763916
0
ARC
8
DEFAULT_255_1_388
10
10.7505071
20
0.364432
40
0.1893189
50
105.7980655
51
149.7387869
0
ARC
8
DEFAULT_255_1_388
10
10.8702211
20
0.2924719
40
0.3289892
50
149.4208441
51
163.628295
0
ARC
8
DEFAULT_255_1_388
10
11.105444
20
0.2207345
40
0.5749004
50
163.3764549
51
172.141138
0
ARC
8
DEFAULT_255_1_388
10
11.4767162
20
0.1675582
40
0.9499585
50
172.0258462
51
178.0705453
0
ARC
8
DEFAULT_255_1_388
10
11.8188715
20
0.1513682
40
1.2924734
50
177.8639301
51
179.5036263
0
ARC
8
DEFAULT_255_1_388
10
11.6969733
20
-0.1089849
40
1.170534
50
179.7995545
51
185.246089
0
ARC
8
DEFAULT_255_1_388
10
11.2421326
20
-0.1520596
40
0.7136613
50
185.1411911
51
193.0082205
0
ARC
8
DEFAULT_255_1_388
10
10.9447587
20
-0.2223559
40
0.4080987
50
192.7897338
51
205.2507384
0
ARC
8
DEFAULT_255_1_388
10
10.8269797
20
-0.2749462
40
0.2791522
50
205.8001921
51
211.2545876
0
ARC
8
DEFAULT_255_1_388
10
10.7681336
20
-0.3143868
40
0.2084074
50
210.3789935
51
238.4007996
0
ARC
8
DEFAULT_255_1_388
10
10.7659422
20
-0.3091214
40
0.2117943
50
239.6521916
51
265.9793852
0
ARC
8
DEFAULT_255_1_388
10
10.7755271
20
-0.2334642
40
0.2879689
50
265.1324455
51
270.0603288
0
ARC
8
DEFAULT_255_1_388
10
10.7787648
20
-0.2699582
40
0.2514919
50
269.3314378
51
287.2180039
0
ARC
8
DEFAULT_255_1_388
10
10.794273
20
-0.3265709
40
0.1928357
50
287.7957942
51
329.0808983
0
ARC
8
DEFAULT_255_1_388
10
10.6865487
20
-0.2593349
40
0.319808
50
328.6635261
51
343.3325043
0
ARC
8
DEFAULT_255_1_388
10
10.4420946
20
-0.1831805
40
0.5758408
50
343.0498092
51
351.9392499
0
ARC
8
DEFAULT_255_1_388
10
10.0520268
20
-0.1256795
40
0.9701202
50
351.8071632
51
357.7957897
0
ARC
8
DEFAULT_255_1_388
10
9.6885745
20
-0.1068276
40
1.3340376
50
357.5870923
51
359.2682493
0
LINE
8
DEFAULT_255_1_388
10
11.6143381
20
-0.0145334
11
11.4806106
21
0.0198021
0
LINE
8
DEFAULT_255_1_388
10
11.4806106
20
0.0198021
11
11.5474744
21
0.6757898
0
LINE
8
DEFAULT_255_1_388
10
11.5474744
20
0.6757898
11
12.2215334
21
0.6757898
0
LINE
8
DEFAULT_255_1_388
10
12.2215334
20
0.6757898
11
12.2215334
21
0.5212803
0
LINE
8
DEFAULT_255_1_388
10
12.2215334
20
0.5212803
11
11.689334
21
0.5212803
0
LINE
8
DEFAULT_255_1_388
10
11.689334
20
0.5212803
11
11.6495771
21
0.1625652
0
LINE
8
DEFAULT_255_1_388
10
11.4336252
20
-0.2937348
11
11.591749
21
-0.2937348
0
LINE
8
DEFAULT_255_1_388
10
11.6586128
20
0.0216092
11
11.6143381
21
-0.0145334
0
ARC
8
DEFAULT_255_1_388
10
11.8582385
20
-0.1951759
40
0.4141476
50
93.7181681
51
120.253934
0
ARC
8
DEFAULT_255_1_388
10
11.8688437
20
-0.2860716
40
0.5055616
50
89.9660471
51
94.2495185
0
ARC
8
DEFAULT_255_1_388
10
11.8734259
20
-0.2197846
40
0.4392953
50
73.8045384
51
90.5585736
0
ARC
8
DEFAULT_255_1_388
10
11.8998517
20
-0.123248
40
0.3392225
50
41.3071072
51
73.543002
0
ARC
8
DEFAULT_255_1_388
10
11.8530337
20
-0.1635539
40
0.4009977
50
13.5075837
51
41.2174839
0
ARC
8
DEFAULT_255_1_388
10
11.6683434
20
-0.2119093
40
0.5918864
50
1.1330171
51
13.8830737
0
ARC
8
DEFAULT_255_1_388
10
11.508708
20
-0.2204478
40
0.7516787
50
359.9925091
51
1.5431298
0
ARC
8
DEFAULT_255_1_388
10
11.6531695
20
-0.2250973
40
0.6072343
50
347.8572712
51
0.4294349
0
ARC
8
DEFAULT_255_1_388
10
11.850083
20
-0.2697102
40
0.4053482
50
323.6727442
51
348.1674594
0
ARC
8
DEFAULT_255_1_388
10
11.8831794
20
-0.2898825
40
0.3667495
50
316.8171818
51
323.1486802
0
ARC
8
DEFAULT_255_1_388
10
11.8900918
20
-0.2940388
40
0.358869
50
281.839603
51
316.5458142
0
ARC
8
DEFAULT_255_1_388
10
11.8478205
20
-0.1190637
40
0.5388223
50
269.5770964
51
282.4214641
0
ARC
8
DEFAULT_255_1_388
10
11.8398126
20
-0.143107
40
0.5147801
50
256.2425863
51
270.4486481
0
ARC
8
DEFAULT_255_1_388
10
11.8061654
20
-0.2780876
40
0.3756708
50
228.9024379
51
256.33135
0
ARC
8
DEFAULT_255_1_388
10
11.7978634
20
-0.2911946
40
0.360344
50
193.7536029
51
228.5272638
0
ARC
8
DEFAULT_255_1_388
10
11.9371199
20
-0.2503537
40
0.5053599
50
184.9244437
51
194.4976052
0
ARC
8
DEFAULT_255_1_388
10
11.958784
20
-0.2463278
40
0.3700839
50
187.3596909
51
198.6733728
0
ARC
8
DEFAULT_255_1_388
10
11.8407084
20
-0.2872627
40
0.2451195
50
198.4453795
51
217.7945479
0
ARC
8
DEFAULT_255_1_388
10
11.8074256
20
-0.3108437
40
0.2043754
50
218.2887146
51
228.5613203
0
ARC
8
DEFAULT_255_1_388
10
11.8184263
20
-0.2960098
40
0.2227819
50
228.9652423
51
258.1237049
0
ARC
8
DEFAULT_255_1_388
10
11.8415701
20
-0.1969036
40
0.3245374
50
257.7260585
51
270.4013717
0
ARC
8
DEFAULT_255_1_388
10
11.8466199
20
-0.2469745
40
0.2744726
50
269.4204315
51
286.420998
0
ARC
8
DEFAULT_255_1_388
10
11.8633254
20
-0.3076295
40
0.2115721
50
286.7250065
51
320.6004665
0
ARC
8
DEFAULT_255_1_388
10
11.820217
20
-0.2726473
40
0.2670878
50
320.6712228
51
344.5440474
0
ARC
8
DEFAULT_255_1_388
10
11.6900884
20
-0.2344606
40
0.4026927
50
344.241448
51
356.735803
0
ARC
8
DEFAULT_255_1_388
10
11.5497191
20
-0.2228344
40
0.5435085
50
356.3547471
51
0.0507222
0
ARC
8
DEFAULT_255_1_388
10
11.6999456
20
-0.2193188
40
0.3932934
50
359.5579289
51
12.9534322
0
ARC
8
DEFAULT_255_1_388
10
11.8186296
20
-0.1905414
40
0.2711827
50
12.6489751
51
41.608121
0
ARC
8
DEFAULT_255_1_388
10
11.8445456
20
-0.1685054
40
0.2371737
50
41.7851122
51
85.9892156
0
ARC
8
DEFAULT_255_1_388
10
11.8306766
20
-0.2600262
40
0.3295244
50
84.6965848
51
90.0672125
0
ARC
8
DEFAULT_255_1_388
10
11.8280333
20
-0.3351882
40
0.4046926
50
89.6804991
51
99.161352
0
ARC
8
DEFAULT_255_1_388
10
11.8049343
20
-0.1971152
40
0.2647044
50
98.9836248
51
113.8905702
0
ARC
8
DEFAULT_255_1_388
10
11.7791018
20
-0.1361882
40
0.1985386
50
114.195234
51
127.3641866
0
LINE
8
DEFAULT_255_1_388
10
12.8079468
20
-0.0127263
11
12.8079468
21
-0.1491645
0
LINE
8
DEFAULT_255_1_388
10
12.8079468
20
-0.1491645
11
12.3670073
21
-0.1491645
0
LINE
8
DEFAULT_255_1_388
10
12.3670073
20
-0.1491645
11
12.3670073
21
-0.0127263
0
LINE
8
DEFAULT_255_1_388
10
12.3670073
20
-0.0127263
11
12.8079468
21
-0.0127263
0
LINE
8
DEFAULT_255_1_388
10
13.5027878
20
0.6821148
11
13.5027878
21
-0.6398
0
LINE
8
DEFAULT_255_1_388
10
13.5027878
20
-0.6398
11
13.3347249
21
-0.6398
0
LINE
8
DEFAULT_255_1_388
10
13.3347249
20
-0.6398
11
13.3347249
21
0.474295
0
LINE
8
DEFAULT_255_1_388
10
13.3347249
20
0.474295
11
12.9976953
21
0.3505066
0
LINE
8
DEFAULT_255_1_388
10
12.9976953
20
0.3505066
11
12.9976953
21
0.5023055
0
LINE
8
DEFAULT_255_1_388
10
12.9976953
20
0.5023055
11
13.4765845
21
0.6821148
0
LINE
8
DEFAULT_255_1_388
10
13.4765845
20
0.6821148
11
13.5027878
21
0.6821148
0
LINE
8
DEFAULT_255_1_388
10
14.4921909
20
-0.6398
11
14.0358909
21
-0.6398
0
LINE
8
DEFAULT_255_1_388
10
14.0358909
20
-0.6398
11
14.0358909
21
0.6757898
0
LINE
8
DEFAULT_255_1_388
10
14.0358909
20
0.6757898
11
14.4659875
21
0.6757898
0
LINE
8
DEFAULT_255_1_388
10
14.4985159
20
-0.0244726
11
14.2093752
21
-0.0244726
0
LINE
8
DEFAULT_255_1_388
10
14.2093752
20
-0.0244726
11
14.2093752
21
-0.4979404
0
LINE
8
DEFAULT_255_1_388
10
14.2093752
20
-0.4979404
11
14.4958052
21
-0.4979404
0
LINE
8
DEFAULT_255_1_388
10
14.2093752
20
0.5330267
11
14.2093752
21
0.1146763
0
LINE
8
DEFAULT_255_1_388
10
14.2093752
20
0.1146763
11
14.4714089
21
0.1146763
0
LINE
8
DEFAULT_255_1_388
10
14.4659875
20
0.5330267
11
14.2093752
21
0.5330267
0
ARC
8
DEFAULT_255_1_388
10
14.4702296
20
-0.1530176
40
0.8288183
50
82.1256322
51
90.2932506
0
ARC
8
DEFAULT_255_1_388
10
14.5139871
20
0.152759
40
0.5199321
50
69.9044202
51
82.2857574
0
ARC
8
DEFAULT_255_1_388
10
14.5781863
20
0.3262993
40
0.3348993
50
51.1840204
51
70.018125
0
ARC
8
DEFAULT_255_1_388
10
14.6068696
20
0.3679945
40
0.2844579
50
12.1018086
51
50.421322
0
ARC
8
DEFAULT_255_1_388
10
14.4511567
20
0.3288937
40
0.4449429
50
359.5252354
51
12.8212369
0
ARC
8
DEFAULT_255_1_388
10
14.6288997
20
0.3210943
40
0.2672162
50
323.4907456
51
0.8818258
0
ARC
8
DEFAULT_255_1_388
10
14.5818409
20
0.3574523
40
0.3266736
50
298.6824053
51
323.2758285
0
ARC
8
DEFAULT_255_1_388
10
14.5411701
20
0.4250509
40
0.4055105
50
293.1994739
51
299.139634
0
ARC
8
DEFAULT_255_1_388
10
14.6168651
20
-0.2595349
40
0.3229926
50
54.0009997
51
74.9168635
0
ARC
8
DEFAULT_255_1_388
10
14.6299577
20
-0.2373489
40
0.2973581
50
36.3578854
51
53.5293172
0
ARC
8
DEFAULT_255_1_388
10
14.6156946
20
-0.247515
40
0.3148715
50
4.8189348
51
36.3090187
0
ARC
8
DEFAULT_255_1_388
10
14.527997
20
-0.2598617
40
0.4033265
50
359.9373213
51
5.5201284
0
ARC
8
DEFAULT_255_1_388
10
14.49153
20
-0.2644267
40
0.4398126
50
344.7479357
51
0.5372278
0
ARC
8
DEFAULT_255_1_388
10
14.6030198
20
-0.2944795
40
0.3243441
50
311.1785587
51
344.6887681
0
ARC
8
DEFAULT_255_1_388
10
14.5701742
20
-0.2535916
40
0.3767511
50
286.0417804
51
310.8440924
0
ARC
8
DEFAULT_255_1_388
10
14.5131151
20
-0.0683115
40
0.5705957
50
274.1044074
51
286.4070149
0
ARC
8
DEFAULT_255_1_388
10
14.4932366
20
0.1434901
40
0.7832907
50
269.9235077
51
274.4458593
0
ARC
8
DEFAULT_255_1_388
10
14.4984085
20
-0.1196538
40
0.3782955
50
269.6057074
51
281.3740795
0
ARC
8
DEFAULT_255_1_388
10
14.5243583
20
-0.2426431
40
0.2526069
50
281.105298
51
302.5134029
0
ARC
8
DEFAULT_255_1_388
10
14.5408971
20
-0.2723056
40
0.2187131
50
303.0365425
51
311.8818034
0
ARC
8
DEFAULT_255_1_388
10
14.5489148
20
-0.2818398
40
0.2062624
50
311.9916937
51
351.7143773
0
ARC
8
DEFAULT_255_1_388
10
14.4570173
20
-0.2632729
40
0.2999202
50
350.7343295
51
0.2221526
0
ARC
8
DEFAULT_255_1_388
10
14.4449261
20
-0.256913
40
0.3120525
50
359.045729
51
17.2295312
0
ARC
8
DEFAULT_255_1_388
10
14.5618291
20
-0.2221845
40
0.1901144
50
17.6685208
51
78.9940245
0
ARC
8
DEFAULT_255_1_388
10
14.5036652
20
-0.4309989
40
0.4065575
50
76.565218
51
90.7103392
0
LINE
8
DEFAULT_255_1_388
10
14.4986249
20
-0.0244726
11
14.4985159
21
-0.0244726
0
ARC
8
DEFAULT_255_1_388
10
14.4739478
20
0.4842949
40
0.3696273
50
269.6064514
51
281.4533785
0
ARC
8
DEFAULT_255_1_388
10
14.4990119
20
0.3660283
40
0.2487412
50
281.2044438
51
302.5143998
0
ARC
8
DEFAULT_255_1_388
10
14.5144372
20
0.3382576
40
0.2170405
50
303.0211308
51
309.8378766
0
ARC
8
DEFAULT_255_1_388
10
14.535049
20
0.3151486
40
0.1860946
50
309.5229446
51
356.9509628
0
ARC
8
DEFAULT_255_1_388
10
14.4604616
20
0.3258831
40
0.2612347
50
355.4699226
51
0.0498632
0
ARC
8
DEFAULT_255_1_388
10
14.4290289
20
0.3283789
40
0.2926762
50
359.5558955
51
11.2092924
0
ARC
8
DEFAULT_255_1_388
10
14.5367257
20
0.3506667
40
0.1827036
50
10.9185717
51
31.322519
0
ARC
8
DEFAULT_255_1_388
10
14.5688805
20
0.3685571
40
0.1459418
50
31.8850633
51
52.1415586
0
ARC
8
DEFAULT_255_1_388
10
14.5380234
20
0.3249674
40
0.1993088
50
52.8283418
51
71.9850132
0
ARC
8
DEFAULT_255_1_388
10
14.4957395
20
0.2005158
40
0.3307407
50
71.686634
51
82.8453416
0
ARC
8
DEFAULT_255_1_388
10
14.4688042
20
-0.0030108
40
0.536039
50
82.6981895
51
90.1730083
0
ARC
8
DEFAULT_255_1_388
10
14.4662873
20
0.0848836
40
0.4481429
50
89.8851568
51
90.0383283
0
LINE
8
DEFAULT_255_1_388
10
16.0399968
20
-0.6398
11
15.9144014
21
-0.2964455
0
LINE
8
DEFAULT_255_1_388
10
15.9144014
20
-0.2964455
11
15.3632271
21
-0.2964455
0
LINE
8
DEFAULT_255_1_388
10
15.3632271
20
-0.2964455
11
15.2394387
21
-0.6398
0
LINE
8
DEFAULT_255_1_388
10
15.2394387
20
-0.6398
11
15.060533
21
-0.6398
0
LINE
8
DEFAULT_255_1_388
10
15.060533
20
-0.6398
11
15.5629148
21
0.6757898
0
LINE
8
DEFAULT_255_1_388
10
15.5629148
20
0.6757898
11
15.7147136
21
0.6757898
0
LINE
8
DEFAULT_255_1_388
10
15.7147136
20
0.6757898
11
16.217999
21
-0.6398
0
LINE
8
DEFAULT_255_1_388
10
16.217999
20
-0.6398
11
16.0399968
21
-0.6398
0
LINE
8
DEFAULT_255_1_388
10
15.6388142
20
0.4616451
11
15.4156338
21
-0.1536823
0
LINE
8
DEFAULT_255_1_388
10
15.4156338
20
-0.1536823
11
15.8628982
21
-0.1536823
0
LINE
8
DEFAULT_255_1_388
10
15.8628982
20
-0.1536823
11
15.6388142
21
0.4616451
0
ARC
8
DEFAULT_255_1_388
10
16.8320771
20
0.329572
40
0.3175098
50
338.8762533
51
0.5167111
0
ARC
8
DEFAULT_255_1_388
10
16.8510365
20
0.32446
40
0.2979894
50
325.8415285
51
338.4793574
0
ARC
8
DEFAULT_255_1_388
10
16.8070998
20
0.3549242
40
0.351452
50
296.7587686
51
325.7536481
0
ARC
8
DEFAULT_255_1_388
10
16.7742626
20
0.4103363
40
0.4157374
50
296.0927901
51
297.3613472
0
ARC
8
DEFAULT_255_1_388
10
16.8036822
20
-0.3279407
40
0.395855
50
47.9007294
51
67.1948823
0
ARC
8
DEFAULT_255_1_388
10
16.8257464
20
-0.3002401
40
0.360516
50
35.2363914
51
47.551141
0
ARC
8
DEFAULT_255_1_388
10
16.8551867
20
-0.2805907
40
0.3251343
50
359.2759765
51
35.4014143
0
ARC
8
DEFAULT_255_1_388
10
16.7713794
20
-0.2888213
40
0.4089365
50
343.1293083
51
0.5775513
0
ARC
8
DEFAULT_255_1_388
10
16.8528907
20
-0.3112664
40
0.3244269
50
310.8496669
51
342.7449331
0
ARC
8
DEFAULT_255_1_388
10
16.8058782
20
-0.2576087
40
0.3957651
50
281.5472888
51
310.9170406
0
ARC
8
DEFAULT_255_1_388
10
16.7657657
20
-0.0829186
40
0.5749654
50
269.619248
51
281.9789564
0
ARC
8
DEFAULT_255_1_388
10
16.7576434
20
-0.0828224
40
0.5750649
50
257.4585678
51
270.4285689
0
ARC
8
DEFAULT_255_1_388
10
16.7147954
20
-0.2632259
40
0.389671
50
228.7554326
51
257.8484789
0
ARC
8
DEFAULT_255_1_388
10
16.679944
20
-0.3051772
40
0.335154
50
184.0104975
51
228.5071184
0
ARC
8
DEFAULT_255_1_388
10
16.8107832
20
-0.285257
40
0.4671891
50
179.9315832
51
185.3253753
0
ARC
8
DEFAULT_255_1_388
10
16.6784345
20
-0.2810408
40
0.33486
50
145.6796023
51
180.6259786
0
ARC
8
DEFAULT_255_1_388
10
16.6968111
20
-0.2938729
40
0.3572723
50
115.5537685
51
145.6415986
0
ARC
8
DEFAULT_255_1_388
10
16.7351155
20
-0.3624913
40
0.4357296
50
113.243307
51
116.2057839
0
ARC
8
DEFAULT_255_1_388
10
16.7179806
20
0.3572379
40
0.3549126
50
222.9549744
51
244.1370481
0
ARC
8
DEFAULT_255_1_388
10
16.704245
20
0.3418378
40
0.3343711
50
213.3436887
51
222.6274467
0
ARC
8
DEFAULT_255_1_388
10
16.6826519
20
0.3271653
40
0.3082678
50
180.431584
51
213.271499
0
ARC
8
DEFAULT_255_1_388
10
16.7461518
20
0.3324296
40
0.3718363
50
179.9991191
51
181.1690594
0
ARC
8
DEFAULT_255_1_388
10
16.7933974
20
0.3363072
40
0.4190996
50
164.6186169
51
180.529336
0
ARC
8
DEFAULT_255_1_388
10
16.6923623
20
0.363478
40
0.3144772
50
132.2455553
51
164.5090724
0
ARC
8
DEFAULT_255_1_388
10
16.7246601
20
0.326907
40
0.3632644
50
100.7053914
51
132.1386381
0
ARC
8
DEFAULT_255_1_388
10
16.7589662
20
0.1719118
40
0.5219578
50
89.6730358
51
101.2451698
0
ARC
8
DEFAULT_255_1_388
10
16.7659653
20
0.1915648
40
0.5023124
50
76.287748
51
90.4586006
0
ARC
8
DEFAULT_255_1_388
10
16.8004155
20
0.3290671
40
0.3605639
50
47.8240511
51
76.4266241
0
ARC
8
DEFAULT_255_1_388
10
16.825454
20
0.3583599
40
0.3220463
50
6.9168387
51
47.6262497
0
ARC
8
DEFAULT_255_1_388
10
16.6919993
20
0.3337004
40
0.4575765
50
359.8415968
51
7.9697453
0
ARC
8
DEFAULT_255_1_388
10
16.7304262
20
-0.2783481
40
0.2827228
50
359.445363
51
16.9256873
0
ARC
8
DEFAULT_255_1_388
10
16.7831696
20
-0.2638219
40
0.2280396
50
17.2920767
51
45.4630727
0
ARC
8
DEFAULT_255_1_388
10
16.7770832
20
-0.2690676
40
0.2360485
50
45.30305
51
83.1920945
0
ARC
8
DEFAULT_255_1_388
10
16.7609577
20
-0.3592527
40
0.3275527
50
82.2612665
51
90.1434275
0
ARC
8
DEFAULT_255_1_388
10
16.7574853
20
-0.3330131
40
0.3013237
50
89.4956434
51
104.8580688
0
ARC
8
DEFAULT_255_1_388
10
16.7376042
20
-0.2576545
40
0.2233867
50
104.8856641
51
135.244616
0
ARC
8
DEFAULT_255_1_388
10
16.7432031
20
-0.2626648
40
0.2308906
50
135.3399546
51
172.1044062
0
ARC
8
DEFAULT_255_1_388
10
16.8339556
20
-0.2800333
40
0.3232034
50
171.2645637
51
180.186429
0
ARC
8
DEFAULT_255_1_388
10
16.8149561
20
-0.2836574
40
0.304213
50
179.5154935
51
193.6464289
0
ARC
8
DEFAULT_255_1_388
10
16.7231236
20
-0.3070527
40
0.209456
50
193.3540274
51
225.8258581
0
ARC
8
DEFAULT_255_1_388
10
16.7277109
20
-0.2990924
40
0.2183738
50
226.4180634
51
255.8552336
0
ARC
8
DEFAULT_255_1_388
10
16.7565575
20
-0.1937479
40
0.3275812
50
255.4654104
51
268.7987425
0
ARC
8
DEFAULT_255_1_388
10
16.7618752
20
-0.0995455
40
0.4218877
50
268.3449238
51
270.0094605
0
ARC
8
DEFAULT_255_1_388
10
16.7644985
20
-0.1763906
40
0.3450519
50
269.5759586
51
282.0820163
0
ARC
8
DEFAULT_255_1_388
10
16.7898021
20
-0.2882637
40
0.2303642
50
281.752014
51
306.6056188
0
ARC
8
DEFAULT_255_1_388
10
16.8008829
20
-0.3064198
40
0.2091906
50
307.1346085
51
314.027845
0
ARC
8
DEFAULT_255_1_388
10
16.7968341
20
-0.3034541
40
0.2141385
50
314.2552483
51
350.1694025
0
ARC
8
DEFAULT_255_1_388
10
16.7010578
20
-0.2826825
40
0.312082
50
349.4140529
51
0.2933014
0
ARC
8
DEFAULT_255_1_388
10
16.7595855
20
0.2976924
40
0.2588377
50
89.477747
51
105.729729
0
ARC
8
DEFAULT_255_1_388
10
16.7442775
20
0.3545367
40
0.1999733
50
105.9233417
51
135.1660906
0
ARC
8
DEFAULT_255_1_388
10
16.7465806
20
0.3529412
40
0.2027322
50
135.3052302
51
168.9883645
0
ARC
8
DEFAULT_255_1_388
10
16.8396823
20
0.3315996
40
0.2982129
50
168.3801673
51
180.3602268
0
ARC
8
DEFAULT_255_1_388
10
16.8139939
20
0.3273622
40
0.2725291
50
179.5033122
51
194.9125571
0
ARC
8
DEFAULT_255_1_388
10
16.7481346
20
0.3100427
40
0.204431
50
194.9720816
51
224.194444
0
ARC
8
DEFAULT_255_1_388
10
16.7449712
20
0.3074635
40
0.2003651
50
224.2962453
51
262.015664
0
ARC
8
DEFAULT_255_1_388
10
16.7609716
20
0.3897315
40
0.2840925
50
261.1245923
51
270.1962896
0
ARC
8
DEFAULT_255_1_388
10
16.7643197
20
0.3686859
40
0.2630559
50
269.4827276
51
285.0987215
0
ARC
8
DEFAULT_255_1_388
10
16.7816633
20
0.3036175
40
0.1957162
50
285.1585357
51
315.9484501
0
ARC
8
DEFAULT_255_1_388
10
16.7716507
20
0.3128315
40
0.2093195
50
316.0413965
51
351.916092
0
ARC
8
DEFAULT_255_1_388
10
16.6891881
20
0.3287323
40
0.2932279
50
351.105835
51
0.1939062
0
ARC
8
DEFAULT_255_1_388
10
16.7187515
20
0.3321224
40
0.2636739
50
359.4789618
51
16.0678224
0
ARC
8
DEFAULT_255_1_388
10
16.7722987
20
0.3465721
40
0.2082215
50
16.3252067
51
44.7913869
0
ARC
8
DEFAULT_255_1_388
10
16.7703049
20
0.346632
40
0.2095992
50
44.3957814
51
88.2499162
0
ARC
8
DEFAULT_255_1_388
10
16.7620383
20
0.2778006
40
0.2787189
50
86.9833854
51
90.0192215
0
LINE
8
DEFAULT_255_1_388
10
18.21578
20
0.138169
11
18.21578
21
-0.0786865
0
LINE
8
DEFAULT_255_1_388
10
17.3854043
20
-0.1012756
11
17.3854043
21
0.1219048
0
LINE
8
DEFAULT_255_1_388
10
18.0486206
20
-0.1238647
11
18.0486206
21
0.1499153
0
LINE
8
DEFAULT_255_1_388
10
17.5525637
20
0.1625652
11
17.5525637
21
-0.1048898
0
ARC
8
DEFAULT_255_1_388
10
16.8380134
20
-0.0841882
40
1.3777776
50
353.8440855
51
0.2287917
0
ARC
8
DEFAULT_255_1_388
10
17.3599152
20
-0.1424586
40
0.852639
50
344.4934746
51
353.9763743
0
ARC
8
DEFAULT_255_1_388
10
17.6965959
20
-0.2381809
40
0.5026273
50
329.2803599
51
344.7473406
0
ARC
8
DEFAULT_255_1_388
10
17.8081455
20
-0.2993962
40
0.3754848
50
324.9361395
51
328.6153007
0
ARC
8
DEFAULT_255_1_388
10
17.8507104
20
-0.3291414
40
0.3235566
50
280.5801797
51
324.9173226
0
ARC
8
DEFAULT_255_1_388
10
17.8055733
20
-0.1411764
40
0.5167077
50
269.5979457
51
281.6732777
0
ARC
8
DEFAULT_255_1_388
10
17.7974637
20
-0.1546887
40
0.5032026
50
256.6228565
51
270.5105488
0
ARC
8
DEFAULT_255_1_388
10
17.7522379
20
-0.3288655
40
0.3233092
50
215.8618351
51
257.2787793
0
ARC
8
DEFAULT_255_1_388
10
17.8671086
20
-0.2517894
40
0.4615831
50
197.9695203
51
215.2622745
0
ARC
8
DEFAULT_255_1_388
10
18.1466762
20
-0.1574359
40
0.7566307
50
187.8816486
51
198.2346584
0
ARC
8
DEFAULT_255_1_388
10
18.592
20
-0.0931547
40
1.2065653
50
180.8977266
51
188.0054894
0
ARC
8
DEFAULT_255_1_388
10
18.8970214
20
-0.08166
40
1.5117443
50
180.7434591
51
181.152202
0
ARC
8
DEFAULT_255_1_388
10
18.729521
20
0.1273371
40
1.3441277
50
173.7674302
51
180.2315596
0
ARC
8
DEFAULT_255_1_388
10
18.2213079
20
0.1847779
40
0.8326847
50
164.3058537
51
173.9000553
0
ARC
8
DEFAULT_255_1_388
10
17.8937079
20
0.2791652
40
0.4917711
50
148.7922028
51
164.5682288
0
ARC
8
DEFAULT_255_1_388
10
17.7867816
20
0.3388457
40
0.3694204
50
144.5883979
51
148.1161588
0
ARC
8
DEFAULT_255_1_388
10
17.7480561
20
0.3658667
40
0.322202
50
101.6440149
51
144.5142619
0
ARC
8
DEFAULT_255_1_388
10
17.7958754
20
0.1758337
40
0.5180451
50
89.528284
51
102.5820197
0
ARC
8
DEFAULT_255_1_388
10
17.8047746
20
0.1714376
40
0.5224441
50
77.0437914
51
90.508231
0
ARC
8
DEFAULT_255_1_388
10
17.8499999
20
0.3562272
40
0.3322297
50
48.2777708
51
77.4996087
0
ARC
8
DEFAULT_255_1_388
10
17.8581739
20
0.3707557
40
0.315966
50
36.3141586
51
47.6307332
0
ARC
8
DEFAULT_255_1_388
10
17.7604461
20
0.3049159
40
0.4337313
50
18.2931065
51
35.6770203
0
ARC
8
DEFAULT_255_1_388
10
17.4743302
20
0.2067107
40
0.7362203
50
8.0246996
51
18.5605636
0
ARC
8
DEFAULT_255_1_388
10
17.0059658
20
0.1375432
40
1.2096583
50
1.127539
51
8.1718423
0
ARC
8
DEFAULT_255_1_388
10
16.6410791
20
0.1232374
40
1.5747719
50
0.5432713
51
1.38669
0
ARC
8
DEFAULT_255_1_388
10
16.846817
20
0.1539163
40
1.2018103
50
359.8092569
51
4.9408001
0
ARC
8
DEFAULT_255_1_388
10
17.3204751
20
0.19619
40
0.7262727
50
4.8364937
51
12.2906017
0
ARC
8
DEFAULT_255_1_388
10
17.6304216
20
0.2652485
40
0.4087324
50
12.0806994
51
23.8171225
0
ARC
8
DEFAULT_255_1_388
10
17.7624612
20
0.3211508
40
0.2653719
50
24.2874621
51
31.3934353
0
ARC
8
DEFAULT_255_1_388
10
17.8215048
20
0.3597822
40
0.1948607
50
30.7407708
51
82.4658033
0
ARC
8
DEFAULT_255_1_388
10
17.8012709
20
0.2604017
40
0.2961198
50
81.1057101
51
90.2187368
0
ARC
8
DEFAULT_255_1_388
10
17.7972521
20
0.2894421
40
0.2670929
50
89.380395
51
105.6763916
0
ARC
8
DEFAULT_255_1_388
10
17.7766242
20
0.364432
40
0.1893189
50
105.7980655
51
149.7387869
0
ARC
8
DEFAULT_255_1_388
10
17.8963383
20
0.2924719
40
0.3289892
50
149.4208441
51
163.628295
0
ARC
8
DEFAULT_255_1_388
10
18.1315612
20
0.2207345
40
0.5749004
50
163.3764549
51
172.141138
0
ARC
8
DEFAULT_255_1_388
10
18.5028334
20
0.1675582
40
0.9499585
50
172.0258462
51
178.0705453
0
ARC
8
DEFAULT_255_1_388
10
18.8449886
20
0.1513682
40
1.2924734
50
177.8639301
51
179.5036263
0
ARC
8
DEFAULT_255_1_388
10
18.7230905
20
-0.1089849
40
1.170534
50
179.7995545
51
185.246089
0
ARC
8
DEFAULT_255_1_388
10
18.2682498
20
-0.1520596
40
0.7136613
50
185.1411911
51
193.0082205
0
ARC
8
DEFAULT_255_1_388
10
17.9708759
20
-0.2223559
40
0.4080987
50
192.7897338
51
205.2507384
0
ARC
8
DEFAULT_255_1_388
10
17.8530969
20
-0.2749462
40
0.2791522
50
205.8001921
51
211.2545876
0
ARC
8
DEFAULT_255_1_388
10
17.7942508
20
-0.3143868
40
0.2084074
50
210.3789935
51
238.4007996
0
ARC
8
DEFAULT_255_1_388
10
17.7920594
20
-0.3091214
40
0.2117943
50
239.6521916
51
265.9793852
0
ARC
8
DEFAULT_255_1_388
10
17.8016443
20
-0.2334642
40
0.2879689
50
265.1324455
51
270.0603288
0
ARC
8
DEFAULT_255_1_388
10
17.804882
20
-0.2699582
40
0.2514919
50
269.3314378
51
287.2180039
0
ARC
8
DEFAULT_255_1_388
10
17.8203902
20
-0.3265709
40
0.1928357
50
287.7957942
51
329.0808983
0
ARC
8
DEFAULT_255_1_388
10
17.7126659
20
-0.2593349
40
0.319808
50
328.6635261
51
343.3325043
0
ARC
8
DEFAULT_255_1_388
10
17.4682118
20
-0.1831805
40
0.5758408
50
343.0498092
51
351.9392499
0
ARC
8
DEFAULT_255_1_388
10
17.0781439
20
-0.1256795
40
0.9701202
50
351.8071632
51
357.7957897
0
ARC
8
DEFAULT_255_1_388
10
16.7146916
20
-0.1068276
40
1.3340376
50
357.5870923
51
359.2682493
0
LINE
8
DEFAULT_255_1_388
10
18.7949648
20
-0.0127263
11
18.7949648
21
-0.1491645
0
LINE
8
DEFAULT_255_1_388
10
18.7949648
20
-0.1491645
11
18.3540254
21
-0.1491645
0
LINE
8
DEFAULT_255_1_388
10
18.3540254
20
-0.1491645
11
18.3540254
21
-0.0127263
0
LINE
8
DEFAULT_255_1_388
10
18.3540254
20
-0.0127263
11
18.7949648
21
-0.0127263
0
LINE
8
DEFAULT_255_1_388
10
19.7653931
20
0.138169
11
19.7653931
21
-0.0786865
0
LINE
8
DEFAULT_255_1_388
10
18.9350173
20
-0.1012756
11
18.9350173
21
0.1219048
0
LINE
8
DEFAULT_255_1_388
10
19.5982336
20
-0.1238647
11
19.5982336
21
0.1499153
0
LINE
8
DEFAULT_255_1_388
10
19.1021768
20
0.1625652
11
19.1021768
21
-0.1048898
0
ARC
8
DEFAULT_255_1_388
10
18.3876265
20
-0.0841882
40
1.3777776
50
353.8440855
51
0.2287917
0
ARC
8
DEFAULT_255_1_388
10
18.9095282
20
-0.1424586
40
0.852639
50
344.4934746
51
353.9763743
0
ARC
8
DEFAULT_255_1_388
10
19.2462089
20
-0.2381809
40
0.5026273
50
329.2803599
51
344.7473406
0
ARC
8
DEFAULT_255_1_388
10
19.3577585
20
-0.2993962
40
0.3754848
50
324.9361395
51
328.6153007
0
ARC
8
DEFAULT_255_1_388
10
19.4003235
20
-0.3291414
40
0.3235566
50
280.5801797
51
324.9173226
0
ARC
8
DEFAULT_255_1_388
10
19.3551863
20
-0.1411764
40
0.5167077
50
269.5979457
51
281.6732777
0
ARC
8
DEFAULT_255_1_388
10
19.3470767
20
-0.1546887
40
0.5032026
50
256.6228565
51
270.5105488
0
ARC
8
DEFAULT_255_1_388
10
19.301851
20
-0.3288655
40
0.3233092
50
215.8618351
51
257.2787793
0
ARC
8
DEFAULT_255_1_388
10
19.4167217
20
-0.2517894
40
0.4615831
50
197.9695203
51
215.2622745
0
ARC
8
DEFAULT_255_1_388
10
19.6962892
20
-0.1574359
40
0.7566307
50
187.8816486
51
198.2346584
0
ARC
8
DEFAULT_255_1_388
10
20.1416131
20
-0.0931547
40
1.2065653
50
180.8977266
51
188.0054894
0
ARC
8
DEFAULT_255_1_388
10
20.4466344
20
-0.08166
40
1.5117443
50
180.7434591
51
181.152202
0
ARC
8
DEFAULT_255_1_388
10
20.279134
20
0.1273371
40
1.3441277
50
173.7674302
51
180.2315596
0
ARC
8
DEFAULT_255_1_388
10
19.7709209
20
0.1847779
40
0.8326847
50
164.3058537
51
173.9000553
0
ARC
8
DEFAULT_255_1_388
10
19.4433209
20
0.2791652
40
0.4917711
50
148.7922028
51
164.5682288
0
ARC
8
DEFAULT_255_1_388
10
19.3363947
20
0.3388457
40
0.3694204
50
144.5883979
51
148.1161588
0
ARC
8
DEFAULT_255_1_388
10
19.2976692
20
0.3658667
40
0.322202
50
101.6440149
51
144.5142619
0
ARC
8
DEFAULT_255_1_388
10
19.3454884
20
0.1758337
40
0.5180451
50
89.528284
51
102.5820197
0
ARC
8
DEFAULT_255_1_388
10
19.3543876
20
0.1714376
40
0.5224441
50
77.0437914
51
90.508231
0
ARC
8
DEFAULT_255_1_388
10
19.399613
20
0.3562272
40
0.3322297
50
48.2777708
51
77.4996087
0
ARC
8
DEFAULT_255_1_388
10
19.407787
20
0.3707557
40
0.315966
50
36.3141586
51
47.6307332
0
ARC
8
DEFAULT_255_1_388
10
19.3100592
20
0.3049159
40
0.4337313
50
18.2931065
51
35.6770203
0
ARC
8
DEFAULT_255_1_388
10
19.0239433
20
0.2067107
40
0.7362203
50
8.0246996
51
18.5605636
0
ARC
8
DEFAULT_255_1_388
10
18.5555788
20
0.1375432
40
1.2096583
50
1.127539
51
8.1718423
0
ARC
8
DEFAULT_255_1_388
10
18.1906922
20
0.1232374
40
1.5747719
50
0.5432713
51
1.38669
0
ARC
8
DEFAULT_255_1_388
10
18.39643
20
0.1539163
40
1.2018103
50
359.8092569
51
4.9408001
0
ARC
8
DEFAULT_255_1_388
10
18.8700882
20
0.19619
40
0.7262727
50
4.8364937
51
12.2906017
0
ARC
8
DEFAULT_255_1_388
10
19.1800346
20
0.2652485
40
0.4087324
50
12.0806994
51
23.8171225
0
ARC
8
DEFAULT_255_1_388
10
19.3120742
20
0.3211508
40
0.2653719
50
24.2874621
51
31.3934353
0
ARC
8
DEFAULT_255_1_388
10
19.3711178
20
0.3597822
40
0.1948607
50
30.7407708
51
82.4658033
0
ARC
8
DEFAULT_255_1_388
10
19.3508839
20
0.2604017
40
0.2961198
50
81.1057101
51
90.2187368
0
ARC
8
DEFAULT_255_1_388
10
19.3468651
20
0.2894421
40
0.2670929
50
89.380395
51
105.6763916
0
ARC
8
DEFAULT_255_1_388
10
19.3262373
20
0.364432
40
0.1893189
50
105.7980655
51
149.7387869
0
ARC
8
DEFAULT_255_1_388
10
19.4459513
20
0.2924719
40
0.3289892
50
149.4208441
51
163.628295
0
ARC
8
DEFAULT_255_1_388
10
19.6811743
20
0.2207345
40
0.5749004
50
163.3764549
51
172.141138
0
ARC
8
DEFAULT_255_1_388
10
20.0524464
20
0.1675582
40
0.9499585
50
172.0258462
51
178.0705453
0
ARC
8
DEFAULT_255_1_388
10
20.3946017
20
0.1513682
40
1.2924734
50
177.8639301
51
179.5036263
0
ARC
8
DEFAULT_255_1_388
10
20.2727036
20
-0.1089849
40
1.170534
50
179.7995545
51
185.246089
0
ARC
8
DEFAULT_255_1_388
10
19.8178629
20
-0.1520596
40
0.7136613
50
185.1411911
51
193.0082205
0
ARC
8
DEFAULT_255_1_388
10
19.5204889
20
-0.2223559
40
0.4080987
50
192.7897338
51
205.2507384
0
ARC
8
DEFAULT_255_1_388
10
19.4027099
20
-0.2749462
40
0.2791522
50
205.8001921
51
211.2545876
0
ARC
8
DEFAULT_255_1_388
10
19.3438638
20
-0.3143868
40
0.2084074
50
210.3789935
51
238.4007996
0
ARC
8
DEFAULT_255_1_388
10
19.3416724
20
-0.3091214
40
0.2117943
50
239.6521916
51
265.9793852
0
ARC
8
DEFAULT_255_1_388
10
19.3512573
20
-0.2334642
40
0.2879689
50
265.1324455
51
270.0603288
0
ARC
8
DEFAULT_255_1_388
10
19.354495
20
-0.2699582
40
0.2514919
50
269.3314378
51
287.2180039
0
ARC
8
DEFAULT_255_1_388
10
19.3700033
20
-0.3265709
40
0.1928357
50
287.7957942
51
329.0808983
0
ARC
8
DEFAULT_255_1_388
10
19.262279
20
-0.2593349
40
0.319808
50
328.6635261
51
343.3325043
0
ARC
8
DEFAULT_255_1_388
10
19.0178248
20
-0.1831805
40
0.5758408
50
343.0498092
51
351.9392499
0
ARC
8
DEFAULT_255_1_388
10
18.627757
20
-0.1256795
40
0.9701202
50
351.8071632
51
357.7957897
0
ARC
8
DEFAULT_255_1_388
10
18.2643047
20
-0.1068276
40
1.3340376
50
357.5870923
51
359.2682493
0
LINE
8
DEFAULT_255_1_388
10
20.8749702
20
-0.6398
11
20.7493748
21
-0.2964455
0
LINE
8
DEFAULT_255_1_388
10
20.7493748
20
-0.2964455
11
20.1982004
21
-0.2964455
0
LINE
8
DEFAULT_255_1_388
10
20.1982004
20
-0.2964455
11
20.0744121
21
-0.6398
0
LINE
8
DEFAULT_255_1_388
10
20.0744121
20
-0.6398
11
19.8955063
21
-0.6398
0
LINE
8
DEFAULT_255_1_388
10
19.8955063
20
-0.6398
11
20.3978882
21
0.6757898
0
LINE
8
DEFAULT_255_1_388
10
20.3978882
20
0.6757898
11
20.549687
21
0.6757898
0
LINE
8
DEFAULT_255_1_388
10
20.549687
20
0.6757898
11
21.0529724
21
-0.6398
0
LINE
8
DEFAULT_255_1_388
10
21.0529724
20
-0.6398
11
20.8749702
21
-0.6398
0
LINE
8
DEFAULT_255_1_388
10
20.4737876
20
0.4616451
11
20.2506072
21
-0.1536823
0
LINE
8
DEFAULT_255_1_388
10
20.2506072
20
-0.1536823
11
20.6978716
21
-0.1536823
0
LINE
8
DEFAULT_255_1_388
10
20.6978716
20
-0.1536823
11
20.4737876
21
0.4616451
0
LINE
8
DEFAULT_255_1_388
10
22.0821323
20
-0.6398
11
21.9565369
21
-0.2964455
0
LINE
8
DEFAULT_255_1_388
10
21.9565369
20
-0.2964455
11
21.4053625
21
-0.2964455
0
LINE
8
DEFAULT_255_1_388
10
21.4053625
20
-0.2964455
11
21.2815742
21
-0.6398
0
LINE
8
DEFAULT_255_1_388
10
21.2815742
20
-0.6398
11
21.1026685
21
-0.6398
0
LINE
8
DEFAULT_255_1_388
10
21.1026685
20
-0.6398
11
21.6050503
21
0.6757898
0
LINE
8
DEFAULT_255_1_388
10
21.6050503
20
0.6757898
11
21.7568491
21
0.6757898
0
LINE
8
DEFAULT_255_1_388
10
21.7568491
20
0.6757898
11
22.2601345
21
-0.6398
0
LINE
8
DEFAULT_255_1_388
10
22.2601345
20
-0.6398
11
22.0821323
21
-0.6398
0
LINE
8
DEFAULT_255_1_388
10
21.6809497
20
0.4616451
11
21.4577693
21
-0.1536823
0
LINE
8
DEFAULT_255_1_388
10
21.4577693
20
-0.1536823
11
21.9050337
21
-0.1536823
0
LINE
8
DEFAULT_255_1_388
10
21.9050337
20
-0.1536823
11
21.6809497
21
0.4616451
0
LINE
8
DEFAULT_255_1_388
10
23.2188164
20
0.138169
11
23.2188164
21
-0.0786865
0
LINE
8
DEFAULT_255_1_388
10
22.3884407
20
-0.1012756
11
22.3884407
21
0.1219048
0
LINE
8
DEFAULT_255_1_388
10
23.051657
20
-0.1238647
11
23.051657
21
0.1499153
0
LINE
8
DEFAULT_255_1_388
10
22.5556001
20
0.1625652
11
22.5556001
21
-0.1048898
0
ARC
8
DEFAULT_255_1_388
10
21.8410498
20
-0.0841882
40
1.3777776
50
353.8440855
51
0.2287917
0
ARC
8
DEFAULT_255_1_388
10
22.3629515
20
-0.1424586
40
0.852639
50
344.4934746
51
353.9763743
0
ARC
8
DEFAULT_255_1_388
10
22.6996323
20
-0.2381809
40
0.5026273
50
329.2803599
51
344.7473406
0
ARC
8
DEFAULT_255_1_388
10
22.8111818
20
-0.2993962
40
0.3754848
50
324.9361395
51
328.6153007
0
ARC
8
DEFAULT_255_1_388
10
22.8537468
20
-0.3291414
40
0.3235566
50
280.5801797
51
324.9173226
0
ARC
8
DEFAULT_255_1_388
10
22.8086097
20
-0.1411764
40
0.5167077
50
269.5979457
51
281.6732777
0
ARC
8
DEFAULT_255_1_388
10
22.8005
20
-0.1546887
40
0.5032026
50
256.6228565
51
270.5105488
0
ARC
8
DEFAULT_255_1_388
10
22.7552743
20
-0.3288655
40
0.3233092
50
215.8618351
51
257.2787793
0
ARC
8
DEFAULT_255_1_388
10
22.870145
20
-0.2517894
40
0.4615831
50
197.9695203
51
215.2622745
0
ARC
8
DEFAULT_255_1_388
10
23.1497126
20
-0.1574359
40
0.7566307
50
187.8816486
51
198.2346584
0
ARC
8
DEFAULT_255_1_388
10
23.5950364
20
-0.0931547
40
1.2065653
50
180.8977266
51
188.0054894
0
ARC
8
DEFAULT_255_1_388
10
23.9000578
20
-0.08166
40
1.5117443
50
180.7434591
51
181.152202
0
ARC
8
DEFAULT_255_1_388
10
23.7325574
20
0.1273371
40
1.3441277
50
173.7674302
51
180.2315596
0
ARC
8
DEFAULT_255_1_388
10
23.2243442
20
0.1847779
40
0.8326847
50
164.3058537
51
173.9000553
0
ARC
8
DEFAULT_255_1_388
10
22.8967443
20
0.2791652
40
0.4917711
50
148.7922028
51
164.5682288
0
ARC
8
DEFAULT_255_1_388
10
22.789818
20
0.3388457
40
0.3694204
50
144.5883979
51
148.1161588
0
ARC
8
DEFAULT_255_1_388
10
22.7510925
20
0.3658667
40
0.322202
50
101.6440149
51
144.5142619
0
ARC
8
DEFAULT_255_1_388
10
22.7989117
20
0.1758337
40
0.5180451
50
89.528284
51
102.5820197
0
ARC
8
DEFAULT_255_1_388
10
22.8078109
20
0.1714376
40
0.5224441
50
77.0437914
51
90.508231
0
ARC
8
DEFAULT_255_1_388
10
22.8530363
20
0.3562272
40
0.3322297
50
48.2777708
51
77.4996087
0
ARC
8
DEFAULT_255_1_388
10
22.8612103
20
0.3707557
40
0.315966
50
36.3141586
51
47.6307332
0
ARC
8
DEFAULT_255_1_388
10
22.7634825
20
0.3049159
40
0.4337313
50
18.2931065
51
35.6770203
0
ARC
8
DEFAULT_255_1_388
10
22.4773666
20
0.2067107
40
0.7362203
50
8.0246996
51
18.5605636
0
ARC
8
DEFAULT_255_1_388
10
22.0090022
20
0.1375432
40
1.2096583
50
1.127539
51
8.1718423
0
ARC
8
DEFAULT_255_1_388
10
21.6441155
20
0.1232374
40
1.5747719
50
0.5432713
51
1.38669
0
ARC
8
DEFAULT_255_1_388
10
21.8498534
20
0.1539163
40
1.2018103
50
359.8092569
51
4.9408001
0
ARC
8
DEFAULT_255_1_388
10
22.3235115
20
0.19619
40
0.7262727
50
4.8364937
51
12.2906017
0
ARC
8
DEFAULT_255_1_388
10
22.633458
20
0.2652485
40
0.4087324
50
12.0806994
51
23.8171225
0
ARC
8
DEFAULT_255_1_388
10
22.7654976
20
0.3211508
40
0.2653719
50
24.2874621
51
31.3934353
0
ARC
8
DEFAULT_255_1_388
10
22.8245412
20
0.3597822
40
0.1948607
50
30.7407708
51
82.4658033
0
ARC
8
DEFAULT_255_1_388
10
22.8043072
20
0.2604017
40
0.2961198
50
81.1057101
51
90.2187368
0
ARC
8
DEFAULT_255_1_388
10
22.8002884
20
0.2894421
40
0.2670929
50
89.380395
51
105.6763916
0
ARC
8
DEFAULT_255_1_388
10
22.7796606
20
0.364432
40
0.1893189
50
105.7980655
51
149.7387869
0
ARC
8
DEFAULT_255_1_388
10
22.8993746
20
0.2924719
40
0.3289892
50
149.4208441
51
163.628295
0
ARC
8
DEFAULT_255_1_388
10
23.1345976
20
0.2207345
40
0.5749004
50
163.3764549
51
172.141138
0
ARC
8
DEFAULT_255_1_388
10
23.5058697
20
0.1675582
40
0.9499585
50
172.0258462
51
178.0705453
0
ARC
8
DEFAULT_255_1_388
10
23.848025
20
0.1513682
40
1.2924734
50
177.8639301
51
179.5036263
0
ARC
8
DEFAULT_255_1_388
10
23.7261269
20
-0.1089849
40
1.170534
50
179.7995545
51
185.246089
0
ARC
8
DEFAULT_255_1_388
10
23.2712862
20
-0.1520596
40
0.7136613
50
185.1411911
51
193.0082205
0
ARC
8
DEFAULT_255_1_388
10
22.9739123
20
-0.2223559
40
0.4080987
50
192.7897338
51
205.2507384
0
ARC
8
DEFAULT_255_1_388
10
22.8561333
20
-0.2749462
40
0.2791522
50
205.8001921
51
211.2545876
0
ARC
8
DEFAULT_255_1_388
10
22.7972872
20
-0.3143868
40
0.2084074
50
210.3789935
51
238.4007996
0
ARC
8
DEFAULT_255_1_388
10
22.7950958
20
-0.3091214
40
0.2117943
50
239.6521916
51
265.9793852
0
ARC
8
DEFAULT_255_1_388
10
22.8046807
20
-0.2334642
40
0.2879689
50
265.1324455
51
270.0603288
0
ARC
8
DEFAULT_255_1_388
10
22.8079184
20
-0.2699582
40
0.2514919
50
269.3314378
51
287.2180039
0
ARC
8
DEFAULT_255_1_388
10
22.8234266
20
-0.3265709
40
0.1928357
50
287.7957942
51
329.0808983
0
ARC
8
DEFAULT_255_1_388
10
22.7157023
20
-0.2593349
40
0.319808
50
328.6635261
51
343.3325043
0
ARC
8
DEFAULT_255_1_388
10
22.4712482
20
-0.1831805
40
0.5758408
50
343.0498092
51
351.9392499
0
ARC
8
DEFAULT_255_1_388
10
22.0811803
20
-0.1256795
40
0.9701202
50
351.8071632
51
357.7957897
0
ARC
8
DEFAULT_255_1_388
10
21.717728
20
-0.1068276
40
1.3340376
50
357.5870923
51
359.2682493
0
ARC
8
DEFAULT_255_2_778
10
7.7477003
20
28.6249717
40
3.1359654
50
252.328178
51
259.1195596
0
ARC
8
DEFAULT_255_2_778
10
7.5366784
20
27.5059064
40
1.9971888
50
259.0046171
51
268.8321339
0
ARC
8
DEFAULT_255_2_778
10
7.5170704
20
27.0698151
40
1.5608252
50
269.2254945
51
269.9986098
0
ARC
8
DEFAULT_255_2_778
10
7.5284241
20
26.6108978
40
1.1019669
50
269.4076934
51
279.2957889
0
ARC
8
DEFAULT_255_2_778
10
7.6424786
20
25.9550872
40
0.4363956
50
278.4262389
51
299.114971
0
ARC
8
DEFAULT_255_2_778
10
7.7685935
20
25.7334399
40
0.1814068
50
298.3777331
51
1.5635741
0
ARC
8
DEFAULT_255_2_778
10
7.7607054
20
25.741141
40
0.1892471
50
359.167
51
359.999679
0
ARC
8
DEFAULT_255_2_778
10
7.7620579
20
25.7411283
40
0.1878948
50
0.0035752
51
48.4707938
0
ARC
8
DEFAULT_255_2_778
10
7.6243134
20
25.5828495
40
0.3977142
50
48.7331485
51
61.7808617
0
ARC
8
DEFAULT_255_2_778
10
7.0293414
20
24.5357873
40
1.6019233
50
60.7378912
51
65.7087881
0
ARC
8
DEFAULT_255_2_778
10
6.1103699
20
22.544212
40
3.7952631
50
65.4320913
51
67.6032607
0
ARC
8
DEFAULT_255_2_778
10
9.6041602
20
31.0973537
40
5.4439672
50
245.1253116
51
247.9048261
0
ARC
8
DEFAULT_255_2_778
10
8.5247137
20
28.7772986
40
2.8850926
50
241.1241333
51
245.1930241
0
ARC
8
DEFAULT_255_2_778
10
7.7625999
20
27.4063069
40
1.3165346
50
234.1963629
51
241.3542762
0
ARC
8
DEFAULT_255_2_778
10
7.3437421
20
26.8215669
40
0.5972641
50
226.7006611
51
233.96868
0
ARC
8
DEFAULT_255_2_778
10
7.3607017
20
26.8286709
40
0.6141106
50
178.3932929
51
226.0036188
0
ARC
8
DEFAULT_255_2_778
10
7.4478456
20
26.8599808
40
0.7011547
50
154.8735925
51
181.1515496
0
ARC
8
DEFAULT_255_2_778
10
7.3603372
20
26.8854147
40
0.6112906
50
123.8165102
51
153.54904
0
ARC
8
DEFAULT_255_2_778
10
7.5898969
20
26.5485158
40
1.0189576
50
100.5389065
51
123.9980051
0
ARC
8
DEFAULT_255_2_778
10
7.6985372
20
26.0268654
40
1.5517207
50
89.6286302
51
100.9597008
0
ARC
8
DEFAULT_255_2_778
10
7.7085439
20
25.6496175
40
1.928936
50
89.5339909
51
89.9984868
0
ARC
8
DEFAULT_255_2_778
10
7.7099048
20
25.5770263
40
2.0015148
50
84.1492503
51
89.5898483
0
ARC
8
DEFAULT_255_2_778
10
7.5077557
20
23.4959232
40
4.0923986
50
81.082529
51
84.3039054
0
ARC
8
DEFAULT_255_2_778
10
7.023816
20
20.3677202
40
7.2578093
50
78.9383812
51
81.13635
0
ARC
8
DEFAULT_255_2_778
10
7.6682357
20
25.1920321
40
1.9859479
50
67.8708824
51
78.7622215
0
ARC
8
DEFAULT_255_2_778
10
7.7855445
20
25.7646519
40
1.4014502
50
78.9039563
51
89.7592781
0
ARC
8
DEFAULT_255_2_778
10
7.779286
20
26.1888707
40
0.9772945
50
89.2878682
51
100.1889159
0
ARC
8
DEFAULT_255_2_778
10
7.6658447
20
26.7822139
40
0.3733016
50
99.1615566
51
122.7471966
0
ARC
8
DEFAULT_255_2_778
10
7.5618383
20
26.94848
40
0.1772174
50
123.5434144
51
182.034113
0
ARC
8
DEFAULT_255_2_778
10
7.542542
20
26.9439997
40
0.1578198
50
180.6571147
51
241.2086245
0
ARC
8
DEFAULT_255_2_778
10
7.9241141
20
27.5618628
40
0.8838431
50
238.8206864
51
243.6707859
0
ARC
8
DEFAULT_255_2_778
10
9.3867888
20
30.4418479
40
4.1139343
50
243.2030661
51
244.8668907
0
ARC
8
DEFAULT_255_2_778
10
12.3063112
20
36.6294591
40
10.9557218
50
244.7879545
51
245.6216179
0
ARC
8
DEFAULT_255_2_778
10
15.2952581
20
43.1886287
40
18.1637988
50
245.574041
51
245.772102
0
ARC
8
DEFAULT_255_2_778
10
5.891327
20
22.1983387
40
4.836889
50
63.120787
51
66.22328
0
ARC
8
DEFAULT_255_2_778
10
6.947604
20
24.2709743
40
2.5106281
50
58.2792155
51
63.2371048
0
ARC
8
DEFAULT_255_2_778
10
7.6964177
20
25.4721893
40
1.0951517
50
49.8236496
51
58.5607433
0
ARC
8
DEFAULT_255_2_778
10
8.0253672
20
25.8722551
40
0.5772968
50
45.4119063
51
49.1525673
0
ARC
8
DEFAULT_255_2_778
10
8.0075487
20
25.8650188
40
0.5950077
50
359.8351939
51
44.6790936
0
ARC
8
DEFAULT_255_2_778
10
7.7572736
20
25.8380051
40
0.8456589
50
359.9921848
51
1.714555
0
ARC
8
DEFAULT_255_2_778
10
7.9239095
20
25.822161
40
0.6792051
50
328.8364528
51
1.3269532
0
ARC
8
DEFAULT_255_2_778
10
7.9044044
20
25.8580666
40
0.7147737
50
299.9575479
51
327.1824854
0
ARC
8
DEFAULT_255_2_778
10
7.7009325
20
26.1915345
40
1.1053374
50
281.4846002
51
300.4638436
0
ARC
8
DEFAULT_255_2_778
10
7.5659684
20
26.816879
40
1.7450507
50
270.5617808
51
281.7391554
0
ARC
8
DEFAULT_255_2_778
10
7.5449253
20
27.3250328
40
2.2534434
50
269.9963661
51
270.9701178
0
LINE
8
DEFAULT_255_2_778
10
7.5447824
20
25.0715895
11
7.5437325
21
25.0715898
0
ARC
8
DEFAULT_255_2_778
10
7.5511332
20
28.3693181
40
3.2977366
50
256.7257562
51
269.8714183
0
ARC
8
DEFAULT_255_2_778
10
21.7503137
20
28.5522604
40
3.0618705
50
252.1983928
51
259.1511031
0
ARC
8
DEFAULT_255_2_778
10
21.5517118
20
27.4935504
40
1.9847066
50
259.0293454
51
269.2254668
0
ARC
8
DEFAULT_255_2_778
10
21.5354446
20
27.0934784
40
1.5844885
50
269.6180891
51
269.9995636
0
ARC
8
DEFAULT_255_2_778
10
21.5473456
20
26.6146024
40
1.1056768
50
269.3826571
51
279.2415406
0
ARC
8
DEFAULT_255_2_778
10
21.6612522
20
25.9559293
40
0.4373106
50
278.3705839
51
299.0156343
0
ARC
8
DEFAULT_255_2_778
10
21.787862
20
25.7327358
40
0.1807355
50
298.2360606
51
1.5389494
0
ARC
8
DEFAULT_255_2_778
10
21.7610455
20
25.7417945
40
0.2075296
50
358.8390496
51
0.0021256
0
ARC
8
DEFAULT_255_2_778
10
21.7864788
20
25.7448335
40
0.1821217
50
359.0463196
51
48.3838938
0
ARC
8
DEFAULT_255_2_778
10
21.6437976
20
25.5782239
40
0.4014605
50
48.9521134
51
61.9896684
0
ARC
8
DEFAULT_255_2_778
10
21.0566547
20
24.5354831
40
1.5980551
50
60.9619292
51
65.9688305
0
ARC
8
DEFAULT_255_2_778
10
20.1561808
20
22.5606442
40
3.7684702
50
65.6920583
51
67.885858
0
ARC
8
DEFAULT_255_2_778
10
23.5929853
20
31.0215078
40
5.3637714
50
245.0830094
51
247.8980191
0
ARC
8
DEFAULT_255_2_778
10
22.5350276
20
28.7520368
40
2.8598243
50
241.0457755
51
245.1499877
0
ARC
8
DEFAULT_255_2_778
10
21.7841314
20
27.4055481
40
1.3181309
50
234.0995357
51
241.2713582
0
ARC
8
DEFAULT_255_2_778
10
21.3686558
20
26.8274797
40
0.6062528
50
226.6553179
51
233.8711463
0
ARC
8
DEFAULT_255_2_778
10
21.3799627
20
26.8291421
40
0.6152634
50
178.1141127
51
225.9958207
0
ARC
8
DEFAULT_255_2_778
10
21.4583747
20
26.8635933
40
0.6934876
50
154.5285774
51
181.1735781
0
ARC
8
DEFAULT_255_2_778
10
21.3752063
20
26.8872866
40
0.6083836
50
123.6225515
51
153.1744533
0
ARC
8
DEFAULT_255_2_778
10
21.5978398
20
26.5706873
40
0.9953445
50
101.8855577
51
124.202832
0
ARC
8
DEFAULT_255_2_778
10
21.7267578
20
25.9994371
40
1.5809221
50
89.8667692
51
102.1936471
0
ARC
8
DEFAULT_255_2_778
10
21.7423508
20
25.5516401
40
2.0287498
50
90.0005166
51
90.3365567
0
ARC
8
DEFAULT_255_2_778
10
21.7279623
20
25.3892478
40
2.1911891
50
83.5567842
51
89.6242426
0
ARC
8
DEFAULT_255_2_778
10
21.5238738
20
23.5055008
40
4.0859491
50
79.7344405
51
83.677263
0
ARC
8
DEFAULT_255_2_778
10
21.2084449
20
21.6741416
40
5.9442269
50
78.6878181
51
79.8885504
0
ARC
8
DEFAULT_255_2_778
10
21.6891634
20
25.2009853
40
1.9781811
50
67.8740708
51
78.900726
0
ARC
8
DEFAULT_255_2_778
10
21.8014103
20
25.7536597
40
1.4142408
50
79.0527415
51
89.7762744
0
ARC
8
DEFAULT_255_2_778
10
21.7948353
20
26.1964197
40
0.9715453
50
89.2865638
51
100.2092011
0
ARC
8
DEFAULT_255_2_778
10
21.6814944
20
26.787257
40
0.3700369
50
99.1524074
51
123.0050603
0
ARC
8
DEFAULT_255_2_778
10
21.5786288
20
26.9507593
40
0.1769101
50
123.910777
51
182.0533384
0
ARC
8
DEFAULT_255_2_778
10
21.5386504
20
26.9443379
40
0.1368181
50
179.9653657
51
180.1039286
0
ARC
8
DEFAULT_255_2_778
10
21.5592381
20
26.9456577
40
0.1574134
50
180.5707107
51
241.2950277
0
ARC
8
DEFAULT_255_2_778
10
21.9233976
20
27.5369088
40
0.8516452
50
238.9108476
51
243.8776742
0
ARC
8
DEFAULT_255_2_778
10
23.4261578
20
30.5174484
40
4.1895529
50
243.3721611
51
245.0131429
0
ARC
8
DEFAULT_255_2_778
10
26.4893422
20
37.0522747
40
11.4066824
50
244.9322399
51
245.7423879
0
ARC
8
DEFAULT_255_2_778
10
29.6670177
20
44.0657803
40
19.1064703
50
245.6953615
51
245.8864274
0
ARC
8
DEFAULT_255_2_778
10
19.9166156
20
22.2396315
40
4.7985987
50
62.9078243
51
66.0947096
0
ARC
8
DEFAULT_255_2_778
10
20.974214
20
24.2971638
40
2.4851782
50
58.0755357
51
63.0116927
0
ARC
8
DEFAULT_255_2_778
10
21.7205145
20
25.4839473
40
1.0832719
50
49.4476357
51
58.3848201
0
ARC
8
DEFAULT_255_2_778
10
22.0423586
20
25.8713595
40
0.5797131
50
45.5211037
51
48.722937
0
ARC
8
DEFAULT_255_2_778
10
22.0272601
20
25.866373
40
0.5938943
50
359.8498367
51
44.8188382
0
ARC
8
DEFAULT_255_2_778
10
21.7779342
20
25.8394985
40
0.8435982
50
359.9926129
51
1.719814
0
ARC
8
DEFAULT_255_2_778
10
21.9391725
20
25.8237691
40
0.6825388
50
329.2212416
51
1.3113892
0
ARC
8
DEFAULT_255_2_778
10
21.9242477
20
25.8565649
40
0.7124399
50
300.0989301
51
327.5692204
0
ARC
8
DEFAULT_255_2_778
10
21.7222929
20
26.189777
40
1.1020276
50
281.441673
51
300.495073
0
ARC
8
DEFAULT_255_2_778
10
21.5847316
20
26.8282642
40
1.7551333
50
270.5529807
51
281.708402
0
ARC
8
DEFAULT_255_2_778
10
21.563344
20
27.3455061
40
2.2726167
50
269.9960418
51
270.966315
0
LINE
8
DEFAULT_255_2_778
10
21.563187
20
25.0728895
11
21.5621325
21
25.0728898
0
ARC
8
DEFAULT_255_2_778
10
21.5668389
20
28.3575179
40
3.2846315
50
256.7147361
51
269.9179028
0
LINE
8
DEFAULT_255_2_778
10
6.7957325
20
25.1602898
11
6.7957325
21
25.6369898
0
LINE
8
DEFAULT_255_2_778
10
8.4163325
20
27.4906898
11
8.4163325
21
27.0316898
0
LINE
8
DEFAULT_255_2_778
10
6.7939325
20
25.1596898
11
6.7957325
21
25.1602898
0
LINE
8
DEFAULT_255_2_778
10
8.9865325
20
27.5377898
11
9.6628325
21
27.5377898
0
LINE
8
DEFAULT_255_2_778
10
9.6628325
20
27.5377898
11
9.6628325
21
25.1213898
0
LINE
8
DEFAULT_255_2_778
10
9.6628325
20
25.1213898
11
8.9865325
21
25.1213898
0
LINE
8
DEFAULT_255_2_778
10
8.9865325
20
25.1213898
11
8.9865325
21
27.5377898
0
LINE
8
DEFAULT_255_2_778
10
10.2808325
20
25.1213898
11
10.2808325
21
27.5380898
0
LINE
8
DEFAULT_255_2_778
10
10.2808325
20
27.5380898
11
12.0131325
21
27.5380898
0
LINE
8
DEFAULT_255_2_778
10
12.0131325
20
27.5380898
11
12.0131325
21
27.1009898
0
LINE
8
DEFAULT_255_2_778
10
12.0131325
20
27.1009898
11
10.9320325
21
27.1009898
0
LINE
8
DEFAULT_255_2_778
10
10.9320325
20
27.1009898
11
10.9320325
21
26.5553898
0
LINE
8
DEFAULT_255_2_778
10
10.9320325
20
26.5553898
11
11.8734325
21
26.5553898
0
LINE
8
DEFAULT_255_2_778
10
11.8734325
20
26.5553898
11
11.8734325
21
26.1568898
0
LINE
8
DEFAULT_255_2_778
10
11.8734325
20
26.1568898
11
10.9320325
21
26.1568898
0
LINE
8
DEFAULT_255_2_778
10
10.9320325
20
26.1568898
11
10.9320325
21
25.5832898
0
LINE
8
DEFAULT_255_2_778
10
10.9320325
20
25.5832898
11
12.0411325
21
25.5832898
0
LINE
8
DEFAULT_255_2_778
10
12.0411325
20
25.5832898
11
12.0411325
21
25.1205898
0
LINE
8
DEFAULT_255_2_778
10
12.0411325
20
25.1205898
11
10.2808325
21
25.1213898
0
LINE
8
DEFAULT_255_2_778
10
12.4816325
20
25.1213898
11
12.4816325
21
27.5380898
0
LINE
8
DEFAULT_255_2_778
10
12.4816325
20
27.5380898
11
13.3574325
21
27.5380898
0
LINE
8
DEFAULT_255_2_778
10
13.3574325
20
27.5380898
11
13.9670325
21
25.9939898
0
LINE
8
DEFAULT_255_2_778
10
13.9670325
20
25.9939898
11
14.5896325
21
27.5380898
0
LINE
8
DEFAULT_255_2_778
10
14.5896325
20
27.5380898
11
15.4214325
21
27.5380898
0
LINE
8
DEFAULT_255_2_778
10
15.4214325
20
27.5380898
11
15.4214325
21
25.1215898
0
LINE
8
DEFAULT_255_2_778
10
15.4214325
20
25.1215898
11
14.7811325
21
25.1215898
0
LINE
8
DEFAULT_255_2_778
10
14.7811325
20
25.1215898
11
14.7811325
21
26.8331898
0
LINE
8
DEFAULT_255_2_778
10
14.7811325
20
26.8331898
11
14.0723325
21
25.0982898
0
LINE
8
DEFAULT_255_2_778
10
14.0723325
20
25.0982898
11
13.6514325
21
25.0982898
0
LINE
8
DEFAULT_255_2_778
10
13.6514325
20
25.0982898
11
12.9558325
21
26.8331898
0
LINE
8
DEFAULT_255_2_778
10
12.9558325
20
26.8331898
11
12.9558325
21
25.1215898
0
LINE
8
DEFAULT_255_2_778
10
12.9558325
20
25.1215898
11
12.4816325
21
25.1213898
0
LINE
8
DEFAULT_255_2_778
10
16.0408325
20
25.1213898
11
16.0408325
21
27.5380898
0
LINE
8
DEFAULT_255_2_778
10
16.0408325
20
27.5380898
11
17.7730325
21
27.5380898
0
LINE
8
DEFAULT_255_2_778
10
17.7730325
20
27.5380898
11
17.7730325
21
27.1009898
0
LINE
8
DEFAULT_255_2_778
10
17.7730325
20
27.1009898
11
16.6920325
21
27.1009898
0
LINE
8
DEFAULT_255_2_778
10
16.6920325
20
27.1009898
11
16.6920325
21
26.5553898
0
LINE
8
DEFAULT_255_2_778
10
16.6920325
20
26.5553898
11
17.6333325
21
26.5553898
0
LINE
8
DEFAULT_255_2_778
10
17.6333325
20
26.5553898
11
17.6333325
21
26.1568898
0
LINE
8
DEFAULT_255_2_778
10
17.6333325
20
26.1568898
11
16.6920325
21
26.1568898
0
LINE
8
DEFAULT_255_2_778
10
16.6920325
20
26.1568898
11
16.6920325
21
25.5832898
0
LINE
8
DEFAULT_255_2_778
10
16.6920325
20
25.5832898
11
17.8029325
21
25.5832898
0
LINE
8
DEFAULT_255_2_778
10
17.8029325
20
25.5832898
11
17.8029325
21
25.1205898
0
LINE
8
DEFAULT_255_2_778
10
17.8029325
20
25.1205898
11
16.0408325
21
25.1213898
0
LINE
8
DEFAULT_255_2_778
10
18.2453325
20
25.1213898
11
18.2453325
21
27.5380898
0
LINE
8
DEFAULT_255_2_778
10
18.2453325
20
27.5380898
11
19.0282325
21
27.5380898
0
LINE
8
DEFAULT_255_2_778
10
19.0282325
20
27.5380898
11
19.8585325
21
25.9200898
0
LINE
8
DEFAULT_255_2_778
10
19.8585325
20
25.9200898
11
19.8585325
21
27.5380898
0
LINE
8
DEFAULT_255_2_778
10
19.8585325
20
27.5380898
11
20.3342325
21
27.5380898
0
LINE
8
DEFAULT_255_2_778
10
20.3342325
20
27.5380898
11
20.3342325
21
25.1215898
0
LINE
8
DEFAULT_255_2_778
10
20.3342325
20
25.1215898
11
19.5738325
21
25.1215898
0
LINE
8
DEFAULT_255_2_778
10
19.5738325
20
25.1215898
11
18.7213325
21
26.7609898
0
LINE
8
DEFAULT_255_2_778
10
18.7213325
20
26.7609898
11
18.7213325
21
25.1215898
0
LINE
8
DEFAULT_255_2_778
10
18.7213325
20
25.1215898
11
18.2453325
21
25.1213898
0
LINE
8
DEFAULT_255_2_778
10
20.8142325
20
25.1602898
11
20.8142325
21
25.6369898
0
LINE
8
DEFAULT_255_2_778
10
22.3744325
20
27.5028898
11
22.4342325
21
27.4925898
0
LINE
8
DEFAULT_255_2_778
10
22.4342325
20
27.4925898
11
22.4342325
21
27.0334898
0
LINE
8
DEFAULT_255_2_778
10
20.8120325
20
25.1607898
11
20.8142325
21
25.1602898
0
LINE
8
DEFAULT_255_1_388
10
7.9825457
20
23.4464892
11
7.8081577
21
23.4464892
0
LINE
8
DEFAULT_255_1_388
10
7.0292852
20
22.8926042
11
7.2036731
21
22.8926042
0
ARC
8
DEFAULT_255_1_388
10
7.8822304
20
24.4528821
40
1.4087688
50
248.9196578
51
254.1442424
0
ARC
8
DEFAULT_255_1_388
10
7.6932184
20
23.9662805
40
0.8867498
50
241.6337352
51
249.0064643
0
ARC
8
DEFAULT_255_1_388
10
7.5212498
20
23.6511764
40
0.5277799
50
230.4982261
51
241.8087583
0
ARC
8
DEFAULT_255_1_388
10
7.4330269
20
23.5387686
40
0.3849419
50
227.4062979
51
229.9877433
0
ARC
8
DEFAULT_255_1_388
10
7.3781615
20
23.4852155
40
0.3084129
50
200.6782127
51
228.1765252
0
ARC
8
DEFAULT_255_1_388
10
7.3862984
20
23.4835277
40
0.315461
50
179.506278
51
199.8695278
0
ARC
8
DEFAULT_255_1_388
10
7.3852573
20
23.4918671
40
0.3144584
50
132.4834401
51
181.0242352
0
ARC
8
DEFAULT_255_1_388
10
7.4521777
20
23.4286788
40
0.4063094
50
129.2526113
51
133.4249077
0
ARC
8
DEFAULT_255_1_388
10
7.468737
20
23.4038619
40
0.436014
50
101.9878945
51
128.8741833
0
ARC
8
DEFAULT_255_1_388
10
7.5135785
20
23.210236
40
0.6347415
50
89.5906376
51
102.3170567
0
ARC
8
DEFAULT_255_1_388
10
7.5215097
20
23.2460586
40
0.5989122
50
77.2359491
51
90.3248968
0
ARC
8
DEFAULT_255_1_388
10
7.5448028
20
23.3548554
40
0.4876594
50
63.8379856
51
77.0808925
0
ARC
8
DEFAULT_255_1_388
10
7.5760561
20
23.4130882
40
0.4216191
50
45.9863127
51
64.1608798
0
ARC
8
DEFAULT_255_1_388
10
7.6053955
20
23.446599
40
0.3771394
50
32.2747934
51
45.6544796
0
ARC
8
DEFAULT_255_1_388
10
7.6128761
20
23.4487426
40
0.3696765
50
359.6507495
51
32.6129943
0
ARC
8
DEFAULT_255_1_388
10
7.5067944
20
23.4492788
40
0.3013762
50
359.469654
51
14.983205
0
ARC
8
DEFAULT_255_1_388
10
7.5861196
20
23.4705288
40
0.2192542
50
14.9781954
51
48.2004799
0
ARC
8
DEFAULT_255_1_388
10
7.5676307
20
23.4472937
40
0.2489048
50
48.5926661
51
74.1242559
0
ARC
8
DEFAULT_255_1_388
10
7.5301109
20
23.3234607
40
0.3782845
50
73.7889321
51
86.6653996
0
ARC
8
DEFAULT_255_1_388
10
7.5185924
20
23.1876955
40
0.5145025
50
86.2642725
51
90.0533288
0
ARC
8
DEFAULT_255_1_388
10
7.5154017
20
23.2321376
40
0.4700681
50
89.669455
51
99.2313411
0
ARC
8
DEFAULT_255_1_388
10
7.4881176
20
23.3946401
40
0.3052945
50
99.0695987
51
113.7659242
0
ARC
8
DEFAULT_255_1_388
10
7.4573171
20
23.4672772
40
0.226407
50
114.0402885
51
127.9848946
0
ARC
8
DEFAULT_255_1_388
10
7.4302647
20
23.5005884
40
0.1835045
50
127.7287217
51
176.7106493
0
ARC
8
DEFAULT_255_1_388
10
7.5066312
20
23.489221
40
0.2604907
50
175.1780759
51
180.0581213
0
ARC
8
DEFAULT_255_1_388
10
7.4117656
20
23.4878411
40
0.1656287
50
179.6140658
51
228.124674
0
ARC
8
DEFAULT_255_1_388
10
7.4615013
20
23.533894
40
0.2332038
50
226.5785315
51
230.8792476
0
ARC
8
DEFAULT_255_1_388
10
7.51445
20
23.6041908
40
0.3211664
50
231.4636401
51
241.9261664
0
ARC
8
DEFAULT_255_1_388
10
7.6491283
20
23.8520349
40
0.6032345
50
241.7177136
51
248.3259138
0
ARC
8
DEFAULT_255_1_388
10
7.8049878
20
24.2381771
40
1.0196417
50
248.2007377
51
252.4527713
0
ARC
8
DEFAULT_255_1_388
10
7.9403405
20
24.6566092
40
1.4594143
50
252.3388938
51
254.347037
0
ARC
8
DEFAULT_255_1_388
10
7.0918705
20
21.6218095
40
1.6917621
50
71.0197462
51
74.4085467
0
ARC
8
DEFAULT_255_1_388
10
7.2825793
20
22.1723144
40
1.1091618
50
66.1845203
51
71.086519
0
ARC
8
DEFAULT_255_1_388
10
7.4576342
20
22.5664439
40
0.6779073
50
59.3537334
51
66.269255
0
ARC
8
DEFAULT_255_1_388
10
7.5576068
20
22.7355777
40
0.4814366
50
49.1021732
51
59.3294421
0
ARC
8
DEFAULT_255_1_388
10
7.6497056
20
22.8405575
40
0.3417875
50
32.7924183
51
49.2503526
0
ARC
8
DEFAULT_255_1_388
10
7.684667
20
22.8655311
40
0.2988789
50
31.121225
51
32.3977355
0
ARC
8
DEFAULT_255_1_388
10
7.6758848
20
22.8622728
40
0.3080861
50
8.1116803
51
30.7958224
0
ARC
8
DEFAULT_255_1_388
10
7.5847194
20
22.8467437
40
0.4005385
50
359.8390945
51
8.4707348
0
ARC
8
DEFAULT_255_1_388
10
7.6551242
20
22.8412751
40
0.3301608
50
337.4732479
51
0.7538283
0
ARC
8
DEFAULT_255_1_388
10
7.6752267
20
22.8390554
40
0.3107929
50
307.5917028
51
336.4313755
0
ARC
8
DEFAULT_255_1_388
10
7.6241324
20
22.8958509
40
0.3870096
50
307.6560665
51
308.4561779
0
ARC
8
DEFAULT_255_1_388
10
7.5975541
20
22.9366832
40
0.435591
50
284.3733666
51
307.1426212
0
ARC
8
DEFAULT_255_1_388
10
7.5418435
20
23.1416391
40
0.6479685
50
272.4384566
51
284.6464689
0
ARC
8
DEFAULT_255_1_388
10
7.527582
20
23.3440434
40
0.8508149
50
269.9708517
51
272.8180721
0
ARC
8
DEFAULT_255_1_388
10
7.5227503
20
23.1148283
40
0.6216151
50
248.2707343
51
270.4054609
0
ARC
8
DEFAULT_255_1_388
10
7.5166374
20
23.0933673
40
0.5994203
50
246.1380358
51
248.054058
0
ARC
8
DEFAULT_255_1_388
10
7.4695517
20
22.9944705
40
0.4899388
50
233.1671897
51
246.4951656
0
ARC
8
DEFAULT_255_1_388
10
7.4072152
20
22.9103137
40
0.3852115
50
215.3403381
51
233.084328
0
ARC
8
DEFAULT_255_1_388
10
7.3765516
20
22.8880093
40
0.3472969
50
179.2419235
51
215.2648426
0
ARC
8
DEFAULT_255_1_388
10
7.4629067
20
22.8895979
40
0.259251
50
179.3355796
51
199.1045873
0
ARC
8
DEFAULT_255_1_388
10
7.4255209
20
22.8798223
40
0.2207454
50
199.8830064
51
232.7061328
0
ARC
8
DEFAULT_255_1_388
10
7.4786483
20
22.9466456
40
0.306101
50
232.3736206
51
255.5136621
0
ARC
8
DEFAULT_255_1_388
10
7.5169989
20
23.0866177
40
0.4512213
50
255.2447928
51
267.5318292
0
ARC
8
DEFAULT_255_1_388
10
7.5268456
20
23.2252709
40
0.5901825
50
267.1564563
51
270.0294721
0
ARC
8
DEFAULT_255_1_388
10
7.5299781
20
23.1753623
40
0.5402814
50
269.6999944
51
278.1662446
0
ARC
8
DEFAULT_255_1_388
10
7.5587809
20
22.9806974
40
0.3435003
50
278.0229022
51
290.6255326
0
ARC
8
DEFAULT_255_1_388
10
7.5978975
20
22.8763547
40
0.2320666
50
290.6616368
51
307.0374127
0
ARC
8
DEFAULT_255_1_388
10
7.6316875
20
22.834904
40
0.1786372
50
306.3942078
51
355.303191
0
ARC
8
DEFAULT_255_1_388
10
7.5741168
20
22.8435186
40
0.2367516
50
354.3662092
51
0.0709489
0
ARC
8
DEFAULT_255_1_388
10
7.5901037
20
22.8460561
40
0.2207761
50
359.4175379
51
16.1975911
0
ARC
8
DEFAULT_255_1_388
10
7.6413155
20
22.8600954
40
0.1676828
50
16.4721294
51
52.6261798
0
ARC
8
DEFAULT_255_1_388
10
7.5489662
20
22.7381606
40
0.3206412
50
52.7381828
51
62.4979144
0
ARC
8
DEFAULT_255_1_388
10
7.3931415
20
22.4449236
40
0.6527035
50
62.2517425
51
68.1219454
0
ARC
8
DEFAULT_255_1_388
10
7.1996903
20
21.9694951
40
1.1659797
50
68.006043
51
71.8055127
0
ARC
8
DEFAULT_255_1_388
10
6.9976811
20
21.3636723
40
1.8045908
50
71.718361
51
73.9260743
0
LINE
8
DEFAULT_255_1_388
10
8.3936675
20
23.8268898
11
8.3936675
21
22.5113
0
LINE
8
DEFAULT_255_1_388
10
8.3936675
20
22.5113
11
8.2201831
21
22.5113
0
LINE
8
DEFAULT_255_1_388
10
8.2201831
20
22.5113
11
8.2201831
21
23.8268898
0
LINE
8
DEFAULT_255_1_388
10
8.2201831
20
23.8268898
11
8.3936675
21
23.8268898
0
LINE
8
DEFAULT_255_1_388
10
8.7108186
20
23.8268898
11
8.9349026
21
23.8268898
0
LINE
8
DEFAULT_255_1_388
10
8.9349026
20
23.8268898
11
9.3649993
21
22.7534553
0
LINE
8
DEFAULT_255_1_388
10
9.3649993
20
22.7534553
11
9.7950959
21
23.8268898
0
LINE
8
DEFAULT_255_1_388
10
9.7950959
20
23.8268898
11
10.0200835
21
23.8268898
0
LINE
8
DEFAULT_255_1_388
10
10.0200835
20
23.8268898
11
10.0200835
21
22.5113
0
LINE
8
DEFAULT_255_1_388
10
10.0200835
20
22.5113
11
9.8465991
21
22.5113
0
LINE
8
DEFAULT_255_1_388
10
9.8465991
20
22.5113
11
9.8465991
21
23.023621
0
LINE
8
DEFAULT_255_1_388
10
9.8465991
20
23.023621
11
9.8628633
21
23.5766025
0
LINE
8
DEFAULT_255_1_388
10
9.8628633
20
23.5766025
11
9.4309595
21
22.5113
0
LINE
8
DEFAULT_255_1_388
10
9.4309595
20
22.5113
11
9.2981355
21
22.5113
0
LINE
8
DEFAULT_255_1_388
10
9.2981355
20
22.5113
11
8.8671353
21
23.5738918
0
LINE
8
DEFAULT_255_1_388
10
8.8671353
20
23.5738918
11
8.884303
21
23.023621
0
LINE
8
DEFAULT_255_1_388
10
8.884303
20
23.023621
11
8.884303
21
22.5113
0
LINE
8
DEFAULT_255_1_388
10
8.884303
20
22.5113
11
8.7108186
21
22.5113
0
LINE
8
DEFAULT_255_1_388
10
8.7108186
20
22.5113
11
8.7108186
21
23.8268898
0
LINE
8
DEFAULT_255_1_388
10
11.1947173
20
22.5113
11
11.0691218
21
22.8546545
0
LINE
8
DEFAULT_255_1_388
10
11.0691218
20
22.8546545
11
10.5179475
21
22.8546545
0
LINE
8
DEFAULT_255_1_388
10
10.5179475
20
22.8546545
11
10.3941592
21
22.5113
0
LINE
8
DEFAULT_255_1_388
10
10.3941592
20
22.5113
11
10.2152534
21
22.5113
0
LINE
8
DEFAULT_255_1_388
10
10.2152534
20
22.5113
11
10.7176353
21
23.8268898
0
LINE
8
DEFAULT_255_1_388
10
10.7176353
20
23.8268898
11
10.8694341
21
23.8268898
0
LINE
8
DEFAULT_255_1_388
10
10.8694341
20
23.8268898
11
11.3727195
21
22.5113
0
LINE
8
DEFAULT_255_1_388
10
11.3727195
20
22.5113
11
11.1947173
21
22.5113
0
LINE
8
DEFAULT_255_1_388
10
10.7935347
20
23.6127451
11
10.5703542
21
22.9974177
0
LINE
8
DEFAULT_255_1_388
10
10.5703542
20
22.9974177
11
11.0176187
21
22.9974177
0
LINE
8
DEFAULT_255_1_388
10
11.0176187
20
22.9974177
11
10.7935347
21
23.6127451
0
LINE
8
DEFAULT_255_1_388
10
12.3422441
20
23.8268898
11
12.3422441
21
23.6841267
0
LINE
8
DEFAULT_255_1_388
10
12.3422441
20
23.6841267
11
11.919376
21
23.6841267
0
LINE
8
DEFAULT_255_1_388
10
11.919376
20
23.6841267
11
11.919376
21
22.5113
0
LINE
8
DEFAULT_255_1_388
10
11.919376
20
22.5113
11
11.7467952
21
22.5113
0
LINE
8
DEFAULT_255_1_388
10
11.7467952
20
22.5113
11
11.7467952
21
23.6841267
0
LINE
8
DEFAULT_255_1_388
10
11.7467952
20
23.6841267
11
11.3248306
21
23.6841267
0
LINE
8
DEFAULT_255_1_388
10
11.3248306
20
23.6841267
11
11.3248306
21
23.8268898
0
LINE
8
DEFAULT_255_1_388
10
11.3248306
20
23.8268898
11
12.3422441
21
23.8268898
0
LINE
8
DEFAULT_255_1_388
10
12.7235483
20
23.8268898
11
12.7235483
21
22.5113
0
LINE
8
DEFAULT_255_1_388
10
12.7235483
20
22.5113
11
12.550064
21
22.5113
0
LINE
8
DEFAULT_255_1_388
10
12.550064
20
22.5113
11
12.550064
21
23.8268898
0
LINE
8
DEFAULT_255_1_388
10
12.550064
20
23.8268898
11
12.7235483
21
23.8268898
0
LINE
8
DEFAULT_255_1_388
10
13.8340291
20
22.9287468
11
14.008417
21
22.9287468
0
LINE
8
DEFAULT_255_1_388
10
12.9955212
20
23.1076525
11
12.9955212
21
23.2341516
0
LINE
8
DEFAULT_255_1_388
10
14.008417
20
23.4040217
11
13.8340291
21
23.4040217
0
LINE
8
DEFAULT_255_1_388
10
13.1699092
20
23.2296337
11
13.1699092
21
23.1022312
0
ARC
8
DEFAULT_255_1_388
10
13.3918404
20
22.9959329
40
0.6202263
50
340.1774904
51
353.7812217
0
ARC
8
DEFAULT_255_1_388
10
13.5686257
20
22.9300893
40
0.4315926
50
311.4560052
51
340.4420756
0
ARC
8
DEFAULT_255_1_388
10
13.5648796
20
22.9425665
40
0.4434573
50
282.4332229
51
310.7514507
0
ARC
8
DEFAULT_255_1_388
10
13.5154614
20
23.1467703
40
0.6535262
50
269.9358869
51
282.8096729
0
ARC
8
DEFAULT_255_1_388
10
13.5096554
20
23.2980329
40
0.8048043
50
269.9995752
51
270.3612856
0
ARC
8
DEFAULT_255_1_388
10
13.5037044
20
23.0181781
40
0.5249831
50
250.7885263
51
270.6488451
0
ARC
8
DEFAULT_255_1_388
10
13.4847868
20
22.9464853
40
0.4510942
50
219.3628377
51
250.0611024
0
ARC
8
DEFAULT_255_1_388
10
13.5780743
20
23.0257653
40
0.5735046
50
193.5480293
51
219.5755675
0
ARC
8
DEFAULT_255_1_388
10
13.8448952
20
23.095052
40
0.849146
50
181.1220183
51
193.8754971
0
ARC
8
DEFAULT_255_1_388
10
14.0772185
20
23.1074914
40
1.0816971
50
179.9914644
51
181.5398227
0
ARC
8
DEFAULT_255_1_388
10
13.8695495
20
23.2383586
40
0.8740384
50
169.5837606
51
180.275782
0
ARC
8
DEFAULT_255_1_388
10
13.6628844
20
23.2765439
40
0.6638751
50
155.0367033
51
169.6002779
0
ARC
8
DEFAULT_255_1_388
10
13.5351302
20
23.3381336
40
0.5220662
50
136.7831557
51
155.2472983
0
ARC
8
DEFAULT_255_1_388
10
13.4913092
20
23.3753577
40
0.4646502
50
121.7633063
51
136.4281161
0
ARC
8
DEFAULT_255_1_388
10
13.5064932
20
23.3473049
40
0.4964979
50
95.6460018
51
121.5489589
0
ARC
8
DEFAULT_255_1_388
10
13.5241907
20
23.2225704
40
0.6223912
50
89.9245727
51
96.1375919
0
ARC
8
DEFAULT_255_1_388
10
13.5298612
20
23.2359721
40
0.6090084
50
76.6779212
51
90.456405
0
ARC
8
DEFAULT_255_1_388
10
13.5741425
20
23.414906
40
0.42469
50
47.4858803
51
76.9287069
0
ARC
8
DEFAULT_255_1_388
10
13.5576038
20
23.4036623
40
0.4441778
50
16.5424081
51
46.8934505
0
ARC
8
DEFAULT_255_1_388
10
13.3767088
20
23.3442265
40
0.6345318
50
5.4072971
51
17.0363711
0
ARC
8
DEFAULT_255_1_388
10
13.2148813
20
23.3182304
40
0.6250632
50
7.8888693
51
15.9242022
0
ARC
8
DEFAULT_255_1_388
10
13.4383799
20
23.3831309
40
0.3923364
50
15.7650676
51
27.9410069
0
ARC
8
DEFAULT_255_1_388
10
13.5625968
20
23.4496317
40
0.2514401
50
27.8167196
51
46.4007942
0
ARC
8
DEFAULT_255_1_388
10
13.5681809
20
23.4489882
40
0.2480958
50
47.4372362
51
75.0695672
0
ARC
8
DEFAULT_255_1_388
10
13.5334646
20
23.3281277
40
0.3738281
50
74.7009379
51
87.8124314
0
ARC
8
DEFAULT_255_1_388
10
13.5252262
20
23.2097659
40
0.4924321
50
87.3802571
51
90.0251599
0
ARC
8
DEFAULT_255_1_388
10
13.520891
20
23.3417997
40
0.3604218
50
89.3451886
51
108.5744412
0
ARC
8
DEFAULT_255_1_388
10
13.5054902
20
23.3995836
40
0.3007661
50
109.2998307
51
143.3037387
0
ARC
8
DEFAULT_255_1_388
10
13.5912192
20
23.3336584
40
0.4089031
50
143.075267
51
163.1918576
0
ARC
8
DEFAULT_255_1_388
10
13.8108026
20
23.2643652
40
0.6391492
50
162.9375929
51
174.6208776
0
ARC
8
DEFAULT_255_1_388
10
14.1062408
20
23.2319711
40
0.9363344
50
174.342123
51
180.1430283
0
ARC
8
DEFAULT_255_1_388
10
14.0014949
20
23.0976117
40
0.8315986
50
179.6817261
51
189.150555
0
ARC
8
DEFAULT_255_1_388
10
13.7201698
20
23.0507559
40
0.5464044
50
188.9911061
51
203.5772363
0
ARC
8
DEFAULT_255_1_388
10
13.598699
20
23.0003539
40
0.4149206
50
203.9075402
51
215.1312435
0
ARC
8
DEFAULT_255_1_388
10
13.4948788
20
22.9198907
40
0.2837747
50
213.9071511
51
263.8848919
0
ARC
8
DEFAULT_255_1_388
10
13.5089781
20
23.0081519
40
0.3730641
50
263.1757928
51
270.1031044
0
ARC
8
DEFAULT_255_1_388
10
13.512586
20
23.1484511
40
0.5133712
50
269.6722503
51
279.0606936
0
ARC
8
DEFAULT_255_1_388
10
13.5426016
20
22.967015
40
0.3294739
50
278.8749101
51
293.6349581
0
ARC
8
DEFAULT_255_1_388
10
13.5786219
20
22.8824251
40
0.2375405
50
293.8553806
51
310.0518171
0
ARC
8
DEFAULT_255_1_388
10
13.5791728
20
22.8754021
40
0.2318463
50
311.0644687
51
332.0111037
0
ARC
8
DEFAULT_255_1_388
10
13.4450402
20
22.9493702
40
0.3850112
50
331.6586806
51
343.2877423
0
ARC
8
DEFAULT_255_1_388
10
13.2129867
20
23.0206806
40
0.6277712
50
343.1446576
51
351.0103568
0
ARC
8
DEFAULT_255_1_388
10
13.049719
20
23.0506873
40
0.7937327
50
350.71248
51
351.1626997
0
LINE
8
DEFAULT_255_1_388
10
15.5761013
20
23.4464892
11
15.4017134
21
23.4464892
0
LINE
8
DEFAULT_255_1_388
10
14.6228408
20
22.8926042
11
14.7972288
21
22.8926042
0
ARC
8
DEFAULT_255_1_388
10
15.4757861
20
24.4528821
40
1.4087688
50
248.9196578
51
254.1442424
0
ARC
8
DEFAULT_255_1_388
10
15.2867741
20
23.9662805
40
0.8867498
50
241.6337352
51
249.0064643
0
ARC
8
DEFAULT_255_1_388
10
15.1148054
20
23.6511764
40
0.5277799
50
230.4982261
51
241.8087583
0
ARC
8
DEFAULT_255_1_388
10
15.0265825
20
23.5387686
40
0.3849419
50
227.4062979
51
229.9877433
0
ARC
8
DEFAULT_255_1_388
10
14.9717172
20
23.4852155
40
0.3084129
50
200.6782127
51
228.1765252
0
ARC
8
DEFAULT_255_1_388
10
14.9798541
20
23.4835277
40
0.315461
50
179.506278
51
199.8695278
0
ARC
8
DEFAULT_255_1_388
10
14.978813
20
23.4918671
40
0.3144584
50
132.4834401
51
181.0242352
0
ARC
8
DEFAULT_255_1_388
10
15.0457334
20
23.4286788
40
0.4063094
50
129.2526113
51
133.4249077
0
ARC
8
DEFAULT_255_1_388
10
15.0622926
20
23.4038619
40
0.436014
50
101.9878945
51
128.8741833
0
ARC
8
DEFAULT_255_1_388
10
15.1071342
20
23.210236
40
0.6347415
50
89.5906376
51
102.3170567
0
ARC
8
DEFAULT_255_1_388
10
15.1150653
20
23.2460586
40
0.5989122
50
77.2359491
51
90.3248968
0
ARC
8
DEFAULT_255_1_388
10
15.1383584
20
23.3548554
40
0.4876594
50
63.8379856
51
77.0808925
0
ARC
8
DEFAULT_255_1_388
10
15.1696118
20
23.4130882
40
0.4216191
50
45.9863127
51
64.1608798
0
ARC
8
DEFAULT_255_1_388
10
15.1989511
20
23.446599
40
0.3771394
50
32.2747934
51
45.6544796
0
ARC
8
DEFAULT_255_1_388
10
15.2064318
20
23.4487426
40
0.3696765
50
359.6507495
51
32.6129943
0
ARC
8
DEFAULT_255_1_388
10
15.1003501
20
23.4492788
40
0.3013762
50
359.469654
51
14.983205
0
ARC
8
DEFAULT_255_1_388
10
15.1796753
20
23.4705288
40
0.2192542
50
14.9781954
51
48.2004799
0
ARC
8
DEFAULT_255_1_388
10
15.1611864
20
23.4472937
40
0.2489048
50
48.5926661
51
74.1242559
0
ARC
8
DEFAULT_255_1_388
10
15.1236666
20
23.3234607
40
0.3782845
50
73.7889321
51
86.6653996
0
ARC
8
DEFAULT_255_1_388
10
15.1121481
20
23.1876955
40
0.5145025
50
86.2642725
51
90.0533288
0
ARC
8
DEFAULT_255_1_388
10
15.1089573
20
23.2321376
40
0.4700681
50
89.669455
51
99.2313411
0
ARC
8
DEFAULT_255_1_388
10
15.0816733
20
23.3946401
40
0.3052945
50
99.0695987
51
113.7659242
0
ARC
8
DEFAULT_255_1_388
10
15.0508728
20
23.4672772
40
0.226407
50
114.0402885
51
127.9848946
0
ARC
8
DEFAULT_255_1_388
10
15.0238204
20
23.5005884
40
0.1835045
50
127.7287217
51
176.7106493
0
ARC
8
DEFAULT_255_1_388
10
15.1001869
20
23.489221
40
0.2604907
50
175.1780759
51
180.0581213
0
ARC
8
DEFAULT_255_1_388
10
15.0053212
20
23.4878411
40
0.1656287
50
179.6140658
51
228.124674
0
ARC
8
DEFAULT_255_1_388
10
15.055057
20
23.533894
40
0.2332038
50
226.5785315
51
230.8792476
0
ARC
8
DEFAULT_255_1_388
10
15.1080056
20
23.6041908
40
0.3211664
50
231.4636401
51
241.9261664
0
ARC
8
DEFAULT_255_1_388
10
15.242684
20
23.8520349
40
0.6032345
50
241.7177136
51
248.3259138
0
ARC
8
DEFAULT_255_1_388
10
15.3985435
20
24.2381771
40
1.0196417
50
248.2007377
51
252.4527713
0
ARC
8
DEFAULT_255_1_388
10
15.5338961
20
24.6566092
40
1.4594143
50
252.3388938
51
254.347037
0
ARC
8
DEFAULT_255_1_388
10
14.6854262
20
21.6218095
40
1.6917621
50
71.0197462
51
74.4085467
0
ARC
8
DEFAULT_255_1_388
10
14.876135
20
22.1723144
40
1.1091618
50
66.1845203
51
71.086519
0
ARC
8
DEFAULT_255_1_388
10
15.0511899
20
22.5664439
40
0.6779073
50
59.3537334
51
66.269255
0
ARC
8
DEFAULT_255_1_388
10
15.1511625
20
22.7355777
40
0.4814366
50
49.1021732
51
59.3294421
0
ARC
8
DEFAULT_255_1_388
10
15.2432613
20
22.8405575
40
0.3417875
50
32.7924183
51
49.2503526
0
ARC
8
DEFAULT_255_1_388
10
15.2782227
20
22.8655311
40
0.2988789
50
31.121225
51
32.3977355
0
ARC
8
DEFAULT_255_1_388
10
15.2694405
20
22.8622728
40
0.3080861
50
8.1116803
51
30.7958224
0
ARC
8
DEFAULT_255_1_388
10
15.1782751
20
22.8467437
40
0.4005385
50
359.8390945
51
8.4707348
0
ARC
8
DEFAULT_255_1_388
10
15.2486798
20
22.8412751
40
0.3301608
50
337.4732479
51
0.7538283
0
ARC
8
DEFAULT_255_1_388
10
15.2687823
20
22.8390554
40
0.3107929
50
307.5917028
51
336.4313755
0
ARC
8
DEFAULT_255_1_388
10
15.2176881
20
22.8958509
40
0.3870096
50
307.6560665
51
308.4561779
0
ARC
8
DEFAULT_255_1_388
10
15.1911098
20
22.9366832
40
0.435591
50
284.3733666
51
307.1426212
0
ARC
8
DEFAULT_255_1_388
10
15.1353992
20
23.1416391
40
0.6479685
50
272.4384566
51
284.6464689
0
ARC
8
DEFAULT_255_1_388
10
15.1211377
20
23.3440434
40
0.8508149
50
269.9708517
51
272.8180721
0
ARC
8
DEFAULT_255_1_388
10
15.1163059
20
23.1148283
40
0.6216151
50
248.2707343
51
270.4054609
0
ARC
8
DEFAULT_255_1_388
10
15.1101931
20
23.0933673
40
0.5994203
50
246.1380358
51
248.054058
0
ARC
8
DEFAULT_255_1_388
10
15.0631073
20
22.9944705
40
0.4899388
50
233.1671897
51
246.4951656
0
ARC
8
DEFAULT_255_1_388
10
15.0007709
20
22.9103137
40
0.3852115
50
215.3403381
51
233.084328
0
ARC
8
DEFAULT_255_1_388
10
14.9701073
20
22.8880093
40
0.3472969
50
179.2419235
51
215.2648426
0
ARC
8
DEFAULT_255_1_388
10
15.0564624
20
22.8895979
40
0.259251
50
179.3355796
51
199.1045873
0
ARC
8
DEFAULT_255_1_388
10
15.0190765
20
22.8798223
40
0.2207454
50
199.8830064
51
232.7061328
0
ARC
8
DEFAULT_255_1_388
10
15.072204
20
22.9466456
40
0.306101
50
232.3736206
51
255.5136621
0
ARC
8
DEFAULT_255_1_388
10
15.1105546
20
23.0866177
40
0.4512213
50
255.2447928
51
267.5318292
0
ARC
8
DEFAULT_255_1_388
10
15.1204013
20
23.2252709
40
0.5901825
50
267.1564563
51
270.0294721
0
ARC
8
DEFAULT_255_1_388
10
15.1235338
20
23.1753623
40
0.5402814
50
269.6999944
51
278.1662446
0
ARC
8
DEFAULT_255_1_388
10
15.1523365
20
22.9806974
40
0.3435003
50
278.0229022
51
290.6255326
0
ARC
8
DEFAULT_255_1_388
10
15.1914532
20
22.8763547
40
0.2320666
50
290.6616368
51
307.0374127
0
ARC
8
DEFAULT_255_1_388
10
15.2252432
20
22.834904
40
0.1786372
50
306.3942078
51
355.303191
0
ARC
8
DEFAULT_255_1_388
10
15.1676725
20
22.8435186
40
0.2367516
50
354.3662092
51
0.0709489
0
ARC
8
DEFAULT_255_1_388
10
15.1836594
20
22.8460561
40
0.2207761
50
359.4175379
51
16.1975911
0
ARC
8
DEFAULT_255_1_388
10
15.2348711
20
22.8600954
40
0.1676828
50
16.4721294
51
52.6261798
0
ARC
8
DEFAULT_255_1_388
10
15.1425219
20
22.7381606
40
0.3206412
50
52.7381828
51
62.4979144
0
ARC
8
DEFAULT_255_1_388
10
14.9866972
20
22.4449236
40
0.6527035
50
62.2517425
51
68.1219454
0
ARC
8
DEFAULT_255_1_388
10
14.793246
20
21.9694951
40
1.1659797
50
68.006043
51
71.8055127
0
ARC
8
DEFAULT_255_1_388
10
14.5912368
20
21.3636723
40
1.8045908
50
71.718361
51
73.9260743
0
LINE
8
DEFAULT_255_1_388
10
16.6070684
20
23.8268898
11
16.6070684
21
23.7329191
0
LINE
8
DEFAULT_255_1_388
10
16.6070684
20
23.7329191
11
16.062219
21
22.5113
0
LINE
8
DEFAULT_255_1_388
10
16.062219
20
22.5113
11
15.8869275
21
22.5113
0
LINE
8
DEFAULT_255_1_388
10
15.8869275
20
22.5113
11
16.4299697
21
23.689548
0
LINE
8
DEFAULT_255_1_388
10
16.4299697
20
23.689548
11
15.7179609
21
23.689548
0
LINE
8
DEFAULT_255_1_388
10
15.7179609
20
23.689548
11
15.7179609
21
23.8268898
0
LINE
8
DEFAULT_255_1_388
10
15.7179609
20
23.8268898
11
16.6070684
21
23.8268898
0
LINE
8
DEFAULT_255_1_388
10
17.1618569
20
23.1383737
11
17.1618569
21
23.0019355
0
LINE
8
DEFAULT_255_1_388
10
17.1618569
20
23.0019355
11
16.7209175
21
23.0019355
0
LINE
8
DEFAULT_255_1_388
10
16.7209175
20
23.0019355
11
16.7209175
21
23.1383737
0
LINE
8
DEFAULT_255_1_388
10
16.7209175
20
23.1383737
11
17.1618569
21
23.1383737
0
LINE
8
DEFAULT_255_1_388
10
17.856698
20
23.8332148
11
17.856698
21
22.5113
0
LINE
8
DEFAULT_255_1_388
10
17.856698
20
22.5113
11
17.688635
21
22.5113
0
LINE
8
DEFAULT_255_1_388
10
17.688635
20
22.5113
11
17.688635
21
23.625395
0
LINE
8
DEFAULT_255_1_388
10
17.688635
20
23.625395
11
17.3516055
21
23.5016066
0
LINE
8
DEFAULT_255_1_388
10
17.3516055
20
23.5016066
11
17.3516055
21
23.6534055
0
LINE
8
DEFAULT_255_1_388
10
17.3516055
20
23.6534055
11
17.8304946
21
23.8332148
0
LINE
8
DEFAULT_255_1_388
10
17.8304946
20
23.8332148
11
17.856698
21
23.8332148
0
LINE
8
DEFAULT_255_1_388
10
18.5569604
20
23.1365666
11
18.4232329
21
23.1709021
0
LINE
8
DEFAULT_255_1_388
10
18.4232329
20
23.1709021
11
18.4900967
21
23.8268898
0
LINE
8
DEFAULT_255_1_388
10
18.4900967
20
23.8268898
11
19.1641558
21
23.8268898
0
LINE
8
DEFAULT_255_1_388
10
19.1641558
20
23.8268898
11
19.1641558
21
23.6723803
0
LINE
8
DEFAULT_255_1_388
10
19.1641558
20
23.6723803
11
18.6319563
21
23.6723803
0
LINE
8
DEFAULT_255_1_388
10
18.6319563
20
23.6723803
11
18.5921995
21
23.3136652
0
LINE
8
DEFAULT_255_1_388
10
18.3762476
20
22.8573652
11
18.5343713
21
22.8573652
0
LINE
8
DEFAULT_255_1_388
10
18.6012351
20
23.1727092
11
18.5569604
21
23.1365666
0
ARC
8
DEFAULT_255_1_388
10
18.8008608
20
22.9559241
40
0.4141476
50
93.7181681
51
120.253934
0
ARC
8
DEFAULT_255_1_388
10
18.811466
20
22.8650284
40
0.5055616
50
89.9660471
51
94.2495185
0
ARC
8
DEFAULT_255_1_388
10
18.8160482
20
22.9313154
40
0.4392953
50
73.8045384
51
90.5585736
0
ARC
8
DEFAULT_255_1_388
10
18.842474
20
23.027852
40
0.3392225
50
41.3071072
51
73.543002
0
ARC
8
DEFAULT_255_1_388
10
18.795656
20
22.9875461
40
0.4009977
50
13.5075837
51
41.2174839
0
ARC
8
DEFAULT_255_1_388
10
18.6109657
20
22.9391907
40
0.5918864
50
1.1330171
51
13.8830737
0
ARC
8
DEFAULT_255_1_388
10
18.4513303
20
22.9306522
40
0.7516787
50
359.9925091
51
1.5431298
0
ARC
8
DEFAULT_255_1_388
10
18.5957918
20
22.9260027
40
0.6072343
50
347.8572712
51
0.4294349
0
ARC
8
DEFAULT_255_1_388
10
18.7927053
20
22.8813898
40
0.4053482
50
323.6727442
51
348.1674594
0
ARC
8
DEFAULT_255_1_388
10
18.8258017
20
22.8612175
40
0.3667495
50
316.8171818
51
323.1486802
0
ARC
8
DEFAULT_255_1_388
10
18.8327141
20
22.8570612
40
0.358869
50
281.839603
51
316.5458142
0
ARC
8
DEFAULT_255_1_388
10
18.7904429
20
23.0320363
40
0.5388223
50
269.5770964
51
282.4214641
0
ARC
8
DEFAULT_255_1_388
10
18.7824349
20
23.007993
40
0.5147801
50
256.2425863
51
270.4486481
0
ARC
8
DEFAULT_255_1_388
10
18.7487877
20
22.8730124
40
0.3756708
50
228.9024379
51
256.33135
0
ARC
8
DEFAULT_255_1_388
10
18.7404857
20
22.8599054
40
0.360344
50
193.7536029
51
228.5272638
0
ARC
8
DEFAULT_255_1_388
10
18.8797422
20
22.9007463
40
0.5053599
50
184.9244437
51
194.4976052
0
ARC
8
DEFAULT_255_1_388
10
18.9014063
20
22.9047722
40
0.3700839
50
187.3596909
51
198.6733728
0
ARC
8
DEFAULT_255_1_388
10
18.7833307
20
22.8638373
40
0.2451195
50
198.4453795
51
217.7945479
0
ARC
8
DEFAULT_255_1_388
10
18.7500479
20
22.8402563
40
0.2043754
50
218.2887146
51
228.5613203
0
ARC
8
DEFAULT_255_1_388
10
18.7610486
20
22.8550902
40
0.2227819
50
228.9652423
51
258.1237049
0
ARC
8
DEFAULT_255_1_388
10
18.7841924
20
22.9541964
40
0.3245374
50
257.7260585
51
270.4013717
0
ARC
8
DEFAULT_255_1_388
10
18.7892422
20
22.9041255
40
0.2744726
50
269.4204315
51
286.420998
0
ARC
8
DEFAULT_255_1_388
10
18.8059477
20
22.8434705
40
0.2115721
50
286.7250065
51
320.6004665
0
ARC
8
DEFAULT_255_1_388
10
18.7628393
20
22.8784527
40
0.2670878
50
320.6712228
51
344.5440474
0
ARC
8
DEFAULT_255_1_388
10
18.6327107
20
22.9166394
40
0.4026927
50
344.241448
51
356.735803
0
ARC
8
DEFAULT_255_1_388
10
18.4923414
20
22.9282656
40
0.5435085
50
356.3547471
51
0.0507222
0
ARC
8
DEFAULT_255_1_388
10
18.6425679
20
22.9317812
40
0.3932934
50
359.5579289
51
12.9534322
0
ARC
8
DEFAULT_255_1_388
10
18.7612519
20
22.9605586
40
0.2711827
50
12.6489751
51
41.608121
0
ARC
8
DEFAULT_255_1_388
10
18.7871679
20
22.9825946
40
0.2371737
50
41.7851122
51
85.9892156
0
ARC
8
DEFAULT_255_1_388
10
18.7732989
20
22.8910738
40
0.3295244
50
84.6965848
51
90.0672125
0
ARC
8
DEFAULT_255_1_388
10
18.7706557
20
22.8159118
40
0.4046926
50
89.6804991
51
99.161352
0
ARC
8
DEFAULT_255_1_388
10
18.7475566
20
22.9539848
40
0.2647044
50
98.9836248
51
113.8905702
0
ARC
8
DEFAULT_255_1_388
10
18.7217241
20
23.0149118
40
0.1985386
50
114.195234
51
127.3641866
0
LINE
8
DEFAULT_255_1_388
10
20.2104834
20
23.289269
11
20.2104834
21
23.0724135
0
LINE
8
DEFAULT_255_1_388
10
19.3801077
20
23.0498244
11
19.3801077
21
23.2730048
0
LINE
8
DEFAULT_255_1_388
10
20.043324
20
23.0272353
11
20.043324
21
23.3010153
0
LINE
8
DEFAULT_255_1_388
10
19.5472671
20
23.3136652
11
19.5472671
21
23.0462102
0
ARC
8
DEFAULT_255_1_388
10
18.8327168
20
23.0669118
40
1.3777776
50
353.8440855
51
0.2287917
0
ARC
8
DEFAULT_255_1_388
10
19.3546185
20
23.0086414
40
0.852639
50
344.4934746
51
353.9763743
0
ARC
8
DEFAULT_255_1_388
10
19.6912993
20
22.9129191
40
0.5026273
50
329.2803599
51
344.7473406
0
ARC
8
DEFAULT_255_1_388
10
19.8028488
20
22.8517038
40
0.3754848
50
324.9361395
51
328.6153007
0
ARC
8
DEFAULT_255_1_388
10
19.8454138
20
22.8219586
40
0.3235566
50
280.5801797
51
324.9173226
0
ARC
8
DEFAULT_255_1_388
10
19.8002767
20
23.0099236
40
0.5167077
50
269.5979457
51
281.6732777
0
ARC
8
DEFAULT_255_1_388
10
19.792167
20
22.9964113
40
0.5032026
50
256.6228565
51
270.5105488
0
ARC
8
DEFAULT_255_1_388
10
19.7469413
20
22.8222345
40
0.3233092
50
215.8618351
51
257.2787793
0
ARC
8
DEFAULT_255_1_388
10
19.861812
20
22.8993106
40
0.4615831
50
197.9695203
51
215.2622745
0
ARC
8
DEFAULT_255_1_388
10
20.1413796
20
22.9936641
40
0.7566307
50
187.8816486
51
198.2346584
0
ARC
8
DEFAULT_255_1_388
10
20.5867034
20
23.0579453
40
1.2065653
50
180.8977266
51
188.0054894
0
ARC
8
DEFAULT_255_1_388
10
20.8917248
20
23.06944
40
1.5117443
50
180.7434591
51
181.152202
0
ARC
8
DEFAULT_255_1_388
10
20.7242243
20
23.2784371
40
1.3441277
50
173.7674302
51
180.2315596
0
ARC
8
DEFAULT_255_1_388
10
20.2160112
20
23.3358779
40
0.8326847
50
164.3058537
51
173.9000553
0
ARC
8
DEFAULT_255_1_388
10
19.8884112
20
23.4302652
40
0.4917711
50
148.7922028
51
164.5682288
0
ARC
8
DEFAULT_255_1_388
10
19.781485
20
23.4899457
40
0.3694204
50
144.5883979
51
148.1161588
0
ARC
8
DEFAULT_255_1_388
10
19.7427595
20
23.5169667
40
0.322202
50
101.6440149
51
144.5142619
0
ARC
8
DEFAULT_255_1_388
10
19.7905787
20
23.3269337
40
0.5180451
50
89.528284
51
102.5820197
0
ARC
8
DEFAULT_255_1_388
10
19.7994779
20
23.3225376
40
0.5224441
50
77.0437914
51
90.508231
0
ARC
8
DEFAULT_255_1_388
10
19.8447033
20
23.5073272
40
0.3322297
50
48.2777708
51
77.4996087
0
ARC
8
DEFAULT_255_1_388
10
19.8528773
20
23.5218557
40
0.315966
50
36.3141586
51
47.6307332
0
ARC
8
DEFAULT_255_1_388
10
19.7551495
20
23.4560159
40
0.4337313
50
18.2931065
51
35.6770203
0
ARC
8
DEFAULT_255_1_388
10
19.4690336
20
23.3578107
40
0.7362203
50
8.0246996
51
18.5605636
0
ARC
8
DEFAULT_255_1_388
10
19.0006691
20
23.2886432
40
1.2096583
50
1.127539
51
8.1718423
0
ARC
8
DEFAULT_255_1_388
10
18.6357825
20
23.2743374
40
1.5747719
50
0.5432713
51
1.38669
0
ARC
8
DEFAULT_255_1_388
10
18.8415204
20
23.3050163
40
1.2018103
50
359.8092569
51
4.9408001
0
ARC
8
DEFAULT_255_1_388
10
19.3151785
20
23.34729
40
0.7262727
50
4.8364937
51
12.2906017
0
ARC
8
DEFAULT_255_1_388
10
19.625125
20
23.4163485
40
0.4087324
50
12.0806994
51
23.8171225
0
ARC
8
DEFAULT_255_1_388
10
19.7571646
20
23.4722508
40
0.2653719
50
24.2874621
51
31.3934353
0
ARC
8
DEFAULT_255_1_388
10
19.8162082
20
23.5108822
40
0.1948607
50
30.7407708
51
82.4658033
0
ARC
8
DEFAULT_255_1_388
10
19.7959742
20
23.4115017
40
0.2961198
50
81.1057101
51
90.2187368
0
ARC
8
DEFAULT_255_1_388
10
19.7919554
20
23.4405421
40
0.2670929
50
89.380395
51
105.6763916
0
ARC
8
DEFAULT_255_1_388
10
19.7713276
20
23.515532
40
0.1893189
50
105.7980655
51
149.7387869
0
ARC
8
DEFAULT_255_1_388
10
19.8910416
20
23.4435719
40
0.3289892
50
149.4208441
51
163.628295
0
ARC
8
DEFAULT_255_1_388
10
20.1262646
20
23.3718345
40
0.5749004
50
163.3764549
51
172.141138
0
ARC
8
DEFAULT_255_1_388
10
20.4975367
20
23.3186582
40
0.9499585
50
172.0258462
51
178.0705453
0
ARC
8
DEFAULT_255_1_388
10
20.839692
20
23.3024682
40
1.2924734
50
177.8639301
51
179.5036263
0
ARC
8
DEFAULT_255_1_388
10
20.7177939
20
23.0421151
40
1.170534
50
179.7995545
51
185.246089
0
ARC
8
DEFAULT_255_1_388
10
20.2629532
20
22.9990404
40
0.7136613
50
185.1411911
51
193.0082205
0
ARC
8
DEFAULT_255_1_388
10
19.9655793
20
22.9287441
40
0.4080987
50
192.7897338
51
205.2507384
0
ARC
8
DEFAULT_255_1_388
10
19.8478003
20
22.8761538
40
0.2791522
50
205.8001921
51
211.2545876
0
ARC
8
DEFAULT_255_1_388
10
19.7889542
20
22.8367132
40
0.2084074
50
210.3789935
51
238.4007996
0
ARC
8
DEFAULT_255_1_388
10
19.7867628
20
22.8419786
40
0.2117943
50
239.6521916
51
265.9793852
0
ARC
8
DEFAULT_255_1_388
10
19.7963477
20
22.9176358
40
0.2879689
50
265.1324455
51
270.0603288
0
ARC
8
DEFAULT_255_1_388
10
19.7995854
20
22.8811418
40
0.2514919
50
269.3314378
51
287.2180039
0
ARC
8
DEFAULT_255_1_388
10
19.8150936
20
22.8245291
40
0.1928357
50
287.7957942
51
329.0808983
0
ARC
8
DEFAULT_255_1_388
10
19.7073693
20
22.8917651
40
0.319808
50
328.6635261
51
343.3325043
0
ARC
8
DEFAULT_255_1_388
10
19.4629152
20
22.9679195
40
0.5758408
50
343.0498092
51
351.9392499
0
ARC
8
DEFAULT_255_1_388
10
19.0728473
20
23.0254205
40
0.9701202
50
351.8071632
51
357.7957897
0
ARC
8
DEFAULT_255_1_388
10
18.709395
20
23.0442724
40
1.3340376
50
357.5870923
51
359.2682493
0
LINE
8
DEFAULT_255_1_388
10
21.2495825
20
23.289269
11
21.2495825
21
23.0724135
0
LINE
8
DEFAULT_255_1_388
10
20.4192068
20
23.0498244
11
20.4192068
21
23.2730048
0
LINE
8
DEFAULT_255_1_388
10
21.0824231
20
23.0272353
11
21.0824231
21
23.3010153
0
LINE
8
DEFAULT_255_1_388
10
20.5863662
20
23.3136652
11
20.5863662
21
23.0462102
0
ARC
8
DEFAULT_255_1_388
10
19.8718159
20
23.0669118
40
1.3777776
50
353.8440855
51
0.2287917
0
ARC
8
DEFAULT_255_1_388
10
20.3937177
20
23.0086414
40
0.852639
50
344.4934746
51
353.9763743
0
ARC
8
DEFAULT_255_1_388
10
20.7303984
20
22.9129191
40
0.5026273
50
329.2803599
51
344.7473406
0
ARC
8
DEFAULT_255_1_388
10
20.8419479
20
22.8517038
40
0.3754848
50
324.9361395
51
328.6153007
0
ARC
8
DEFAULT_255_1_388
10
20.8845129
20
22.8219586
40
0.3235566
50
280.5801797
51
324.9173226
0
ARC
8
DEFAULT_255_1_388
10
20.8393758
20
23.0099236
40
0.5167077
50
269.5979457
51
281.6732777
0
ARC
8
DEFAULT_255_1_388
10
20.8312661
20
22.9964113
40
0.5032026
50
256.6228565
51
270.5105488
0
ARC
8
DEFAULT_255_1_388
10
20.7860404
20
22.8222345
40
0.3233092
50
215.8618351
51
257.2787793
0
ARC
8
DEFAULT_255_1_388
10
20.9009111
20
22.8993106
40
0.4615831
50
197.9695203
51
215.2622745
0
ARC
8
DEFAULT_255_1_388
10
21.1804787
20
22.9936641
40
0.7566307
50
187.8816486
51
198.2346584
0
ARC
8
DEFAULT_255_1_388
10
21.6258025
20
23.0579453
40
1.2065653
50
180.8977266
51
188.0054894
0
ARC
8
DEFAULT_255_1_388
10
21.9308239
20
23.06944
40
1.5117443
50
180.7434591
51
181.152202
0
ARC
8
DEFAULT_255_1_388
10
21.7633235
20
23.2784371
40
1.3441277
50
173.7674302
51
180.2315596
0
ARC
8
DEFAULT_255_1_388
10
21.2551104
20
23.3358779
40
0.8326847
50
164.3058537
51
173.9000553
0
ARC
8
DEFAULT_255_1_388
10
20.9275104
20
23.4302652
40
0.4917711
50
148.7922028
51
164.5682288
0
ARC
8
DEFAULT_255_1_388
10
20.8205841
20
23.4899457
40
0.3694204
50
144.5883979
51
148.1161588
0
ARC
8
DEFAULT_255_1_388
10
20.7818586
20
23.5169667
40
0.322202
50
101.6440149
51
144.5142619
0
ARC
8
DEFAULT_255_1_388
10
20.8296779
20
23.3269337
40
0.5180451
50
89.528284
51
102.5820197
0
ARC
8
DEFAULT_255_1_388
10
20.838577
20
23.3225376
40
0.5224441
50
77.0437914
51
90.508231
0
ARC
8
DEFAULT_255_1_388
10
20.8838024
20
23.5073272
40
0.3322297
50
48.2777708
51
77.4996087
0
ARC
8
DEFAULT_255_1_388
10
20.8919764
20
23.5218557
40
0.315966
50
36.3141586
51
47.6307332
0
ARC
8
DEFAULT_255_1_388
10
20.7942486
20
23.4560159
40
0.4337313
50
18.2931065
51
35.6770203
0
ARC
8
DEFAULT_255_1_388
10
20.5081327
20
23.3578107
40
0.7362203
50
8.0246996
51
18.5605636
0
ARC
8
DEFAULT_255_1_388
10
20.0397683
20
23.2886432
40
1.2096583
50
1.127539
51
8.1718423
0
ARC
8
DEFAULT_255_1_388
10
19.6748816
20
23.2743374
40
1.5747719
50
0.5432713
51
1.38669
0
ARC
8
DEFAULT_255_1_388
10
19.8806195
20
23.3050163
40
1.2018103
50
359.8092569
51
4.9408001
0
ARC
8
DEFAULT_255_1_388
10
20.3542776
20
23.34729
40
0.7262727
50
4.8364937
51
12.2906017
0
ARC
8
DEFAULT_255_1_388
10
20.6642241
20
23.4163485
40
0.4087324
50
12.0806994
51
23.8171225
0
ARC
8
DEFAULT_255_1_388
10
20.7962637
20
23.4722508
40
0.2653719
50
24.2874621
51
31.3934353
0
ARC
8
DEFAULT_255_1_388
10
20.8553073
20
23.5108822
40
0.1948607
50
30.7407708
51
82.4658033
0
ARC
8
DEFAULT_255_1_388
10
20.8350734
20
23.4115017
40
0.2961198
50
81.1057101
51
90.2187368
0
ARC
8
DEFAULT_255_1_388
10
20.8310545
20
23.4405421
40
0.2670929
50
89.380395
51
105.6763916
0
ARC
8
DEFAULT_255_1_388
10
20.8104267
20
23.515532
40
0.1893189
50
105.7980655
51
149.7387869
0
ARC
8
DEFAULT_255_1_388
10
20.9301407
20
23.4435719
40
0.3289892
50
149.4208441
51
163.628295
0
ARC
8
DEFAULT_255_1_388
10
21.1653637
20
23.3718345
40
0.5749004
50
163.3764549
51
172.141138
0
ARC
8
DEFAULT_255_1_388
10
21.5366359
20
23.3186582
40
0.9499585
50
172.0258462
51
178.0705453
0
ARC
8
DEFAULT_255_1_388
10
21.8787911
20
23.3024682
40
1.2924734
50
177.8639301
51
179.5036263
0
ARC
8
DEFAULT_255_1_388
10
21.756893
20
23.0421151
40
1.170534
50
179.7995545
51
185.246089
0
ARC
8
DEFAULT_255_1_388
10
21.3020523
20
22.9990404
40
0.7136613
50
185.1411911
51
193.0082205
0
ARC
8
DEFAULT_255_1_388
10
21.0046784
20
22.9287441
40
0.4080987
50
192.7897338
51
205.2507384
0
ARC
8
DEFAULT_255_1_388
10
20.8868994
20
22.8761538
40
0.2791522
50
205.8001921
51
211.2545876
0
ARC
8
DEFAULT_255_1_388
10
20.8280533
20
22.8367132
40
0.2084074
50
210.3789935
51
238.4007996
0
ARC
8
DEFAULT_255_1_388
10
20.8258619
20
22.8419786
40
0.2117943
50
239.6521916
51
265.9793852
0
ARC
8
DEFAULT_255_1_388
10
20.8354468
20
22.9176358
40
0.2879689
50
265.1324455
51
270.0603288
0
ARC
8
DEFAULT_255_1_388
10
20.8386845
20
22.8811418
40
0.2514919
50
269.3314378
51
287.2180039
0
ARC
8
DEFAULT_255_1_388
10
20.8541927
20
22.8245291
40
0.1928357
50
287.7957942
51
329.0808983
0
ARC
8
DEFAULT_255_1_388
10
20.7464684
20
22.8917651
40
0.319808
50
328.6635261
51
343.3325043
0
ARC
8
DEFAULT_255_1_388
10
20.5020143
20
22.9679195
40
0.5758408
50
343.0498092
51
351.9392499
0
ARC
8
DEFAULT_255_1_388
10
20.1119464
20
23.0254205
40
0.9701202
50
351.8071632
51
357.7957897
0
ARC
8
DEFAULT_255_1_388
10
19.7484941
20
23.0442724
40
1.3340376
50
357.5870923
51
359.2682493
0
LINE
8
DEFAULT_255_2_778
10
10.7156501
20
21.0343499
11
18.6531501
21
21.0343499
0
LINE
8
DEFAULT_255_2_778
10
18.6531501
20
21.0343499
11
18.6531501
21
13.0968499
0
LINE
8
DEFAULT_255_2_778
10
18.6531501
20
13.0968499
11
10.7156501
21
13.0968499
0
LINE
8
DEFAULT_255_2_778
10
10.7156501
20
13.0968499
11
10.7156501
21
21.0343499
0
LINE
8
DEFAULT_255_2_778
10
10.7156501
20
13.0968499
11
18.6531501
21
21.0343499
0
LINE
8
DEFAULT_255_2_778
10
16.27185
20
15.0019
11
17.85935
21
15.0019
0
LINE
8
DEFAULT_255_2_778
10
16.27185
20
14.3669
11
16.58935
21
14.3669
0
LINE
8
DEFAULT_255_2_778
10
16.90685
20
14.3669
11
17.22435
21
14.3669
0
LINE
8
DEFAULT_255_2_778
10
17.54185
20
14.3669
11
17.85935
21
14.3669
0
LINE
8
DEFAULT_255_2_778
10
11.64165
20
19.6321
11
13.22915
21
19.6321
0
LINE
8
DEFAULT_255_2_778
10
11.64165
20
18.9971
11
11.95915
21
18.9971
0
LINE
8
DEFAULT_255_2_778
10
12.27665
20
18.9971
11
12.59415
21
18.9971
0
LINE
8
DEFAULT_255_2_778
10
12.91165
20
18.9971
11
13.22915
21
18.9971
0
LINE
8
DEFAULT_255_1_388
10
4.1687903
20
21.8424898
11
4.1687903
21
20.6687596
0
LINE
8
DEFAULT_255_1_388
10
4.1687903
20
20.6687596
11
4.7922498
21
20.6687596
0
LINE
8
DEFAULT_255_1_388
10
4.7922498
20
20.6687596
11
4.7922498
21
20.5269
0
LINE
8
DEFAULT_255_1_388
10
4.7922498
20
20.5269
11
3.9944024
21
20.5269
0
LINE
8
DEFAULT_255_1_388
10
3.9944024
20
20.5269
11
3.9944024
21
21.8424898
0
LINE
8
DEFAULT_255_1_388
10
3.9944024
20
21.8424898
11
4.1687903
21
21.8424898
0
LINE
8
DEFAULT_255_1_388
10
5.4428162
20
21.6165987
11
5.4428162
21
21.2325838
0
LINE
8
DEFAULT_255_1_388
10
5.4428162
20
21.2325838
11
5.8096634
21
21.2325838
0
LINE
8
DEFAULT_255_1_388
10
5.8096634
20
21.2325838
11
5.8096634
21
21.0744601
0
LINE
8
DEFAULT_255_1_388
10
5.8096634
20
21.0744601
11
5.4428162
21
21.0744601
0
LINE
8
DEFAULT_255_1_388
10
5.4428162
20
21.0744601
11
5.4428162
21
20.6588204
0
LINE
8
DEFAULT_255_1_388
10
5.4428162
20
20.6588204
11
5.2747532
21
20.6588204
0
LINE
8
DEFAULT_255_1_388
10
5.2747532
20
20.6588204
11
5.2747532
21
21.0744601
0
LINE
8
DEFAULT_255_1_388
10
5.2747532
20
21.0744601
11
4.9079061
21
21.0744601
0
LINE
8
DEFAULT_255_1_388
10
4.9079061
20
21.0744601
11
4.9079061
21
21.2325838
0
LINE
8
DEFAULT_255_1_388
10
4.9079061
20
21.2325838
11
5.2747532
21
21.2325838
0
LINE
8
DEFAULT_255_1_388
10
5.2747532
20
21.2325838
11
5.2747532
21
21.6165987
0
LINE
8
DEFAULT_255_1_388
10
5.2747532
20
21.6165987
11
5.4428162
21
21.6165987
0
LINE
8
DEFAULT_255_1_388
10
4.4762094
20
5.1669317
11
4.1662868
21
5.1669317
0
LINE
8
DEFAULT_255_1_388
10
4.1662868
20
5.1669317
11
4.1662868
21
4.6519
0
LINE
8
DEFAULT_255_1_388
10
4.1662868
20
4.6519
11
3.9928024
21
4.6519
0
LINE
8
DEFAULT_255_1_388
10
3.9928024
20
4.6519
11
3.9928024
21
5.9674898
0
LINE
8
DEFAULT_255_1_388
10
3.9928024
20
5.9674898
11
4.4780165
21
5.9674898
0
LINE
8
DEFAULT_255_1_388
10
4.1662868
20
5.8247267
11
4.1662868
21
5.3087914
0
LINE
8
DEFAULT_255_1_388
10
4.1662868
20
5.3087914
11
4.4780165
21
5.3087914
0
LINE
8
DEFAULT_255_1_388
10
4.4879557
20
5.8247267
11
4.1662868
21
5.8247267
0
ARC
8
DEFAULT_255_1_388
10
4.4827538
20
5.2858334
40
0.6816729
50
78.8380084
51
90.398184
0
ARC
8
DEFAULT_255_1_388
10
4.5295569
20
5.5131796
40
0.449571
50
58.9633273
51
79.0810717
0
ARC
8
DEFAULT_255_1_388
10
4.5634953
20
5.5761823
40
0.3781049
50
48.0194715
51
58.4475592
0
ARC
8
DEFAULT_255_1_388
10
4.5734773
20
5.5857818
40
0.3642936
50
3.3374546
51
48.1766642
0
ARC
8
DEFAULT_255_1_388
10
4.434958
20
5.5658581
40
0.5038766
50
359.9483251
51
4.6822857
0
ARC
8
DEFAULT_255_1_388
10
4.4489503
20
5.5610779
40
0.4899031
50
346.1879032
51
0.5059221
0
ARC
8
DEFAULT_255_1_388
10
4.6018295
20
5.5213763
40
0.3319729
50
310.8832219
51
346.5426612
0
ARC
8
DEFAULT_255_1_388
10
4.5671143
20
5.5682853
40
0.3901853
50
286.6925305
51
310.228778
0
ARC
8
DEFAULT_255_1_388
10
4.5030873
20
5.7696585
40
0.6014737
50
274.6848219
51
287.0247342
0
ARC
8
DEFAULT_255_1_388
10
4.4777422
20
6.0181088
40
0.8511785
50
269.8968222
51
275.0192639
0
ARC
8
DEFAULT_255_1_388
10
4.4808415
20
5.7843144
40
0.4755314
50
269.6596206
51
279.4150542
0
ARC
8
DEFAULT_255_1_388
10
4.5097873
20
5.6165945
40
0.3053379
50
279.2050006
51
294.9901776
0
ARC
8
DEFAULT_255_1_388
10
4.5424508
20
5.5437353
40
0.2255036
50
295.2886769
51
311.2912669
0
ARC
8
DEFAULT_255_1_388
10
4.5504249
20
5.5318938
40
0.2113522
50
311.7853512
51
347.2860549
0
ARC
8
DEFAULT_255_1_388
10
4.439741
20
5.560343
40
0.3256011
50
346.6891629
51
0.1057086
0
ARC
8
DEFAULT_255_1_388
10
4.347487
20
5.5636247
40
0.417863
50
359.63239
51
359.9961329
0
ARC
8
DEFAULT_255_1_388
10
4.4639475
20
5.5663987
40
0.3014155
50
359.4673371
51
15.5931159
0
ARC
8
DEFAULT_255_1_388
10
4.5342538
20
5.5853937
40
0.2285918
50
15.7441779
51
46.620186
0
ARC
8
DEFAULT_255_1_388
10
4.5176298
20
5.5662361
40
0.2539359
50
46.8628482
51
75.6676625
0
ARC
8
DEFAULT_255_1_388
10
4.4845354
20
5.4471243
40
0.3775415
50
75.2763152
51
88.2916439
0
ARC
8
DEFAULT_255_1_388
10
4.4779354
20
5.3469097
40
0.4779221
50
87.8589087
51
88.7986197
0
LINE
8
DEFAULT_255_1_388
10
5.9038412
20
5.4018585
11
5.9038412
21
5.2599989
0
LINE
8
DEFAULT_255_1_388
10
5.9038412
20
5.2599989
11
5.333692
21
5.2599989
0
LINE
8
DEFAULT_255_1_388
10
5.333692
20
5.2599989
11
5.333692
21
4.7937596
0
LINE
8
DEFAULT_255_1_388
10
5.333692
20
4.7937596
11
5.9960048
21
4.7937596
0
LINE
8
DEFAULT_255_1_388
10
5.9960048
20
4.7937596
11
5.9960048
21
4.6519
0
LINE
8
DEFAULT_255_1_388
10
5.9960048
20
4.6519
11
5.1602077
21
4.6519
0
LINE
8
DEFAULT_255_1_388
10
5.1602077
20
4.6519
11
5.1602077
21
5.9674898
0
LINE
8
DEFAULT_255_1_388
10
5.1602077
20
5.9674898
11
5.9869691
21
5.9674898
0
LINE
8
DEFAULT_255_1_388
10
5.9869691
20
5.9674898
11
5.9869691
21
5.8247267
0
LINE
8
DEFAULT_255_1_388
10
5.9869691
20
5.8247267
11
5.333692
21
5.8247267
0
LINE
8
DEFAULT_255_1_388
10
5.333692
20
5.8247267
11
5.333692
21
5.4018585
0
LINE
8
DEFAULT_255_1_388
10
5.333692
20
5.4018585
11
5.9038412
21
5.4018585
0
LINE
8
DEFAULT_255_1_388
10
5.001891
20
13.9049898
11
5.001891
21
12.5894
0
LINE
8
DEFAULT_255_1_388
10
5.001891
20
12.5894
11
4.8275031
21
12.5894
0
LINE
8
DEFAULT_255_1_388
10
4.8275031
20
12.5894
11
4.1651903
21
13.6031993
0
LINE
8
DEFAULT_255_1_388
10
4.1651903
20
13.6031993
11
4.1651903
21
12.5894
0
LINE
8
DEFAULT_255_1_388
10
4.1651903
20
12.5894
11
3.9908024
21
12.5894
0
LINE
8
DEFAULT_255_1_388
10
3.9908024
20
12.5894
11
3.9908024
21
13.9049898
0
LINE
8
DEFAULT_255_1_388
10
3.9908024
20
13.9049898
11
4.1651903
21
13.9049898
0
LINE
8
DEFAULT_255_1_388
10
4.1651903
20
13.9049898
11
4.8293102
21
12.8866727
0
LINE
8
DEFAULT_255_1_388
10
4.8293102
20
12.8866727
11
4.8293102
21
13.9049898
0
LINE
8
DEFAULT_255_1_388
10
4.8293102
20
13.9049898
11
5.001891
21
13.9049898
0
ENDSEC
0
EOF