0
SECTION
2
HEADER
9
$MEASUREMENT
70
1
0
ENDSEC
0
SECTION
2
TABLES
0
TABLE
2
LTYPE
0
LTYPE
72
65
70
64
2
CONTINUOUS
3
______
73
0
40
0
0
ENDTAB
0
TABLE
2
LAYER
0
LAYER
2
DEFAULT_255_2_778
70
0
62
255
6
CONTINUOUS
0
LAYER
2
DEFAULT_255_1_234
70
0
62
255
6
CONTINUOUS
0
ENDTAB
0
ENDSEC
0
SECTION
2
ENTITIES
0
ARC
8
DEFAULT_255_2_778
10
3.5695693
20
36.1176536
40
0.7914215
50
129.1312896
51
180.1450914
0
ARC
8
DEFAULT_255_2_778
10
3.5698345
20
36.1181407
40
0.7912112
50
89.854026
51
129.1684493
0
ARC
8
DEFAULT_255_2_778
10
25.7988937
20
36.1178272
40
0.7915249
50
39.4792447
51
90.147911
0
ARC
8
DEFAULT_255_2_778
10
25.7994935
20
36.1176739
40
0.7911595
50
359.8533901
51
39.5154338
0
ARC
8
DEFAULT_255_2_778
10
25.7991693
20
-1.9863987
40
0.7914836
50
309.4761667
51
0.1482649
0
ARC
8
DEFAULT_255_2_778
10
25.798898
20
-1.9868298
40
0.7913235
50
269.8517415
51
309.511178
0
ARC
8
DEFAULT_255_2_778
10
3.569842
20
-1.9867716
40
0.7913815
50
219.1282118
51
270.1454017
0
ARC
8
DEFAULT_255_2_778
10
3.5695247
20
-1.9863891
40
0.7913769
50
179.8524075
51
219.1641908
0
LINE
8
DEFAULT_255_2_778
10
3.5718503
20
36.9093494
11
25.7968503
21
36.9093494
0
LINE
8
DEFAULT_255_2_778
10
26.5906503
20
36.1156494
11
26.5906503
21
-1.9843506
0
LINE
8
DEFAULT_255_2_778
10
25.7968503
20
-2.7781506
11
3.5718503
21
-2.7781506
0
LINE
8
DEFAULT_255_2_778
10
2.7781503
20
-1.9843506
11
2.7781503
21
36.1156494
0
LINE
8
DEFAULT_255_1_234
10
6.6599835
20
0.5189243
11
6.6864882
21
0.5189243
0
LINE
8
DEFAULT_255_1_234
10
6.6864882
20
0.5189243
11
6.6864882
21
0.392826
0
LINE
8
DEFAULT_255_1_234
10
6.6864882
20
0.392826
11
6.6591803
21
0.392826
0
LINE
8
DEFAULT_255_1_234
10
6.1122189
20
-0.2063417
11
6.1122189
21
-0.1493164
0
LINE
8
DEFAULT_255_1_234
10
6.2616093
20
-0.1685925
11
6.2616093
21
-0.2232083
0
ARC
8
DEFAULT_255_1_234
10
6.6644151
20
-0.1069545
40
0.4998079
50
90.6001036
51
104.514704
0
ARC
8
DEFAULT_255_1_234
10
6.6255667
20
0.0375131
40
0.3502176
50
104.2855254
51
133.862935
0
ARC
8
DEFAULT_255_1_234
10
6.6419424
20
0.026683
40
0.3693984
50
134.5302688
51
161.6210873
0
ARC
8
DEFAULT_255_1_234
10
6.8072613
20
-0.0316105
40
0.5446739
50
161.2849839
51
174.2076652
0
ARC
8
DEFAULT_255_1_234
10
6.947955
20
-0.0510213
40
0.6866274
50
173.7810589
51
174.9254635
0
ARC
8
DEFAULT_255_1_234
10
6.4929382
20
-0.1893161
40
0.3033419
50
95.8330959
51
138.9954921
0
ARC
8
DEFAULT_255_1_234
10
6.5152738
20
-0.3171625
40
0.4328947
50
89.8753725
51
97.0544009
0
ARC
8
DEFAULT_255_1_234
10
6.5200204
20
-0.2336252
40
0.3493769
50
71.6407809
51
90.6240094
0
ARC
8
DEFAULT_255_1_234
10
6.5350777
20
-0.1781918
40
0.2920396
50
39.6367836
51
71.019018
0
ARC
8
DEFAULT_255_1_234
10
6.471425
20
-0.2332002
40
0.3761538
50
10.658731
51
39.9043955
0
ARC
8
DEFAULT_255_1_234
10
6.3166333
20
-0.2668314
40
0.5345136
50
359.682601
51
11.132623
0
ARC
8
DEFAULT_255_1_234
10
6.3126464
20
-0.273899
40
0.5385081
50
347.2486944
51
0.4369317
0
ARC
8
DEFAULT_255_1_234
10
6.4793941
20
-0.3140193
40
0.3670249
50
318.1409698
51
347.6118597
0
ARC
8
DEFAULT_255_1_234
10
6.5118934
20
-0.3407298
40
0.3250007
50
275.6342139
51
317.8248465
0
ARC
8
DEFAULT_255_1_234
10
6.4898045
20
-0.2107781
40
0.4565864
50
269.8874292
51
276.7917694
0
ARC
8
DEFAULT_255_1_234
10
6.4843116
20
-0.3133257
40
0.3540676
50
246.9140195
51
270.7437342
0
ARC
8
DEFAULT_255_1_234
10
6.4849506
20
-0.3275616
40
0.3412781
50
218.1665114
51
245.878116
0
ARC
8
DEFAULT_255_1_234
10
6.5728967
20
-0.2539721
40
0.455911
50
191.4115814
51
218.6077802
0
ARC
8
DEFAULT_255_1_234
10
6.7667056
20
-0.2105167
40
0.6545001
50
179.6345085
51
191.7836486
0
ARC
8
DEFAULT_255_1_234
10
7.3249393
20
-0.1426303
40
1.2127388
50
171.4525249
51
180.3158839
0
ARC
8
DEFAULT_255_1_234
10
6.8854269
20
-0.0742392
40
0.7679464
50
157.9802646
51
171.6246686
0
ARC
8
DEFAULT_255_1_234
10
6.664029
20
0.0140421
40
0.5296008
50
141.4298019
51
157.854097
0
ARC
8
DEFAULT_255_1_234
10
6.599861
20
0.0594381
40
0.4511509
50
102.8715806
51
140.8564722
0
ARC
8
DEFAULT_255_1_234
10
6.6646226
20
-0.1845448
40
0.7034845
50
90.3778349
51
103.5869322
0
ARC
8
DEFAULT_255_1_234
10
6.4908002
20
-0.245027
40
0.2370698
50
89.8751008
51
126.2071704
0
ARC
8
DEFAULT_255_1_234
10
6.4953792
20
-0.2604697
40
0.2522934
50
124.9745049
51
144.895901
0
ARC
8
DEFAULT_255_1_234
10
6.4777982
20
-0.246144
40
0.2296779
50
145.2974905
51
160.2660252
0
ARC
8
DEFAULT_255_1_234
10
6.7850521
20
-0.2263929
40
0.5234525
50
179.6514266
51
190.2855912
0
ARC
8
DEFAULT_255_1_234
10
6.6156658
20
-0.2583214
40
0.3510893
50
190.0945431
51
207.5098196
0
ARC
8
DEFAULT_255_1_234
10
6.5590928
20
-0.2852377
40
0.288489
50
207.9583163
51
216.3251085
0
ARC
8
DEFAULT_255_1_234
10
6.5251036
20
-0.3131895
40
0.2445587
50
215.7661442
51
232.5456785
0
ARC
8
DEFAULT_255_1_234
10
6.4868019
20
-0.3618518
40
0.1826382
50
232.8005391
51
270.6605633
0
ARC
8
DEFAULT_255_1_234
10
6.491372
20
-0.3254388
40
0.2190529
50
269.35537
51
288.4744281
0
ARC
8
DEFAULT_255_1_234
10
6.5006617
20
-0.3603882
40
0.1829749
50
289.1833337
51
322.9683818
0
ARC
8
DEFAULT_255_1_234
10
6.4395139
20
-0.3121609
40
0.2608399
50
322.6007884
51
346.5182367
0
ARC
8
DEFAULT_255_1_234
10
6.3237735
20
-0.2826384
40
0.3802777
50
346.2582162
51
358.7741648
0
ARC
8
DEFAULT_255_1_234
10
6.2219404
20
-0.2771035
40
0.4822176
50
358.3755224
51
0.0098023
0
ARC
8
DEFAULT_255_1_234
10
6.2975591
20
-0.2743343
40
0.4066078
50
359.6214041
51
11.2839074
0
ARC
8
DEFAULT_255_1_234
10
6.4252738
20
-0.2476934
40
0.2761514
50
11.0482309
51
31.8146458
0
ARC
8
DEFAULT_255_1_234
10
6.4561781
20
-0.2309416
40
0.2410679
50
32.3035391
51
38.082671
0
ARC
8
DEFAULT_255_1_234
10
6.4982441
20
-0.1928338
40
0.1844966
50
36.825067
51
85.7415724
0
ARC
8
DEFAULT_255_1_234
10
6.4915274
20
-0.2428699
40
0.2349122
50
85.0140713
51
90.0513278
0
LINE
8
DEFAULT_255_1_234
10
7.7265983
20
0.0153343
11
7.7265983
21
-0.110764
0
LINE
8
DEFAULT_255_1_234
10
7.7265983
20
-0.110764
11
7.2197957
21
-0.110764
0
LINE
8
DEFAULT_255_1_234
10
7.2197957
20
-0.110764
11
7.2197957
21
-0.5252017
0
LINE
8
DEFAULT_255_1_234
10
7.2197957
20
-0.5252017
11
7.8085221
21
-0.5252017
0
LINE
8
DEFAULT_255_1_234
10
7.8085221
20
-0.5252017
11
7.8085221
21
-0.6513
0
LINE
8
DEFAULT_255_1_234
10
7.8085221
20
-0.6513
11
7.0655863
21
-0.6513
0
LINE
8
DEFAULT_255_1_234
10
7.0655863
20
-0.6513
11
7.0655863
21
0.5181211
0
LINE
8
DEFAULT_255_1_234
10
7.0655863
20
0.5181211
11
7.8004903
21
0.5181211
0
LINE
8
DEFAULT_255_1_234
10
7.8004903
20
0.5181211
11
7.8004903
21
0.3912196
0
LINE
8
DEFAULT_255_1_234
10
7.8004903
20
0.3912196
11
7.2197957
21
0.3912196
0
LINE
8
DEFAULT_255_1_234
10
7.2197957
20
0.3912196
11
7.2197957
21
0.0153343
0
LINE
8
DEFAULT_255_1_234
10
7.2197957
20
0.0153343
11
7.7265983
21
0.0153343
0
LINE
8
DEFAULT_255_1_234
10
8.7763465
20
0.1799849
11
8.621334
21
0.1799849
0
LINE
8
DEFAULT_255_1_234
10
7.9289981
20
-0.3123606
11
8.0840107
21
-0.3123606
0
ARC
8
DEFAULT_255_1_234
10
8.6872153
20
1.0746768
40
1.252368
50
248.9199003
51
254.1439814
0
ARC
8
DEFAULT_255_1_234
10
8.5191648
20
0.6420234
40
0.788226
50
241.633709
51
249.0064503
0
ARC
8
DEFAULT_255_1_234
10
8.3663042
20
0.3619317
40
0.4691427
50
230.498225
51
241.8087113
0
ARC
8
DEFAULT_255_1_234
10
8.2878616
20
0.2619906
40
0.3421437
50
227.4064532
51
229.9881192
0
ARC
8
DEFAULT_255_1_234
10
8.2391137
20
0.2144088
40
0.2741476
50
200.6781896
51
228.1763934
0
ARC
8
DEFAULT_255_1_234
10
8.2463447
20
0.2129077
40
0.2804109
50
179.5061581
51
199.8694617
0
ARC
8
DEFAULT_255_1_234
10
8.2454199
20
0.220321
40
0.2795204
50
132.4834203
51
181.0242172
0
ARC
8
DEFAULT_255_1_234
10
8.3049782
20
0.1640704
40
0.3612768
50
129.2532479
51
133.4242687
0
ARC
8
DEFAULT_255_1_234
10
8.3196231
20
0.1420965
40
0.3875675
50
101.98776
51
128.8742646
0
ARC
8
DEFAULT_255_1_234
10
8.3594842
20
-0.0300259
40
0.5642249
50
89.5906553
51
102.3169264
0
ARC
8
DEFAULT_255_1_234
10
8.3665334
20
0.0018148
40
0.5323783
50
77.2360837
51
90.3248275
0
ARC
8
DEFAULT_255_1_234
10
8.3872413
20
0.09854
40
0.4334697
50
63.837784
51
77.0809408
0
ARC
8
DEFAULT_255_1_234
10
8.4150175
20
0.1502911
40
0.3747796
50
45.9864267
51
64.1607727
0
ARC
8
DEFAULT_255_1_234
10
8.4411056
20
0.1800866
40
0.3352302
50
32.2747395
51
45.6547121
0
ARC
8
DEFAULT_255_1_234
10
8.4477497
20
0.181988
40
0.328603
50
359.6507365
51
32.6130309
0
ARC
8
DEFAULT_255_1_234
10
8.3534592
20
0.182466
40
0.2678863
50
359.469343
51
14.9832209
0
ARC
8
DEFAULT_255_1_234
10
8.4239654
20
0.2013539
40
0.1948938
50
14.9781179
51
48.2004265
0
ARC
8
DEFAULT_255_1_234
10
8.4075299
20
0.1806983
40
0.2212521
50
48.5927837
51
74.1241538
0
ARC
8
DEFAULT_255_1_234
10
8.3741788
20
0.0706248
40
0.3362561
50
73.7888341
51
86.6652678
0
ARC
8
DEFAULT_255_1_234
10
8.3639354
20
-0.0501119
40
0.4573953
50
86.2640471
51
90.0526343
0
ARC
8
DEFAULT_255_1_234
10
8.3611066
20
-0.0105808
40
0.4178709
50
89.6697524
51
99.2309573
0
ARC
8
DEFAULT_255_1_234
10
8.3368517
20
0.1338964
40
0.2713749
50
99.069534
51
113.7658566
0
ARC
8
DEFAULT_255_1_234
10
8.3094708
20
0.1984677
40
0.2012469
50
114.0401004
51
127.9850673
0
ARC
8
DEFAULT_255_1_234
10
8.2854272
20
0.228073
40
0.1631167
50
127.7287463
51
176.7105154
0
ARC
8
DEFAULT_255_1_234
10
8.353299
20
0.2179693
40
0.2315392
50
175.1779447
51
180.0581938
0
ARC
8
DEFAULT_255_1_234
10
8.2689836
20
0.2167428
40
0.1472271
50
179.6142195
51
228.1246017
0
ARC
8
DEFAULT_255_1_234
10
8.3131505
20
0.2576308
40
0.2072299
50
226.5779593
51
230.8800004
0
ARC
8
DEFAULT_255_1_234
10
8.3602584
20
0.3201636
40
0.2854818
50
231.4635071
51
241.9260842
0
ARC
8
DEFAULT_255_1_234
10
8.4799762
20
0.54048
40
0.53622
50
241.7178533
51
248.3259551
0
ARC
8
DEFAULT_255_1_234
10
8.6185134
20
0.8837064
40
0.9063478
50
248.2007737
51
252.4528373
0
ARC
8
DEFAULT_255_1_234
10
8.7388858
20
1.2558441
40
1.2974635
50
252.3391078
51
254.3469452
0
ARC
8
DEFAULT_255_1_234
10
7.9846561
20
-1.4418852
40
1.5037162
50
71.0197183
51
74.4087047
0
ARC
8
DEFAULT_255_1_234
10
8.1541246
20
-0.9526889
40
0.9859993
50
66.1847285
51
71.086374
0
ARC
8
DEFAULT_255_1_234
10
8.3097559
20
-0.60228
40
0.6025855
50
59.3536294
51
66.2691831
0
ARC
8
DEFAULT_255_1_234
10
8.3986211
20
-0.4519391
40
0.4279449
50
49.1020879
51
59.3293958
0
ARC
8
DEFAULT_255_1_234
10
8.4804951
20
-0.3586166
40
0.3038015
50
32.7919921
51
49.2505539
0
ARC
8
DEFAULT_255_1_234
10
8.5126041
20
-0.3357809
40
0.264448
50
31.1181161
51
32.4005348
0
ARC
8
DEFAULT_255_1_234
10
8.5037579
20
-0.3393221
40
0.2738556
50
8.1116974
51
30.7958831
0
ARC
8
DEFAULT_255_1_234
10
8.4227247
20
-0.3531247
40
0.3560327
50
359.8389159
51
8.4706516
0
ARC
8
DEFAULT_255_1_234
10
8.4853038
20
-0.3579863
40
0.2934776
50
337.4731098
51
0.7537279
0
ARC
8
DEFAULT_255_1_234
10
8.5031733
20
-0.3599613
40
0.2762607
50
307.5917067
51
336.4315538
0
ARC
8
DEFAULT_255_1_234
10
8.4571561
20
-0.3086898
40
0.3449979
50
307.6551545
51
308.4529766
0
ARC
8
DEFAULT_255_1_234
10
8.434128
20
-0.273175
40
0.3871988
50
284.3734338
51
307.1424381
0
ARC
8
DEFAULT_255_1_234
10
8.384611
20
-0.0910068
40
0.5759636
50
272.4382747
51
284.646547
0
ARC
8
DEFAULT_255_1_234
10
8.3719319
20
0.0889893
40
0.7563528
50
269.9708387
51
272.8178037
0
ARC
8
DEFAULT_255_1_234
10
8.3676358
20
-0.1148284
40
0.5525489
50
248.2707594
51
270.4055579
0
ARC
8
DEFAULT_255_1_234
10
8.36221
20
-0.1338808
40
0.5328452
50
246.1383403
51
248.0542782
0
ARC
8
DEFAULT_255_1_234
10
8.3203478
20
-0.2218157
40
0.4355005
50
233.1670131
51
246.4950969
0
ARC
8
DEFAULT_255_1_234
10
8.2649383
20
-0.2966188
40
0.3424126
50
215.3403242
51
233.0843104
0
ARC
8
DEFAULT_255_1_234
10
8.2376815
20
-0.3164451
40
0.3087104
50
179.2419209
51
215.2648451
0
ARC
8
DEFAULT_255_1_234
10
8.3144409
20
-0.3150334
40
0.2304457
50
179.335461
51
199.1045811
0
ARC
8
DEFAULT_255_1_234
10
8.2812085
20
-0.3237234
40
0.1962176
50
199.8828939
51
232.7063202
0
ARC
8
DEFAULT_255_1_234
10
8.3284353
20
-0.2643212
40
0.2720938
50
232.3738199
51
255.5136649
0
ARC
8
DEFAULT_255_1_234
10
8.362522
20
-0.1399165
40
0.4010747
50
255.2446292
51
267.5320849
0
ARC
8
DEFAULT_255_1_234
10
8.3712843
20
-0.0166298
40
0.5246356
50
267.1557994
51
270.0286766
0
ARC
8
DEFAULT_255_1_234
10
8.3740616
20
-0.061005
40
0.4802668
50
269.7000017
51
278.1660162
0
ARC
8
DEFAULT_255_1_234
10
8.399662
20
-0.2340485
40
0.3053425
50
278.0231263
51
290.625471
0
ARC
8
DEFAULT_255_1_234
10
8.4344308
20
-0.3267975
40
0.206291
50
290.6619762
51
307.0370976
0
ARC
8
DEFAULT_255_1_234
10
8.4644697
20
-0.3636496
40
0.1587906
50
306.3943566
51
355.3030547
0
ARC
8
DEFAULT_255_1_234
10
8.4132628
20
-0.3559887
40
0.2104809
50
354.3660432
51
0.0698737
0
ARC
8
DEFAULT_255_1_234
10
8.4274973
20
-0.3537383
40
0.1962563
50
359.417946
51
16.1971788
0
ARC
8
DEFAULT_255_1_234
10
8.4730284
20
-0.3412582
40
0.149053
50
16.4723299
51
52.6262157
0
ARC
8
DEFAULT_255_1_234
10
8.3909338
20
-0.4496567
40
0.2850296
50
52.7386432
51
62.4979148
0
ARC
8
DEFAULT_255_1_234
10
8.2524415
20
-0.7102717
40
0.5801521
50
62.2515216
51
68.1220564
0
ARC
8
DEFAULT_255_1_234
10
8.0804325
20
-1.1330128
40
1.0365451
50
68.0062803
51
71.8053402
0
ARC
8
DEFAULT_255_1_234
10
7.9008697
20
-1.6715242
40
1.6042013
50
71.7183119
51
73.9258742
0
LINE
8
DEFAULT_255_1_234
10
9.6927679
20
0.5181211
11
9.6927679
21
0.434591
0
LINE
8
DEFAULT_255_1_234
10
9.6927679
20
0.434591
11
9.2084541
21
-0.6513
0
LINE
8
DEFAULT_255_1_234
10
9.2084541
20
-0.6513
11
9.0526383
21
-0.6513
0
LINE
8
DEFAULT_255_1_234
10
9.0526383
20
-0.6513
11
9.5353458
21
0.3960387
0
LINE
8
DEFAULT_255_1_234
10
9.5353458
20
0.3960387
11
8.9024448
21
0.3960387
0
LINE
8
DEFAULT_255_1_234
10
8.9024448
20
0.3960387
11
8.9024448
21
0.5181211
0
LINE
8
DEFAULT_255_1_234
10
8.9024448
20
0.5181211
11
9.6927679
21
0.5181211
0
LINE
8
DEFAULT_255_1_234
10
10.0774881
20
-0.1155831
11
10.0774881
21
0.0056962
0
LINE
8
DEFAULT_255_1_234
10
10.0774881
20
0.0056962
11
10.1891293
21
0.0056962
0
LINE
8
DEFAULT_255_1_234
10
9.9987771
20
0.2113087
11
9.8501899
21
0.2113087
0
LINE
8
DEFAULT_255_1_234
10
9.8397487
20
-0.3428812
11
9.989139
21
-0.3428812
0
LINE
8
DEFAULT_255_1_234
10
10.1891293
20
-0.1155831
11
10.0774881
21
-0.1155831
0
ARC
8
DEFAULT_255_1_234
10
10.1862159
20
0.3449713
40
0.3392876
50
270.4919872
51
281.8951556
0
ARC
8
DEFAULT_255_1_234
10
10.2103421
20
0.2347702
40
0.2264817
50
281.6691735
51
301.2943132
0
ARC
8
DEFAULT_255_1_234
10
10.2273631
20
0.2036304
40
0.1910381
50
301.7833094
51
311.7545298
0
ARC
8
DEFAULT_255_1_234
10
10.2365207
20
0.1934748
40
0.1773635
50
311.7323931
51
354.2802411
0
ARC
8
DEFAULT_255_1_234
10
10.1638832
20
0.2059722
40
0.2509385
50
353.0937916
51
0.1181479
0
ARC
8
DEFAULT_255_1_234
10
10.1177617
20
0.2107386
40
0.2970898
50
359.1805295
51
15.0453146
0
ARC
8
DEFAULT_255_1_234
10
10.2523454
20
0.2499992
40
0.1569564
50
13.9577229
51
77.6713066
0
ARC
8
DEFAULT_255_1_234
10
10.2136983
20
0.1114949
40
0.3006298
50
76.1116566
51
90.7026153
0
ARC
8
DEFAULT_255_1_234
10
10.2077822
20
0.1388545
40
0.2732568
50
89.5324876
51
103.531937
0
ARC
8
DEFAULT_255_1_234
10
10.1877266
20
0.2187884
40
0.1908508
50
103.2931773
51
133.5619022
0
ARC
8
DEFAULT_255_1_234
10
10.1832754
20
0.2247375
40
0.1834746
50
133.8349307
51
173.5344437
0
ARC
8
DEFAULT_255_1_234
10
10.2555797
20
0.2119213
40
0.2568033
50
172.5096846
51
180.1366907
0
ARC
8
DEFAULT_255_1_234
10
10.1604691
20
0.2153622
40
0.3103056
50
155.3484492
51
180.7484736
0
ARC
8
DEFAULT_255_1_234
10
10.155578
20
0.2124846
40
0.3070957
50
131.5744599
51
154.4798489
0
ARC
8
DEFAULT_255_1_234
10
10.1868928
20
0.180831
40
0.3515643
50
96.9875458
51
131.9690667
0
ARC
8
DEFAULT_255_1_234
10
10.2088407
20
0.0562636
40
0.4779224
50
89.8596053
51
97.7825159
0
ARC
8
DEFAULT_255_1_234
10
10.2136471
20
0.0300616
40
0.5041361
50
78.3655447
51
90.4131539
0
ARC
8
DEFAULT_255_1_234
10
10.2494388
20
0.1959887
40
0.3344039
50
56.6229102
51
78.638727
0
ARC
8
DEFAULT_255_1_234
10
10.2709332
20
0.2335805
40
0.2912001
50
47.0253525
51
56.0854072
0
ARC
8
DEFAULT_255_1_234
10
10.2729112
20
0.2375223
40
0.2869704
50
10.9208013
51
46.7778124
0
ARC
8
DEFAULT_255_1_234
10
10.1365179
20
0.2059857
40
0.426899
50
359.6364486
51
11.6087304
0
ARC
8
DEFAULT_255_1_234
10
10.3200023
20
0.2044752
40
0.243409
50
332.3549906
51
359.7179418
0
ARC
8
DEFAULT_255_1_234
10
10.2549624
20
0.2353142
40
0.3153459
50
325.2333722
51
332.8745602
0
ARC
8
DEFAULT_255_1_234
10
10.2702248
20
0.2246828
40
0.2967456
50
292.9802137
51
325.2392345
0
ARC
8
DEFAULT_255_1_234
10
10.2427622
20
0.2780863
40
0.3566604
50
292.5402179
51
293.6924929
0
ARC
8
DEFAULT_255_1_234
10
10.2820218
20
-0.3673909
40
0.3307468
50
57.6435486
51
72.8625112
0
ARC
8
DEFAULT_255_1_234
10
10.3174717
20
-0.3099451
40
0.2632492
50
36.7248896
51
57.4697979
0
ARC
8
DEFAULT_255_1_234
10
10.316335
20
-0.308678
40
0.2634081
50
8.0545065
51
36.356114
0
ARC
8
DEFAULT_255_1_234
10
10.2300535
20
-0.3241826
40
0.3510261
50
359.8320645
51
8.5869982
0
ARC
8
DEFAULT_255_1_234
10
10.1925312
20
-0.3289899
40
0.3885653
50
343.9829931
51
0.5571613
0
ARC
8
DEFAULT_255_1_234
10
10.2811509
20
-0.3532562
40
0.2966924
50
311.6359546
51
343.7651759
0
ARC
8
DEFAULT_255_1_234
10
10.2433078
20
-0.3105898
40
0.3537231
50
279.7829875
51
311.6255694
0
ARC
8
DEFAULT_255_1_234
10
10.2131854
20
-0.166872
40
0.5004971
50
269.7286406
51
280.3856417
0
ARC
8
DEFAULT_255_1_234
10
10.2069927
20
-0.1710004
40
0.4963778
50
256.6828919
51
270.4412052
0
ARC
8
DEFAULT_255_1_234
10
10.1731223
20
-0.3094606
40
0.3538406
50
229.4223008
51
256.8556159
0
ARC
8
DEFAULT_255_1_234
10
10.1316615
20
-0.3561264
40
0.2914296
50
181.818294
51
229.6455059
0
ARC
8
DEFAULT_255_1_234
10
10.2356572
20
-0.3430504
40
0.3959084
50
179.9755256
51
183.2323064
0
ARC
8
DEFAULT_255_1_234
10
10.2184317
20
-0.3450963
40
0.2293034
50
179.4465117
51
196.2869258
0
ARC
8
DEFAULT_255_1_234
10
10.1696725
20
-0.3584349
40
0.1787621
50
196.5661473
51
227.705904
0
ARC
8
DEFAULT_255_1_234
10
10.186082
20
-0.3400845
40
0.2033784
50
227.7652068
51
257.8762805
0
ARC
8
DEFAULT_255_1_234
10
10.208579
20
-0.2457844
40
0.3003081
50
257.4584385
51
270.426602
0
ARC
8
DEFAULT_255_1_234
10
10.2131357
20
-0.2168004
40
0.329292
50
269.5962073
51
280.8789248
0
ARC
8
DEFAULT_255_1_234
10
10.2360885
20
-0.3314315
40
0.2123908
50
280.6346389
51
299.8595945
0
ARC
8
DEFAULT_255_1_234
10
10.2551792
20
-0.3676788
40
0.171457
50
300.3576302
51
314.5517981
0
ARC
8
DEFAULT_255_1_234
10
10.2468852
20
-0.3616081
40
0.1816095
50
315.0728369
51
345.0431014
0
ARC
8
DEFAULT_255_1_234
10
10.1545667
20
-0.3347159
40
0.2777492
50
344.5986631
51
357.9269593
0
ARC
8
DEFAULT_255_1_234
10
10.0649993
20
-0.3285724
40
0.3674917
50
357.4748886
51
0.0231117
0
ARC
8
DEFAULT_255_1_234
10
10.1673102
20
-0.3261321
40
0.2651907
50
359.5047933
51
13.4239635
0
ARC
8
DEFAULT_255_1_234
10
10.2539746
20
-0.3039522
40
0.1757509
50
12.9498199
51
48.7551375
0
ARC
8
DEFAULT_255_1_234
10
10.235748
20
-0.32886
40
0.2065134
50
49.5088623
51
72.1836453
0
ARC
8
DEFAULT_255_1_234
10
10.1999632
20
-0.4350709
40
0.3185836
50
71.9010081
51
84.3554254
0
ARC
8
DEFAULT_255_1_234
10
10.1838264
20
-0.5711674
40
0.4556151
50
84.0193428
51
89.333121
0
LINE
8
DEFAULT_255_1_234
10
11.518382
20
0.0402327
11
11.518382
21
-0.1525291
0
LINE
8
DEFAULT_255_1_234
10
10.7802652
20
-0.1726084
11
10.7802652
21
0.0257755
0
LINE
8
DEFAULT_255_1_234
10
11.3697948
20
-0.1926877
11
11.3697948
21
0.0506739
0
LINE
8
DEFAULT_255_1_234
10
10.9288524
20
0.0619184
11
10.9288524
21
-0.1758211
0
ARC
8
DEFAULT_255_1_234
10
10.2936709
20
-0.1574195
40
1.2247208
50
353.8441951
51
0.2287902
0
ARC
8
DEFAULT_255_1_234
10
10.7576213
20
-0.2092194
40
0.7578929
50
344.4934747
51
353.9765454
0
ARC
8
DEFAULT_255_1_234
10
11.0568803
20
-0.2943019
40
0.4467846
50
329.2803592
51
344.7472793
0
ARC
8
DEFAULT_255_1_234
10
11.1561628
20
-0.3487982
40
0.3336173
50
324.9352394
51
328.6160465
0
ARC
8
DEFAULT_255_1_234
10
11.1938737
20
-0.3751573
40
0.2876076
50
280.580143
51
324.9173126
0
ARC
8
DEFAULT_255_1_234
10
11.1537529
20
-0.2080901
40
0.4592847
50
269.5977311
51
281.6734359
0
ARC
8
DEFAULT_255_1_234
10
11.1465435
20
-0.2200827
40
0.4472986
50
256.6228859
51
270.51044
0
ARC
8
DEFAULT_255_1_234
10
11.1063413
20
-0.3749123
40
0.2873874
50
215.8618325
51
257.2788573
0
ARC
8
DEFAULT_255_1_234
10
11.2084444
20
-0.3064023
40
0.4102928
50
197.9693508
51
215.2623606
0
ARC
8
DEFAULT_255_1_234
10
11.456956
20
-0.2225291
40
0.6725652
50
187.8816417
51
198.2346507
0
ARC
8
DEFAULT_255_1_234
10
11.8527768
20
-0.1653921
40
1.0724845
50
180.8976217
51
188.0055519
0
ARC
8
DEFAULT_255_1_234
10
12.1327957
20
-0.1550223
40
1.3526448
50
180.7449369
51
181.1510016
0
ARC
8
DEFAULT_255_1_234
10
11.9750686
20
0.0306042
40
1.1948131
50
173.7675579
51
180.231553
0
ARC
8
DEFAULT_255_1_234
10
11.5232832
20
0.0816666
40
0.7401564
50
164.3058563
51
173.9002247
0
ARC
8
DEFAULT_255_1_234
10
11.2320901
20
0.1655656
40
0.4371288
50
148.7922025
51
164.568378
0
ARC
8
DEFAULT_255_1_234
10
11.1369353
20
0.2186929
40
0.3282386
50
144.5883898
51
148.1176286
0
ARC
8
DEFAULT_255_1_234
10
11.1026251
20
0.2426315
40
0.2864044
50
101.6440918
51
144.514236
0
ARC
8
DEFAULT_255_1_234
10
11.1451318
20
0.0737069
40
0.4604934
50
89.5284041
51
102.5819763
0
ARC
8
DEFAULT_255_1_234
10
11.1530406
20
0.0698018
40
0.464401
50
77.0437873
51
90.5081339
0
ARC
8
DEFAULT_255_1_234
10
11.1932407
20
0.2340615
40
0.2953195
50
48.2778575
51
77.4994676
0
ARC
8
DEFAULT_255_1_234
10
11.2005039
20
0.2469746
40
0.2808655
50
36.3142134
51
47.6305865
0
ARC
8
DEFAULT_255_1_234
10
11.1136346
20
0.1884515
40
0.3855453
50
18.2931786
51
35.6769206
0
ARC
8
DEFAULT_255_1_234
10
10.8593104
20
0.1011593
40
0.654423
50
8.024666
51
18.5605216
0
ARC
8
DEFAULT_255_1_234
10
10.4430024
20
0.0396792
40
1.0752407
50
1.1274072
51
8.1718305
0
ARC
8
DEFAULT_255_1_234
10
10.1194215
20
0.0269885
40
1.3990231
50
0.5424119
51
1.3863029
0
ARC
8
DEFAULT_255_1_234
10
10.3015593
20
0.0542342
40
1.0682415
50
359.8090433
51
4.9407866
0
ARC
8
DEFAULT_255_1_234
10
10.7225607
20
0.0918113
40
0.6455691
50
4.8362157
51
12.2904523
0
ARC
8
DEFAULT_255_1_234
10
10.9980722
20
0.1531965
40
0.3633074
50
12.0805627
51
23.8173984
0
ARC
8
DEFAULT_255_1_234
10
11.1154427
20
0.2028919
40
0.2358723
50
24.2871213
51
31.3935614
0
ARC
8
DEFAULT_255_1_234
10
11.1679124
20
0.2372233
40
0.1732111
50
30.7407893
51
82.4657128
0
ARC
8
DEFAULT_255_1_234
10
11.1499259
20
0.1488691
40
0.263235
50
81.1060089
51
90.2184952
0
ARC
8
DEFAULT_255_1_234
10
11.1463557
20
0.1746924
40
0.2374236
50
89.3806855
51
105.6762551
0
ARC
8
DEFAULT_255_1_234
10
11.1280188
20
0.2413567
40
0.1682847
50
105.7981136
51
149.7388061
0
ARC
8
DEFAULT_255_1_234
10
11.2344266
20
0.177395
40
0.2924306
50
149.4208916
51
163.6286378
0
ARC
8
DEFAULT_255_1_234
10
11.4435154
20
0.113625
40
0.5110213
50
163.3763315
51
172.1410975
0
ARC
8
DEFAULT_255_1_234
10
11.7735873
20
0.0663518
40
0.8444586
50
172.0259487
51
178.0703232
0
ARC
8
DEFAULT_255_1_234
10
12.0765963
20
0.0519906
40
1.1477868
50
177.8631668
51
179.5044149
0
ARC
8
DEFAULT_255_1_234
10
11.9693367
20
-0.1794611
40
1.0404907
50
179.7995573
51
185.2460446
0
ARC
8
DEFAULT_255_1_234
10
11.5650407
20
-0.2177487
40
0.6343885
50
185.1411642
51
193.0079639
0
ARC
8
DEFAULT_255_1_234
10
11.3006879
20
-0.2802359
40
0.3627568
50
192.7897626
51
205.2507664
0
ARC
8
DEFAULT_255_1_234
10
11.1960426
20
-0.3269585
40
0.2481908
50
205.8005384
51
211.2537509
0
ARC
8
DEFAULT_255_1_234
10
11.1436867
20
-0.362042
40
0.1852521
50
210.3789793
51
238.4008143
0
ARC
8
DEFAULT_255_1_234
10
11.1417389
20
-0.3573624
40
0.1882621
50
239.6520629
51
265.9793761
0
ARC
8
DEFAULT_255_1_234
10
11.1502589
20
-0.2901573
40
0.2559272
50
265.1315437
51
270.060332
0
ARC
8
DEFAULT_255_1_234
10
11.1531367
20
-0.3225466
40
0.2235528
50
269.3314664
51
287.2178029
0
ARC
8
DEFAULT_255_1_234
10
11.1669219
20
-0.3728721
40
0.1714108
50
287.7958004
51
329.080874
0
ARC
8
DEFAULT_255_1_234
10
11.0711676
20
-0.313107
40
0.2842745
50
328.6634704
51
343.3325132
0
ARC
8
DEFAULT_255_1_234
10
10.8538696
20
-0.2454137
40
0.5118644
50
343.0499468
51
351.9393422
0
ARC
8
DEFAULT_255_1_234
10
10.5071996
20
-0.1943051
40
0.8622784
50
351.8069023
51
357.7959224
0
ARC
8
DEFAULT_255_1_234
10
10.1836552
20
-0.1775279
40
1.1862365
50
357.5871873
51
359.2677531
0
LINE
8
DEFAULT_255_1_234
10
12.4637176
20
0.5181211
11
12.4637176
21
0.434591
0
LINE
8
DEFAULT_255_1_234
10
12.4637176
20
0.434591
11
11.9794038
21
-0.6513
0
LINE
8
DEFAULT_255_1_234
10
11.9794038
20
-0.6513
11
11.823588
21
-0.6513
0
LINE
8
DEFAULT_255_1_234
10
11.823588
20
-0.6513
11
12.3062955
21
0.3960387
0
LINE
8
DEFAULT_255_1_234
10
12.3062955
20
0.3960387
11
11.6733945
21
0.3960387
0
LINE
8
DEFAULT_255_1_234
10
11.6733945
20
0.3960387
11
11.6733945
21
0.5181211
0
LINE
8
DEFAULT_255_1_234
10
11.6733945
20
0.5181211
11
12.4637176
21
0.5181211
0
LINE
8
DEFAULT_255_1_234
10
12.9568663
20
-0.0938974
11
12.9568663
21
-0.2151766
0
LINE
8
DEFAULT_255_1_234
10
12.9568663
20
-0.2151766
11
12.5649175
21
-0.2151766
0
LINE
8
DEFAULT_255_1_234
10
12.5649175
20
-0.2151766
11
12.5649175
21
-0.0938974
0
LINE
8
DEFAULT_255_1_234
10
12.5649175
20
-0.0938974
11
12.9568663
21
-0.0938974
0
LINE
8
DEFAULT_255_1_234
10
13.574507
20
0.5237433
11
13.574507
21
-0.6513
0
LINE
8
DEFAULT_255_1_234
10
13.574507
20
-0.6513
11
13.4251167
21
-0.6513
0
LINE
8
DEFAULT_255_1_234
10
13.4251167
20
-0.6513
11
13.4251167
21
0.3390133
0
LINE
8
DEFAULT_255_1_234
10
13.4251167
20
0.3390133
11
13.1255328
21
0.2289785
0
LINE
8
DEFAULT_255_1_234
10
13.1255328
20
0.2289785
11
13.1255328
21
0.3639117
0
LINE
8
DEFAULT_255_1_234
10
13.1255328
20
0.3639117
11
13.5512149
21
0.5237433
0
LINE
8
DEFAULT_255_1_234
10
13.5512149
20
0.5237433
11
13.574507
21
0.5237433
0
LINE
8
DEFAULT_255_1_234
10
14.4539823
20
-0.6513
11
14.0483795
21
-0.6513
0
LINE
8
DEFAULT_255_1_234
10
14.0483795
20
-0.6513
11
14.0483795
21
0.5181211
0
LINE
8
DEFAULT_255_1_234
10
14.0483795
20
0.5181211
11
14.4306903
21
0.5181211
0
LINE
8
DEFAULT_255_1_234
10
14.4596045
20
-0.1043386
11
14.2025889
21
-0.1043386
0
LINE
8
DEFAULT_255_1_234
10
14.2025889
20
-0.1043386
11
14.2025889
21
-0.5252017
0
LINE
8
DEFAULT_255_1_234
10
14.2025889
20
-0.5252017
11
14.457195
21
-0.5252017
0
LINE
8
DEFAULT_255_1_234
10
14.2025889
20
0.3912196
11
14.2025889
21
0.0193501
0
LINE
8
DEFAULT_255_1_234
10
14.2025889
20
0.0193501
11
14.4355093
21
0.0193501
0
LINE
8
DEFAULT_255_1_234
10
14.4306903
20
0.3912196
11
14.2025889
21
0.3912196
0
ARC
8
DEFAULT_255_1_234
10
14.4344612
20
-0.2186099
40
0.7367406
50
82.1257326
51
90.2932599
0
ARC
8
DEFAULT_255_1_234
10
14.4733566
20
0.0532013
40
0.4621653
50
69.9044149
51
82.2857423
0
ARC
8
DEFAULT_255_1_234
10
14.5304244
20
0.2074637
40
0.2976871
50
51.1838526
51
70.0181538
0
ARC
8
DEFAULT_255_1_234
10
14.555921
20
0.244524
40
0.2528517
50
12.1017251
51
50.4214761
0
ARC
8
DEFAULT_255_1_234
10
14.4175084
20
0.2097676
40
0.3955061
50
359.5251267
51
12.8211707
0
ARC
8
DEFAULT_255_1_234
10
14.5755011
20
0.2028344
40
0.2375281
50
323.4908128
51
0.8817314
0
ARC
8
DEFAULT_255_1_234
10
14.5336698
20
0.235155
40
0.2903817
50
298.6825083
51
323.2756573
0
ARC
8
DEFAULT_255_1_234
10
14.4975061
20
0.2952649
40
0.3604842
50
293.1999386
51
299.1396394
0
ARC
8
DEFAULT_255_1_234
10
14.5648033
20
-0.3132874
40
0.2871098
50
54.0011765
51
74.9167975
0
ARC
8
DEFAULT_255_1_234
10
14.5764393
20
-0.2935668
40
0.2643248
50
36.3580696
51
53.5291921
0
ARC
8
DEFAULT_255_1_234
10
14.5637635
20
-0.3026002
40
0.2798884
50
4.8189881
51
36.3089977
0
ARC
8
DEFAULT_255_1_234
10
14.485847
20
-0.313573
40
0.358478
50
359.9370252
51
5.5204067
0
ARC
8
DEFAULT_255_1_234
10
14.4533991
20
-0.3176333
40
0.3909429
50
344.7478609
51
0.5373281
0
ARC
8
DEFAULT_255_1_234
10
14.5524963
20
-0.3443456
40
0.2883093
50
311.1786488
51
344.6886812
0
ARC
8
DEFAULT_255_1_234
10
14.523301
20
-0.3080013
40
0.3348923
50
286.0418249
51
310.8441291
0
ARC
8
DEFAULT_255_1_234
10
14.4725842
20
-0.1433193
40
0.5071869
50
274.1042341
51
286.4071509
0
ARC
8
DEFAULT_255_1_234
10
14.4549098
20
0.0450229
40
0.6963234
50
269.9236873
51
274.445647
0
ARC
8
DEFAULT_255_1_234
10
14.4595098
20
-0.1889463
40
0.3362634
50
269.6055768
51
281.3740047
0
ARC
8
DEFAULT_255_1_234
10
14.4825736
20
-0.2982647
40
0.224546
50
281.1055983
51
302.5132223
0
ARC
8
DEFAULT_255_1_234
10
14.4972636
20
-0.3246177
40
0.1944357
50
303.0368945
51
311.8811219
0
ARC
8
DEFAULT_255_1_234
10
14.5044042
20
-0.333111
40
0.1833454
50
311.9916004
51
351.7143462
0
ARC
8
DEFAULT_255_1_234
10
14.4227272
20
-0.316607
40
0.2665871
50
350.7339597
51
0.2221581
0
ARC
8
DEFAULT_255_1_234
10
14.4119718
20
-0.3109533
40
0.2773789
50
359.0456241
51
17.2296242
0
ARC
8
DEFAULT_255_1_234
10
14.5158836
20
-0.2800837
40
0.1689915
50
17.6685481
51
78.9940892
0
ARC
8
DEFAULT_255_1_234
10
14.4641999
20
-0.4655776
40
0.3612658
50
76.5635957
51
90.6980921
0
LINE
8
DEFAULT_255_1_234
10
14.4597984
20
-0.1043387
11
14.4596045
21
-0.1043386
0
ARC
8
DEFAULT_255_1_234
10
14.437766
20
0.3479036
40
0.3285612
50
269.6064736
51
281.4533503
0
ARC
8
DEFAULT_255_1_234
10
14.4600479
20
0.2427688
40
0.2210975
50
281.2041486
51
302.5148063
0
ARC
8
DEFAULT_255_1_234
10
14.4737329
20
0.2181241
40
0.1929674
50
303.021671
51
309.8369575
0
ARC
8
DEFAULT_255_1_234
10
14.4920791
20
0.1975488
40
0.1654181
50
309.5228395
51
356.9509836
0
ARC
8
DEFAULT_255_1_234
10
14.4257373
20
0.2070932
40
0.2322512
50
355.4701227
51
0.0492546
0
ARC
8
DEFAULT_255_1_234
10
14.3978465
20
0.2093094
40
0.2601498
50
359.5558597
51
11.2096359
0
ARC
8
DEFAULT_255_1_234
10
14.4935754
20
0.229123
40
0.1623975
50
10.9182341
51
31.3230275
0
ARC
8
DEFAULT_255_1_234
10
14.5221488
20
0.2450214
40
0.1297302
50
31.8852677
51
52.1412565
0
ARC
8
DEFAULT_255_1_234
10
14.4947221
20
0.206275
40
0.1771663
50
52.8285564
51
71.9850297
0
ARC
8
DEFAULT_255_1_234
10
14.4571397
20
0.0956664
40
0.2939794
50
71.6863486
51
82.8455995
0
ARC
8
DEFAULT_255_1_234
10
14.4331933
20
-0.0852851
40
0.476506
50
82.6984714
51
90.1729175
0
ARC
8
DEFAULT_255_1_234
10
14.4309568
20
0.0370623
40
0.3541573
50
89.8708275
51
90.0431131
0
LINE
8
DEFAULT_255_1_234
10
15.8298191
20
-0.6513
11
15.7181779
21
-0.3460939
0
LINE
8
DEFAULT_255_1_234
10
15.7181779
20
-0.3460939
11
15.2282419
21
-0.3460939
0
LINE
8
DEFAULT_255_1_234
10
15.2282419
20
-0.3460939
11
15.1182071
21
-0.6513
0
LINE
8
DEFAULT_255_1_234
10
15.1182071
20
-0.6513
11
14.9591787
21
-0.6513
0
LINE
8
DEFAULT_255_1_234
10
14.9591787
20
-0.6513
11
15.4057433
21
0.5181211
0
LINE
8
DEFAULT_255_1_234
10
15.4057433
20
0.5181211
11
15.5406765
21
0.5181211
0
LINE
8
DEFAULT_255_1_234
10
15.5406765
20
0.5181211
11
15.9880443
21
-0.6513
0
LINE
8
DEFAULT_255_1_234
10
15.9880443
20
-0.6513
11
15.8298191
21
-0.6513
0
LINE
8
DEFAULT_255_1_234
10
15.4732099
20
0.3277689
11
15.274826
21
-0.2191925
0
LINE
8
DEFAULT_255_1_234
10
15.274826
20
-0.2191925
11
15.672397
21
-0.2191925
0
LINE
8
DEFAULT_255_1_234
10
15.672397
20
-0.2191925
11
15.4732099
21
0.3277689
0
LINE
8
DEFAULT_255_1_234
10
16.8402118
20
0.0402327
11
16.8402118
21
-0.1525291
0
LINE
8
DEFAULT_255_1_234
10
16.102095
20
-0.1726084
11
16.102095
21
0.0257755
0
LINE
8
DEFAULT_255_1_234
10
16.6916246
20
-0.1926877
11
16.6916246
21
0.0506739
0
LINE
8
DEFAULT_255_1_234
10
16.2506822
20
0.0619184
11
16.2506822
21
-0.1758211
0
ARC
8
DEFAULT_255_1_234
10
15.6155007
20
-0.1574195
40
1.2247208
50
353.8441951
51
0.2287902
0
ARC
8
DEFAULT_255_1_234
10
16.0794511
20
-0.2092194
40
0.7578929
50
344.4934747
51
353.9765454
0
ARC
8
DEFAULT_255_1_234
10
16.3787101
20
-0.2943019
40
0.4467846
50
329.2803592
51
344.7472793
0
ARC
8
DEFAULT_255_1_234
10
16.4779926
20
-0.3487982
40
0.3336173
50
324.9352394
51
328.6160465
0
ARC
8
DEFAULT_255_1_234
10
16.5157035
20
-0.3751573
40
0.2876076
50
280.580143
51
324.9173126
0
ARC
8
DEFAULT_255_1_234
10
16.4755827
20
-0.2080901
40
0.4592847
50
269.5977311
51
281.6734359
0
ARC
8
DEFAULT_255_1_234
10
16.4683733
20
-0.2200827
40
0.4472986
50
256.6228859
51
270.51044
0
ARC
8
DEFAULT_255_1_234
10
16.4281711
20
-0.3749123
40
0.2873874
50
215.8618325
51
257.2788573
0
ARC
8
DEFAULT_255_1_234
10
16.5302742
20
-0.3064023
40
0.4102928
50
197.9693508
51
215.2623606
0
ARC
8
DEFAULT_255_1_234
10
16.7787858
20
-0.2225291
40
0.6725652
50
187.8816417
51
198.2346507
0
ARC
8
DEFAULT_255_1_234
10
17.1746066
20
-0.1653921
40
1.0724845
50
180.8976217
51
188.0055519
0
ARC
8
DEFAULT_255_1_234
10
17.4546254
20
-0.1550223
40
1.3526448
50
180.7449369
51
181.1510016
0
ARC
8
DEFAULT_255_1_234
10
17.2968983
20
0.0306042
40
1.1948131
50
173.7675579
51
180.231553
0
ARC
8
DEFAULT_255_1_234
10
16.845113
20
0.0816666
40
0.7401564
50
164.3058563
51
173.9002247
0
ARC
8
DEFAULT_255_1_234
10
16.5539199
20
0.1655656
40
0.4371288
50
148.7922025
51
164.568378
0
ARC
8
DEFAULT_255_1_234
10
16.4587651
20
0.2186929
40
0.3282386
50
144.5883898
51
148.1176286
0
ARC
8
DEFAULT_255_1_234
10
16.4244549
20
0.2426315
40
0.2864044
50
101.6440918
51
144.514236
0
ARC
8
DEFAULT_255_1_234
10
16.4669616
20
0.0737069
40
0.4604934
50
89.5284041
51
102.5819763
0
ARC
8
DEFAULT_255_1_234
10
16.4748703
20
0.0698018
40
0.464401
50
77.0437873
51
90.5081339
0
ARC
8
DEFAULT_255_1_234
10
16.5150705
20
0.2340615
40
0.2953195
50
48.2778575
51
77.4994676
0
ARC
8
DEFAULT_255_1_234
10
16.5223337
20
0.2469746
40
0.2808655
50
36.3142134
51
47.6305865
0
ARC
8
DEFAULT_255_1_234
10
16.4354643
20
0.1884515
40
0.3855453
50
18.2931786
51
35.6769206
0
ARC
8
DEFAULT_255_1_234
10
16.1811402
20
0.1011593
40
0.654423
50
8.024666
51
18.5605216
0
ARC
8
DEFAULT_255_1_234
10
15.7648322
20
0.0396792
40
1.0752407
50
1.1274072
51
8.1718305
0
ARC
8
DEFAULT_255_1_234
10
15.4412513
20
0.0269885
40
1.3990231
50
0.5424119
51
1.3863029
0
ARC
8
DEFAULT_255_1_234
10
15.6233891
20
0.0542342
40
1.0682415
50
359.8090433
51
4.9407866
0
ARC
8
DEFAULT_255_1_234
10
16.0443905
20
0.0918113
40
0.6455691
50
4.8362157
51
12.2904523
0
ARC
8
DEFAULT_255_1_234
10
16.319902
20
0.1531965
40
0.3633074
50
12.0805627
51
23.8173984
0
ARC
8
DEFAULT_255_1_234
10
16.4372725
20
0.2028919
40
0.2358723
50
24.2871213
51
31.3935614
0
ARC
8
DEFAULT_255_1_234
10
16.4897422
20
0.2372233
40
0.1732111
50
30.7407893
51
82.4657128
0
ARC
8
DEFAULT_255_1_234
10
16.4717556
20
0.1488691
40
0.263235
50
81.1060089
51
90.2184952
0
ARC
8
DEFAULT_255_1_234
10
16.4681855
20
0.1746924
40
0.2374236
50
89.3806855
51
105.6762551
0
ARC
8
DEFAULT_255_1_234
10
16.4498486
20
0.2413567
40
0.1682847
50
105.7981136
51
149.7388061
0
ARC
8
DEFAULT_255_1_234
10
16.5562564
20
0.177395
40
0.2924306
50
149.4208916
51
163.6286378
0
ARC
8
DEFAULT_255_1_234
10
16.7653452
20
0.113625
40
0.5110213
50
163.3763315
51
172.1410975
0
ARC
8
DEFAULT_255_1_234
10
17.0954171
20
0.0663518
40
0.8444586
50
172.0259487
51
178.0703232
0
ARC
8
DEFAULT_255_1_234
10
17.3984261
20
0.0519906
40
1.1477868
50
177.8631668
51
179.5044149
0
ARC
8
DEFAULT_255_1_234
10
17.2911665
20
-0.1794611
40
1.0404907
50
179.7995573
51
185.2460446
0
ARC
8
DEFAULT_255_1_234
10
16.8868705
20
-0.2177487
40
0.6343885
50
185.1411642
51
193.0079639
0
ARC
8
DEFAULT_255_1_234
10
16.6225177
20
-0.2802359
40
0.3627568
50
192.7897626
51
205.2507664
0
ARC
8
DEFAULT_255_1_234
10
16.5178724
20
-0.3269585
40
0.2481908
50
205.8005384
51
211.2537509
0
ARC
8
DEFAULT_255_1_234
10
16.4655165
20
-0.362042
40
0.1852521
50
210.3789793
51
238.4008143
0
ARC
8
DEFAULT_255_1_234
10
16.4635686
20
-0.3573624
40
0.1882621
50
239.6520629
51
265.9793761
0
ARC
8
DEFAULT_255_1_234
10
16.4720887
20
-0.2901573
40
0.2559272
50
265.1315437
51
270.060332
0
ARC
8
DEFAULT_255_1_234
10
16.4749665
20
-0.3225466
40
0.2235528
50
269.3314664
51
287.2178029
0
ARC
8
DEFAULT_255_1_234
10
16.4887517
20
-0.3728721
40
0.1714108
50
287.7958004
51
329.080874
0
ARC
8
DEFAULT_255_1_234
10
16.3929974
20
-0.313107
40
0.2842745
50
328.6634704
51
343.3325132
0
ARC
8
DEFAULT_255_1_234
10
16.1756994
20
-0.2454137
40
0.5118644
50
343.0499468
51
351.9393422
0
ARC
8
DEFAULT_255_1_234
10
15.8290294
20
-0.1943051
40
0.8622784
50
351.8069023
51
357.7959224
0
ARC
8
DEFAULT_255_1_234
10
15.505485
20
-0.1775279
40
1.1862365
50
357.5871873
51
359.2677531
0
LINE
8
DEFAULT_255_1_234
10
17.5188937
20
0.5237433
11
17.5188937
21
-0.6513
0
LINE
8
DEFAULT_255_1_234
10
17.5188937
20
-0.6513
11
17.3695033
21
-0.6513
0
LINE
8
DEFAULT_255_1_234
10
17.3695033
20
-0.6513
11
17.3695033
21
0.3390133
0
LINE
8
DEFAULT_255_1_234
10
17.3695033
20
0.3390133
11
17.0699195
21
0.2289785
0
LINE
8
DEFAULT_255_1_234
10
17.0699195
20
0.2289785
11
17.0699195
21
0.3639117
0
LINE
8
DEFAULT_255_1_234
10
17.0699195
20
0.3639117
11
17.4956016
21
0.5237433
0
LINE
8
DEFAULT_255_1_234
10
17.4956016
20
0.5237433
11
17.5188937
21
0.5237433
0
LINE
8
DEFAULT_255_1_234
10
18.2786961
20
-0.0938974
11
18.2786961
21
-0.2151766
0
LINE
8
DEFAULT_255_1_234
10
18.2786961
20
-0.2151766
11
17.8867473
21
-0.2151766
0
LINE
8
DEFAULT_255_1_234
10
17.8867473
20
-0.2151766
11
17.8867473
21
-0.0938974
0
LINE
8
DEFAULT_255_1_234
10
17.8867473
20
-0.0938974
11
18.2786961
21
-0.0938974
0
LINE
8
DEFAULT_255_1_234
10
19.1413048
20
0.0402327
11
19.1413048
21
-0.1525291
0
LINE
8
DEFAULT_255_1_234
10
18.403188
20
-0.1726084
11
18.403188
21
0.0257755
0
LINE
8
DEFAULT_255_1_234
10
18.9927176
20
-0.1926877
11
18.9927176
21
0.0506739
0
LINE
8
DEFAULT_255_1_234
10
18.5517752
20
0.0619184
11
18.5517752
21
-0.1758211
0
ARC
8
DEFAULT_255_1_234
10
17.9165937
20
-0.1574195
40
1.2247208
50
353.8441951
51
0.2287902
0
ARC
8
DEFAULT_255_1_234
10
18.3805441
20
-0.2092194
40
0.7578929
50
344.4934747
51
353.9765454
0
ARC
8
DEFAULT_255_1_234
10
18.6798031
20
-0.2943019
40
0.4467846
50
329.2803592
51
344.7472793
0
ARC
8
DEFAULT_255_1_234
10
18.7790856
20
-0.3487982
40
0.3336173
50
324.9352394
51
328.6160465
0
ARC
8
DEFAULT_255_1_234
10
18.8167965
20
-0.3751573
40
0.2876076
50
280.580143
51
324.9173126
0
ARC
8
DEFAULT_255_1_234
10
18.7766757
20
-0.2080901
40
0.4592847
50
269.5977311
51
281.6734359
0
ARC
8
DEFAULT_255_1_234
10
18.7694663
20
-0.2200827
40
0.4472986
50
256.6228859
51
270.51044
0
ARC
8
DEFAULT_255_1_234
10
18.7292641
20
-0.3749123
40
0.2873874
50
215.8618325
51
257.2788573
0
ARC
8
DEFAULT_255_1_234
10
18.8313672
20
-0.3064023
40
0.4102928
50
197.9693508
51
215.2623606
0
ARC
8
DEFAULT_255_1_234
10
19.0798788
20
-0.2225291
40
0.6725652
50
187.8816417
51
198.2346507
0
ARC
8
DEFAULT_255_1_234
10
19.4756996
20
-0.1653921
40
1.0724845
50
180.8976217
51
188.0055519
0
ARC
8
DEFAULT_255_1_234
10
19.7557185
20
-0.1550223
40
1.3526448
50
180.7449369
51
181.1510016
0
ARC
8
DEFAULT_255_1_234
10
19.5979914
20
0.0306042
40
1.1948131
50
173.7675579
51
180.231553
0
ARC
8
DEFAULT_255_1_234
10
19.146206
20
0.0816666
40
0.7401564
50
164.3058563
51
173.9002247
0
ARC
8
DEFAULT_255_1_234
10
18.8550129
20
0.1655656
40
0.4371288
50
148.7922025
51
164.568378
0
ARC
8
DEFAULT_255_1_234
10
18.7598581
20
0.2186929
40
0.3282386
50
144.5883898
51
148.1176286
0
ARC
8
DEFAULT_255_1_234
10
18.7255479
20
0.2426315
40
0.2864044
50
101.6440918
51
144.514236
0
ARC
8
DEFAULT_255_1_234
10
18.7680546
20
0.0737069
40
0.4604934
50
89.5284041
51
102.5819763
0
ARC
8
DEFAULT_255_1_234
10
18.7759634
20
0.0698018
40
0.464401
50
77.0437873
51
90.5081339
0
ARC
8
DEFAULT_255_1_234
10
18.8161635
20
0.2340615
40
0.2953195
50
48.2778575
51
77.4994676
0
ARC
8
DEFAULT_255_1_234
10
18.8234267
20
0.2469746
40
0.2808655
50
36.3142134
51
47.6305865
0
ARC
8
DEFAULT_255_1_234
10
18.7365574
20
0.1884515
40
0.3855453
50
18.2931786
51
35.6769206
0
ARC
8
DEFAULT_255_1_234
10
18.4822332
20
0.1011593
40
0.654423
50
8.024666
51
18.5605216
0
ARC
8
DEFAULT_255_1_234
10
18.0659252
20
0.0396792
40
1.0752407
50
1.1274072
51
8.1718305
0
ARC
8
DEFAULT_255_1_234
10
17.7423443
20
0.0269885
40
1.3990231
50
0.5424119
51
1.3863029
0
ARC
8
DEFAULT_255_1_234
10
17.9244821
20
0.0542342
40
1.0682415
50
359.8090433
51
4.9407866
0
ARC
8
DEFAULT_255_1_234
10
18.3454835
20
0.0918113
40
0.6455691
50
4.8362157
51
12.2904523
0
ARC
8
DEFAULT_255_1_234
10
18.620995
20
0.1531965
40
0.3633074
50
12.0805627
51
23.8173984
0
ARC
8
DEFAULT_255_1_234
10
18.7383655
20
0.2028919
40
0.2358723
50
24.2871213
51
31.3935614
0
ARC
8
DEFAULT_255_1_234
10
18.7908352
20
0.2372233
40
0.1732111
50
30.7407893
51
82.4657128
0
ARC
8
DEFAULT_255_1_234
10
18.7728487
20
0.1488691
40
0.263235
50
81.1060089
51
90.2184952
0
ARC
8
DEFAULT_255_1_234
10
18.7692785
20
0.1746924
40
0.2374236
50
89.3806855
51
105.6762551
0
ARC
8
DEFAULT_255_1_234
10
18.7509416
20
0.2413567
40
0.1682847
50
105.7981136
51
149.7388061
0
ARC
8
DEFAULT_255_1_234
10
18.8573494
20
0.177395
40
0.2924306
50
149.4208916
51
163.6286378
0
ARC
8
DEFAULT_255_1_234
10
19.0664382
20
0.113625
40
0.5110213
50
163.3763315
51
172.1410975
0
ARC
8
DEFAULT_255_1_234
10
19.3965101
20
0.0663518
40
0.8444586
50
172.0259487
51
178.0703232
0
ARC
8
DEFAULT_255_1_234
10
19.6995191
20
0.0519906
40
1.1477868
50
177.8631668
51
179.5044149
0
ARC
8
DEFAULT_255_1_234
10
19.5922595
20
-0.1794611
40
1.0404907
50
179.7995573
51
185.2460446
0
ARC
8
DEFAULT_255_1_234
10
19.1879635
20
-0.2177487
40
0.6343885
50
185.1411642
51
193.0079639
0
ARC
8
DEFAULT_255_1_234
10
18.9236107
20
-0.2802359
40
0.3627568
50
192.7897626
51
205.2507664
0
ARC
8
DEFAULT_255_1_234
10
18.8189654
20
-0.3269585
40
0.2481908
50
205.8005384
51
211.2537509
0
ARC
8
DEFAULT_255_1_234
10
18.7666095
20
-0.362042
40
0.1852521
50
210.3789793
51
238.4008143
0
ARC
8
DEFAULT_255_1_234
10
18.7646617
20
-0.3573624
40
0.1882621
50
239.6520629
51
265.9793761
0
ARC
8
DEFAULT_255_1_234
10
18.7731817
20
-0.2901573
40
0.2559272
50
265.1315437
51
270.060332
0
ARC
8
DEFAULT_255_1_234
10
18.7760596
20
-0.3225466
40
0.2235528
50
269.3314664
51
287.2178029
0
ARC
8
DEFAULT_255_1_234
10
18.7898447
20
-0.3728721
40
0.1714108
50
287.7958004
51
329.080874
0
ARC
8
DEFAULT_255_1_234
10
18.6940904
20
-0.313107
40
0.2842745
50
328.6634704
51
343.3325132
0
ARC
8
DEFAULT_255_1_234
10
18.4767924
20
-0.2454137
40
0.5118644
50
343.0499468
51
351.9393422
0
ARC
8
DEFAULT_255_1_234
10
18.1301224
20
-0.1943051
40
0.8622784
50
351.8069023
51
357.7959224
0
ARC
8
DEFAULT_255_1_234
10
17.806578
20
-0.1775279
40
1.1862365
50
357.5871873
51
359.2677531
0
LINE
8
DEFAULT_255_1_234
10
20.1276022
20
-0.6513
11
20.0159611
21
-0.3460939
0
LINE
8
DEFAULT_255_1_234
10
20.0159611
20
-0.3460939
11
19.526025
21
-0.3460939
0
LINE
8
DEFAULT_255_1_234
10
19.526025
20
-0.3460939
11
19.4159902
21
-0.6513
0
LINE
8
DEFAULT_255_1_234
10
19.4159902
20
-0.6513
11
19.2569618
21
-0.6513
0
LINE
8
DEFAULT_255_1_234
10
19.2569618
20
-0.6513
11
19.7035265
21
0.5181211
0
LINE
8
DEFAULT_255_1_234
10
19.7035265
20
0.5181211
11
19.8384597
21
0.5181211
0
LINE
8
DEFAULT_255_1_234
10
19.8384597
20
0.5181211
11
20.2858275
21
-0.6513
0
LINE
8
DEFAULT_255_1_234
10
20.2858275
20
-0.6513
11
20.1276022
21
-0.6513
0
LINE
8
DEFAULT_255_1_234
10
19.7709931
20
0.3277689
11
19.5726091
21
-0.2191925
0
LINE
8
DEFAULT_255_1_234
10
19.5726091
20
-0.2191925
11
19.9701802
21
-0.2191925
0
LINE
8
DEFAULT_255_1_234
10
19.9701802
20
-0.2191925
11
19.7709931
21
0.3277689
0
LINE
8
DEFAULT_255_1_234
10
21.2006425
20
-0.6513
11
21.0890013
21
-0.3460939
0
LINE
8
DEFAULT_255_1_234
10
21.0890013
20
-0.3460939
11
20.5990653
21
-0.3460939
0
LINE
8
DEFAULT_255_1_234
10
20.5990653
20
-0.3460939
11
20.4890305
21
-0.6513
0
LINE
8
DEFAULT_255_1_234
10
20.4890305
20
-0.6513
11
20.3300021
21
-0.6513
0
LINE
8
DEFAULT_255_1_234
10
20.3300021
20
-0.6513
11
20.7765667
21
0.5181211
0
LINE
8
DEFAULT_255_1_234
10
20.7765667
20
0.5181211
11
20.9114999
21
0.5181211
0
LINE
8
DEFAULT_255_1_234
10
20.9114999
20
0.5181211
11
21.3588677
21
-0.6513
0
LINE
8
DEFAULT_255_1_234
10
21.3588677
20
-0.6513
11
21.2006425
21
-0.6513
0
LINE
8
DEFAULT_255_1_234
10
20.8440333
20
0.3277689
11
20.6456494
21
-0.2191925
0
LINE
8
DEFAULT_255_1_234
10
20.6456494
20
-0.2191925
11
21.0432204
21
-0.2191925
0
LINE
8
DEFAULT_255_1_234
10
21.0432204
20
-0.2191925
11
20.8440333
21
0.3277689
0
LINE
8
DEFAULT_255_1_234
10
22.2110352
20
0.0402327
11
22.2110352
21
-0.1525291
0
LINE
8
DEFAULT_255_1_234
10
21.4729184
20
-0.1726084
11
21.4729184
21
0.0257755
0
LINE
8
DEFAULT_255_1_234
10
22.062448
20
-0.1926877
11
22.062448
21
0.0506739
0
LINE
8
DEFAULT_255_1_234
10
21.6215056
20
0.0619184
11
21.6215056
21
-0.1758211
0
ARC
8
DEFAULT_255_1_234
10
20.9863241
20
-0.1574195
40
1.2247208
50
353.8441951
51
0.2287902
0
ARC
8
DEFAULT_255_1_234
10
21.4502745
20
-0.2092194
40
0.7578929
50
344.4934747
51
353.9765454
0
ARC
8
DEFAULT_255_1_234
10
21.7495335
20
-0.2943019
40
0.4467846
50
329.2803592
51
344.7472793
0
ARC
8
DEFAULT_255_1_234
10
21.848816
20
-0.3487982
40
0.3336173
50
324.9352394
51
328.6160465
0
ARC
8
DEFAULT_255_1_234
10
21.8865269
20
-0.3751573
40
0.2876076
50
280.580143
51
324.9173126
0
ARC
8
DEFAULT_255_1_234
10
21.8464061
20
-0.2080901
40
0.4592847
50
269.5977311
51
281.6734359
0
ARC
8
DEFAULT_255_1_234
10
21.8391967
20
-0.2200827
40
0.4472986
50
256.6228859
51
270.51044
0
ARC
8
DEFAULT_255_1_234
10
21.7989945
20
-0.3749123
40
0.2873874
50
215.8618325
51
257.2788573
0
ARC
8
DEFAULT_255_1_234
10
21.9010976
20
-0.3064023
40
0.4102928
50
197.9693508
51
215.2623606
0
ARC
8
DEFAULT_255_1_234
10
22.1496092
20
-0.2225291
40
0.6725652
50
187.8816417
51
198.2346507
0
ARC
8
DEFAULT_255_1_234
10
22.54543
20
-0.1653921
40
1.0724845
50
180.8976217
51
188.0055519
0
ARC
8
DEFAULT_255_1_234
10
22.8254488
20
-0.1550223
40
1.3526448
50
180.7449369
51
181.1510016
0
ARC
8
DEFAULT_255_1_234
10
22.6677217
20
0.0306042
40
1.1948131
50
173.7675579
51
180.231553
0
ARC
8
DEFAULT_255_1_234
10
22.2159364
20
0.0816666
40
0.7401564
50
164.3058563
51
173.9002247
0
ARC
8
DEFAULT_255_1_234
10
21.9247433
20
0.1655656
40
0.4371288
50
148.7922025
51
164.568378
0
ARC
8
DEFAULT_255_1_234
10
21.8295885
20
0.2186929
40
0.3282386
50
144.5883898
51
148.1176286
0
ARC
8
DEFAULT_255_1_234
10
21.7952783
20
0.2426315
40
0.2864044
50
101.6440918
51
144.514236
0
ARC
8
DEFAULT_255_1_234
10
21.837785
20
0.0737069
40
0.4604934
50
89.5284041
51
102.5819763
0
ARC
8
DEFAULT_255_1_234
10
21.8456937
20
0.0698018
40
0.464401
50
77.0437873
51
90.5081339
0
ARC
8
DEFAULT_255_1_234
10
21.8858939
20
0.2340615
40
0.2953195
50
48.2778575
51
77.4994676
0
ARC
8
DEFAULT_255_1_234
10
21.893157
20
0.2469746
40
0.2808655
50
36.3142134
51
47.6305865
0
ARC
8
DEFAULT_255_1_234
10
21.8062877
20
0.1884515
40
0.3855453
50
18.2931786
51
35.6769206
0
ARC
8
DEFAULT_255_1_234
10
21.5519636
20
0.1011593
40
0.654423
50
8.024666
51
18.5605216
0
ARC
8
DEFAULT_255_1_234
10
21.1356556
20
0.0396792
40
1.0752407
50
1.1274072
51
8.1718305
0
ARC
8
DEFAULT_255_1_234
10
20.8120747
20
0.0269885
40
1.3990231
50
0.5424119
51
1.3863029
0
ARC
8
DEFAULT_255_1_234
10
20.9942125
20
0.0542342
40
1.0682415
50
359.8090433
51
4.9407866
0
ARC
8
DEFAULT_255_1_234
10
21.4152139
20
0.0918113
40
0.6455691
50
4.8362157
51
12.2904523
0
ARC
8
DEFAULT_255_1_234
10
21.6907253
20
0.1531965
40
0.3633074
50
12.0805627
51
23.8173984
0
ARC
8
DEFAULT_255_1_234
10
21.8080959
20
0.2028919
40
0.2358723
50
24.2871213
51
31.3935614
0
ARC
8
DEFAULT_255_1_234
10
21.8605656
20
0.2372233
40
0.1732111
50
30.7407893
51
82.4657128
0
ARC
8
DEFAULT_255_1_234
10
21.842579
20
0.1488691
40
0.263235
50
81.1060089
51
90.2184952
0
ARC
8
DEFAULT_255_1_234
10
21.8390089
20
0.1746924
40
0.2374236
50
89.3806855
51
105.6762551
0
ARC
8
DEFAULT_255_1_234
10
21.820672
20
0.2413567
40
0.1682847
50
105.7981136
51
149.7388061
0
ARC
8
DEFAULT_255_1_234
10
21.9270798
20
0.177395
40
0.2924306
50
149.4208916
51
163.6286378
0
ARC
8
DEFAULT_255_1_234
10
22.1361686
20
0.113625
40
0.5110213
50
163.3763315
51
172.1410975
0
ARC
8
DEFAULT_255_1_234
10
22.4662405
20
0.0663518
40
0.8444586
50
172.0259487
51
178.0703232
0
ARC
8
DEFAULT_255_1_234
10
22.7692495
20
0.0519906
40
1.1477868
50
177.8631668
51
179.5044149
0
ARC
8
DEFAULT_255_1_234
10
22.6619899
20
-0.1794611
40
1.0404907
50
179.7995573
51
185.2460446
0
ARC
8
DEFAULT_255_1_234
10
22.2576938
20
-0.2177487
40
0.6343885
50
185.1411642
51
193.0079639
0
ARC
8
DEFAULT_255_1_234
10
21.9933411
20
-0.2802359
40
0.3627568
50
192.7897626
51
205.2507664
0
ARC
8
DEFAULT_255_1_234
10
21.8886958
20
-0.3269585
40
0.2481908
50
205.8005384
51
211.2537509
0
ARC
8
DEFAULT_255_1_234
10
21.8363398
20
-0.362042
40
0.1852521
50
210.3789793
51
238.4008143
0
ARC
8
DEFAULT_255_1_234
10
21.834392
20
-0.3573624
40
0.1882621
50
239.6520629
51
265.9793761
0
ARC
8
DEFAULT_255_1_234
10
21.8429121
20
-0.2901573
40
0.2559272
50
265.1315437
51
270.060332
0
ARC
8
DEFAULT_255_1_234
10
21.8457899
20
-0.3225466
40
0.2235528
50
269.3314664
51
287.2178029
0
ARC
8
DEFAULT_255_1_234
10
21.8595751
20
-0.3728721
40
0.1714108
50
287.7958004
51
329.080874
0
ARC
8
DEFAULT_255_1_234
10
21.7638208
20
-0.313107
40
0.2842745
50
328.6634704
51
343.3325132
0
ARC
8
DEFAULT_255_1_234
10
21.5465228
20
-0.2454137
40
0.5118644
50
343.0499468
51
351.9393422
0
ARC
8
DEFAULT_255_1_234
10
21.1998528
20
-0.1943051
40
0.8622784
50
351.8069023
51
357.7959224
0
ARC
8
DEFAULT_255_1_234
10
20.8763084
20
-0.1775279
40
1.1862365
50
357.5871873
51
359.2677531
0
ARC
8
DEFAULT_255_2_778
10
7.7477003
20
36.5624717
40
3.1359654
50
252.328178
51
259.1195596
0
ARC
8
DEFAULT_255_2_778
10
7.5366784
20
35.4434064
40
1.9971888
50
259.0046171
51
268.8321339
0
ARC
8
DEFAULT_255_2_778
10
7.5170704
20
35.0073151
40
1.5608252
50
269.2254945
51
269.9986098
0
ARC
8
DEFAULT_255_2_778
10
7.5284241
20
34.5483978
40
1.1019669
50
269.4076934
51
279.2957889
0
ARC
8
DEFAULT_255_2_778
10
7.6424786
20
33.8925872
40
0.4363956
50
278.4262389
51
299.114971
0
ARC
8
DEFAULT_255_2_778
10
7.7685935
20
33.6709399
40
0.1814068
50
298.3777331
51
1.5635741
0
ARC
8
DEFAULT_255_2_778
10
7.7607054
20
33.678641
40
0.1892471
50
359.167
51
359.999679
0
ARC
8
DEFAULT_255_2_778
10
7.7620579
20
33.6786283
40
0.1878948
50
0.0035752
51
48.4707938
0
ARC
8
DEFAULT_255_2_778
10
7.6243134
20
33.5203495
40
0.3977142
50
48.7331485
51
61.7808617
0
ARC
8
DEFAULT_255_2_778
10
7.0293414
20
32.4732873
40
1.6019233
50
60.7378912
51
65.7087881
0
ARC
8
DEFAULT_255_2_778
10
6.1103699
20
30.481712
40
3.7952631
50
65.4320913
51
67.6032607
0
ARC
8
DEFAULT_255_2_778
10
9.6041602
20
39.0348537
40
5.4439672
50
245.1253116
51
247.9048261
0
ARC
8
DEFAULT_255_2_778
10
8.5247137
20
36.7147986
40
2.8850926
50
241.1241333
51
245.1930241
0
ARC
8
DEFAULT_255_2_778
10
7.7625999
20
35.3438069
40
1.3165346
50
234.1963629
51
241.3542762
0
ARC
8
DEFAULT_255_2_778
10
7.3437421
20
34.7590669
40
0.5972641
50
226.7006611
51
233.96868
0
ARC
8
DEFAULT_255_2_778
10
7.3607017
20
34.7661709
40
0.6141106
50
178.3932929
51
226.0036188
0
ARC
8
DEFAULT_255_2_778
10
7.4478456
20
34.7974808
40
0.7011547
50
154.8735925
51
181.1515496
0
ARC
8
DEFAULT_255_2_778
10
7.3603372
20
34.8229147
40
0.6112906
50
123.8165102
51
153.54904
0
ARC
8
DEFAULT_255_2_778
10
7.5898969
20
34.4860158
40
1.0189576
50
100.5389065
51
123.9980051
0
ARC
8
DEFAULT_255_2_778
10
7.6985372
20
33.9643654
40
1.5517207
50
89.6286302
51
100.9597008
0
ARC
8
DEFAULT_255_2_778
10
7.7085439
20
33.5871175
40
1.928936
50
89.5339909
51
89.9984868
0
ARC
8
DEFAULT_255_2_778
10
7.7099048
20
33.5145263
40
2.0015148
50
84.1492503
51
89.5898483
0
ARC
8
DEFAULT_255_2_778
10
7.5077557
20
31.4334232
40
4.0923986
50
81.082529
51
84.3039054
0
ARC
8
DEFAULT_255_2_778
10
7.023816
20
28.3052202
40
7.2578093
50
78.9383812
51
81.13635
0
ARC
8
DEFAULT_255_2_778
10
7.6682357
20
33.1295321
40
1.9859479
50
67.8708824
51
78.7622215
0
ARC
8
DEFAULT_255_2_778
10
7.7855445
20
33.7021519
40
1.4014502
50
78.9039563
51
89.7592781
0
ARC
8
DEFAULT_255_2_778
10
7.779286
20
34.1263707
40
0.9772945
50
89.2878682
51
100.1889159
0
ARC
8
DEFAULT_255_2_778
10
7.6658447
20
34.7197139
40
0.3733016
50
99.1615566
51
122.7471966
0
ARC
8
DEFAULT_255_2_778
10
7.5618383
20
34.88598
40
0.1772174
50
123.5434144
51
182.034113
0
ARC
8
DEFAULT_255_2_778
10
7.542542
20
34.8814997
40
0.1578198
50
180.6571147
51
241.2086245
0
ARC
8
DEFAULT_255_2_778
10
7.9241141
20
35.4993628
40
0.8838431
50
238.8206864
51
243.6707859
0
ARC
8
DEFAULT_255_2_778
10
9.3867888
20
38.3793479
40
4.1139343
50
243.2030661
51
244.8668907
0
ARC
8
DEFAULT_255_2_778
10
12.3063112
20
44.5669591
40
10.9557218
50
244.7879545
51
245.6216179
0
ARC
8
DEFAULT_255_2_778
10
15.2952581
20
51.1261287
40
18.1637988
50
245.574041
51
245.772102
0
ARC
8
DEFAULT_255_2_778
10
5.891327
20
30.1358387
40
4.836889
50
63.120787
51
66.22328
0
ARC
8
DEFAULT_255_2_778
10
6.947604
20
32.2084743
40
2.5106281
50
58.2792155
51
63.2371048
0
ARC
8
DEFAULT_255_2_778
10
7.6964177
20
33.4096893
40
1.0951517
50
49.8236496
51
58.5607433
0
ARC
8
DEFAULT_255_2_778
10
8.0253672
20
33.8097551
40
0.5772968
50
45.4119063
51
49.1525673
0
ARC
8
DEFAULT_255_2_778
10
8.0075487
20
33.8025188
40
0.5950077
50
359.8351939
51
44.6790936
0
ARC
8
DEFAULT_255_2_778
10
7.7572736
20
33.7755051
40
0.8456589
50
359.9921848
51
1.714555
0
ARC
8
DEFAULT_255_2_778
10
7.9239095
20
33.759661
40
0.6792051
50
328.8364528
51
1.3269532
0
ARC
8
DEFAULT_255_2_778
10
7.9044044
20
33.7955666
40
0.7147737
50
299.9575479
51
327.1824854
0
ARC
8
DEFAULT_255_2_778
10
7.7009325
20
34.1290345
40
1.1053374
50
281.4846002
51
300.4638436
0
ARC
8
DEFAULT_255_2_778
10
7.5659684
20
34.754379
40
1.7450507
50
270.5617808
51
281.7391554
0
ARC
8
DEFAULT_255_2_778
10
7.5449253
20
35.2625328
40
2.2534434
50
269.9963661
51
270.9701178
0
LINE
8
DEFAULT_255_2_778
10
7.5447824
20
33.0090895
11
7.5437325
21
33.0090898
0
ARC
8
DEFAULT_255_2_778
10
7.5511332
20
36.3068181
40
3.2977366
50
256.7257562
51
269.8714183
0
ARC
8
DEFAULT_255_2_778
10
21.7503137
20
36.4897604
40
3.0618705
50
252.1983928
51
259.1511031
0
ARC
8
DEFAULT_255_2_778
10
21.5517118
20
35.4310504
40
1.9847066
50
259.0293454
51
269.2254668
0
ARC
8
DEFAULT_255_2_778
10
21.5354446
20
35.0309784
40
1.5844885
50
269.6180891
51
269.9995636
0
ARC
8
DEFAULT_255_2_778
10
21.5473456
20
34.5521024
40
1.1056768
50
269.3826571
51
279.2415406
0
ARC
8
DEFAULT_255_2_778
10
21.6612522
20
33.8934293
40
0.4373106
50
278.3705839
51
299.0156343
0
ARC
8
DEFAULT_255_2_778
10
21.787862
20
33.6702358
40
0.1807355
50
298.2360606
51
1.5389494
0
ARC
8
DEFAULT_255_2_778
10
21.7610455
20
33.6792945
40
0.2075296
50
358.8390496
51
0.0021256
0
ARC
8
DEFAULT_255_2_778
10
21.7864788
20
33.6823335
40
0.1821217
50
359.0463196
51
48.3838938
0
ARC
8
DEFAULT_255_2_778
10
21.6437976
20
33.5157239
40
0.4014605
50
48.9521134
51
61.9896684
0
ARC
8
DEFAULT_255_2_778
10
21.0566547
20
32.4729831
40
1.5980551
50
60.9619292
51
65.9688305
0
ARC
8
DEFAULT_255_2_778
10
20.1561808
20
30.4981442
40
3.7684702
50
65.6920583
51
67.885858
0
ARC
8
DEFAULT_255_2_778
10
23.5929853
20
38.9590078
40
5.3637714
50
245.0830094
51
247.8980191
0
ARC
8
DEFAULT_255_2_778
10
22.5350276
20
36.6895368
40
2.8598243
50
241.0457755
51
245.1499877
0
ARC
8
DEFAULT_255_2_778
10
21.7841314
20
35.3430481
40
1.3181309
50
234.0995357
51
241.2713582
0
ARC
8
DEFAULT_255_2_778
10
21.3686558
20
34.7649797
40
0.6062528
50
226.6553179
51
233.8711463
0
ARC
8
DEFAULT_255_2_778
10
21.3799627
20
34.7666421
40
0.6152634
50
178.1141127
51
225.9958207
0
ARC
8
DEFAULT_255_2_778
10
21.4583747
20
34.8010933
40
0.6934876
50
154.5285774
51
181.1735781
0
ARC
8
DEFAULT_255_2_778
10
21.3752063
20
34.8247866
40
0.6083836
50
123.6225515
51
153.1744533
0
ARC
8
DEFAULT_255_2_778
10
21.5978398
20
34.5081873
40
0.9953445
50
101.8855577
51
124.202832
0
ARC
8
DEFAULT_255_2_778
10
21.7267578
20
33.9369371
40
1.5809221
50
89.8667692
51
102.1936471
0
ARC
8
DEFAULT_255_2_778
10
21.7423508
20
33.4891401
40
2.0287498
50
90.0005166
51
90.3365567
0
ARC
8
DEFAULT_255_2_778
10
21.7279623
20
33.3267478
40
2.1911891
50
83.5567842
51
89.6242426
0
ARC
8
DEFAULT_255_2_778
10
21.5238738
20
31.4430008
40
4.0859491
50
79.7344405
51
83.677263
0
ARC
8
DEFAULT_255_2_778
10
21.2084449
20
29.6116416
40
5.9442269
50
78.6878181
51
79.8885504
0
ARC
8
DEFAULT_255_2_778
10
21.6891634
20
33.1384853
40
1.9781811
50
67.8740708
51
78.900726
0
ARC
8
DEFAULT_255_2_778
10
21.8014103
20
33.6911597
40
1.4142408
50
79.0527415
51
89.7762744
0
ARC
8
DEFAULT_255_2_778
10
21.7948353
20
34.1339197
40
0.9715453
50
89.2865638
51
100.2092011
0
ARC
8
DEFAULT_255_2_778
10
21.6814944
20
34.724757
40
0.3700369
50
99.1524074
51
123.0050603
0
ARC
8
DEFAULT_255_2_778
10
21.5786288
20
34.8882593
40
0.1769101
50
123.910777
51
182.0533384
0
ARC
8
DEFAULT_255_2_778
10
21.5386504
20
34.8818379
40
0.1368181
50
179.9653657
51
180.1039286
0
ARC
8
DEFAULT_255_2_778
10
21.5592381
20
34.8831577
40
0.1574134
50
180.5707107
51
241.2950277
0
ARC
8
DEFAULT_255_2_778
10
21.9233976
20
35.4744088
40
0.8516452
50
238.9108476
51
243.8776742
0
ARC
8
DEFAULT_255_2_778
10
23.4261578
20
38.4549484
40
4.1895529
50
243.3721611
51
245.0131429
0
ARC
8
DEFAULT_255_2_778
10
26.4893422
20
44.9897747
40
11.4066824
50
244.9322399
51
245.7423879
0
ARC
8
DEFAULT_255_2_778
10
29.6670177
20
52.0032803
40
19.1064703
50
245.6953615
51
245.8864274
0
ARC
8
DEFAULT_255_2_778
10
19.9166156
20
30.1771315
40
4.7985987
50
62.9078243
51
66.0947096
0
ARC
8
DEFAULT_255_2_778
10
20.974214
20
32.2346638
40
2.4851782
50
58.0755357
51
63.0116927
0
ARC
8
DEFAULT_255_2_778
10
21.7205145
20
33.4214473
40
1.0832719
50
49.4476357
51
58.3848201
0
ARC
8
DEFAULT_255_2_778
10
22.0423586
20
33.8088595
40
0.5797131
50
45.5211037
51
48.722937
0
ARC
8
DEFAULT_255_2_778
10
22.0272601
20
33.803873
40
0.5938943
50
359.8498367
51
44.8188382
0
ARC
8
DEFAULT_255_2_778
10
21.7779342
20
33.7769985
40
0.8435982
50
359.9926129
51
1.719814
0
ARC
8
DEFAULT_255_2_778
10
21.9391725
20
33.7612691
40
0.6825388
50
329.2212416
51
1.3113892
0
ARC
8
DEFAULT_255_2_778
10
21.9242477
20
33.7940649
40
0.7124399
50
300.0989301
51
327.5692204
0
ARC
8
DEFAULT_255_2_778
10
21.7222929
20
34.127277
40
1.1020276
50
281.441673
51
300.495073
0
ARC
8
DEFAULT_255_2_778
10
21.5847316
20
34.7657642
40
1.7551333
50
270.5529807
51
281.708402
0
ARC
8
DEFAULT_255_2_778
10
21.563344
20
35.2830061
40
2.2726167
50
269.9960418
51
270.966315
0
LINE
8
DEFAULT_255_2_778
10
21.563187
20
33.0103895
11
21.5621325
21
33.0103898
0
ARC
8
DEFAULT_255_2_778
10
21.5668389
20
36.2950179
40
3.2846315
50
256.7147361
51
269.9179028
0
LINE
8
DEFAULT_255_2_778
10
6.7957325
20
33.0977898
11
6.7957325
21
33.5744898
0
LINE
8
DEFAULT_255_2_778
10
8.4163325
20
35.4281898
11
8.4163325
21
34.9691898
0
LINE
8
DEFAULT_255_2_778
10
6.7939325
20
33.0971898
11
6.7957325
21
33.0977898
0
LINE
8
DEFAULT_255_2_778
10
8.9865325
20
35.4752898
11
9.6628325
21
35.4752898
0
LINE
8
DEFAULT_255_2_778
10
9.6628325
20
35.4752898
11
9.6628325
21
33.0588898
0
LINE
8
DEFAULT_255_2_778
10
9.6628325
20
33.0588898
11
8.9865325
21
33.0588898
0
LINE
8
DEFAULT_255_2_778
10
8.9865325
20
33.0588898
11
8.9865325
21
35.4752898
0
LINE
8
DEFAULT_255_2_778
10
10.2808325
20
33.0588898
11
10.2808325
21
35.4755898
0
LINE
8
DEFAULT_255_2_778
10
10.2808325
20
35.4755898
11
12.0131325
21
35.4755898
0
LINE
8
DEFAULT_255_2_778
10
12.0131325
20
35.4755898
11
12.0131325
21
35.0384898
0
LINE
8
DEFAULT_255_2_778
10
12.0131325
20
35.0384898
11
10.9320325
21
35.0384898
0
LINE
8
DEFAULT_255_2_778
10
10.9320325
20
35.0384898
11
10.9320325
21
34.4928898
0
LINE
8
DEFAULT_255_2_778
10
10.9320325
20
34.4928898
11
11.8734325
21
34.4928898
0
LINE
8
DEFAULT_255_2_778
10
11.8734325
20
34.4928898
11
11.8734325
21
34.0943898
0
LINE
8
DEFAULT_255_2_778
10
11.8734325
20
34.0943898
11
10.9320325
21
34.0943898
0
LINE
8
DEFAULT_255_2_778
10
10.9320325
20
34.0943898
11
10.9320325
21
33.5207898
0
LINE
8
DEFAULT_255_2_778
10
10.9320325
20
33.5207898
11
12.0411325
21
33.5207898
0
LINE
8
DEFAULT_255_2_778
10
12.0411325
20
33.5207898
11
12.0411325
21
33.0580898
0
LINE
8
DEFAULT_255_2_778
10
12.0411325
20
33.0580898
11
10.2808325
21
33.0588898
0
LINE
8
DEFAULT_255_2_778
10
12.4816325
20
33.0588898
11
12.4816325
21
35.4755898
0
LINE
8
DEFAULT_255_2_778
10
12.4816325
20
35.4755898
11
13.3574325
21
35.4755898
0
LINE
8
DEFAULT_255_2_778
10
13.3574325
20
35.4755898
11
13.9670325
21
33.9314898
0
LINE
8
DEFAULT_255_2_778
10
13.9670325
20
33.9314898
11
14.5896325
21
35.4755898
0
LINE
8
DEFAULT_255_2_778
10
14.5896325
20
35.4755898
11
15.4214325
21
35.4755898
0
LINE
8
DEFAULT_255_2_778
10
15.4214325
20
35.4755898
11
15.4214325
21
33.0590898
0
LINE
8
DEFAULT_255_2_778
10
15.4214325
20
33.0590898
11
14.7811325
21
33.0590898
0
LINE
8
DEFAULT_255_2_778
10
14.7811325
20
33.0590898
11
14.7811325
21
34.7706898
0
LINE
8
DEFAULT_255_2_778
10
14.7811325
20
34.7706898
11
14.0723325
21
33.0357898
0
LINE
8
DEFAULT_255_2_778
10
14.0723325
20
33.0357898
11
13.6514325
21
33.0357898
0
LINE
8
DEFAULT_255_2_778
10
13.6514325
20
33.0357898
11
12.9558325
21
34.7706898
0
LINE
8
DEFAULT_255_2_778
10
12.9558325
20
34.7706898
11
12.9558325
21
33.0590898
0
LINE
8
DEFAULT_255_2_778
10
12.9558325
20
33.0590898
11
12.4816325
21
33.0588898
0
LINE
8
DEFAULT_255_2_778
10
16.0408325
20
33.0588898
11
16.0408325
21
35.4755898
0
LINE
8
DEFAULT_255_2_778
10
16.0408325
20
35.4755898
11
17.7730325
21
35.4755898
0
LINE
8
DEFAULT_255_2_778
10
17.7730325
20
35.4755898
11
17.7730325
21
35.0384898
0
LINE
8
DEFAULT_255_2_778
10
17.7730325
20
35.0384898
11
16.6920325
21
35.0384898
0
LINE
8
DEFAULT_255_2_778
10
16.6920325
20
35.0384898
11
16.6920325
21
34.4928898
0
LINE
8
DEFAULT_255_2_778
10
16.6920325
20
34.4928898
11
17.6333325
21
34.4928898
0
LINE
8
DEFAULT_255_2_778
10
17.6333325
20
34.4928898
11
17.6333325
21
34.0943898
0
LINE
8
DEFAULT_255_2_778
10
17.6333325
20
34.0943898
11
16.6920325
21
34.0943898
0
LINE
8
DEFAULT_255_2_778
10
16.6920325
20
34.0943898
11
16.6920325
21
33.5207898
0
LINE
8
DEFAULT_255_2_778
10
16.6920325
20
33.5207898
11
17.8029325
21
33.5207898
0
LINE
8
DEFAULT_255_2_778
10
17.8029325
20
33.5207898
11
17.8029325
21
33.0580898
0
LINE
8
DEFAULT_255_2_778
10
17.8029325
20
33.0580898
11
16.0408325
21
33.0588898
0
LINE
8
DEFAULT_255_2_778
10
18.2453325
20
33.0588898
11
18.2453325
21
35.4755898
0
LINE
8
DEFAULT_255_2_778
10
18.2453325
20
35.4755898
11
19.0282325
21
35.4755898
0
LINE
8
DEFAULT_255_2_778
10
19.0282325
20
35.4755898
11
19.8585325
21
33.8575898
0
LINE
8
DEFAULT_255_2_778
10
19.8585325
20
33.8575898
11
19.8585325
21
35.4755898
0
LINE
8
DEFAULT_255_2_778
10
19.8585325
20
35.4755898
11
20.3342325
21
35.4755898
0
LINE
8
DEFAULT_255_2_778
10
20.3342325
20
35.4755898
11
20.3342325
21
33.0590898
0
LINE
8
DEFAULT_255_2_778
10
20.3342325
20
33.0590898
11
19.5738325
21
33.0590898
0
LINE
8
DEFAULT_255_2_778
10
19.5738325
20
33.0590898
11
18.7213325
21
34.6984898
0
LINE
8
DEFAULT_255_2_778
10
18.7213325
20
34.6984898
11
18.7213325
21
33.0590898
0
LINE
8
DEFAULT_255_2_778
10
18.7213325
20
33.0590898
11
18.2453325
21
33.0588898
0
LINE
8
DEFAULT_255_2_778
10
20.8142325
20
33.0977898
11
20.8142325
21
33.5744898
0
LINE
8
DEFAULT_255_2_778
10
22.3744325
20
35.4403898
11
22.4342325
21
35.4300898
0
LINE
8
DEFAULT_255_2_778
10
22.4342325
20
35.4300898
11
22.4342325
21
34.9709898
0
LINE
8
DEFAULT_255_2_778
10
20.8120325
20
33.0982898
11
20.8142325
21
33.0977898
0
LINE
8
DEFAULT_255_1_234
10
8.6679023
20
31.2684849
11
8.5128897
21
31.2684849
0
LINE
8
DEFAULT_255_1_234
10
7.8205539
20
30.7761394
11
7.9755665
21
30.7761394
0
ARC
8
DEFAULT_255_1_234
10
8.578771
20
32.1631768
40
1.252368
50
248.9199003
51
254.1439814
0
ARC
8
DEFAULT_255_1_234
10
8.4107205
20
31.7305234
40
0.788226
50
241.633709
51
249.0064503
0
ARC
8
DEFAULT_255_1_234
10
8.25786
20
31.4504317
40
0.4691427
50
230.498225
51
241.8087113
0
ARC
8
DEFAULT_255_1_234
10
8.1794174
20
31.3504906
40
0.3421437
50
227.4064532
51
229.9881192
0
ARC
8
DEFAULT_255_1_234
10
8.1306694
20
31.3029088
40
0.2741476
50
200.6781896
51
228.1763934
0
ARC
8
DEFAULT_255_1_234
10
8.1379005
20
31.3014077
40
0.2804109
50
179.5061581
51
199.8694617
0
ARC
8
DEFAULT_255_1_234
10
8.1369757
20
31.308821
40
0.2795204
50
132.4834203
51
181.0242172
0
ARC
8
DEFAULT_255_1_234
10
8.1965339
20
31.2525704
40
0.3612768
50
129.2532479
51
133.4242687
0
ARC
8
DEFAULT_255_1_234
10
8.2111789
20
31.2305965
40
0.3875675
50
101.98776
51
128.8742646
0
ARC
8
DEFAULT_255_1_234
10
8.2510399
20
31.0584741
40
0.5642249
50
89.5906553
51
102.3169264
0
ARC
8
DEFAULT_255_1_234
10
8.2580891
20
31.0903148
40
0.5323783
50
77.2360837
51
90.3248275
0
ARC
8
DEFAULT_255_1_234
10
8.2787971
20
31.18704
40
0.4334697
50
63.837784
51
77.0809408
0
ARC
8
DEFAULT_255_1_234
10
8.3065732
20
31.2387911
40
0.3747796
50
45.9864267
51
64.1607727
0
ARC
8
DEFAULT_255_1_234
10
8.3326614
20
31.2685866
40
0.3352302
50
32.2747395
51
45.6547121
0
ARC
8
DEFAULT_255_1_234
10
8.3393054
20
31.270488
40
0.328603
50
359.6507365
51
32.6130309
0
ARC
8
DEFAULT_255_1_234
10
8.245015
20
31.270966
40
0.2678863
50
359.469343
51
14.9832209
0
ARC
8
DEFAULT_255_1_234
10
8.3155212
20
31.2898539
40
0.1948938
50
14.9781179
51
48.2004265
0
ARC
8
DEFAULT_255_1_234
10
8.2990856
20
31.2691983
40
0.2212521
50
48.5927837
51
74.1241538
0
ARC
8
DEFAULT_255_1_234
10
8.2657346
20
31.1591248
40
0.3362561
50
73.7888341
51
86.6652678
0
ARC
8
DEFAULT_255_1_234
10
8.2554911
20
31.0383881
40
0.4573953
50
86.2640471
51
90.0526343
0
ARC
8
DEFAULT_255_1_234
10
8.2526624
20
31.0779192
40
0.4178709
50
89.6697524
51
99.2309573
0
ARC
8
DEFAULT_255_1_234
10
8.2284075
20
31.2223964
40
0.2713749
50
99.069534
51
113.7658566
0
ARC
8
DEFAULT_255_1_234
10
8.2010266
20
31.2869677
40
0.2012469
50
114.0401004
51
127.9850673
0
ARC
8
DEFAULT_255_1_234
10
8.176983
20
31.316573
40
0.1631167
50
127.7287463
51
176.7105154
0
ARC
8
DEFAULT_255_1_234
10
8.2448547
20
31.3064693
40
0.2315392
50
175.1779447
51
180.0581938
0
ARC
8
DEFAULT_255_1_234
10
8.1605394
20
31.3052428
40
0.1472271
50
179.6142195
51
228.1246017
0
ARC
8
DEFAULT_255_1_234
10
8.2047063
20
31.3461308
40
0.2072299
50
226.5779593
51
230.8800004
0
ARC
8
DEFAULT_255_1_234
10
8.2518141
20
31.4086636
40
0.2854818
50
231.4635071
51
241.9260842
0
ARC
8
DEFAULT_255_1_234
10
8.3715319
20
31.62898
40
0.53622
50
241.7178533
51
248.3259551
0
ARC
8
DEFAULT_255_1_234
10
8.5100691
20
31.9722064
40
0.9063478
50
248.2007737
51
252.4528373
0
ARC
8
DEFAULT_255_1_234
10
8.6304416
20
32.3443441
40
1.2974635
50
252.3391078
51
254.3469452
0
ARC
8
DEFAULT_255_1_234
10
7.8762119
20
29.6466148
40
1.5037162
50
71.0197183
51
74.4087047
0
ARC
8
DEFAULT_255_1_234
10
8.0456804
20
30.1358111
40
0.9859993
50
66.1847285
51
71.086374
0
ARC
8
DEFAULT_255_1_234
10
8.2013116
20
30.48622
40
0.6025855
50
59.3536294
51
66.2691831
0
ARC
8
DEFAULT_255_1_234
10
8.2901769
20
30.6365609
40
0.4279449
50
49.1020879
51
59.3293958
0
ARC
8
DEFAULT_255_1_234
10
8.3720509
20
30.7298834
40
0.3038015
50
32.7919921
51
49.2505539
0
ARC
8
DEFAULT_255_1_234
10
8.4041599
20
30.7527191
40
0.264448
50
31.1181161
51
32.4005348
0
ARC
8
DEFAULT_255_1_234
10
8.3953136
20
30.7491779
40
0.2738556
50
8.1116974
51
30.7958831
0
ARC
8
DEFAULT_255_1_234
10
8.3142804
20
30.7353753
40
0.3560327
50
359.8389159
51
8.4706516
0
ARC
8
DEFAULT_255_1_234
10
8.3768596
20
30.7305137
40
0.2934776
50
337.4731098
51
0.7537279
0
ARC
8
DEFAULT_255_1_234
10
8.3947291
20
30.7285387
40
0.2762607
50
307.5917067
51
336.4315538
0
ARC
8
DEFAULT_255_1_234
10
8.3487119
20
30.7798102
40
0.3449979
50
307.6551545
51
308.4529766
0
ARC
8
DEFAULT_255_1_234
10
8.3256838
20
30.815325
40
0.3871988
50
284.3734338
51
307.1424381
0
ARC
8
DEFAULT_255_1_234
10
8.2761668
20
30.9974932
40
0.5759636
50
272.4382747
51
284.646547
0
ARC
8
DEFAULT_255_1_234
10
8.2634876
20
31.1774893
40
0.7563528
50
269.9708387
51
272.8178037
0
ARC
8
DEFAULT_255_1_234
10
8.2591916
20
30.9736716
40
0.5525489
50
248.2707594
51
270.4055579
0
ARC
8
DEFAULT_255_1_234
10
8.2537657
20
30.9546192
40
0.5328452
50
246.1383403
51
248.0542782
0
ARC
8
DEFAULT_255_1_234
10
8.2119036
20
30.8666843
40
0.4355005
50
233.1670131
51
246.4950969
0
ARC
8
DEFAULT_255_1_234
10
8.1564941
20
30.7918812
40
0.3424126
50
215.3403242
51
233.0843104
0
ARC
8
DEFAULT_255_1_234
10
8.1292372
20
30.7720549
40
0.3087104
50
179.2419209
51
215.2648451
0
ARC
8
DEFAULT_255_1_234
10
8.2059966
20
30.7734666
40
0.2304457
50
179.335461
51
199.1045811
0
ARC
8
DEFAULT_255_1_234
10
8.1727643
20
30.7647766
40
0.1962176
50
199.8828939
51
232.7063202
0
ARC
8
DEFAULT_255_1_234
10
8.2199911
20
30.8241788
40
0.2720938
50
232.3738199
51
255.5136649
0
ARC
8
DEFAULT_255_1_234
10
8.2540778
20
30.9485835
40
0.4010747
50
255.2446292
51
267.5320849
0
ARC
8
DEFAULT_255_1_234
10
8.2628401
20
31.0718702
40
0.5246356
50
267.1557994
51
270.0286766
0
ARC
8
DEFAULT_255_1_234
10
8.2656173
20
31.027495
40
0.4802668
50
269.7000017
51
278.1660162
0
ARC
8
DEFAULT_255_1_234
10
8.2912178
20
30.8544515
40
0.3053425
50
278.0231263
51
290.625471
0
ARC
8
DEFAULT_255_1_234
10
8.3259865
20
30.7617025
40
0.206291
50
290.6619762
51
307.0370976
0
ARC
8
DEFAULT_255_1_234
10
8.3560254
20
30.7248504
40
0.1587906
50
306.3943566
51
355.3030547
0
ARC
8
DEFAULT_255_1_234
10
8.3048186
20
30.7325113
40
0.2104809
50
354.3660432
51
0.0698737
0
ARC
8
DEFAULT_255_1_234
10
8.3190531
20
30.7347617
40
0.1962563
50
359.417946
51
16.1971788
0
ARC
8
DEFAULT_255_1_234
10
8.3645841
20
30.7472418
40
0.149053
50
16.4723299
51
52.6262157
0
ARC
8
DEFAULT_255_1_234
10
8.2824895
20
30.6388433
40
0.2850296
50
52.7386432
51
62.4979148
0
ARC
8
DEFAULT_255_1_234
10
8.1439972
20
30.3782283
40
0.5801521
50
62.2515216
51
68.1220564
0
ARC
8
DEFAULT_255_1_234
10
7.9719883
20
29.9554872
40
1.0365451
50
68.0062803
51
71.8053402
0
ARC
8
DEFAULT_255_1_234
10
7.7924255
20
29.4169758
40
1.6042013
50
71.7183119
51
73.9258742
0
LINE
8
DEFAULT_255_1_234
10
9.0333464
20
31.6066211
11
9.0333464
21
30.4372
0
LINE
8
DEFAULT_255_1_234
10
9.0333464
20
30.4372
11
8.879137
21
30.4372
0
LINE
8
DEFAULT_255_1_234
10
8.879137
20
30.4372
11
8.879137
21
31.6066211
0
LINE
8
DEFAULT_255_1_234
10
8.879137
20
31.6066211
11
9.0333464
21
31.6066211
0
LINE
8
DEFAULT_255_1_234
10
9.3152604
20
31.6066211
11
9.5144475
21
31.6066211
0
LINE
8
DEFAULT_255_1_234
10
9.5144475
20
31.6066211
11
9.8967583
21
30.6524506
0
LINE
8
DEFAULT_255_1_234
10
9.8967583
20
30.6524506
11
10.279069
21
31.6066211
0
LINE
8
DEFAULT_255_1_234
10
10.279069
20
31.6066211
11
10.4790593
21
31.6066211
0
LINE
8
DEFAULT_255_1_234
10
10.4790593
20
31.6066211
11
10.4790593
21
30.4372
0
LINE
8
DEFAULT_255_1_234
10
10.4790593
20
30.4372
11
10.3248499
21
30.4372
0
LINE
8
DEFAULT_255_1_234
10
10.3248499
20
30.4372
11
10.3248499
21
30.8925996
0
LINE
8
DEFAULT_255_1_234
10
10.3248499
20
30.8925996
11
10.339307
21
31.3841419
0
LINE
8
DEFAULT_255_1_234
10
10.339307
20
31.3841419
11
9.9553899
21
30.4372
0
LINE
8
DEFAULT_255_1_234
10
9.9553899
20
30.4372
11
9.8373234
21
30.4372
0
LINE
8
DEFAULT_255_1_234
10
9.8373234
20
30.4372
11
9.4542095
21
31.3817324
0
LINE
8
DEFAULT_255_1_234
10
9.4542095
20
31.3817324
11
9.4694698
21
30.8925996
0
LINE
8
DEFAULT_255_1_234
10
9.4694698
20
30.8925996
11
9.4694698
21
30.4372
0
LINE
8
DEFAULT_255_1_234
10
9.4694698
20
30.4372
11
9.3152604
21
30.4372
0
LINE
8
DEFAULT_255_1_234
10
9.3152604
20
30.4372
11
9.3152604
21
31.6066211
0
LINE
8
DEFAULT_255_1_234
10
11.5231853
20
30.4372
11
11.4115441
21
30.7424061
0
LINE
8
DEFAULT_255_1_234
10
11.4115441
20
30.7424061
11
10.9216081
21
30.7424061
0
LINE
8
DEFAULT_255_1_234
10
10.9216081
20
30.7424061
11
10.8115732
21
30.4372
0
LINE
8
DEFAULT_255_1_234
10
10.8115732
20
30.4372
11
10.6525448
21
30.4372
0
LINE
8
DEFAULT_255_1_234
10
10.6525448
20
30.4372
11
11.0991095
21
31.6066211
0
LINE
8
DEFAULT_255_1_234
10
11.0991095
20
31.6066211
11
11.2340427
21
31.6066211
0
LINE
8
DEFAULT_255_1_234
10
11.2340427
20
31.6066211
11
11.6814105
21
30.4372
0
LINE
8
DEFAULT_255_1_234
10
11.6814105
20
30.4372
11
11.5231853
21
30.4372
0
LINE
8
DEFAULT_255_1_234
10
11.1665761
20
31.4162689
11
10.9681921
21
30.8693075
0
LINE
8
DEFAULT_255_1_234
10
10.9681921
20
30.8693075
11
11.3657632
21
30.8693075
0
LINE
8
DEFAULT_255_1_234
10
11.3657632
20
30.8693075
11
11.1665761
21
31.4162689
0
LINE
8
DEFAULT_255_1_234
10
12.543216
20
31.6066211
11
12.543216
21
31.4797196
0
LINE
8
DEFAULT_255_1_234
10
12.543216
20
31.4797196
11
12.1673307
21
31.4797196
0
LINE
8
DEFAULT_255_1_234
10
12.1673307
20
31.4797196
11
12.1673307
21
30.4372
0
LINE
8
DEFAULT_255_1_234
10
12.1673307
20
30.4372
11
12.0139245
21
30.4372
0
LINE
8
DEFAULT_255_1_234
10
12.0139245
20
30.4372
11
12.0139245
21
31.4797196
0
LINE
8
DEFAULT_255_1_234
10
12.0139245
20
31.4797196
11
11.6388423
21
31.4797196
0
LINE
8
DEFAULT_255_1_234
10
11.6388423
20
31.4797196
11
11.6388423
21
31.6066211
0
LINE
8
DEFAULT_255_1_234
10
11.6388423
20
31.6066211
11
12.543216
21
31.6066211
0
LINE
8
DEFAULT_255_1_234
10
12.8821554
20
31.6066211
11
12.8821554
21
30.4372
0
LINE
8
DEFAULT_255_1_234
10
12.8821554
20
30.4372
11
12.727946
21
30.4372
0
LINE
8
DEFAULT_255_1_234
10
12.727946
20
30.4372
11
12.727946
21
31.6066211
0
LINE
8
DEFAULT_255_1_234
10
12.727946
20
31.6066211
11
12.8821554
21
31.6066211
0
LINE
8
DEFAULT_255_1_234
10
13.869256
20
30.8082663
11
14.0242686
21
30.8082663
0
LINE
8
DEFAULT_255_1_234
10
13.1239107
20
30.9672947
11
13.1239107
21
31.0797391
0
LINE
8
DEFAULT_255_1_234
10
14.0242686
20
31.2307357
11
13.869256
21
31.2307357
0
LINE
8
DEFAULT_255_1_234
10
13.2789232
20
31.0757232
11
13.2789232
21
30.9624757
0
ARC
8
DEFAULT_255_1_234
10
13.4762072
20
30.8679846
40
0.5513052
50
340.1774281
51
353.7814284
0
ARC
8
DEFAULT_255_1_234
10
13.6333425
20
30.8094582
40
0.3836379
50
311.4558989
51
340.4421614
0
ARC
8
DEFAULT_255_1_234
10
13.6300093
20
30.8205528
40
0.3941894
50
282.4333181
51
310.7513653
0
ARC
8
DEFAULT_255_1_234
10
13.5860832
20
31.0020679
40
0.5809175
50
269.9358511
51
282.809604
0
ARC
8
DEFAULT_255_1_234
10
13.5808899
20
31.1478212
40
0.7266847
50
270.0021091
51
270.3581957
0
ARC
8
DEFAULT_255_1_234
10
13.5756315
20
30.8877585
40
0.4666519
50
250.7884749
51
270.6489167
0
ARC
8
DEFAULT_255_1_234
10
13.558815
20
30.8240319
40
0.4009729
50
219.3627325
51
250.0611886
0
ARC
8
DEFAULT_255_1_234
10
13.6417361
20
30.8945042
40
0.5097822
50
193.5479632
51
219.5756669
0
ARC
8
DEFAULT_255_1_234
10
13.8788982
20
30.9560919
40
0.7547848
50
181.1218675
51
193.87563
0
ARC
8
DEFAULT_255_1_234
10
14.0859163
20
30.967158
40
0.9620055
50
179.9918545
51
181.5394234
0
ARC
8
DEFAULT_255_1_234
10
13.9008265
20
31.0834788
40
0.7769248
50
169.5837241
51
180.2757934
0
ARC
8
DEFAULT_255_1_234
10
13.7171203
20
31.1174229
40
0.590109
50
155.0365899
51
169.6003176
0
ARC
8
DEFAULT_255_1_234
10
13.6035667
20
31.1721677
40
0.4640625
50
136.783148
51
155.2472683
0
ARC
8
DEFAULT_255_1_234
10
13.5646144
20
31.2052562
40
0.4130255
50
121.7633186
51
136.428115
0
ARC
8
DEFAULT_255_1_234
10
13.5781106
20
31.1803227
40
0.4413323
50
95.6459699
51
121.5490577
0
ARC
8
DEFAULT_255_1_234
10
13.5938388
20
31.0694949
40
0.55319
50
89.924208
51
96.1377933
0
ARC
8
DEFAULT_255_1_234
10
13.5988821
20
31.0813542
40
0.5413475
50
76.6779277
51
90.4563316
0
ARC
8
DEFAULT_255_1_234
10
13.6382444
20
31.2404114
40
0.3775041
50
47.485847
51
76.9287264
0
ARC
8
DEFAULT_255_1_234
10
13.6235417
20
31.2304159
40
0.3948286
50
16.5424086
51
46.8933463
0
ARC
8
DEFAULT_255_1_234
10
13.4627574
20
31.1775861
40
0.564021
50
5.4072051
51
17.0365086
0
ARC
8
DEFAULT_255_1_234
10
13.3188591
20
31.1544679
40
0.5556559
50
7.8891745
51
15.9239216
0
ARC
8
DEFAULT_255_1_234
10
13.5175605
20
31.2121631
40
0.3487515
50
15.7653144
51
27.9410532
0
ARC
8
DEFAULT_255_1_234
10
13.6279822
20
31.271279
40
0.2235026
50
27.8166557
51
46.4008329
0
ARC
8
DEFAULT_255_1_234
10
13.6329465
20
31.2707082
40
0.2205286
50
47.4371857
51
75.0698205
0
ARC
8
DEFAULT_255_1_234
10
13.602086
20
31.1632765
40
0.3322915
50
74.7008593
51
87.8124495
0
ARC
8
DEFAULT_255_1_234
10
13.5947547
20
31.0576844
40
0.4380987
50
87.3814673
51
90.0240855
0
ARC
8
DEFAULT_255_1_234
10
13.5909091
20
31.1754291
40
0.3203749
50
89.3451631
51
108.5745436
0
ARC
8
DEFAULT_255_1_234
10
13.5772196
20
31.2267908
40
0.2673494
50
109.2998449
51
143.3037509
0
ARC
8
DEFAULT_255_1_234
10
13.6534268
20
31.1681881
40
0.3634757
50
143.0753173
51
163.1916937
0
ARC
8
DEFAULT_255_1_234
10
13.8485996
20
31.1065967
40
0.5681262
50
162.9373603
51
174.6208611
0
ARC
8
DEFAULT_255_1_234
10
14.1112038
20
31.077801
40
0.8322832
50
174.3419979
51
180.1430411
0
ARC
8
DEFAULT_255_1_234
10
14.0181194
20
30.9583698
40
0.7392076
50
179.6817502
51
189.150529
0
ARC
8
DEFAULT_255_1_234
10
13.7680443
20
30.916719
40
0.4856932
50
188.9910863
51
203.5773039
0
ARC
8
DEFAULT_255_1_234
10
13.6600775
20
30.8719211
40
0.3688271
50
203.9077269
51
215.1312379
0
ARC
8
DEFAULT_255_1_234
10
13.5677869
20
30.8003941
40
0.2522457
50
213.9071664
51
263.8849284
0
ARC
8
DEFAULT_255_1_234
10
13.5803198
20
30.8788518
40
0.3316174
50
263.1758525
51
270.1031083
0
ARC
8
DEFAULT_255_1_234
10
13.583529
20
31.0035365
40
0.4563091
50
269.6719807
51
279.0609165
0
ARC
8
DEFAULT_255_1_234
10
13.6102058
20
30.8422907
40
0.2928759
50
278.8750225
51
293.6346586
0
ARC
8
DEFAULT_255_1_234
10
13.6422266
20
30.76709
40
0.2111472
50
293.8553404
51
310.0518804
0
ARC
8
DEFAULT_255_1_234
10
13.642712
20
30.7608516
40
0.2060917
50
311.0646779
51
332.0108348
0
ARC
8
DEFAULT_255_1_234
10
13.5234847
20
30.8265978
40
0.3422352
50
331.6588543
51
343.2878891
0
ARC
8
DEFAULT_255_1_234
10
13.3172362
20
30.8899798
40
0.5580003
50
343.1446044
51
351.010618
0
ARC
8
DEFAULT_255_1_234
10
13.1631008
20
30.9180871
40
0.7146438
50
350.7157277
51
351.1602153
0
LINE
8
DEFAULT_255_1_234
10
15.4177751
20
31.2684849
11
15.2627626
21
31.2684849
0
LINE
8
DEFAULT_255_1_234
10
14.5704268
20
30.7761394
11
14.7254393
21
30.7761394
0
ARC
8
DEFAULT_255_1_234
10
15.3286439
20
32.1631768
40
1.252368
50
248.9199003
51
254.1439814
0
ARC
8
DEFAULT_255_1_234
10
15.1605934
20
31.7305234
40
0.788226
50
241.633709
51
249.0064503
0
ARC
8
DEFAULT_255_1_234
10
15.0077328
20
31.4504317
40
0.4691427
50
230.498225
51
241.8087113
0
ARC
8
DEFAULT_255_1_234
10
14.9292902
20
31.3504906
40
0.3421437
50
227.4064532
51
229.9881192
0
ARC
8
DEFAULT_255_1_234
10
14.8805423
20
31.3029088
40
0.2741476
50
200.6781896
51
228.1763934
0
ARC
8
DEFAULT_255_1_234
10
14.8877734
20
31.3014077
40
0.2804109
50
179.5061581
51
199.8694617
0
ARC
8
DEFAULT_255_1_234
10
14.8868485
20
31.308821
40
0.2795204
50
132.4834203
51
181.0242172
0
ARC
8
DEFAULT_255_1_234
10
14.9464068
20
31.2525704
40
0.3612768
50
129.2532479
51
133.4242687
0
ARC
8
DEFAULT_255_1_234
10
14.9610517
20
31.2305965
40
0.3875675
50
101.98776
51
128.8742646
0
ARC
8
DEFAULT_255_1_234
10
15.0009128
20
31.0584741
40
0.5642249
50
89.5906553
51
102.3169264
0
ARC
8
DEFAULT_255_1_234
10
15.007962
20
31.0903148
40
0.5323783
50
77.2360837
51
90.3248275
0
ARC
8
DEFAULT_255_1_234
10
15.0286699
20
31.18704
40
0.4334697
50
63.837784
51
77.0809408
0
ARC
8
DEFAULT_255_1_234
10
15.0564461
20
31.2387911
40
0.3747796
50
45.9864267
51
64.1607727
0
ARC
8
DEFAULT_255_1_234
10
15.0825342
20
31.2685866
40
0.3352302
50
32.2747395
51
45.6547121
0
ARC
8
DEFAULT_255_1_234
10
15.0891783
20
31.270488
40
0.328603
50
359.6507365
51
32.6130309
0
ARC
8
DEFAULT_255_1_234
10
14.9948878
20
31.270966
40
0.2678863
50
359.469343
51
14.9832209
0
ARC
8
DEFAULT_255_1_234
10
15.0653941
20
31.2898539
40
0.1948938
50
14.9781179
51
48.2004265
0
ARC
8
DEFAULT_255_1_234
10
15.0489585
20
31.2691983
40
0.2212521
50
48.5927837
51
74.1241538
0
ARC
8
DEFAULT_255_1_234
10
15.0156074
20
31.1591248
40
0.3362561
50
73.7888341
51
86.6652678
0
ARC
8
DEFAULT_255_1_234
10
15.005364
20
31.0383881
40
0.4573953
50
86.2640471
51
90.0526343
0
ARC
8
DEFAULT_255_1_234
10
15.0025352
20
31.0779192
40
0.4178709
50
89.6697524
51
99.2309573
0
ARC
8
DEFAULT_255_1_234
10
14.9782803
20
31.2223964
40
0.2713749
50
99.069534
51
113.7658566
0
ARC
8
DEFAULT_255_1_234
10
14.9508994
20
31.2869677
40
0.2012469
50
114.0401004
51
127.9850673
0
ARC
8
DEFAULT_255_1_234
10
14.9268558
20
31.316573
40
0.1631167
50
127.7287463
51
176.7105154
0
ARC
8
DEFAULT_255_1_234
10
14.9947276
20
31.3064693
40
0.2315392
50
175.1779447
51
180.0581938
0
ARC
8
DEFAULT_255_1_234
10
14.9104123
20
31.3052428
40
0.1472271
50
179.6142195
51
228.1246017
0
ARC
8
DEFAULT_255_1_234
10
14.9545791
20
31.3461308
40
0.2072299
50
226.5779593
51
230.8800004
0
ARC
8
DEFAULT_255_1_234
10
15.001687
20
31.4086636
40
0.2854818
50
231.4635071
51
241.9260842
0
ARC
8
DEFAULT_255_1_234
10
15.1214048
20
31.62898
40
0.53622
50
241.7178533
51
248.3259551
0
ARC
8
DEFAULT_255_1_234
10
15.259942
20
31.9722064
40
0.9063478
50
248.2007737
51
252.4528373
0
ARC
8
DEFAULT_255_1_234
10
15.3803145
20
32.3443441
40
1.2974635
50
252.3391078
51
254.3469452
0
ARC
8
DEFAULT_255_1_234
10
14.6260847
20
29.6466148
40
1.5037162
50
71.0197183
51
74.4087047
0
ARC
8
DEFAULT_255_1_234
10
14.7955532
20
30.1358111
40
0.9859993
50
66.1847285
51
71.086374
0
ARC
8
DEFAULT_255_1_234
10
14.9511845
20
30.48622
40
0.6025855
50
59.3536294
51
66.2691831
0
ARC
8
DEFAULT_255_1_234
10
15.0400497
20
30.6365609
40
0.4279449
50
49.1020879
51
59.3293958
0
ARC
8
DEFAULT_255_1_234
10
15.1219237
20
30.7298834
40
0.3038015
50
32.7919921
51
49.2505539
0
ARC
8
DEFAULT_255_1_234
10
15.1540327
20
30.7527191
40
0.264448
50
31.1181161
51
32.4005348
0
ARC
8
DEFAULT_255_1_234
10
15.1451865
20
30.7491779
40
0.2738556
50
8.1116974
51
30.7958831
0
ARC
8
DEFAULT_255_1_234
10
15.0641533
20
30.7353753
40
0.3560327
50
359.8389159
51
8.4706516
0
ARC
8
DEFAULT_255_1_234
10
15.1267324
20
30.7305137
40
0.2934776
50
337.4731098
51
0.7537279
0
ARC
8
DEFAULT_255_1_234
10
15.1446019
20
30.7285387
40
0.2762607
50
307.5917067
51
336.4315538
0
ARC
8
DEFAULT_255_1_234
10
15.0985847
20
30.7798102
40
0.3449979
50
307.6551545
51
308.4529766
0
ARC
8
DEFAULT_255_1_234
10
15.0755566
20
30.815325
40
0.3871988
50
284.3734338
51
307.1424381
0
ARC
8
DEFAULT_255_1_234
10
15.0260396
20
30.9974932
40
0.5759636
50
272.4382747
51
284.646547
0
ARC
8
DEFAULT_255_1_234
10
15.0133605
20
31.1774893
40
0.7563528
50
269.9708387
51
272.8178037
0
ARC
8
DEFAULT_255_1_234
10
15.0090645
20
30.9736716
40
0.5525489
50
248.2707594
51
270.4055579
0
ARC
8
DEFAULT_255_1_234
10
15.0036386
20
30.9546192
40
0.5328452
50
246.1383403
51
248.0542782
0
ARC
8
DEFAULT_255_1_234
10
14.9617765
20
30.8666843
40
0.4355005
50
233.1670131
51
246.4950969
0
ARC
8
DEFAULT_255_1_234
10
14.906367
20
30.7918812
40
0.3424126
50
215.3403242
51
233.0843104
0
ARC
8
DEFAULT_255_1_234
10
14.8791101
20
30.7720549
40
0.3087104
50
179.2419209
51
215.2648451
0
ARC
8
DEFAULT_255_1_234
10
14.9558695
20
30.7734666
40
0.2304457
50
179.335461
51
199.1045811
0
ARC
8
DEFAULT_255_1_234
10
14.9226371
20
30.7647766
40
0.1962176
50
199.8828939
51
232.7063202
0
ARC
8
DEFAULT_255_1_234
10
14.969864
20
30.8241788
40
0.2720938
50
232.3738199
51
255.5136649
0
ARC
8
DEFAULT_255_1_234
10
15.0039506
20
30.9485835
40
0.4010747
50
255.2446292
51
267.5320849
0
ARC
8
DEFAULT_255_1_234
10
15.012713
20
31.0718702
40
0.5246356
50
267.1557994
51
270.0286766
0
ARC
8
DEFAULT_255_1_234
10
15.0154902
20
31.027495
40
0.4802668
50
269.7000017
51
278.1660162
0
ARC
8
DEFAULT_255_1_234
10
15.0410907
20
30.8544515
40
0.3053425
50
278.0231263
51
290.625471
0
ARC
8
DEFAULT_255_1_234
10
15.0758594
20
30.7617025
40
0.206291
50
290.6619762
51
307.0370976
0
ARC
8
DEFAULT_255_1_234
10
15.1058983
20
30.7248504
40
0.1587906
50
306.3943566
51
355.3030547
0
ARC
8
DEFAULT_255_1_234
10
15.0546914
20
30.7325113
40
0.2104809
50
354.3660432
51
0.0698737
0
ARC
8
DEFAULT_255_1_234
10
15.068926
20
30.7347617
40
0.1962563
50
359.417946
51
16.1971788
0
ARC
8
DEFAULT_255_1_234
10
15.114457
20
30.7472418
40
0.149053
50
16.4723299
51
52.6262157
0
ARC
8
DEFAULT_255_1_234
10
15.0323624
20
30.6388433
40
0.2850296
50
52.7386432
51
62.4979148
0
ARC
8
DEFAULT_255_1_234
10
14.8938701
20
30.3782283
40
0.5801521
50
62.2515216
51
68.1220564
0
ARC
8
DEFAULT_255_1_234
10
14.7218612
20
29.9554872
40
1.0365451
50
68.0062803
51
71.8053402
0
ARC
8
DEFAULT_255_1_234
10
14.5422983
20
29.4169758
40
1.6042013
50
71.7183119
51
73.9258742
0
LINE
8
DEFAULT_255_1_234
10
16.3341965
20
31.6066211
11
16.3341965
21
31.523091
0
LINE
8
DEFAULT_255_1_234
10
16.3341965
20
31.523091
11
15.8498827
21
30.4372
0
LINE
8
DEFAULT_255_1_234
10
15.8498827
20
30.4372
11
15.6940669
21
30.4372
0
LINE
8
DEFAULT_255_1_234
10
15.6940669
20
30.4372
11
16.1767744
21
31.4845387
0
LINE
8
DEFAULT_255_1_234
10
16.1767744
20
31.4845387
11
15.5438734
21
31.4845387
0
LINE
8
DEFAULT_255_1_234
10
15.5438734
20
31.4845387
11
15.5438734
21
31.6066211
0
LINE
8
DEFAULT_255_1_234
10
15.5438734
20
31.6066211
11
16.3341965
21
31.6066211
0
LINE
8
DEFAULT_255_1_234
10
16.8273452
20
30.9946026
11
16.8273452
21
30.8733234
0
LINE
8
DEFAULT_255_1_234
10
16.8273452
20
30.8733234
11
16.4353964
21
30.8733234
0
LINE
8
DEFAULT_255_1_234
10
16.4353964
20
30.8733234
11
16.4353964
21
30.9946026
0
LINE
8
DEFAULT_255_1_234
10
16.4353964
20
30.9946026
11
16.8273452
21
30.9946026
0
LINE
8
DEFAULT_255_1_234
10
17.4449859
20
31.6122433
11
17.4449859
21
30.4372
0
LINE
8
DEFAULT_255_1_234
10
17.4449859
20
30.4372
11
17.2955956
21
30.4372
0
LINE
8
DEFAULT_255_1_234
10
17.2955956
20
30.4372
11
17.2955956
21
31.4275133
0
LINE
8
DEFAULT_255_1_234
10
17.2955956
20
31.4275133
11
16.9960117
21
31.3174785
0
LINE
8
DEFAULT_255_1_234
10
16.9960117
20
31.3174785
11
16.9960117
21
31.4524117
0
LINE
8
DEFAULT_255_1_234
10
16.9960117
20
31.4524117
11
17.4216938
21
31.6122433
0
LINE
8
DEFAULT_255_1_234
10
17.4216938
20
31.6122433
11
17.4449859
21
31.6122433
0
LINE
8
DEFAULT_255_1_234
10
18.0674456
20
30.9929963
11
17.9485759
21
31.0235169
0
LINE
8
DEFAULT_255_1_234
10
17.9485759
20
31.0235169
11
18.0080107
21
31.6066211
0
LINE
8
DEFAULT_255_1_234
10
18.0080107
20
31.6066211
11
18.6071784
21
31.6066211
0
LINE
8
DEFAULT_255_1_234
10
18.6071784
20
31.6066211
11
18.6071784
21
31.4692784
0
LINE
8
DEFAULT_255_1_234
10
18.6071784
20
31.4692784
11
18.134109
21
31.4692784
0
LINE
8
DEFAULT_255_1_234
10
18.134109
20
31.4692784
11
18.0987694
21
31.1504184
0
LINE
8
DEFAULT_255_1_234
10
17.9068108
20
30.7448156
11
18.0473663
21
30.7448156
0
LINE
8
DEFAULT_255_1_234
10
18.1068011
20
31.0251232
11
18.0674456
21
30.9929963
0
ARC
8
DEFAULT_255_1_234
10
18.2842478
20
30.832423
40
0.3681349
50
93.7182161
51
120.2538958
0
ARC
8
DEFAULT_255_1_234
10
18.2936741
20
30.7516394
40
0.449379
50
89.9660152
51
94.2496022
0
ARC
8
DEFAULT_255_1_234
10
18.2977475
20
30.8105549
40
0.390482
50
73.8043271
51
90.5585896
0
ARC
8
DEFAULT_255_1_234
10
18.3212372
20
30.8963602
40
0.3015334
50
41.3071453
51
73.5430202
0
ARC
8
DEFAULT_255_1_234
10
18.2796199
20
30.8605324
40
0.3564457
50
13.5075983
51
41.2174222
0
ARC
8
DEFAULT_255_1_234
10
18.1154403
20
30.8175486
40
0.5261351
50
1.1331335
51
13.8829381
0
ARC
8
DEFAULT_255_1_234
10
17.9742772
20
30.8099665
40
0.6674378
50
359.9919444
51
1.544251
0
ARC
8
DEFAULT_255_1_234
10
18.1019598
20
30.805828
40
0.5397702
50
347.8572367
51
0.4293338
0
ARC
8
DEFAULT_255_1_234
10
18.2769916
20
30.7661736
40
0.3603188
50
323.673004
51
348.1672506
0
ARC
8
DEFAULT_255_1_234
10
18.3064424
20
30.7482168
40
0.3259678
50
316.8171152
51
323.1492751
0
ARC
8
DEFAULT_255_1_234
10
18.3125613
20
30.744546
40
0.3189975
50
281.8396411
51
316.5457803
0
ARC
8
DEFAULT_255_1_234
10
18.2749876
20
30.9000762
40
0.4789527
50
269.5770101
51
282.4214771
0
ARC
8
DEFAULT_255_1_234
10
18.2678688
20
30.8787125
40
0.45759
50
256.2427136
51
270.4486331
0
ARC
8
DEFAULT_255_1_234
10
18.237959
20
30.7587229
40
0.3339303
50
228.9023911
51
256.3314342
0
ARC
8
DEFAULT_255_1_234
10
18.2305823
20
30.7470746
40
0.32031
50
193.753695
51
228.5271154
0
ARC
8
DEFAULT_255_1_234
10
18.3543777
20
30.78338
40
0.4492253
50
184.924711
51
194.497588
0
ARC
8
DEFAULT_255_1_234
10
18.3736344
20
30.7869591
40
0.3289787
50
187.3600538
51
198.6732863
0
ARC
8
DEFAULT_255_1_234
10
18.2686638
20
30.7505674
40
0.217884
50
198.4451669
51
217.794479
0
ARC
8
DEFAULT_255_1_234
10
18.2390813
20
30.7296085
40
0.1816698
50
218.2887171
51
228.5612368
0
ARC
8
DEFAULT_255_1_234
10
18.24886
20
30.7427963
40
0.1980329
50
228.9654866
51
258.1234728
0
ARC
8
DEFAULT_255_1_234
10
18.269431
20
30.8308833
40
0.2884748
50
257.7258293
51
270.401361
0
ARC
8
DEFAULT_255_1_234
10
18.2739196
20
30.7863821
40
0.2439788
50
269.4204404
51
286.4209037
0
ARC
8
DEFAULT_255_1_234
10
18.2887684
20
30.7324657
40
0.1880666
50
286.7251356
51
320.600362
0
ARC
8
DEFAULT_255_1_234
10
18.2504509
20
30.7635595
40
0.2374121
50
320.6712579
51
344.5441685
0
ARC
8
DEFAULT_255_1_234
10
18.1347835
20
30.7975045
40
0.3579479
50
344.2412205
51
356.7357071
0
ARC
8
DEFAULT_255_1_234
10
18.0098983
20
30.8078444
40
0.4832297
50
356.3548756
51
0.0500261
0
ARC
8
DEFAULT_255_1_234
10
18.1435493
20
30.810965
40
0.3495889
50
359.5576869
51
12.953486
0
ARC
8
DEFAULT_255_1_234
10
18.249039
20
30.8365434
40
0.2410532
50
12.6490276
51
41.6081334
0
ARC
8
DEFAULT_255_1_234
10
18.2720761
20
30.8561321
40
0.2108218
50
41.7850273
51
85.9892764
0
ARC
8
DEFAULT_255_1_234
10
18.2597498
20
30.7748462
40
0.2928454
50
84.6957577
51
90.0676183
0
ARC
8
DEFAULT_255_1_234
10
18.2573982
20
30.7079716
40
0.3597255
50
89.6804936
51
99.1614436
0
ARC
8
DEFAULT_255_1_234
10
18.2368613
20
30.8307131
40
0.235281
50
98.9830931
51
113.8908934
0
ARC
8
DEFAULT_255_1_234
10
18.2139023
20
30.8848587
40
0.176479
50
114.1950727
51
127.3641004
0
LINE
8
DEFAULT_255_1_234
10
19.5372537
20
31.1287327
11
19.5372537
21
30.9359709
0
LINE
8
DEFAULT_255_1_234
10
18.799137
20
30.9158916
11
18.799137
21
31.1142755
0
LINE
8
DEFAULT_255_1_234
10
19.3886666
20
30.8958123
11
19.3886666
21
31.1391739
0
LINE
8
DEFAULT_255_1_234
10
18.9477241
20
31.1504184
11
18.9477241
21
30.9126789
0
ARC
8
DEFAULT_255_1_234
10
18.3125427
20
30.9310805
40
1.2247208
50
353.8441951
51
0.2287902
0
ARC
8
DEFAULT_255_1_234
10
18.776493
20
30.8792806
40
0.7578929
50
344.4934747
51
353.9765454
0
ARC
8
DEFAULT_255_1_234
10
19.0757521
20
30.7941981
40
0.4467846
50
329.2803592
51
344.7472793
0
ARC
8
DEFAULT_255_1_234
10
19.1750345
20
30.7397018
40
0.3336173
50
324.9352394
51
328.6160465
0
ARC
8
DEFAULT_255_1_234
10
19.2127454
20
30.7133427
40
0.2876076
50
280.580143
51
324.9173126
0
ARC
8
DEFAULT_255_1_234
10
19.1726247
20
30.8804099
40
0.4592847
50
269.5977311
51
281.6734359
0
ARC
8
DEFAULT_255_1_234
10
19.1654152
20
30.8684173
40
0.4472986
50
256.6228859
51
270.51044
0
ARC
8
DEFAULT_255_1_234
10
19.125213
20
30.7135877
40
0.2873874
50
215.8618325
51
257.2788573
0
ARC
8
DEFAULT_255_1_234
10
19.2273162
20
30.7820977
40
0.4102928
50
197.9693508
51
215.2623606
0
ARC
8
DEFAULT_255_1_234
10
19.4758277
20
30.8659709
40
0.6725652
50
187.8816417
51
198.2346507
0
ARC
8
DEFAULT_255_1_234
10
19.8716486
20
30.9231079
40
1.0724845
50
180.8976217
51
188.0055519
0
ARC
8
DEFAULT_255_1_234
10
20.1516674
20
30.9334777
40
1.3526448
50
180.7449369
51
181.1510016
0
ARC
8
DEFAULT_255_1_234
10
19.9939403
20
31.1191042
40
1.1948131
50
173.7675579
51
180.231553
0
ARC
8
DEFAULT_255_1_234
10
19.5421549
20
31.1701666
40
0.7401564
50
164.3058563
51
173.9002247
0
ARC
8
DEFAULT_255_1_234
10
19.2509618
20
31.2540656
40
0.4371288
50
148.7922025
51
164.568378
0
ARC
8
DEFAULT_255_1_234
10
19.155807
20
31.3071929
40
0.3282386
50
144.5883898
51
148.1176286
0
ARC
8
DEFAULT_255_1_234
10
19.1214968
20
31.3311315
40
0.2864044
50
101.6440918
51
144.514236
0
ARC
8
DEFAULT_255_1_234
10
19.1640035
20
31.1622069
40
0.4604934
50
89.5284041
51
102.5819763
0
ARC
8
DEFAULT_255_1_234
10
19.1719123
20
31.1583018
40
0.464401
50
77.0437873
51
90.5081339
0
ARC
8
DEFAULT_255_1_234
10
19.2121125
20
31.3225615
40
0.2953195
50
48.2778575
51
77.4994676
0
ARC
8
DEFAULT_255_1_234
10
19.2193756
20
31.3354746
40
0.2808655
50
36.3142134
51
47.6305865
0
ARC
8
DEFAULT_255_1_234
10
19.1325063
20
31.2769515
40
0.3855453
50
18.2931786
51
35.6769206
0
ARC
8
DEFAULT_255_1_234
10
18.8781822
20
31.1896593
40
0.654423
50
8.024666
51
18.5605216
0
ARC
8
DEFAULT_255_1_234
10
18.4618742
20
31.1281792
40
1.0752407
50
1.1274072
51
8.1718305
0
ARC
8
DEFAULT_255_1_234
10
18.1382932
20
31.1154885
40
1.3990231
50
0.5424119
51
1.3863029
0
ARC
8
DEFAULT_255_1_234
10
18.320431
20
31.1427342
40
1.0682415
50
359.8090433
51
4.9407866
0
ARC
8
DEFAULT_255_1_234
10
18.7414324
20
31.1803113
40
0.6455691
50
4.8362157
51
12.2904523
0
ARC
8
DEFAULT_255_1_234
10
19.0169439
20
31.2416965
40
0.3633074
50
12.0805627
51
23.8173984
0
ARC
8
DEFAULT_255_1_234
10
19.1343144
20
31.2913919
40
0.2358723
50
24.2871213
51
31.3935614
0
ARC
8
DEFAULT_255_1_234
10
19.1867841
20
31.3257233
40
0.1732111
50
30.7407893
51
82.4657128
0
ARC
8
DEFAULT_255_1_234
10
19.1687976
20
31.2373691
40
0.263235
50
81.1060089
51
90.2184952
0
ARC
8
DEFAULT_255_1_234
10
19.1652275
20
31.2631924
40
0.2374236
50
89.3806855
51
105.6762551
0
ARC
8
DEFAULT_255_1_234
10
19.1468905
20
31.3298567
40
0.1682847
50
105.7981136
51
149.7388061
0
ARC
8
DEFAULT_255_1_234
10
19.2532984
20
31.265895
40
0.2924306
50
149.4208916
51
163.6286378
0
ARC
8
DEFAULT_255_1_234
10
19.4623872
20
31.202125
40
0.5110213
50
163.3763315
51
172.1410975
0
ARC
8
DEFAULT_255_1_234
10
19.7924591
20
31.1548518
40
0.8444586
50
172.0259487
51
178.0703232
0
ARC
8
DEFAULT_255_1_234
10
20.095468
20
31.1404906
40
1.1477868
50
177.8631668
51
179.5044149
0
ARC
8
DEFAULT_255_1_234
10
19.9882085
20
30.9090389
40
1.0404907
50
179.7995573
51
185.2460446
0
ARC
8
DEFAULT_255_1_234
10
19.5839124
20
30.8707513
40
0.6343885
50
185.1411642
51
193.0079639
0
ARC
8
DEFAULT_255_1_234
10
19.3195596
20
30.8082641
40
0.3627568
50
192.7897626
51
205.2507664
0
ARC
8
DEFAULT_255_1_234
10
19.2149143
20
30.7615415
40
0.2481908
50
205.8005384
51
211.2537509
0
ARC
8
DEFAULT_255_1_234
10
19.1625584
20
30.726458
40
0.1852521
50
210.3789793
51
238.4008143
0
ARC
8
DEFAULT_255_1_234
10
19.1606106
20
30.7311376
40
0.1882621
50
239.6520629
51
265.9793761
0
ARC
8
DEFAULT_255_1_234
10
19.1691306
20
30.7983427
40
0.2559272
50
265.1315437
51
270.060332
0
ARC
8
DEFAULT_255_1_234
10
19.1720085
20
30.7659534
40
0.2235528
50
269.3314664
51
287.2178029
0
ARC
8
DEFAULT_255_1_234
10
19.1857937
20
30.7156279
40
0.1714108
50
287.7958004
51
329.080874
0
ARC
8
DEFAULT_255_1_234
10
19.0900394
20
30.775393
40
0.2842745
50
328.6634704
51
343.3325132
0
ARC
8
DEFAULT_255_1_234
10
18.8727414
20
30.8430863
40
0.5118644
50
343.0499468
51
351.9393422
0
ARC
8
DEFAULT_255_1_234
10
18.5260714
20
30.8941949
40
0.8622784
50
351.8069023
51
357.7959224
0
ARC
8
DEFAULT_255_1_234
10
18.202527
20
30.9109721
40
1.1862365
50
357.5871873
51
359.2677531
0
LINE
8
DEFAULT_255_1_234
10
20.4609036
20
31.1287327
11
20.4609036
21
30.9359709
0
LINE
8
DEFAULT_255_1_234
10
19.7227869
20
30.9158916
11
19.7227869
21
31.1142755
0
LINE
8
DEFAULT_255_1_234
10
20.3123165
20
30.8958123
11
20.3123165
21
31.1391739
0
LINE
8
DEFAULT_255_1_234
10
19.871374
20
31.1504184
11
19.871374
21
30.9126789
0
ARC
8
DEFAULT_255_1_234
10
19.2361926
20
30.9310805
40
1.2247208
50
353.8441951
51
0.2287902
0
ARC
8
DEFAULT_255_1_234
10
19.7001429
20
30.8792806
40
0.7578929
50
344.4934747
51
353.9765454
0
ARC
8
DEFAULT_255_1_234
10
19.999402
20
30.7941981
40
0.4467846
50
329.2803592
51
344.7472793
0
ARC
8
DEFAULT_255_1_234
10
20.0986844
20
30.7397018
40
0.3336173
50
324.9352394
51
328.6160465
0
ARC
8
DEFAULT_255_1_234
10
20.1363953
20
30.7133427
40
0.2876076
50
280.580143
51
324.9173126
0
ARC
8
DEFAULT_255_1_234
10
20.0962746
20
30.8804099
40
0.4592847
50
269.5977311
51
281.6734359
0
ARC
8
DEFAULT_255_1_234
10
20.0890651
20
30.8684173
40
0.4472986
50
256.6228859
51
270.51044
0
ARC
8
DEFAULT_255_1_234
10
20.0488629
20
30.7135877
40
0.2873874
50
215.8618325
51
257.2788573
0
ARC
8
DEFAULT_255_1_234
10
20.1509661
20
30.7820977
40
0.4102928
50
197.9693508
51
215.2623606
0
ARC
8
DEFAULT_255_1_234
10
20.3994776
20
30.8659709
40
0.6725652
50
187.8816417
51
198.2346507
0
ARC
8
DEFAULT_255_1_234
10
20.7952985
20
30.9231079
40
1.0724845
50
180.8976217
51
188.0055519
0
ARC
8
DEFAULT_255_1_234
10
21.0753173
20
30.9334777
40
1.3526448
50
180.7449369
51
181.1510016
0
ARC
8
DEFAULT_255_1_234
10
20.9175902
20
31.1191042
40
1.1948131
50
173.7675579
51
180.231553
0
ARC
8
DEFAULT_255_1_234
10
20.4658048
20
31.1701666
40
0.7401564
50
164.3058563
51
173.9002247
0
ARC
8
DEFAULT_255_1_234
10
20.1746117
20
31.2540656
40
0.4371288
50
148.7922025
51
164.568378
0
ARC
8
DEFAULT_255_1_234
10
20.0794569
20
31.3071929
40
0.3282386
50
144.5883898
51
148.1176286
0
ARC
8
DEFAULT_255_1_234
10
20.0451467
20
31.3311315
40
0.2864044
50
101.6440918
51
144.514236
0
ARC
8
DEFAULT_255_1_234
10
20.0876534
20
31.1622069
40
0.4604934
50
89.5284041
51
102.5819763
0
ARC
8
DEFAULT_255_1_234
10
20.0955622
20
31.1583018
40
0.464401
50
77.0437873
51
90.5081339
0
ARC
8
DEFAULT_255_1_234
10
20.1357624
20
31.3225615
40
0.2953195
50
48.2778575
51
77.4994676
0
ARC
8
DEFAULT_255_1_234
10
20.1430255
20
31.3354746
40
0.2808655
50
36.3142134
51
47.6305865
0
ARC
8
DEFAULT_255_1_234
10
20.0561562
20
31.2769515
40
0.3855453
50
18.2931786
51
35.6769206
0
ARC
8
DEFAULT_255_1_234
10
19.8018321
20
31.1896593
40
0.654423
50
8.024666
51
18.5605216
0
ARC
8
DEFAULT_255_1_234
10
19.3855241
20
31.1281792
40
1.0752407
50
1.1274072
51
8.1718305
0
ARC
8
DEFAULT_255_1_234
10
19.0619431
20
31.1154885
40
1.3990231
50
0.5424119
51
1.3863029
0
ARC
8
DEFAULT_255_1_234
10
19.2440809
20
31.1427342
40
1.0682415
50
359.8090433
51
4.9407866
0
ARC
8
DEFAULT_255_1_234
10
19.6650823
20
31.1803113
40
0.6455691
50
4.8362157
51
12.2904523
0
ARC
8
DEFAULT_255_1_234
10
19.9405938
20
31.2416965
40
0.3633074
50
12.0805627
51
23.8173984
0
ARC
8
DEFAULT_255_1_234
10
20.0579643
20
31.2913919
40
0.2358723
50
24.2871213
51
31.3935614
0
ARC
8
DEFAULT_255_1_234
10
20.110434
20
31.3257233
40
0.1732111
50
30.7407893
51
82.4657128
0
ARC
8
DEFAULT_255_1_234
10
20.0924475
20
31.2373691
40
0.263235
50
81.1060089
51
90.2184952
0
ARC
8
DEFAULT_255_1_234
10
20.0888774
20
31.2631924
40
0.2374236
50
89.3806855
51
105.6762551
0
ARC
8
DEFAULT_255_1_234
10
20.0705404
20
31.3298567
40
0.1682847
50
105.7981136
51
149.7388061
0
ARC
8
DEFAULT_255_1_234
10
20.1769483
20
31.265895
40
0.2924306
50
149.4208916
51
163.6286378
0
ARC
8
DEFAULT_255_1_234
10
20.3860371
20
31.202125
40
0.5110213
50
163.3763315
51
172.1410975
0
ARC
8
DEFAULT_255_1_234
10
20.716109
20
31.1548518
40
0.8444586
50
172.0259487
51
178.0703232
0
ARC
8
DEFAULT_255_1_234
10
21.0191179
20
31.1404906
40
1.1477868
50
177.8631668
51
179.5044149
0
ARC
8
DEFAULT_255_1_234
10
20.9118584
20
30.9090389
40
1.0404907
50
179.7995573
51
185.2460446
0
ARC
8
DEFAULT_255_1_234
10
20.5075623
20
30.8707513
40
0.6343885
50
185.1411642
51
193.0079639
0
ARC
8
DEFAULT_255_1_234
10
20.2432095
20
30.8082641
40
0.3627568
50
192.7897626
51
205.2507664
0
ARC
8
DEFAULT_255_1_234
10
20.1385642
20
30.7615415
40
0.2481908
50
205.8005384
51
211.2537509
0
ARC
8
DEFAULT_255_1_234
10
20.0862083
20
30.726458
40
0.1852521
50
210.3789793
51
238.4008143
0
ARC
8
DEFAULT_255_1_234
10
20.0842605
20
30.7311376
40
0.1882621
50
239.6520629
51
265.9793761
0
ARC
8
DEFAULT_255_1_234
10
20.0927805
20
30.7983427
40
0.2559272
50
265.1315437
51
270.060332
0
ARC
8
DEFAULT_255_1_234
10
20.0956584
20
30.7659534
40
0.2235528
50
269.3314664
51
287.2178029
0
ARC
8
DEFAULT_255_1_234
10
20.1094436
20
30.7156279
40
0.1714108
50
287.7958004
51
329.080874
0
ARC
8
DEFAULT_255_1_234
10
20.0136893
20
30.775393
40
0.2842745
50
328.6634704
51
343.3325132
0
ARC
8
DEFAULT_255_1_234
10
19.7963913
20
30.8430863
40
0.5118644
50
343.0499468
51
351.9393422
0
ARC
8
DEFAULT_255_1_234
10
19.4497213
20
30.8941949
40
0.8622784
50
351.8069023
51
357.7959224
0
ARC
8
DEFAULT_255_1_234
10
19.1261769
20
30.9109721
40
1.1862365
50
357.5871873
51
359.2677531
0
LINE
8
DEFAULT_255_2_778
10
10.7156501
20
28.9718499
11
18.6531501
21
28.9718499
0
LINE
8
DEFAULT_255_2_778
10
18.6531501
20
28.9718499
11
18.6531501
21
21.0343499
0
LINE
8
DEFAULT_255_2_778
10
18.6531501
20
21.0343499
11
10.7156501
21
21.0343499
0
LINE
8
DEFAULT_255_2_778
10
10.7156501
20
21.0343499
11
10.7156501
21
28.9718499
0
LINE
8
DEFAULT_255_2_778
10
10.7156501
20
21.0343499
11
18.6531501
21
28.9718499
0
ARC
8
DEFAULT_255_2_778
10
14.1071114
20
26.0880807
40
2.9032284
50
151.5042733
51
153.4806603
0
ARC
8
DEFAULT_255_2_778
10
13.4582806
20
26.4409763
40
2.1646375
50
149.0139962
51
151.519903
0
ARC
8
DEFAULT_255_2_778
10
12.9467115
20
26.7487368
40
1.567629
50
145.9162939
51
149.0311909
0
ARC
8
DEFAULT_255_2_778
10
12.5619818
20
27.0097335
40
1.1027247
50
141.9200062
51
145.9453242
0
ARC
8
DEFAULT_255_2_778
10
12.281474
20
27.2304211
40
0.7458118
50
136.484805
51
141.9744057
0
ARC
8
DEFAULT_255_2_778
10
12.091706
20
27.4115808
40
0.4834572
50
128.8638593
51
136.5691139
0
ARC
8
DEFAULT_255_2_778
10
11.9797184
20
27.5516418
40
0.304132
50
117.7110364
51
128.9931649
0
ARC
8
DEFAULT_255_2_778
10
11.928338
20
27.6512194
40
0.1920847
50
98.9021051
51
117.9549066
0
ARC
8
DEFAULT_255_2_778
10
11.9212758
20
27.686491
40
0.1561525
50
90.0344408
51
98.3447638
0
ARC
8
DEFAULT_255_2_778
10
11.9160634
20
27.6603238
40
0.1823916
50
50.7117937
51
88.3918664
0
ARC
8
DEFAULT_255_2_778
10
11.7831308
20
27.4819057
40
0.4047836
50
38.9451112
51
52.1404787
0
ARC
8
DEFAULT_255_2_778
10
11.430408
20
27.1924907
40
0.8610391
50
31.5376489
51
39.1699631
0
ARC
8
DEFAULT_255_2_778
10
10.4861496
20
26.6087547
40
1.9711589
50
27.5029892
51
31.6426884
0
ARC
8
DEFAULT_255_2_778
10
5.9859457
20
24.2545708
40
7.0499372
50
26.3566909
51
27.5839254
0
ARC
8
DEFAULT_255_2_778
10
16.3878515
20
29.3833746
40
4.5476932
50
206.0760745
51
208.8893742
0
ARC
8
DEFAULT_255_2_778
10
13.5296207
20
27.8107384
40
1.2853914
50
209.0650167
51
214.9193276
0
ARC
8
DEFAULT_255_2_778
10
12.9617008
20
27.4129421
40
0.5920141
50
214.8141771
51
224.5237395
0
ARC
8
DEFAULT_255_2_778
10
12.7405911
20
27.1923149
40
0.279676
50
224.0617241
51
242.8344517
0
ARC
8
DEFAULT_255_2_778
10
12.6861767
20
27.089133
40
0.1630376
50
243.2923391
51
269.5752511
0
ARC
8
DEFAULT_255_2_778
10
12.6832992
20
27.0981104
40
0.1720185
50
270.5559033
51
293.8685481
0
ARC
8
DEFAULT_255_2_778
10
12.6460708
20
27.1853881
40
0.2668991
50
293.5955797
51
306.345121
0
ARC
8
DEFAULT_255_2_778
10
12.553147
20
27.3135986
40
0.4252403
50
306.1919045
51
314.6688826
0
ARC
8
DEFAULT_255_2_778
10
12.3908409
20
27.4794992
40
0.6573295
50
314.5642472
51
320.4128675
0
ARC
8
DEFAULT_255_2_778
10
12.1425104
20
27.6858069
40
0.980177
50
320.3694038
51
324.845255
0
ARC
8
DEFAULT_255_2_778
10
11.7897394
20
27.9354469
40
1.4123423
50
324.8053061
51
328.1530642
0
ARC
8
DEFAULT_255_2_778
10
11.3247883
20
28.2251419
40
1.9601584
50
328.1310763
51
330.7610809
0
ARC
8
DEFAULT_255_2_778
10
10.731881
20
28.5578279
40
2.640025
50
330.7460722
51
332.8554872
0
ARC
8
DEFAULT_255_2_778
10
10.2484419
20
28.808394
40
3.1845357
50
332.812199
51
333.437874
0
LINE
8
DEFAULT_255_2_778
10
16.27185
20
22.9394
11
17.85935
21
22.9394
0
LINE
8
DEFAULT_255_2_778
10
16.27185
20
22.3044
11
16.58935
21
22.3044
0
LINE
8
DEFAULT_255_2_778
10
16.90685
20
22.3044
11
17.22435
21
22.3044
0
LINE
8
DEFAULT_255_2_778
10
17.54185
20
22.3044
11
17.85935
21
22.3044
0
LINE
8
DEFAULT_255_1_234
10
4.2414489
20
29.6223211
11
4.2414489
21
28.5789983
0
LINE
8
DEFAULT_255_1_234
10
4.2414489
20
28.5789983
11
4.7956389
21
28.5789983
0
LINE
8
DEFAULT_255_1_234
10
4.7956389
20
28.5789983
11
4.7956389
21
28.4529
0
LINE
8
DEFAULT_255_1_234
10
4.7956389
20
28.4529
11
4.0864364
21
28.4529
0
LINE
8
DEFAULT_255_1_234
10
4.0864364
20
28.4529
11
4.0864364
21
29.6223211
0
LINE
8
DEFAULT_255_1_234
10
4.0864364
20
29.6223211
11
4.2414489
21
29.6223211
0
LINE
8
DEFAULT_255_1_234
10
5.4213113
20
29.6279433
11
5.4213113
21
28.4529
0
LINE
8
DEFAULT_255_1_234
10
5.4213113
20
28.4529
11
5.2719209
21
28.4529
0
LINE
8
DEFAULT_255_1_234
10
5.2719209
20
28.4529
11
5.2719209
21
29.4432133
0
LINE
8
DEFAULT_255_1_234
10
5.2719209
20
29.4432133
11
4.9723371
21
29.3331785
0
LINE
8
DEFAULT_255_1_234
10
4.9723371
20
29.3331785
11
4.9723371
21
29.4681117
0
LINE
8
DEFAULT_255_1_234
10
4.9723371
20
29.4681117
11
5.3980192
21
29.6279433
0
LINE
8
DEFAULT_255_1_234
10
5.3980192
20
29.6279433
11
5.4213113
21
29.6279433
0
LINE
8
DEFAULT_255_1_234
10
4.6346344
20
13.0357091
11
4.3591458
21
13.0357091
0
LINE
8
DEFAULT_255_1_234
10
4.3591458
20
13.0357091
11
4.3591458
21
12.5779
0
LINE
8
DEFAULT_255_1_234
10
4.3591458
20
12.5779
11
4.2049364
21
12.5779
0
LINE
8
DEFAULT_255_1_234
10
4.2049364
20
12.5779
11
4.2049364
21
13.7473211
0
LINE
8
DEFAULT_255_1_234
10
4.2049364
20
13.7473211
11
4.6362407
21
13.7473211
0
LINE
8
DEFAULT_255_1_234
10
4.3591458
20
13.6204196
11
4.3591458
21
13.1618074
0
LINE
8
DEFAULT_255_1_234
10
4.3591458
20
13.1618074
11
4.6362407
21
13.1618074
0
LINE
8
DEFAULT_255_1_234
10
4.6450756
20
13.6204196
11
4.3591458
21
13.6204196
0
ARC
8
DEFAULT_255_1_234
10
4.6404534
20
13.1414195
40
0.6059162
50
78.8378113
51
90.3983573
0
ARC
8
DEFAULT_255_1_234
10
4.6820548
20
13.3434879
40
0.3996205
50
58.9632738
51
79.0810598
0
ARC
8
DEFAULT_255_1_234
10
4.712209
20
13.3994721
40
0.3361177
50
48.0197965
51
58.447194
0
ARC
8
DEFAULT_255_1_234
10
4.7210951
20
13.4080225
40
0.3238191
50
3.3375044
51
48.1766626
0
ARC
8
DEFAULT_255_1_234
10
4.598079
20
13.3903171
40
0.4477806
50
359.9477528
51
4.6829065
0
ARC
8
DEFAULT_255_1_234
10
4.6104107
20
13.3860628
40
0.4354656
50
346.1877825
51
0.5060252
0
ARC
8
DEFAULT_255_1_234
10
4.7462975
20
13.3507731
40
0.295089
50
310.8831995
51
346.5426355
0
ARC
8
DEFAULT_255_1_234
10
4.7154395
20
13.3924695
40
0.3468331
50
286.6925341
51
310.2288297
0
ARC
8
DEFAULT_255_1_234
10
4.6585226
20
13.5714882
40
0.5346654
50
274.6850312
51
287.0245141
0
ARC
8
DEFAULT_255_1_234
10
4.6359949
20
13.7923932
40
0.7566852
50
269.8969846
51
275.018904
0
ARC
8
DEFAULT_255_1_234
10
4.638754
20
13.5844707
40
0.4226708
50
269.6593078
51
279.4153575
0
ARC
8
DEFAULT_255_1_234
10
4.6644815
20
13.4354133
40
0.2714146
50
279.2049762
51
294.9900808
0
ARC
8
DEFAULT_255_1_234
10
4.6935141
20
13.3706508
40
0.2004525
50
295.2888114
51
311.2911209
0
ARC
8
DEFAULT_255_1_234
10
4.7006035
20
13.360122
40
0.1878703
50
311.7854996
51
347.2861051
0
ARC
8
DEFAULT_255_1_234
10
4.6022194
20
13.3854092
40
0.2894234
50
346.6893224
51
0.1059443
0
ARC
8
DEFAULT_255_1_234
10
4.5267089
20
13.3882685
40
0.3649409
50
359.6350983
51
0.0053152
0
ARC
8
DEFAULT_255_1_234
10
4.6237417
20
13.3907937
40
0.2679199
50
359.4672059
51
15.5933957
0
ARC
8
DEFAULT_255_1_234
10
4.6862306
20
13.4076779
40
0.2031932
50
15.7442113
51
46.6203375
0
ARC
8
DEFAULT_255_1_234
10
4.6714527
20
13.3906484
40
0.2257226
50
46.8628658
51
75.6676503
0
ARC
8
DEFAULT_255_1_234
10
4.6420347
20
13.2847718
40
0.3355939
50
75.276167
51
88.2915297
0
ARC
8
DEFAULT_255_1_234
10
4.6362054
20
13.1969524
40
0.4235602
50
87.8575022
51
88.8000139
0
LINE
8
DEFAULT_255_1_234
10
5.903649
20
13.2445343
11
5.903649
21
13.118436
0
LINE
8
DEFAULT_255_1_234
10
5.903649
20
13.118436
11
5.3968463
21
13.118436
0
LINE
8
DEFAULT_255_1_234
10
5.3968463
20
13.118436
11
5.3968463
21
12.7039983
0
LINE
8
DEFAULT_255_1_234
10
5.3968463
20
12.7039983
11
5.9855728
21
12.7039983
0
LINE
8
DEFAULT_255_1_234
10
5.9855728
20
12.7039983
11
5.9855728
21
12.5779
0
LINE
8
DEFAULT_255_1_234
10
5.9855728
20
12.5779
11
5.242637
21
12.5779
0
LINE
8
DEFAULT_255_1_234
10
5.242637
20
12.5779
11
5.242637
21
13.7473211
0
LINE
8
DEFAULT_255_1_234
10
5.242637
20
13.7473211
11
5.977541
21
13.7473211
0
LINE
8
DEFAULT_255_1_234
10
5.977541
20
13.7473211
11
5.977541
21
13.6204196
0
LINE
8
DEFAULT_255_1_234
10
5.977541
20
13.6204196
11
5.3968463
21
13.6204196
0
LINE
8
DEFAULT_255_1_234
10
5.3968463
20
13.6204196
11
5.3968463
21
13.2445343
0
LINE
8
DEFAULT_255_1_234
10
5.3968463
20
13.2445343
11
5.903649
21
13.2445343
0
LINE
8
DEFAULT_255_1_234
10
4.9462879
20
21.6848211
11
4.9462879
21
20.5154
0
LINE
8
DEFAULT_255_1_234
10
4.9462879
20
20.5154
11
4.7912753
21
20.5154
0
LINE
8
DEFAULT_255_1_234
10
4.7912753
20
20.5154
11
4.2025489
21
21.416561
0
LINE
8
DEFAULT_255_1_234
10
4.2025489
20
21.416561
11
4.2025489
21
20.5154
0
LINE
8
DEFAULT_255_1_234
10
4.2025489
20
20.5154
11
4.0475364
21
20.5154
0
LINE
8
DEFAULT_255_1_234
10
4.0475364
20
20.5154
11
4.0475364
21
21.6848211
0
LINE
8
DEFAULT_255_1_234
10
4.0475364
20
21.6848211
11
4.2025489
21
21.6848211
0
LINE
8
DEFAULT_255_1_234
10
4.2025489
20
21.6848211
11
4.7928817
21
20.7796442
0
LINE
8
DEFAULT_255_1_234
10
4.7928817
20
20.7796442
11
4.7928817
21
21.6848211
0
LINE
8
DEFAULT_255_1_234
10
4.7928817
20
21.6848211
11
4.9462879
21
21.6848211
0
LINE
8
DEFAULT_255_1_234
10
22.8281489
20
29.6223211
11
22.8281489
21
28.5789983
0
LINE
8
DEFAULT_255_1_234
10
22.8281489
20
28.5789983
11
23.3823389
21
28.5789983
0
LINE
8
DEFAULT_255_1_234
10
23.3823389
20
28.5789983
11
23.3823389
21
28.4529
0
LINE
8
DEFAULT_255_1_234
10
23.3823389
20
28.4529
11
22.6731364
21
28.4529
0
LINE
8
DEFAULT_255_1_234
10
22.6731364
20
28.4529
11
22.6731364
21
29.6223211
0
LINE
8
DEFAULT_255_1_234
10
22.6731364
20
29.6223211
11
22.8281489
21
29.6223211
0
LINE
8
DEFAULT_255_1_234
10
23.960624
20
29.4215276
11
23.960624
21
29.0801788
0
LINE
8
DEFAULT_255_1_234
10
23.960624
20
29.0801788
11
24.2867126
21
29.0801788
0
LINE
8
DEFAULT_255_1_234
10
24.2867126
20
29.0801788
11
24.2867126
21
28.9396233
0
LINE
8
DEFAULT_255_1_234
10
24.2867126
20
28.9396233
11
23.960624
21
28.9396233
0
LINE
8
DEFAULT_255_1_234
10
23.960624
20
28.9396233
11
23.960624
21
28.5701634
0
LINE
8
DEFAULT_255_1_234
10
23.960624
20
28.5701634
11
23.8112337
21
28.5701634
0
LINE
8
DEFAULT_255_1_234
10
23.8112337
20
28.5701634
11
23.8112337
21
28.9396233
0
LINE
8
DEFAULT_255_1_234
10
23.8112337
20
28.9396233
11
23.4851451
21
28.9396233
0
LINE
8
DEFAULT_255_1_234
10
23.4851451
20
28.9396233
11
23.4851451
21
29.0801788
0
LINE
8
DEFAULT_255_1_234
10
23.4851451
20
29.0801788
11
23.8112337
21
29.0801788
0
LINE
8
DEFAULT_255_1_234
10
23.8112337
20
29.0801788
11
23.8112337
21
29.4215276
0
LINE
8
DEFAULT_255_1_234
10
23.8112337
20
29.4215276
11
23.960624
21
29.4215276
0
LINE
8
DEFAULT_255_1_234
10
23.0441364
20
5.8098211
11
23.2433235
21
5.8098211
0
LINE
8
DEFAULT_255_1_234
10
23.2433235
20
5.8098211
11
23.6256342
21
4.8556506
0
LINE
8
DEFAULT_255_1_234
10
23.6256342
20
4.8556506
11
24.007945
21
5.8098211
0
LINE
8
DEFAULT_255_1_234
10
24.007945
20
5.8098211
11
24.2079353
21
5.8098211
0
LINE
8
DEFAULT_255_1_234
10
24.2079353
20
5.8098211
11
24.2079353
21
4.6404
0
LINE
8
DEFAULT_255_1_234
10
24.2079353
20
4.6404
11
24.0537259
21
4.6404
0
LINE
8
DEFAULT_255_1_234
10
24.0537259
20
4.6404
11
24.0537259
21
5.0957996
0
LINE
8
DEFAULT_255_1_234
10
24.0537259
20
5.0957996
11
24.068183
21
5.5873419
0
LINE
8
DEFAULT_255_1_234
10
24.068183
20
5.5873419
11
23.6842659
21
4.6404
0
LINE
8
DEFAULT_255_1_234
10
23.6842659
20
4.6404
11
23.5661994
21
4.6404
0
LINE
8
DEFAULT_255_1_234
10
23.5661994
20
4.6404
11
23.1830854
21
5.5849324
0
LINE
8
DEFAULT_255_1_234
10
23.1830854
20
5.5849324
11
23.1983458
21
5.0957996
0
LINE
8
DEFAULT_255_1_234
10
23.1983458
20
5.0957996
11
23.1983458
21
4.6404
0
LINE
8
DEFAULT_255_1_234
10
23.1983458
20
4.6404
11
23.0441364
21
4.6404
0
LINE
8
DEFAULT_255_1_234
10
23.0441364
20
4.6404
11
23.0441364
21
5.8098211
0
LINE
8
DEFAULT_255_1_234
10
22.8281489
20
13.7473211
11
22.8281489
21
12.7039983
0
LINE
8
DEFAULT_255_1_234
10
22.8281489
20
12.7039983
11
23.3823389
21
12.7039983
0
LINE
8
DEFAULT_255_1_234
10
23.3823389
20
12.7039983
11
23.3823389
21
12.5779
0
LINE
8
DEFAULT_255_1_234
10
23.3823389
20
12.5779
11
22.6731364
21
12.5779
0
LINE
8
DEFAULT_255_1_234
10
22.6731364
20
12.5779
11
22.6731364
21
13.7473211
0
LINE
8
DEFAULT_255_1_234
10
22.6731364
20
13.7473211
11
22.8281489
21
13.7473211
0
LINE
8
DEFAULT_255_1_234
10
23.960624
20
13.5465276
11
23.960624
21
13.2051788
0
LINE
8
DEFAULT_255_1_234
10
23.960624
20
13.2051788
11
24.2867126
21
13.2051788
0
LINE
8
DEFAULT_255_1_234
10
24.2867126
20
13.2051788
11
24.2867126
21
13.0646233
0
LINE
8
DEFAULT_255_1_234
10
24.2867126
20
13.0646233
11
23.960624
21
13.0646233
0
LINE
8
DEFAULT_255_1_234
10
23.960624
20
13.0646233
11
23.960624
21
12.6951634
0
LINE
8
DEFAULT_255_1_234
10
23.960624
20
12.6951634
11
23.8112337
21
12.6951634
0
LINE
8
DEFAULT_255_1_234
10
23.8112337
20
12.6951634
11
23.8112337
21
13.0646233
0
LINE
8
DEFAULT_255_1_234
10
23.8112337
20
13.0646233
11
23.4851451
21
13.0646233
0
LINE
8
DEFAULT_255_1_234
10
23.4851451
20
13.0646233
11
23.4851451
21
13.2051788
0
LINE
8
DEFAULT_255_1_234
10
23.4851451
20
13.2051788
11
23.8112337
21
13.2051788
0
LINE
8
DEFAULT_255_1_234
10
23.8112337
20
13.2051788
11
23.8112337
21
13.5465276
0
LINE
8
DEFAULT_255_1_234
10
23.8112337
20
13.5465276
11
23.960624
21
13.5465276
0
LINE
8
DEFAULT_255_1_234
10
23.0441364
20
21.6848211
11
23.2433235
21
21.6848211
0
LINE
8
DEFAULT_255_1_234
10
23.2433235
20
21.6848211
11
23.6256342
21
20.7306506
0
LINE
8
DEFAULT_255_1_234
10
23.6256342
20
20.7306506
11
24.007945
21
21.6848211
0
LINE
8
DEFAULT_255_1_234
10
24.007945
20
21.6848211
11
24.2079353
21
21.6848211
0
LINE
8
DEFAULT_255_1_234
10
24.2079353
20
21.6848211
11
24.2079353
21
20.5154
0
LINE
8
DEFAULT_255_1_234
10
24.2079353
20
20.5154
11
24.0537259
21
20.5154
0
LINE
8
DEFAULT_255_1_234
10
24.0537259
20
20.5154
11
24.0537259
21
20.9707996
0
LINE
8
DEFAULT_255_1_234
10
24.0537259
20
20.9707996
11
24.068183
21
21.4623419
0
LINE
8
DEFAULT_255_1_234
10
24.068183
20
21.4623419
11
23.6842659
21
20.5154
0
LINE
8
DEFAULT_255_1_234
10
23.6842659
20
20.5154
11
23.5661994
21
20.5154
0
LINE
8
DEFAULT_255_1_234
10
23.5661994
20
20.5154
11
23.1830854
21
21.4599324
0
LINE
8
DEFAULT_255_1_234
10
23.1830854
20
21.4599324
11
23.1983458
21
20.9707996
0
LINE
8
DEFAULT_255_1_234
10
23.1983458
20
20.9707996
11
23.1983458
21
20.5154
0
LINE
8
DEFAULT_255_1_234
10
23.1983458
20
20.5154
11
23.0441364
21
20.5154
0
LINE
8
DEFAULT_255_1_234
10
23.0441364
20
20.5154
11
23.0441364
21
21.6848211
0
ENDSEC
0
EOF