0
SECTION
2
HEADER
9
$MEASUREMENT
70
1
0
ENDSEC
0
SECTION
2
TABLES
0
TABLE
2
LTYPE
0
LTYPE
72
65
70
64
2
CONTINUOUS
3
______
73
0
40
0
0
ENDTAB
0
TABLE
2
LAYER
0
LAYER
2
DEFAULT_255_2_778
70
0
62
255
6
CONTINUOUS
0
ENDTAB
0
ENDSEC
0
SECTION
2
ENTITIES
0
ARC
8
DEFAULT_255_2_778
10
48.1462103
20
119.2615166
40
0.3774602
50
17.3901331
51
33.7880562
0
ARC
8
DEFAULT_255_2_778
10
48.169101
20
119.277096
40
0.3497716
50
33.752347
51
89.7102515
0
ARC
8
DEFAULT_255_2_778
10
48.1376406
20
119.0568206
40
0.5710101
50
86.6638561
51
90.0324181
0
ARC
8
DEFAULT_255_2_778
10
48.1246785
20
119.2142734
40
0.4137502
50
88.249493
51
116.9684539
0
ARC
8
DEFAULT_255_2_778
10
48.0786515
20
119.3221501
40
0.2968363
50
118.4935397
51
132.5771201
0
ARC
8
DEFAULT_255_2_778
10
48.0884461
20
119.3233778
40
0.3026659
50
134.0998841
51
181.6966826
0
ARC
8
DEFAULT_255_2_778
10
48.3092634
20
119.3001136
40
0.5235459
50
178.4345332
51
180.0090824
0
ARC
8
DEFAULT_255_2_778
10
48.0666503
20
119.290824
40
0.2810837
50
178.123
51
210.1821359
0
ARC
8
DEFAULT_255_2_778
10
48.0131937
20
119.2662416
40
0.2225864
50
211.6303773
51
214.5739994
0
ARC
8
DEFAULT_255_2_778
10
48.0163756
20
119.2860939
40
0.2369184
50
218.0926642
51
257.6618876
0
ARC
8
DEFAULT_255_2_778
10
48.0845959
20
119.4702399
40
0.4322515
50
254.0413077
51
254.2434134
0
ARC
8
DEFAULT_255_2_778
10
48.3037663
20
118.4869955
40
0.4553226
50
35.5506908
51
76.3889095
0
ARC
8
DEFAULT_255_2_778
10
48.2451675
20
118.4647576
40
0.5161757
50
3.2833465
51
33.7768481
0
ARC
8
DEFAULT_255_2_778
10
47.9147925
20
118.4215808
40
0.8488259
50
359.9088576
51
4.9159929
0
ARC
8
DEFAULT_255_2_778
10
48.1140035
20
118.4067111
40
0.6497546
50
337.7142881
51
1.1922438
0
ARC
8
DEFAULT_255_2_778
10
48.2826264
20
118.3458218
40
0.4706979
50
312.5978541
51
336.7885279
0
ARC
8
DEFAULT_255_2_778
10
48.224013
20
118.4230155
40
0.5672672
50
277.8498135
51
311.6785103
0
ARC
8
DEFAULT_255_2_778
10
48.1532033
20
118.7833853
40
0.9341655
50
269.7248698
51
279.1335114
0
ARC
8
DEFAULT_255_2_778
10
48.1351325
20
118.6529547
40
0.803839
50
254.3381436
51
270.9683498
0
ARC
8
DEFAULT_255_2_778
10
48.0580621
20
118.3495359
40
0.49094
50
244.2813453
51
253.4392571
0
ARC
8
DEFAULT_255_2_778
10
48.114505
20
118.4200958
40
0.5793568
50
213.844237
51
242.2801032
0
ARC
8
DEFAULT_255_2_778
10
48.0592759
20
118.4045679
40
0.5251418
50
194.6975679
51
215.793493
0
ARC
8
DEFAULT_255_2_778
10
48.3612602
20
118.4707885
40
0.8341407
50
183.0237813
51
193.8344809
0
ARC
8
DEFAULT_255_2_778
10
49.1929788
20
118.5361486
40
1.6682863
50
180.7012572
51
183.7586139
0
ARC
8
DEFAULT_255_2_778
10
48.8190898
20
118.5483597
40
1.0968578
50
181.7046763
51
188.5937084
0
ARC
8
DEFAULT_255_2_778
10
48.1828808
20
118.4585184
40
0.4544097
50
189.3797689
51
192.4271074
0
ARC
8
DEFAULT_255_2_778
10
47.9983227
20
118.4216127
40
0.2662593
50
193.2180427
51
205.3065821
0
ARC
8
DEFAULT_255_2_778
10
48.3264693
20
118.5775918
40
0.6295902
50
205.3739414
51
211.5108065
0
ARC
8
DEFAULT_255_2_778
10
48.0762705
20
118.4208882
40
0.3343946
50
211.02632
51
245.6539637
0
ARC
8
DEFAULT_255_2_778
10
48.148142
20
118.5785971
40
0.5077078
50
245.601459
51
271.3515772
0
ARC
8
DEFAULT_255_2_778
10
48.1724201
20
118.6453519
40
0.574453
50
268.7728498
51
288.8572508
0
ARC
8
DEFAULT_255_2_778
10
48.2419242
20
118.4261371
40
0.3445771
50
289.701831
51
308.2219898
0
ARC
8
DEFAULT_255_2_778
10
48.2685102
20
118.3794678
40
0.2915733
50
309.7919192
51
3.2613018
0
ARC
8
DEFAULT_255_2_778
10
48.081774
20
118.3985284
40
0.4778436
50
359.7034691
51
0.0002635
0
ARC
8
DEFAULT_255_2_778
10
48.1599675
20
118.4025489
40
0.3996701
50
359.4239311
51
0.0027764
0
ARC
8
DEFAULT_255_2_778
10
48.1626884
20
118.4027415
40
0.3969495
50
359.9749931
51
16.5375314
0
ARC
8
DEFAULT_255_2_778
10
48.3217844
20
118.440858
40
0.2337488
50
18.6817958
51
43.8628318
0
ARC
8
DEFAULT_255_2_778
10
48.291669
20
118.4129105
40
0.2748288
50
43.7131905
51
69.1431621
0
ARC
8
DEFAULT_255_2_778
10
47.7202953
20
117.0723263
40
1.7319234
50
67.2690691
51
69.8293568
0
ARC
8
DEFAULT_255_2_778
10
47.9142513
20
117.5942702
40
1.1751129
50
69.9310339
51
74.4427712
0
ARC
8
DEFAULT_255_2_778
10
48.0212353
20
119.2616951
40
0.4593816
50
224.4181579
51
256.066398
0
ARC
8
DEFAULT_255_2_778
10
48.0118404
20
119.2245513
40
0.427141
50
184.4146768
51
221.7405196
0
ARC
8
DEFAULT_255_2_778
10
48.287457
20
119.2690152
40
0.7057413
50
179.8688527
51
186.2917357
0
ARC
8
DEFAULT_255_2_778
10
48.277013
20
119.275318
40
0.6953113
50
180.0024944
51
180.3862647
0
ARC
8
DEFAULT_255_2_778
10
48.2734502
20
119.2753731
40
0.6917483
50
161.9307069
51
180.007068
0
ARC
8
DEFAULT_255_2_778
10
48.1670679
20
119.3150003
40
0.5783404
50
141.9536747
51
162.3940183
0
ARC
8
DEFAULT_255_2_778
10
48.0798206
20
119.3675798
40
0.4773875
50
95.2224211
51
140.4696675
0
ARC
8
DEFAULT_255_2_778
10
48.1353406
20
119.0622699
40
0.7869641
50
89.8342294
51
97.2249624
0
ARC
8
DEFAULT_255_2_778
10
48.1518733
20
119.1605735
40
0.6888046
50
68.8136107
51
91.1859052
0
ARC
8
DEFAULT_255_2_778
10
48.2120097
20
119.3428154
40
0.4972435
50
61.2185398
51
67.6853473
0
ARC
8
DEFAULT_255_2_778
10
48.2351188
20
119.3708443
40
0.4616002
50
25.8252999
51
62.0575538
0
ARC
8
DEFAULT_255_2_778
10
48.2961764
20
119.356261
40
0.4120134
50
10.7810212
51
21.0025554
0
ARC
8
DEFAULT_255_2_778
10
47.8481537
20
119.2092771
40
0.6793784
50
2.6282652
51
12.921265
0
ARC
8
DEFAULT_255_2_778
10
48.2358867
20
119.290899
40
0.2833022
50
14.3667767
51
17.0638822
0
ARC
8
DEFAULT_255_2_778
10
50.0341466
20
119.1361913
40
0.1850607
50
264.3470027
51
270.0064657
0
ARC
8
DEFAULT_255_2_778
10
50.0341884
20
119.1361913
40
0.1850607
50
269.9935343
51
275.6529973
0
ARC
8
DEFAULT_255_2_778
10
50.0591248
20
119.4452985
40
0.4933135
50
269.2209601
51
269.9976771
0
ARC
8
DEFAULT_255_2_778
10
50.0713352
20
119.2581742
40
0.3064334
50
267.7125865
51
301.7036693
0
ARC
8
DEFAULT_255_2_778
10
50.1033775
20
119.1916588
40
0.2331315
50
303.5951115
51
315.7667099
0
ARC
8
DEFAULT_255_2_778
10
50.0562918
20
119.2230157
40
0.2889291
50
317.825303
51
359.3963679
0
ARC
8
DEFAULT_255_2_778
10
49.8398157
20
119.2503594
40
0.5063019
50
356.5591111
51
0.0420084
0
ARC
8
DEFAULT_255_2_778
10
50.0266482
20
119.2659992
40
0.319834
50
357.263705
51
36.3760893
0
ARC
8
DEFAULT_255_2_778
10
50.0942594
20
119.3037931
40
0.2431748
50
38.6549986
51
43.5802652
0
ARC
8
DEFAULT_255_2_778
10
50.0785427
20
119.2846179
40
0.2677964
50
44.2341485
51
92.6379481
0
ARC
8
DEFAULT_255_2_778
10
50.0531718
20
119.2791122
40
0.2733299
50
87.2643154
51
126.6998749
0
ARC
8
DEFAULT_255_2_778
10
50.0289659
20
119.3254397
40
0.221874
50
128.838205
51
142.9793787
0
ARC
8
DEFAULT_255_2_778
10
50.1546556
20
119.2475522
40
0.3693697
50
145.0725748
51
167.7681883
0
ARC
8
DEFAULT_255_2_778
10
50.7367169
20
119.102772
40
0.9690621
50
166.6936121
51
177.1928934
0
ARC
8
DEFAULT_255_2_778
10
51.1936759
20
119.1055979
40
1.6133759
50
172.3063672
51
178.4147594
0
ARC
8
DEFAULT_255_2_778
10
50.224527
20
119.2317363
40
0.636082
50
165.971019
51
171.8791375
0
ARC
8
DEFAULT_255_2_778
10
50.1840304
20
119.2478304
40
0.59292
50
148.8280572
51
166.5312274
0
ARC
8
DEFAULT_255_2_778
10
50.0362363
20
119.3335091
40
0.4221288
50
89.7600731
51
148.394914
0
ARC
8
DEFAULT_255_2_778
10
50.0709493
20
119.0746442
40
0.6817865
50
89.9774592
51
92.7697244
0
ARC
8
DEFAULT_255_2_778
10
50.0855087
20
119.2664746
40
0.4901644
50
61.4264781
51
91.6707516
0
ARC
8
DEFAULT_255_2_778
10
50.1223524
20
119.3544371
40
0.3954129
50
42.7276931
51
60.0186315
0
ARC
8
DEFAULT_255_2_778
10
50.0567457
20
119.3023542
40
0.4789866
50
2.871928
51
41.9793727
0
ARC
8
DEFAULT_255_2_778
10
49.7966616
20
119.265692
40
0.7409564
50
359.9333893
51
4.6959867
0
ARC
8
DEFAULT_255_2_778
10
49.9802158
20
119.2520119
40
0.5575491
50
340.0882732
51
1.3174137
0
ARC
8
DEFAULT_255_2_778
10
50.2039829
20
119.1736496
40
0.3204812
50
294.3298071
51
339.6357387
0
ARC
8
DEFAULT_255_2_778
10
50.1444105
20
118.4208691
40
0.4990134
50
43.7496508
51
67.4200839
0
ARC
8
DEFAULT_255_2_778
10
50.2581692
20
118.5408781
40
0.3339468
50
32.0177178
51
42.3725662
0
ARC
8
DEFAULT_255_2_778
10
50.1652804
20
118.4977925
40
0.4357346
50
5.135473
51
30.3453825
0
ARC
8
DEFAULT_255_2_778
10
49.8246318
20
118.4481493
40
0.7796897
50
359.8149063
51
6.528313
0
ARC
8
DEFAULT_255_2_778
10
49.8591062
20
118.4384702
40
0.7452457
50
0.00005
51
0.5505109
0
ARC
8
DEFAULT_255_2_778
10
49.8572907
20
118.4384511
40
0.7470611
50
341.3726091
51
0.0015159
0
ARC
8
DEFAULT_255_2_778
10
50.0498298
20
118.3702481
40
0.542832
50
318.5526674
51
341.7030684
0
ARC
8
DEFAULT_255_2_778
10
50.1067603
20
118.3299892
40
0.4735698
50
292.1377066
51
317.6443326
0
ARC
8
DEFAULT_255_2_778
10
50.0710863
20
118.4223321
40
0.5725512
50
269.9975761
51
291.9622062
0
ARC
8
DEFAULT_255_2_778
10
50.0710632
20
118.4237733
40
0.5739924
50
269.2467719
51
269.9998893
0
ARC
8
DEFAULT_255_2_778
10
50.0609792
20
118.4251108
40
0.5752858
50
270.0000189
51
270.2527997
0
ARC
8
DEFAULT_255_2_778
10
50.0608839
20
118.4296626
40
0.5798376
50
249.9316098
51
270.009441
0
ARC
8
DEFAULT_255_2_778
10
50.0136688
20
118.2917285
40
0.4340872
50
224.3230127
51
249.5379302
0
ARC
8
DEFAULT_255_2_778
10
50.0038213
20
118.29126
40
0.4267651
50
211.5701418
51
225.2017939
0
ARC
8
DEFAULT_255_2_778
10
50.0093664
20
118.2951297
40
0.4335156
50
196.965656
51
211.6222035
0
ARC
8
DEFAULT_255_2_778
10
50.508996
20
118.4496478
40
0.9564915
50
189.0903176
51
197.0855976
0
ARC
8
DEFAULT_255_2_778
10
50.8876651
20
118.5088527
40
1.1450374
50
182.1282243
51
190.9611924
0
ARC
8
DEFAULT_255_2_778
10
50.0940878
20
118.3659317
40
0.3389276
50
192.7501247
51
213.4867195
0
ARC
8
DEFAULT_255_2_778
10
50.041934
20
118.3277595
40
0.2743865
50
212.8476047
51
273.9671891
0
ARC
8
DEFAULT_255_2_778
10
50.0754936
20
118.374408
40
0.3207088
50
267.3950228
51
316.4714224
0
ARC
8
DEFAULT_255_2_778
10
50.034931
20
118.392705
40
0.363016
50
318.787504
51
359.5436688
0
ARC
8
DEFAULT_255_2_778
10
49.7993925
20
118.4204253
40
0.5993252
50
357.0722474
51
0.029184
0
ARC
8
DEFAULT_255_2_778
10
50.0217097
20
118.4341539
40
0.3772466
50
357.960843
51
30.2229357
0
ARC
8
DEFAULT_255_2_778
10
50.1077288
20
118.4743018
40
0.2828418
50
31.9670167
51
43.845419
0
ARC
8
DEFAULT_255_2_778
10
50.0903819
20
118.4450612
40
0.3157384
50
45.4919393
51
90.929836
0
ARC
8
DEFAULT_255_2_778
10
50.0686104
20
118.252948
40
0.5080827
50
88.1223344
51
90.0104828
0
ARC
8
DEFAULT_255_2_778
10
49.999151
20
119.0577383
40
0.2998026
50
271.2440579
51
278.2397725
0
ARC
8
DEFAULT_255_2_778
10
50.0051558
20
118.843888
40
0.085883
50
264.2943505
51
270.3364313
0
ARC
8
DEFAULT_255_2_778
10
49.9764615
20
118.9662368
40
0.2087815
50
271.8482671
51
275.5400277
0
ARC
8
DEFAULT_255_2_778
10
49.9764845
20
118.9656185
40
0.2081628
50
269.9987517
51
271.847419
0
ARC
8
DEFAULT_255_2_778
10
49.9764531
20
118.9638006
40
0.2063451
50
264.4279483
51
270.0074761
0
ARC
8
DEFAULT_255_2_778
10
50.0291132
20
119.4050017
40
0.453239
50
260.7703741
51
267.3293513
0
ARC
8
DEFAULT_255_2_778
10
50.0083698
20
119.0221455
40
0.0698917
50
269.6924711
51
275.9522112
0
ARC
8
DEFAULT_255_2_778
10
55.5442747
20
117.6519532
40
3.1386003
50
143.6867565
51
158.919736
0
ARC
8
DEFAULT_255_2_778
10
56.4482731
20
117.3192374
40
4.1017969
50
159.1250218
51
171.8782007
0
ARC
8
DEFAULT_255_2_778
10
55.0775977
20
117.5415054
40
2.9235864
50
164.9706741
51
172.9816438
0
ARC
8
DEFAULT_255_2_778
10
55.9579344
20
117.3005979
40
3.8362829
50
158.5396399
51
164.9052035
0
ARC
8
DEFAULT_255_2_778
10
56.3252147
20
117.1543264
40
4.2316149
50
157.9646775
51
158.5158311
0
ARC
8
DEFAULT_255_2_778
10
55.9717627
20
117.3034
40
3.8480566
50
152.0829797
51
158.0477113
0
ARC
8
DEFAULT_255_2_778
10
56.1402804
20
117.2122593
40
4.0396351
50
145.7560972
51
152.0597819
0
LINE
8
DEFAULT_255_2_778
10
10.5623175
20
104.4986306
11
10.5623175
21
104.3986306
0
LINE
8
DEFAULT_255_2_778
10
10.5623175
20
104.3986306
11
13.6621175
21
104.3986306
0
LINE
8
DEFAULT_255_2_778
10
13.6621175
20
104.3986306
11
13.6621175
21
104.4986306
0
LINE
8
DEFAULT_255_2_778
10
59.1623175
20
84.1985306
11
59.1623175
21
123.7984306
0
LINE
8
DEFAULT_255_2_778
10
57.3123175
20
77.9556306
11
57.3123175
21
84.1982306
0
LINE
8
DEFAULT_255_2_778
10
57.3123175
20
84.1982306
11
57.8124175
21
84.1982306
0
LINE
8
DEFAULT_255_2_778
10
0.1623175
20
63.8954306
11
0.1623175
21
65.4953306
0
LINE
8
DEFAULT_255_2_778
10
1.1624175
20
0.7952306
11
1.1624175
21
-0.2046694
0
LINE
8
DEFAULT_255_2_778
10
59.1623175
20
0.7952306
11
59.1623175
21
-0.2046694
0
LINE
8
DEFAULT_255_2_778
10
47.9672175
20
119.0542306
11
48.4109175
21
118.9295306
0
LINE
8
DEFAULT_255_2_778
10
47.5248175
20
118.5157306
11
47.7227175
21
118.5157306
0
LINE
8
DEFAULT_255_2_778
10
48.2294175
20
118.7263306
11
47.9106175
21
118.8158306
0
LINE
8
DEFAULT_255_2_778
10
48.6506175
20
119.5719306
11
48.6808175
21
119.5039306
0
LINE
8
DEFAULT_255_2_778
10
48.7009175
20
119.4333306
11
48.7147175
21
119.3489306
0
LINE
8
DEFAULT_255_2_778
10
48.7147175
20
119.3489306
11
48.7247175
21
119.2404306
0
LINE
8
DEFAULT_255_2_778
10
48.7247175
20
119.2404306
11
48.5268175
21
119.2404306
0
LINE
8
DEFAULT_255_2_778
10
48.5067175
20
119.3740306
11
48.5064175
21
119.3743306
0
LINE
8
DEFAULT_255_2_778
10
49.7688175
20
119.1502306
11
49.5809175
21
119.1502306
0
LINE
8
DEFAULT_255_2_778
10
49.5645175
20
118.2985306
11
49.5444175
21
118.4663306
0
LINE
8
DEFAULT_255_2_778
10
49.5444175
20
118.4663306
11
49.7434175
21
118.4663306
0
LINE
8
DEFAULT_255_2_778
10
50.0685175
20
118.7610306
11
50.0421175
21
118.7610306
0
LINE
8
DEFAULT_255_2_778
10
49.9564175
20
118.7584306
11
49.9564175
21
118.9576306
0
LINE
8
DEFAULT_255_2_778
10
50.0156175
20
118.9526306
11
50.0159175
21
118.9520306
0
LINE
8
DEFAULT_255_2_778
10
53.0152175
20
119.7159306
11
53.0152175
21
119.5106306
0
LINE
8
DEFAULT_255_2_778
10
52.3876175
20
117.8987306
11
52.1759175
21
117.8987306
0
LINE
8
DEFAULT_255_2_778
10
52.8009175
20
119.4854306
11
51.9590175
21
119.4854306
0
LINE
8
DEFAULT_255_2_778
10
51.9590175
20
119.4854306
11
51.9590175
21
119.7161306
0
LINE
8
DEFAULT_255_2_778
10
51.9590175
20
119.7161306
11
53.0152175
21
119.7159306
0
ARC
8
DEFAULT_255_2_778
10
46.8644351
20
119.341207
40
0.4553774
50
66.0469795
51
90.5061216
0
ARC
8
DEFAULT_255_2_778
10
46.8821571
20
119.3774739
40
0.4150415
50
40.8905276
51
66.2501657
0
ARC
8
DEFAULT_255_2_778
10
46.8388803
20
119.339405
40
0.4726778
50
17.325276
51
40.9449467
0
ARC
8
DEFAULT_255_2_778
10
46.6040672
20
119.2653978
40
0.7188769
50
359.9775372
51
17.3829073
0
ARC
8
DEFAULT_255_2_778
10
46.602002
20
119.2650952
40
0.720942
50
359.4652477
51
0.0016463
0
ARC
8
DEFAULT_255_2_778
10
46.5791602
20
119.2468861
40
0.743841
50
0.0011145
51
0.8843444
0
ARC
8
DEFAULT_255_2_778
10
46.5862062
20
119.2466424
40
0.7367949
50
342.8163206
51
0.0200811
0
ARC
8
DEFAULT_255_2_778
10
46.7716316
20
119.1902855
40
0.5429975
50
321.35221
51
342.7171192
0
ARC
8
DEFAULT_255_2_778
10
46.8733257
20
119.1136555
40
0.4157328
50
295.2573623
51
320.8473659
0
ARC
8
DEFAULT_255_2_778
10
46.8679204
20
119.1326003
40
0.4351846
50
270.0285579
51
294.8367116
0
ARC
8
DEFAULT_255_2_778
10
46.8681257
20
119.1295814
40
0.4321655
50
269.1232141
51
270.0015474
0
ARC
8
DEFAULT_255_2_778
10
46.8039219
20
119.3079977
40
0.3874429
50
268.1053931
51
294.6266231
0
ARC
8
DEFAULT_255_2_778
10
46.8450481
20
119.1852426
40
0.2590818
50
297.6726058
51
354.3879896
0
ARC
8
DEFAULT_255_2_778
10
46.5589004
20
119.2476709
40
0.5510221
50
350.8351511
51
0.3426943
0
ARC
8
DEFAULT_255_2_778
10
46.6870276
20
119.2635449
40
0.423072
50
358.2962977
51
22.1557867
0
ARC
8
DEFAULT_255_2_778
10
46.8498523
20
119.318816
40
0.2516332
50
24.4824587
51
87.7927554
0
ARC
8
DEFAULT_255_2_778
10
46.8012889
20
119.0586817
40
0.514887
50
83.5035878
51
90.164287
0
ARC
8
DEFAULT_255_2_778
10
50.7791518
20
119.0401875
40
1.0033582
50
12.161693
51
27.614642
0
ARC
8
DEFAULT_255_2_778
10
50.0126312
20
118.8658393
40
1.7894284
50
3.0930167
51
12.4483133
0
ARC
8
DEFAULT_255_2_778
10
49.1353228
20
118.8030355
40
2.6688918
50
359.927677
51
3.4230943
0
ARC
8
DEFAULT_255_2_778
10
49.4411206
20
118.787554
40
2.363123
50
352.9659644
51
0.2936814
0
ARC
8
DEFAULT_255_2_778
10
50.4164814
20
118.6630861
40
1.3798671
50
342.0874944
51
353.1357698
0
ARC
8
DEFAULT_255_2_778
10
50.9066646
20
118.5084497
40
0.8658912
50
331.5816297
51
341.8478217
0
ARC
8
DEFAULT_255_2_778
10
51.2297196
20
118.32145
40
0.492888
50
303.2723504
51
332.8280658
0
ARC
8
DEFAULT_255_2_778
10
51.286943
20
118.2570569
40
0.407849
50
269.0263549
51
301.513857
0
ARC
8
DEFAULT_255_2_778
10
51.2762613
20
118.2698682
40
0.4206183
50
207.6688216
51
270.5109962
0
ARC
8
DEFAULT_255_2_778
10
51.4925964
20
118.4285836
40
0.6870875
50
208.8199881
51
211.0153292
0
ARC
8
DEFAULT_255_2_778
10
51.7262393
20
118.5424388
40
0.9467636
50
192.737674
51
208.0406909
0
ARC
8
DEFAULT_255_2_778
10
52.4800032
20
118.7210264
40
1.7213722
50
183.6848653
51
193.0038528
0
ARC
8
DEFAULT_255_2_778
10
53.4663095
20
118.7991847
40
2.7107019
50
179.8904706
51
183.9936368
0
ARC
8
DEFAULT_255_2_778
10
53.153536
20
118.8167568
40
2.3979554
50
173.0464598
51
180.2960463
0
ARC
8
DEFAULT_255_2_778
10
52.1429028
20
118.9444373
40
1.3793052
50
162.1348365
51
173.2288017
0
ARC
8
DEFAULT_255_2_778
10
51.637796
20
119.103453
40
0.8497791
50
151.4129518
51
161.8916051
0
ARC
8
DEFAULT_255_2_778
10
51.3223896
20
119.2880376
40
0.4846295
50
121.8116658
51
152.7327364
0
ARC
8
DEFAULT_255_2_778
10
51.2770201
20
119.3342983
40
0.4216403
50
88.9410309
51
119.8858993
0
ARC
8
DEFAULT_255_2_778
10
51.2871691
20
119.3472992
40
0.4085743
50
28.5433434
51
90.3304709
0
ARC
8
DEFAULT_255_2_778
10
51.0551221
20
119.1739385
40
0.6964854
50
28.3778226
51
31.9520891
0
ARC
8
DEFAULT_255_2_778
10
51.8558739
20
119.0278251
40
0.8804365
50
157.8156926
51
170.8366099
0
ARC
8
DEFAULT_255_2_778
10
52.8064477
20
118.8632802
40
1.8451164
50
170.4929865
51
177.926822
0
ARC
8
DEFAULT_255_2_778
10
53.9381008
20
118.8049458
40
2.9781896
50
177.5928852
51
180.057314
0
ARC
8
DEFAULT_255_2_778
10
53.4968502
20
118.7892616
40
2.5369694
50
179.7130628
51
185.6226968
0
ARC
8
DEFAULT_255_2_778
10
52.2405868
20
118.6605061
40
1.2741453
50
185.3955697
51
195.0505438
0
ARC
8
DEFAULT_255_2_778
10
51.6839698
20
118.5158799
40
0.6990836
50
195.4498618
51
203.0320115
0
ARC
8
DEFAULT_255_2_778
10
51.3744975
20
118.3720515
40
0.3581862
50
201.2267574
51
228.8643963
0
ARC
8
DEFAULT_255_2_778
10
51.2764574
20
118.2707598
40
0.2175222
50
230.7626282
51
270.936475
0
ARC
8
DEFAULT_255_2_778
10
51.2777883
20
118.2917838
40
0.2385275
50
270.5342981
51
334.8338203
0
ARC
8
DEFAULT_255_2_778
10
51.0560579
20
118.4401577
40
0.5038964
50
330.280784
51
336.8884054
0
ARC
8
DEFAULT_255_2_778
10
50.7288336
20
118.5667787
40
0.8546441
50
337.6918771
51
350.572446
0
ARC
8
DEFAULT_255_2_778
10
49.7999114
20
118.7330125
40
1.798288
50
350.1954993
51
357.3375041
0
ARC
8
DEFAULT_255_2_778
10
48.5933946
20
118.8037095
40
3.0068217
50
357.0597757
51
0.0887425
0
ARC
8
DEFAULT_255_2_778
10
49.1593468
20
118.8207682
40
2.4408973
50
359.7088948
51
5.8090166
0
ARC
8
DEFAULT_255_2_778
10
50.3411078
20
118.9456214
40
1.2525767
50
5.5984776
51
15.3534465
0
ARC
8
DEFAULT_255_2_778
10
50.8665859
20
119.084864
40
0.7090015
50
15.7461253
51
23.2085489
0
ARC
8
DEFAULT_255_2_778
10
51.1873243
20
119.2340387
40
0.355593
50
21.4831427
51
49.1846273
0
ARC
8
DEFAULT_255_2_778
10
51.281175
20
119.331444
40
0.2206546
50
51.0965372
51
90.9770145
0
ARC
8
DEFAULT_255_2_778
10
51.2801308
20
119.3186489
40
0.2334336
50
90.6671891
51
155.1260879
0
ARC
8
DEFAULT_255_2_778
10
51.5226832
20
119.1578959
40
0.5229411
50
150.3195816
51
157.1972842
0
LINE
8
DEFAULT_255_2_778
10
46.1622126
20
117.8986666
11
46.1622126
21
119.7965666
0
LINE
8
DEFAULT_255_2_778
10
46.1622126
20
119.7965666
11
46.8604126
21
119.7965666
0
LINE
8
DEFAULT_255_2_778
10
46.8615126
20
118.6974666
11
46.3762126
21
118.6974666
0
LINE
8
DEFAULT_255_2_778
10
46.3762126
20
118.6974666
11
46.3762126
21
117.8984666
0
LINE
8
DEFAULT_255_2_778
10
46.3762126
20
117.8984666
11
46.1622126
21
117.8986666
0
LINE
8
DEFAULT_255_2_778
10
46.3765126
20
118.9207666
11
46.7911126
21
118.9207666
0
LINE
8
DEFAULT_255_2_778
10
46.7998126
20
119.5735666
11
46.3765126
21
119.5735666
0
LINE
8
DEFAULT_255_2_778
10
46.3765126
20
119.5735666
11
46.3765126
21
118.9207666
0
LINE
8
DEFAULT_255_2_778
10
51.6679126
20
119.5049666
11
51.6682126
21
119.5052666
0
LINE
8
DEFAULT_255_2_778
10
51.0406126
20
119.3605666
11
51.0406126
21
119.3602666
0
ARC
8
DEFAULT_255_2_778
10
12.1123744
20
106.4984256
40
0.5502431
50
90.014901
51
179.9850938
0
ARC
8
DEFAULT_255_2_778
10
12.1120092
20
106.4984468
40
0.550222
50
0.0126983
51
89.9768748
0
ARC
8
DEFAULT_255_2_778
10
12.1120307
20
106.4987693
40
0.5502006
50
270.0208901
51
359.9791099
0
ARC
8
DEFAULT_255_2_778
10
12.1123531
20
106.4987907
40
0.550222
50
180.0231148
51
269.987309
0
LINE
8
DEFAULT_255_2_778
10
11.5621313
20
106.4985687
11
11.5621313
21
106.4985687
0
ARC
8
DEFAULT_255_2_778
10
12.1124386
20
111.6982613
40
0.5503073
50
90.0215835
51
179.9784039
0
ARC
8
DEFAULT_255_2_778
10
12.1119452
20
111.6982828
40
0.550286
50
0.0193637
51
89.9702199
0
ARC
8
DEFAULT_255_2_778
10
12.1120307
20
111.6986693
40
0.5502006
50
270.0208901
51
359.9791099
0
ARC
8
DEFAULT_255_2_778
10
12.1123531
20
111.6986907
40
0.550222
50
180.0231148
51
269.987309
0
LINE
8
DEFAULT_255_2_778
10
11.5621313
20
111.6984687
11
11.5621313
21
111.6984687
0
ARC
8
DEFAULT_255_2_778
10
12.1124386
20
116.8983613
40
0.5503073
50
90.0215835
51
179.9784039
0
ARC
8
DEFAULT_255_2_778
10
12.1119452
20
116.8983828
40
0.550286
50
0.0193637
51
89.9702199
0
ARC
8
DEFAULT_255_2_778
10
12.1120307
20
116.8987693
40
0.5502006
50
270.0208901
51
359.9791099
0
ARC
8
DEFAULT_255_2_778
10
12.1123531
20
116.8987907
40
0.550222
50
180.0231148
51
269.987309
0
LINE
8
DEFAULT_255_2_778
10
11.5621313
20
116.8985687
11
11.5621313
21
116.8985687
0
LINE
8
DEFAULT_255_2_778
10
13.662174
20
104.4985927
11
13.612074
21
104.4985927
0
LINE
8
DEFAULT_255_2_778
10
13.612074
20
106.4985927
11
13.612074
21
104.4985927
0
LINE
8
DEFAULT_255_2_778
10
10.612274
20
104.4985927
11
13.612074
21
104.4985927
0
LINE
8
DEFAULT_255_2_778
10
13.312374
20
104.7986738
11
13.612374
21
104.4986738
0
LINE
8
DEFAULT_255_2_778
10
13.662174
20
106.4985738
11
13.662174
21
104.4986738
0
LINE
8
DEFAULT_255_2_778
10
13.612074
20
114.8985738
11
13.612074
21
118.8985738
0
LINE
8
DEFAULT_255_2_778
10
10.612274
20
118.8985738
11
13.612074
21
118.8985738
0
LINE
8
DEFAULT_255_2_778
10
13.3124104
20
118.5985811
11
13.6124104
21
118.8985811
0
LINE
8
DEFAULT_255_2_778
10
13.6122104
20
108.4985811
11
13.6122104
21
106.4985811
0
LINE
8
DEFAULT_255_2_778
10
13.6622104
20
106.4985811
11
13.6122104
21
106.4985811
0
LINE
8
DEFAULT_255_2_778
10
13.6121969
20
109.6987281
11
13.6121969
21
113.6987281
0
LINE
8
DEFAULT_255_2_778
10
13.6121969
20
114.8986281
11
13.6121969
21
113.6987281
0
LINE
8
DEFAULT_255_2_778
10
13.6621969
20
113.6987281
11
13.6121969
21
113.6987281
0
LINE
8
DEFAULT_255_2_778
10
13.6621709
20
114.8985738
11
13.6121709
21
114.8985738
0
LINE
8
DEFAULT_255_2_778
10
13.6121709
20
108.4985738
11
13.6121709
21
109.6984738
0
LINE
8
DEFAULT_255_2_778
10
13.6621709
20
109.6984738
11
13.6121709
21
109.6984738
0
LINE
8
DEFAULT_255_2_778
10
13.6621709
20
108.4985738
11
13.6121709
21
108.4985738
0
LINE
8
DEFAULT_255_2_778
10
10.6122709
20
114.8985738
11
10.6122709
21
118.8985738
0
LINE
8
DEFAULT_255_2_778
10
10.9122709
20
118.5985738
11
10.6122709
21
118.8985738
0
LINE
8
DEFAULT_255_2_778
10
10.6122709
20
106.4985738
11
10.6122709
21
104.4986738
0
LINE
8
DEFAULT_255_2_778
10
10.5622709
20
104.4986738
11
10.6122709
21
104.4986738
0
LINE
8
DEFAULT_255_2_778
10
10.9122709
20
104.7986738
11
10.6122709
21
104.4986738
0
LINE
8
DEFAULT_255_2_778
10
10.6122969
20
108.4985957
11
10.6122969
21
106.4985957
0
LINE
8
DEFAULT_255_2_778
10
10.5622969
20
106.4985957
11
10.6122969
21
106.4985957
0
LINE
8
DEFAULT_255_2_778
10
10.6122969
20
114.8985957
11
10.6122969
21
113.6986957
0
LINE
8
DEFAULT_255_2_778
10
10.6122709
20
109.6986884
11
10.6122709
21
113.6986884
0
LINE
8
DEFAULT_255_2_778
10
10.5622709
20
113.6986884
11
10.6122709
21
113.6986884
0
LINE
8
DEFAULT_255_2_778
10
10.5622709
20
114.8985884
11
10.6122709
21
114.8985884
0
LINE
8
DEFAULT_255_2_778
10
10.6122709
20
108.4985884
11
10.6122709
21
109.6984884
0
LINE
8
DEFAULT_255_2_778
10
10.5622709
20
109.6984884
11
10.6122709
21
109.6984884
0
LINE
8
DEFAULT_255_2_778
10
10.5622709
20
108.4985884
11
10.6122709
21
108.4985884
0
LINE
8
DEFAULT_255_2_778
10
10.5622709
20
106.4985884
11
10.5622709
21
104.4985884
0
LINE
8
DEFAULT_255_2_778
10
10.5622709
20
108.4985884
11
10.5622709
21
106.4985884
0
LINE
8
DEFAULT_255_2_778
10
13.6621709
20
108.4985884
11
13.6621709
21
106.4985884
0
LINE
8
DEFAULT_255_2_778
10
10.5623386
20
114.8986613
11
10.5623386
21
113.6987613
0
LINE
8
DEFAULT_255_2_778
10
10.5623386
20
109.6988613
11
10.5623386
21
113.6987613
0
LINE
8
DEFAULT_255_2_778
10
13.6624386
20
114.8986613
11
13.6624386
21
118.9986613
0
LINE
8
DEFAULT_255_2_778
10
13.6624386
20
118.9986613
11
10.5623386
21
118.9986613
0
LINE
8
DEFAULT_255_2_778
10
10.5623386
20
118.9986613
11
10.5623386
21
114.8986613
0
LINE
8
DEFAULT_255_2_778
10
10.5623386
20
108.4986613
11
10.5623386
21
109.6985613
0
LINE
8
DEFAULT_255_2_778
10
13.6622386
20
109.6988613
11
13.6622386
21
113.6987613
0
LINE
8
DEFAULT_255_2_778
10
13.6622386
20
114.8986613
11
13.6622386
21
113.6987613
0
LINE
8
DEFAULT_255_2_778
10
13.6622386
20
108.4986613
11
13.6622386
21
109.6985613
0
LINE
8
DEFAULT_255_2_778
10
10.9123386
20
104.7987613
11
10.9123386
21
118.5986613
0
LINE
8
DEFAULT_255_2_778
10
13.3124386
20
118.5986613
11
10.9123386
21
118.5986613
0
LINE
8
DEFAULT_255_2_778
10
13.3124386
20
104.7987613
11
10.9123386
21
104.7987613
0
ARC
8
DEFAULT_255_2_778
10
17.5902379
20
106.7322124
40
0.6276692
50
18.1006599
51
25.9245462
0
ARC
8
DEFAULT_255_2_778
10
17.895908
20
106.8816694
40
0.2874189
50
25.7686171
51
40.6281179
0
ARC
8
DEFAULT_255_2_778
10
17.7381406
20
106.7394139
40
0.4998134
50
41.2282847
51
50.2195301
0
ARC
8
DEFAULT_255_2_778
10
17.8165408
20
106.8314446
40
0.3789259
50
50.4259321
51
71.9984483
0
ARC
8
DEFAULT_255_2_778
10
17.7857725
20
106.750234
40
0.4656884
50
71.4860536
51
89.96489
0
ARC
8
DEFAULT_255_2_778
10
17.7858296
20
106.8688394
40
0.3470829
50
89.9623147
51
90.1129938
0
ARC
8
DEFAULT_255_2_778
10
17.7727962
20
106.7827844
40
0.4333129
50
88.3669244
51
89.9984444
0
ARC
8
DEFAULT_255_2_778
10
17.7728356
20
106.7848839
40
0.4312134
50
90.0036716
51
148.4798696
0
ARC
8
DEFAULT_255_2_778
10
18.0548214
20
106.596604
40
0.7701372
50
147.5068026
51
168.1076792
0
ARC
8
DEFAULT_255_2_778
10
18.6464281
20
106.4619894
40
1.3768216
50
167.6993921
51
179.1862196
0
ARC
8
DEFAULT_255_2_778
10
19.1630696
20
106.438019
40
1.8938244
50
178.6830797
51
180.0090068
0
ARC
8
DEFAULT_255_2_778
10
18.7792941
20
106.4256263
40
1.5100975
50
179.54109
51
189.7164857
0
ARC
8
DEFAULT_255_2_778
10
18.1042004
20
106.3041966
40
0.8242141
50
189.3167503
51
207.4563088
0
ARC
8
DEFAULT_255_2_778
10
17.8913599
20
106.2038715
40
0.5891608
50
208.3422926
51
213.566555
0
ARC
8
DEFAULT_255_2_778
10
17.7572978
20
106.1009822
40
0.4207266
50
211.9855097
51
272.0359907
0
ARC
8
DEFAULT_255_2_778
10
17.780225
20
106.068844
40
0.3884046
50
268.8227576
51
331.6187811
0
ARC
8
DEFAULT_255_2_778
10
17.5529162
20
106.2324114
40
0.6671059
50
328.5374391
51
340.7816971
0
ARC
8
DEFAULT_255_2_778
10
17.083561
20
106.3793683
40
1.1587848
50
341.559471
51
347.0161625
0
ARC
8
DEFAULT_255_2_778
10
16.3311165
20
106.5658902
40
1.9339406
50
346.6399984
51
347.3729908
0
ARC
8
DEFAULT_255_2_778
10
15.8660386
20
106.6690108
40
2.4103129
50
347.3977367
51
348.7630678
0
ARC
8
DEFAULT_255_2_778
10
17.3482875
20
106.2508627
40
1.0722927
50
338.2502673
51
346.6362611
0
ARC
8
DEFAULT_255_2_778
10
17.7006523
20
106.1161152
40
0.6951023
50
326.9593032
51
337.8039317
0
ARC
8
DEFAULT_255_2_778
10
17.6550294
20
106.172064
40
0.76417
50
315.9264086
51
325.3076235
0
ARC
8
DEFAULT_255_2_778
10
17.766165
20
106.0486223
40
0.5985695
50
293.0208381
51
317.0160164
0
ARC
8
DEFAULT_255_2_778
10
17.7591963
20
106.0620868
40
0.613688
50
269.5097221
51
293.1280366
0
ARC
8
DEFAULT_255_2_778
10
17.7447171
20
106.0529792
40
0.6046283
50
242.2234125
51
270.874501
0
ARC
8
DEFAULT_255_2_778
10
17.7750679
20
106.0832382
40
0.6456708
50
214.4359468
51
241.091743
0
ARC
8
DEFAULT_255_2_778
10
18.0084191
20
106.2458584
40
0.930091
50
195.139904
51
214.5693701
0
ARC
8
DEFAULT_255_2_778
10
18.323409
20
106.3500363
40
1.2614894
50
194.6343636
51
195.9708267
0
ARC
8
DEFAULT_255_2_778
10
18.6001221
20
106.4093942
40
1.5442725
50
181.8036249
51
194.1713518
0
ARC
8
DEFAULT_255_2_778
10
19.1722297
20
106.4448611
40
2.1172847
50
179.9767211
51
182.27565
0
ARC
8
DEFAULT_255_2_778
10
18.7573998
20
106.4597551
40
1.7025125
50
168.7996269
51
180.4722923
0
ARC
8
DEFAULT_255_2_778
10
18.3588585
20
106.5282416
40
1.2982995
50
165.1116729
51
168.3481221
0
ARC
8
DEFAULT_255_2_778
10
18.044138
20
106.6259361
40
0.969138
50
147.6125806
51
165.9128807
0
ARC
8
DEFAULT_255_2_778
10
17.8435104
20
106.7409974
40
0.7381592
50
143.6687934
51
146.8129586
0
ARC
8
DEFAULT_255_2_778
10
17.7833157
20
106.7956258
40
0.6573543
50
117.5725578
51
144.3963015
0
ARC
8
DEFAULT_255_2_778
10
17.7709781
20
106.8061759
40
0.6423202
50
90.0107031
51
117.0326138
0
ARC
8
DEFAULT_255_2_778
10
17.7708692
20
106.8079185
40
0.6405776
50
89.1255678
51
90.0009908
0
ARC
8
DEFAULT_255_2_778
10
17.7907614
20
106.8167463
40
0.631756
50
89.999091
51
90.9175162
0
ARC
8
DEFAULT_255_2_778
10
17.7907586
20
106.8159417
40
0.6325607
50
60.5417555
51
89.9988429
0
ARC
8
DEFAULT_255_2_778
10
17.7953683
20
106.8503466
40
0.6004755
50
27.9209776
51
59.3101803
0
ARC
8
DEFAULT_255_2_778
10
17.7232406
20
106.7862834
40
0.6945804
50
17.4804189
51
29.8047132
0
ARC
8
DEFAULT_255_2_778
10
17.3414598
20
106.7068159
40
1.0832989
50
6.2377641
51
15.4235223
0
ARC
8
DEFAULT_255_2_778
10
19.8283392
20
106.8221571
40
0.5931515
50
147.9040712
51
167.1056423
0
ARC
8
DEFAULT_255_2_778
10
19.7216981
20
106.8916777
40
0.465876
50
118.4938692
51
148.1786382
0
ARC
8
DEFAULT_255_2_778
10
19.7334924
20
106.8618369
40
0.4977439
50
89.992631
51
118.048342
0
ARC
8
DEFAULT_255_2_778
10
19.7335545
20
106.8600128
40
0.4995678
50
89.1179247
51
89.999777
0
ARC
8
DEFAULT_255_2_778
10
19.7483474
20
106.8688546
40
0.4907181
50
89.9985451
51
90.8292927
0
ARC
8
DEFAULT_255_2_778
10
19.748408
20
106.867909
40
0.4916638
50
66.7429218
51
90.0056087
0
ARC
8
DEFAULT_255_2_778
10
19.7775139
20
106.9339969
40
0.4194538
50
40.4840142
51
66.8310967
0
ARC
8
DEFAULT_255_2_778
10
19.6630773
20
106.8459418
40
0.5637089
50
19.102572
51
39.7396978
0
ARC
8
DEFAULT_255_2_778
10
19.5534545
20
106.8127461
40
0.6781738
50
359.1023276
51
18.721759
0
ARC
8
DEFAULT_255_2_778
10
19.6040553
20
106.7872474
40
0.627666
50
331.2749075
51
1.357879
0
ARC
8
DEFAULT_255_2_778
10
19.6783348
20
106.756818
40
0.5479773
50
324.2833362
51
330.3322986
0
ARC
8
DEFAULT_255_2_778
10
19.6011022
20
106.8254643
40
0.6508447
50
316.7868203
51
323.3459014
0
ARC
8
DEFAULT_255_2_778
10
19.4055963
20
107.0169373
40
0.9244534
50
311.24294
51
316.4346701
0
ARC
8
DEFAULT_255_2_778
10
19.3541402
20
107.0832811
40
1.0082739
50
305.0959766
51
310.9561705
0
ARC
8
DEFAULT_255_2_778
10
20.0400378
20
105.4848444
40
0.7004866
50
122.3180044
51
142.8858702
0
ARC
8
DEFAULT_255_2_778
10
19.8111466
20
105.6543606
40
0.4156843
50
142.4812093
51
170.8557654
0
ARC
8
DEFAULT_255_2_778
10
20.5941739
20
105.4537738
40
1.4090459
50
168.4531509
51
178.1719978
0
ARC
8
DEFAULT_255_2_778
10
20.0500308
20
105.5637909
40
0.8538943
50
154.3869875
51
168.3773201
0
ARC
8
DEFAULT_255_2_778
10
19.9650775
20
105.6024372
40
0.7605847
50
139.2892628
51
154.2456781
0
ARC
8
DEFAULT_255_2_778
10
20.0198254
20
105.5531959
40
0.834203
50
124.8576815
51
139.1782204
0
ARC
8
DEFAULT_255_2_778
10
19.5938906
20
106.83337
40
0.4524822
50
310.4651818
51
323.7827176
0
ARC
8
DEFAULT_255_2_778
10
19.617381
20
106.7943511
40
0.4108534
50
326.2379479
51
1.739313
0
ARC
8
DEFAULT_255_2_778
10
19.6260622
20
106.8200017
40
0.4021989
50
358.122042
51
29.0910201
0
ARC
8
DEFAULT_255_2_778
10
19.7189961
20
106.8619828
40
0.3006978
50
30.7106833
51
41.1422848
0
ARC
8
DEFAULT_255_2_778
10
19.7371525
20
106.8770446
40
0.2771157
50
41.2669374
51
92.3799237
0
ARC
8
DEFAULT_255_2_778
10
19.7090627
20
106.9040943
40
0.2503768
50
86.2025273
51
145.7738695
0
ARC
8
DEFAULT_255_2_778
10
19.8812273
20
106.807063
40
0.4476111
50
147.9002475
51
167.6749733
0
ARC
8
DEFAULT_255_2_778
10
20.5244048
20
106.651854
40
1.109188
50
166.9341602
51
176.8732516
0
ARC
8
DEFAULT_255_2_778
10
21.1185039
20
106.6009655
40
1.7052779
50
176.2547595
51
176.8853158
0
ARC
8
DEFAULT_255_2_778
10
20.9642453
20
106.6774621
40
1.7392753
50
173.5573026
51
179.4676691
0
ARC
8
DEFAULT_255_2_778
10
20.0014003
20
106.7836315
40
0.770602
50
167.1341082
51
173.3683461
0
ARC
8
DEFAULT_255_2_778
10
16.2061453
20
106.8443857
40
0.5539224
50
61.7479449
51
91.0137473
0
ARC
8
DEFAULT_255_2_778
10
16.1664733
20
106.789605
40
0.6210214
50
34.9902097
51
60.9161392
0
ARC
8
DEFAULT_255_2_778
10
15.9392278
20
106.6350109
40
0.8958497
50
14.1110801
51
34.756152
0
ARC
8
DEFAULT_255_2_778
10
15.3996044
20
106.4909536
40
1.4543343
50
1.2318902
51
14.4321153
0
ARC
8
DEFAULT_255_2_778
10
15.0366957
20
106.4702675
40
1.8176495
50
359.9922411
51
1.6378708
0
ARC
8
DEFAULT_255_2_778
10
15.2563209
20
106.4488226
40
1.5981648
50
0.000625
51
0.7600175
0
ARC
8
DEFAULT_255_2_778
10
15.2669405
20
106.4484983
40
1.5875452
50
346.1072809
51
0.0123318
0
ARC
8
DEFAULT_255_2_778
10
15.8063356
20
106.3154234
40
1.031977
50
329.5681542
51
346.0890061
0
ARC
8
DEFAULT_255_2_778
10
16.0407096
20
106.1899067
40
0.7663881
50
325.8893151
51
328.7839604
0
ARC
8
DEFAULT_255_2_778
10
16.1726253
20
106.0921477
40
0.6023854
50
299.0845963
51
326.5515879
0
ARC
8
DEFAULT_255_2_778
10
16.1984034
20
106.0619783
40
0.5635443
50
269.9973776
51
298.2852106
0
ARC
8
DEFAULT_255_2_778
10
16.1983688
20
106.0618655
40
0.5634317
50
268.9907981
51
270.0009004
0
ARC
8
DEFAULT_255_2_778
10
16.1945637
20
106.0744929
40
0.354374
50
268.6225659
51
269.9995036
0
ARC
8
DEFAULT_255_2_778
10
16.1945916
20
106.0744881
40
0.3543691
50
269.9949944
51
300.7437882
0
ARC
8
DEFAULT_255_2_778
10
16.1446608
20
106.1365116
40
0.4333455
50
302.2257395
51
329.2925093
0
ARC
8
DEFAULT_255_2_778
10
15.874335
20
106.3009892
40
0.7497668
50
329.034813
51
347.6492173
0
ARC
8
DEFAULT_255_2_778
10
15.5310479
20
106.3975626
40
1.1059635
50
346.5658578
51
346.7896978
0
ARC
8
DEFAULT_255_2_778
10
15.3150761
20
106.4345744
40
1.3247453
50
347.3659236
51
359.9824373
0
ARC
8
DEFAULT_255_2_778
10
15.3287327
20
106.4341861
40
1.3110887
50
359.999222
51
0.6177325
0
ARC
8
DEFAULT_255_2_778
10
15.0906487
20
106.4604859
40
1.5491441
50
359.550085
51
9.205498
0
ARC
8
DEFAULT_255_2_778
10
15.8115321
20
106.583022
40
0.8179617
50
8.8108463
51
25.722642
0
ARC
8
DEFAULT_255_2_778
10
16.0552883
20
106.6909787
40
0.5515715
50
26.6092808
51
32.7569821
0
ARC
8
DEFAULT_255_2_778
10
16.1860868
20
106.7884926
40
0.3889732
50
31.1019104
51
89.9637179
0
ARC
8
DEFAULT_255_2_778
10
16.1863381
20
106.7881283
40
0.3893375
50
90.0007272
51
92.0302324
0
LINE
8
DEFAULT_255_2_778
10
8.2241451
20
67.8787213
11
8.2408451
21
67.8787213
0
ARC
8
DEFAULT_255_2_778
10
8.2412097
20
69.1253473
40
1.2466261
50
269.9832443
51
283.4552114
0
ARC
8
DEFAULT_255_2_778
10
8.3699334
20
68.6161104
40
0.7214455
50
282.9232074
51
310.5506587
0
ARC
8
DEFAULT_255_2_778
10
8.3801455
20
68.5740121
40
0.6831004
50
312.1956549
51
344.1023609
0
ARC
8
DEFAULT_255_2_778
10
7.9201473
20
68.718378
40
1.1651204
50
343.4708438
51
357.5256639
0
ARC
8
DEFAULT_255_2_778
10
7.4526525
20
68.7550872
40
1.6338473
50
356.9472994
51
359.5312791
0
LINE
8
DEFAULT_255_2_778
10
9.0864451
20
68.7417213
11
9.0864451
21
68.7571213
0
LINE
8
DEFAULT_255_2_778
10
7.6500451
20
67.8787213
11
7.6473451
21
67.8787213
0
LINE
8
DEFAULT_255_2_778
10
7.6473451
20
67.8787213
11
7.6339451
21
67.8787213
0
ARC
8
DEFAULT_255_2_778
10
7.6335049
20
69.1338665
40
1.2551452
50
256.7755218
51
270.0200962
0
ARC
8
DEFAULT_255_2_778
10
7.506614
20
68.6226634
40
0.7284999
50
230.4619331
51
257.293006
0
ARC
8
DEFAULT_255_2_778
10
7.4896888
20
68.5716302
40
0.6786469
50
195.7667283
51
228.8209188
0
ARC
8
DEFAULT_255_2_778
10
7.9587525
20
68.7181104
40
1.1699425
50
182.1161178
51
196.4285856
0
ARC
8
DEFAULT_255_2_778
10
8.446604
20
68.7535041
40
1.6588591
50
179.9683185
51
182.7155806
0
LINE
8
DEFAULT_255_2_778
10
8.0098451
20
68.5965213
11
8.0098451
21
68.5997213
0
ARC
8
DEFAULT_255_2_778
10
11.3150378
20
68.6933459
40
3.3065185
50
180.6112545
51
181.6225561
0
ARC
8
DEFAULT_255_2_778
10
22.6903998
20
68.8335524
40
14.6827409
50
180.2653595
51
180.6847879
0
ARC
8
DEFAULT_255_2_778
10
46.6624341
20
68.9615066
40
38.6551144
50
180.1075377
51
180.2904525
0
ARC
8
DEFAULT_255_2_778
10
83.4784921
20
69.0360432
40
75.4712476
50
179.9946265
51
180.1116653
0
ARC
8
DEFAULT_255_2_778
10
6.7556915
20
69.5014037
40
0.2434598
50
349.5351428
51
2.3582233
0
ARC
8
DEFAULT_255_2_778
10
6.9731866
20
69.4629926
40
0.022672
50
334.4700994
51
345.1537045
0
LINE
8
DEFAULT_255_2_778
10
6.9936451
20
69.4532213
11
6.9936451
21
69.4492213
0
ARC
8
DEFAULT_255_2_778
10
8.2602039
20
69.4512909
40
1.2665605
50
180.0936202
51
193.2184479
0
ARC
8
DEFAULT_255_2_778
10
7.747278
20
69.3239236
40
0.7381305
50
192.6979902
51
219.3734448
0
ARC
8
DEFAULT_255_2_778
10
7.6942616
20
69.3055607
40
0.685774
50
220.9976177
51
254.0824434
0
ARC
8
DEFAULT_255_2_778
10
7.8411309
20
69.7697369
40
1.1725147
50
253.4014441
51
267.4894912
0
ARC
8
DEFAULT_255_2_778
10
7.8783351
20
70.2391916
40
1.6432325
50
266.9104985
51
269.5017338
0
ARC
8
DEFAULT_255_2_778
10
4.3123978
20
68.7085559
40
3.5534297
50
358.1851809
51
359.0997833
0
ARC
8
DEFAULT_255_2_778
10
-9.4503496
20
68.947279
40
17.3182435
50
359.0254572
51
359.3817329
0
ARC
8
DEFAULT_255_2_778
10
-39.5336556
20
69.2905758
40
47.4035061
50
359.3591785
51
359.5105429
0
ARC
8
DEFAULT_255_2_778
10
-86.8420426
20
69.7005731
40
94.7136695
50
359.5070047
51
359.6022801
0
ARC
8
DEFAULT_255_2_778
10
158.9069541
20
73.6742606
40
150.9710176
50
180.2725837
51
181.7573694
0
LINE
8
DEFAULT_255_2_778
10
7.6497451
20
79.8778213
11
7.6336451
21
79.8778213
0
ARC
8
DEFAULT_255_2_778
10
7.6332021
20
78.6222386
40
1.2555828
50
89.9797843
51
103.2228426
0
ARC
8
DEFAULT_255_2_778
10
7.5062699
20
79.133668
40
0.7287078
50
102.7052337
51
129.5343093
0
ARC
8
DEFAULT_255_2_778
10
7.4892569
20
79.1848105
40
0.6787135
50
131.1750385
51
164.2309737
0
ARC
8
DEFAULT_255_2_778
10
7.9582649
20
79.0383338
40
1.1699548
50
163.5695166
51
177.8835346
0
ARC
8
DEFAULT_255_2_778
10
8.4461153
20
79.0029348
40
1.6588705
50
177.283991
51
180.0315512
0
LINE
8
DEFAULT_255_2_778
10
8.0069451
20
78.7136213
11
8.0069451
21
78.7205213
0
ARC
8
DEFAULT_255_2_778
10
-6.6578537
20
78.728877
40
14.6648011
50
359.9673542
51
0.6086309
0
ARC
8
DEFAULT_255_2_778
10
1.4136936
20
78.820408
40
6.5927395
50
0.5583417
51
1.7889852
0
ARC
8
DEFAULT_255_2_778
10
6.0222831
20
78.9709309
40
1.9817081
50
1.5988643
51
4.4646324
0
ARC
8
DEFAULT_255_2_778
10
7.5637421
20
79.0916683
40
0.435528
50
4.4148872
51
9.1360789
0
ARC
8
DEFAULT_255_2_778
10
6.7556915
20
78.255339
40
0.2434598
50
357.6417767
51
10.4648572
0
ARC
8
DEFAULT_255_2_778
10
6.9731866
20
78.29375
40
0.022672
50
14.8462955
51
25.5299006
0
LINE
8
DEFAULT_255_2_778
10
6.9936451
20
78.3035213
11
6.9936451
21
78.3083213
0
ARC
8
DEFAULT_255_2_778
10
8.2304004
20
78.3061098
40
1.2367573
50
166.20752
51
179.8975451
0
ARC
8
DEFAULT_255_2_778
10
7.7316133
20
78.4355394
40
0.7215277
50
138.1648622
51
166.7462211
0
ARC
8
DEFAULT_255_2_778
10
7.7049212
20
78.4326753
40
0.7038329
50
106.1851364
51
136.5416401
0
ARC
8
DEFAULT_255_2_778
10
7.8538246
20
77.9620722
40
1.1973482
50
92.7469663
51
106.7509948
0
ARC
8
DEFAULT_255_2_778
10
7.894413
20
77.4687963
40
1.6920868
50
90.489903
51
93.3192739
0
ARC
8
DEFAULT_255_2_778
10
-146.392564
20
73.7198617
40
154.3321223
50
0.261977
51
1.8542563
0
ARC
8
DEFAULT_255_2_778
10
158.2396156
20
73.689177
40
150.3034742
50
178.0843217
51
179.719304
0
ARC
8
DEFAULT_255_2_778
10
8.0267948
20
78.5659095
40
0.147362
50
90.019318
51
92.5863409
0
ARC
8
DEFAULT_255_2_778
10
8.0267954
20
78.5788961
40
0.1343752
50
87.2915527
51
90.0214324
0
ARC
8
DEFAULT_255_2_778
10
7.9778924
20
76.481991
40
2.2318144
50
81.4948078
51
88.5813918
0
ARC
8
DEFAULT_255_2_778
10
8.1331212
20
77.485521
40
1.216373
50
70.2199126
51
81.7350657
0
ARC
8
DEFAULT_255_2_778
10
8.3442145
20
78.0548085
40
0.6092677
50
48.9626881
51
70.7827813
0
ARC
8
DEFAULT_255_2_778
10
8.4807808
20
78.2204156
40
0.394732
50
3.5738644
51
48.1324181
0
ARC
8
DEFAULT_255_2_778
10
9.5292837
20
69.5382996
40
0.6548029
50
182.3788047
51
187.1200905
0
ARC
8
DEFAULT_255_2_778
10
8.9328661
20
69.4652589
40
0.0539508
50
188.658238
51
193.2195376
0
ARC
8
DEFAULT_255_2_778
10
7.6057198
20
69.4522201
40
1.2746255
50
346.9318291
51
0.0315207
0
ARC
8
DEFAULT_255_2_778
10
8.1219067
20
69.3258305
40
0.7432564
50
321.2939261
51
347.4252879
0
ARC
8
DEFAULT_255_2_778
10
8.1806475
20
69.3033247
40
0.6836126
50
285.9276158
51
319.6870646
0
ARC
8
DEFAULT_255_2_778
10
8.0328903
20
69.7683421
40
1.1714149
50
272.5126153
51
286.6355459
0
ARC
8
DEFAULT_255_2_778
10
7.9956006
20
70.2380055
40
1.6423461
50
270.4969479
51
273.0939797
0
LINE
8
DEFAULT_255_2_778
10
7.9939451
20
79.1605213
11
7.9961451
21
79.1605213
0
ARC
8
DEFAULT_255_2_778
10
7.9946812
20
77.7787904
40
1.3817317
50
77.6227035
51
89.9392959
0
ARC
8
DEFAULT_255_2_778
10
8.1245359
20
78.3432118
40
0.8026161
50
55.0852235
51
78.0405893
0
ARC
8
DEFAULT_255_2_778
10
8.1849189
20
78.4587134
40
0.6735481
50
14.8915932
51
53.6735135
0
ARC
8
DEFAULT_255_2_778
10
7.7136229
20
78.3154755
40
1.1659544
50
1.2293895
51
15.7421634
0
ARC
8
DEFAULT_255_2_778
10
7.2943516
20
78.2890455
40
1.5857921
50
0.6386516
51
1.8590975
0
LINE
8
DEFAULT_255_2_778
10
8.8800451
20
78.3067213
11
8.8800451
21
78.3033213
0
ARC
8
DEFAULT_255_2_778
10
9.1655749
20
78.2540021
40
0.2897579
50
170.2000558
51
177.5175254
0
ARC
8
DEFAULT_255_2_778
10
10.5480767
20
78.1513943
40
1.6759489
50
176.0599712
51
176.7974988
0
ARC
8
DEFAULT_255_2_778
10
139.8715476
20
73.8786323
40
131.0695526
50
178.0909223
51
179.9999502
0
ARC
8
DEFAULT_255_2_778
10
139.9934614
20
73.8795383
40
131.1914663
50
180.0003459
51
181.9081891
0
ARC
8
DEFAULT_255_2_778
10
8.4642646
20
69.5429034
40
0.411709
50
294.6370404
51
355.5726214
0
ARC
8
DEFAULT_255_2_778
10
8.2192546
20
69.9811703
40
0.9130929
50
282.584824
51
297.1482032
0
ARC
8
DEFAULT_255_2_778
10
8.0296667
20
70.7834431
40
1.7374292
50
274.4027908
51
282.9221839
0
ARC
8
DEFAULT_255_2_778
10
7.9420114
20
71.7297037
40
2.6876668
50
271.3843939
51
274.7173288
0
ARC
8
DEFAULT_255_2_778
10
8.2312042
20
79.7747705
40
0.1030509
50
90.0884708
51
94.3738784
0
ARC
8
DEFAULT_255_2_778
10
8.6000563
20
79.05687
40
0.7283673
50
171.794825
51
176.2843809
0
ARC
8
DEFAULT_255_2_778
10
11.3689978
20
78.8550522
40
3.5046359
50
175.9254609
51
177.6892003
0
ARC
8
DEFAULT_255_2_778
10
17.4263002
20
78.5920875
40
9.5676332
50
177.578295
51
178.3287861
0
ARC
8
DEFAULT_255_2_778
10
26.8938372
20
78.3099962
40
19.0393708
50
178.3111526
51
178.785267
0
ARC
8
DEFAULT_255_2_778
10
7.9055452
20
76.4042066
40
2.3098889
50
91.1609347
51
98.1565796
0
ARC
8
DEFAULT_255_2_778
10
7.75171
20
77.4430514
40
1.2597366
50
97.9342185
51
109.1184403
0
ARC
8
DEFAULT_255_2_778
10
7.5410431
20
78.0331156
40
0.6332467
50
108.5947197
51
129.3845978
0
ARC
8
DEFAULT_255_2_778
10
7.3920757
20
78.2204968
40
0.3939136
50
129.9315252
51
176.3868159
0
ARC
8
DEFAULT_255_2_778
10
-123.998941
20
73.8789172
40
131.070636
50
0.0000564
51
1.9090685
0
ARC
8
DEFAULT_255_2_778
10
-124.120129
20
73.8798473
40
131.1918241
50
358.0918122
51
359.9996502
0
ARC
8
DEFAULT_255_2_778
10
7.4076005
20
69.5428933
40
0.4098655
50
184.4038495
51
245.1019449
0
ARC
8
DEFAULT_255_2_778
10
7.6469954
20
69.9662223
40
0.8954824
50
242.6108443
51
256.9440896
0
ARC
8
DEFAULT_255_2_778
10
7.8339811
20
70.7328085
40
1.6845167
50
256.6386834
51
265.2214861
0
ARC
8
DEFAULT_255_2_778
10
7.9280723
20
71.697096
40
2.6533247
50
264.9313702
51
268.7317428
0
ARC
8
DEFAULT_255_2_778
10
-147.3114273
20
73.7104499
40
155.2509064
50
358.2777298
51
359.7215011
0
ARC
8
DEFAULT_255_2_778
10
-144.111935
20
73.7215679
40
152.0515083
50
359.7114515
51
0.0000296
0
ARC
8
DEFAULT_255_2_778
10
-144.2014252
20
73.7216539
40
152.1409984
50
359.9999972
51
0.265075
0
ARC
8
DEFAULT_255_2_778
10
8.809086
20
79.0098492
40
0.2775092
50
358.1150821
51
359.9632786
0
ARC
8
DEFAULT_255_2_778
10
8.8691932
20
79.0098423
40
0.2174019
50
359.9549353
51
2.1296931
0
ARC
8
DEFAULT_255_2_778
10
7.7699095
20
79.0186716
40
1.3165358
50
359.9673468
51
12.675268
0
ARC
8
DEFAULT_255_2_778
10
8.309864
20
79.146447
40
0.7617282
50
12.210279
51
36.750113
0
ARC
8
DEFAULT_255_2_778
10
8.3971061
20
79.1890492
40
0.66658
50
38.3030021
51
74.8515014
0
ARC
8
DEFAULT_255_2_778
10
8.2543675
20
78.723435
40
1.1534282
50
74.0515387
51
88.4110262
0
ARC
8
DEFAULT_255_2_778
10
8.2253482
20
78.2927166
40
1.5848777
50
87.7941022
51
89.4506019
0
ARC
8
DEFAULT_255_2_778
10
17.9097966
20
71.7317615
40
1.2711775
50
103.9361756
51
139.2924701
0
ARC
8
DEFAULT_255_2_778
10
17.9110905
20
71.7284182
40
1.2743399
50
139.2164638
51
179.9652582
0
ARC
8
DEFAULT_255_2_778
10
17.9204963
20
71.7293786
40
1.2837456
50
180.0083781
51
187.0093561
0
ARC
8
DEFAULT_255_2_778
10
17.9086086
20
71.7264553
40
1.2715908
50
186.9439836
51
225.2995529
0
ARC
8
DEFAULT_255_2_778
10
17.9111638
20
71.7260294
40
1.2730872
50
225.2043298
51
268.2152903
0
ARC
8
DEFAULT_255_2_778
10
17.9121297
20
71.7452038
40
1.2922826
50
268.1989622
51
270.0006817
0
ARC
8
DEFAULT_255_2_778
10
17.9134281
20
71.7247538
40
1.2718331
50
269.9421984
51
308.0539734
0
ARC
8
DEFAULT_255_2_778
10
17.9143967
20
71.7268533
40
1.272891
50
307.9613905
51
350.8397721
0
ARC
8
DEFAULT_255_2_778
10
17.8964424
20
71.7300198
40
1.2911204
50
350.8278839
51
353.002213
0
ARC
8
DEFAULT_255_2_778
10
17.9037939
20
71.7293786
40
1.2837456
50
352.9906439
51
359.9916219
0
ARC
8
DEFAULT_255_2_778
10
17.9119813
20
71.7279118
40
1.2755588
50
0.0574557
51
72.5922864
0
ARC
8
DEFAULT_255_2_778
10
17.9089364
20
71.7146272
40
1.2891463
50
72.6397925
51
76.007513
0
ARC
8
DEFAULT_255_2_778
10
17.9142736
20
71.7318053
40
1.2212984
50
39.5375636
51
76.0574009
0
ARC
8
DEFAULT_255_2_778
10
17.9134134
20
71.7288458
40
1.2238469
50
0.031451
51
39.6187775
0
ARC
8
DEFAULT_255_2_778
10
17.9040458
20
71.7296998
40
1.2332145
50
352.991227
51
359.9915363
0
ARC
8
DEFAULT_255_2_778
10
17.9152282
20
71.7269466
40
1.2217805
50
313.35477
51
353.0553839
0
ARC
8
DEFAULT_255_2_778
10
17.9131972
20
71.7260918
40
1.2225549
50
271.0161672
51
313.4514854
0
ARC
8
DEFAULT_255_2_778
10
17.9121558
20
71.7459895
40
1.2424682
50
269.9995038
51
271.0479078
0
ARC
8
DEFAULT_255_2_778
10
17.9110169
20
71.7254524
40
1.2219315
50
230.3560839
51
270.0528996
0
ARC
8
DEFAULT_255_2_778
10
17.9097077
20
71.7271902
40
1.2224361
50
188.0177138
51
230.455303
0
ARC
8
DEFAULT_255_2_778
10
17.9303699
20
71.7307218
40
1.243389
50
186.9985808
51
188.0460594
0
ARC
8
DEFAULT_255_2_778
10
17.9202244
20
71.7296985
40
1.2331945
50
180.0084639
51
187.0088283
0
ARC
8
DEFAULT_255_2_778
10
17.9122881
20
71.7282846
40
1.2252587
50
106.5581219
51
179.9424015
0
ARC
8
DEFAULT_255_2_778
10
17.9157784
20
71.7138418
40
1.2400974
50
103.9965038
51
106.5225239
0
LINE
8
DEFAULT_255_2_778
10
13.3123451
20
118.5985213
11
13.3123451
21
104.7986213
0
LINE
8
DEFAULT_255_2_778
10
18.2301451
20
106.1993213
11
18.4339451
21
106.1993213
0
LINE
8
DEFAULT_255_2_778
10
18.4339451
20
106.1993213
11
18.3915451
21
106.0030213
0
LINE
8
DEFAULT_255_2_778
10
18.4183451
20
106.8245213
11
18.2145451
21
106.8245213
0
LINE
8
DEFAULT_255_2_778
10
18.2145451
20
106.8245213
11
18.1868451
21
106.9275213
0
LINE
8
DEFAULT_255_2_778
10
18.1868451
20
106.9275213
11
18.1868451
21
106.9272213
0
LINE
8
DEFAULT_255_2_778
10
19.9338451
20
106.2583213
11
19.8243451
21
106.1827213
0
LINE
8
DEFAULT_255_2_778
10
19.8243451
20
106.1827213
11
19.6655451
21
106.0768213
0
LINE
8
DEFAULT_255_2_778
10
19.4007451
20
105.7204213
11
20.2317451
21
105.7204213
0
LINE
8
DEFAULT_255_2_778
10
20.2317451
20
105.7204213
11
20.2317451
21
105.4987213
0
LINE
8
DEFAULT_255_2_778
10
20.2317451
20
105.4987213
11
19.1858451
21
105.4987213
0
LINE
8
DEFAULT_255_2_778
10
19.5430451
20
106.2377213
11
19.7473451
21
106.3806213
0
LINE
8
DEFAULT_255_2_778
10
19.7473451
20
106.3806213
11
19.8875451
21
106.4891213
0
LINE
8
DEFAULT_255_2_778
10
19.4157451
20
106.6936213
11
19.2250451
21
106.6936213
0
LINE
8
DEFAULT_255_2_778
10
19.2501451
20
106.9552213
11
19.2501451
21
106.9545213
0
LINE
8
DEFAULT_255_2_778
10
22.9511451
20
107.3982213
11
22.3823451
21
105.4985213
0
LINE
8
DEFAULT_255_2_778
10
22.3823451
20
105.4985213
11
22.1568451
21
105.4985213
0
LINE
8
DEFAULT_255_2_778
10
22.1568451
20
105.4985213
11
21.5880451
21
107.3982213
0
LINE
8
DEFAULT_255_2_778
10
21.5880451
20
107.3982213
11
21.8232451
21
107.3982213
0
LINE
8
DEFAULT_255_2_778
10
21.8232451
20
107.3982213
11
22.2706451
21
105.7707213
0
LINE
8
DEFAULT_255_2_778
10
22.2706451
20
105.7707213
11
22.7125451
21
107.3982213
0
LINE
8
DEFAULT_255_2_778
10
22.7125451
20
107.3982213
11
22.9511451
21
107.3982213
0
LINE
8
DEFAULT_255_2_778
10
16.1884451
20
105.4985213
11
15.5624451
21
105.4985213
0
LINE
8
DEFAULT_255_2_778
10
15.5624451
20
105.4985213
11
15.5624451
21
107.3982213
0
LINE
8
DEFAULT_255_2_778
10
15.5624451
20
107.3982213
11
16.1963451
21
107.3982213
0
LINE
8
DEFAULT_255_2_778
10
16.1963451
20
107.3982213
11
16.1963451
21
107.3982213
0
LINE
8
DEFAULT_255_2_778
10
15.7772451
20
105.7202213
11
16.1860451
21
105.7202213
0
LINE
8
DEFAULT_255_2_778
10
16.1725451
20
107.1772213
11
15.7772451
21
107.1772213
0
LINE
8
DEFAULT_255_2_778
10
15.7772451
20
107.1772213
11
15.7772451
21
105.7202213
0
LINE
8
DEFAULT_255_2_778
10
21.2477451
20
105.4985213
11
21.0543451
21
105.4985213
0
LINE
8
DEFAULT_255_2_778
10
21.0543451
20
105.4985213
11
21.0543451
21
105.9477213
0
LINE
8
DEFAULT_255_2_778
10
21.0543451
20
105.9477213
11
20.3876451
21
105.9477213
0
LINE
8
DEFAULT_255_2_778
10
20.3876451
20
105.9477213
11
20.3876451
21
106.1805213
0
LINE
8
DEFAULT_255_2_778
10
20.3876451
20
106.1805213
11
21.0869451
21
107.3587213
0
LINE
8
DEFAULT_255_2_778
10
21.0869451
20
107.3587213
11
21.2475451
21
107.3587213
0
LINE
8
DEFAULT_255_2_778
10
21.2475451
20
107.3587213
11
21.2475451
21
106.1541213
0
LINE
8
DEFAULT_255_2_778
10
21.2475451
20
106.1541213
11
21.4726451
21
106.1541213
0
LINE
8
DEFAULT_255_2_778
10
21.4726451
20
106.1541213
11
21.4726451
21
105.9480213
0
LINE
8
DEFAULT_255_2_778
10
21.4726451
20
105.9480213
11
21.2475451
21
105.9480213
0
LINE
8
DEFAULT_255_2_778
10
21.2475451
20
105.9480213
11
21.2477451
21
105.4985213
0
LINE
8
DEFAULT_255_2_778
10
21.0543451
20
107.0037213
11
21.0543451
21
106.1541213
0
LINE
8
DEFAULT_255_2_778
10
21.0543451
20
106.1541213
11
20.5619451
21
106.1541213
0
LINE
8
DEFAULT_255_2_778
10
20.5619451
20
106.1541213
11
21.0543451
21
107.0037213
0
LINE
8
DEFAULT_255_2_778
10
9.0864451
20
68.7571213
11
9.0861451
21
79.0004213
0
LINE
8
DEFAULT_255_2_778
10
6.7877451
20
68.7544213
11
6.9941451
21
69.4490213
0
LINE
8
DEFAULT_255_2_778
10
8.0109451
20
68.5965213
11
8.2241451
21
67.8789213
0
LINE
8
DEFAULT_255_2_778
10
8.2241451
20
67.8789213
11
7.6508451
21
67.8789213
0
LINE
8
DEFAULT_255_2_778
10
7.6508451
20
67.8789213
11
7.8640451
21
68.5965213
0
LINE
8
DEFAULT_255_2_778
10
8.0098451
20
68.5965213
11
8.0106451
21
68.5965213
0
LINE
8
DEFAULT_255_2_778
10
6.9951451
20
69.4535213
11
6.9938451
21
69.4492213
0
LINE
8
DEFAULT_255_2_778
10
7.8638451
20
68.5967213
11
7.8640451
21
68.5967213
0
LINE
8
DEFAULT_255_2_778
10
6.9936451
20
78.3083213
11
6.7869451
21
79.0033213
0
LINE
8
DEFAULT_255_2_778
10
6.7869451
20
79.0033213
11
6.7869451
21
68.7542213
0
LINE
8
DEFAULT_255_2_778
10
6.9936451
20
78.3083213
11
6.9949451
21
78.3040213
0
LINE
8
DEFAULT_255_2_778
10
7.8587451
20
78.7131213
11
8.0201451
21
78.7131213
0
LINE
8
DEFAULT_255_2_778
10
8.8800451
20
69.4503213
11
8.8792451
21
69.4532213
0
LINE
8
DEFAULT_255_2_778
10
8.8792451
20
69.4532213
11
9.0864451
21
68.7566213
0
LINE
8
DEFAULT_255_2_778
10
8.0098451
20
68.5957213
11
7.8643451
21
68.5965213
0
LINE
8
DEFAULT_255_2_778
10
8.0069451
20
69.0428213
11
7.8693451
21
69.0442213
0
LINE
8
DEFAULT_255_2_778
10
8.2233451
20
79.8775213
11
7.6505451
21
79.8775213
0
LINE
8
DEFAULT_255_2_778
10
7.6505451
20
79.8775213
11
7.8791451
21
79.1608213
0
LINE
8
DEFAULT_255_2_778
10
8.2233451
20
79.8775213
11
7.9945451
21
79.1608213
0
LINE
8
DEFAULT_255_2_778
10
7.9945451
20
79.1608213
11
7.8791451
21
79.1608213
0
LINE
8
DEFAULT_255_2_778
10
8.8792451
20
78.3040213
11
9.0864451
21
79.0007213
0
LINE
8
DEFAULT_255_2_778
10
15.0872451
20
77.3986213
11
15.0872451
21
77.6286213
0
LINE
8
DEFAULT_255_2_778
10
15.0872451
20
77.6286213
11
11.2372451
21
77.6286213
0
LINE
8
DEFAULT_255_2_778
10
11.2372451
20
77.6286213
11
11.2372451
21
77.3986213
0
LINE
8
DEFAULT_255_2_778
10
15.0872451
20
75.3987213
11
15.0872451
21
77.3986213
0
LINE
8
DEFAULT_255_2_778
10
15.0872451
20
77.3986213
11
11.2372451
21
77.3986213
0
LINE
8
DEFAULT_255_2_778
10
11.2372451
20
77.3986213
11
11.2372451
21
75.3987213
0
LINE
8
DEFAULT_255_2_778
10
11.2372451
20
75.3987213
11
15.0872451
21
75.3987213
0
LINE
8
DEFAULT_255_2_778
10
15.0872451
20
75.3987213
11
15.0872451
21
70.1287213
0
LINE
8
DEFAULT_255_2_778
10
15.0872451
20
70.1287213
11
11.2372451
21
70.1287213
0
LINE
8
DEFAULT_255_2_778
10
11.2372451
20
70.1287213
11
11.2372451
21
75.3987213
0
LINE
8
DEFAULT_255_2_778
10
18.2206451
20
72.9655213
11
18.2085451
21
72.9171213
0
LINE
8
DEFAULT_255_2_778
10
17.6158451
20
72.9171213
11
17.6036451
21
72.9655213
0
LINE
8
DEFAULT_255_2_778
10
17.8870451
20
71.7284213
11
17.8870451
21
73.7283213
0
LINE
8
DEFAULT_255_2_778
10
17.8870451
20
73.7283213
11
17.9370451
21
73.7283213
0
LINE
8
DEFAULT_255_2_778
10
17.9370451
20
73.7283213
11
17.9370451
21
71.7284213
0
LINE
8
DEFAULT_255_2_778
10
17.9370451
20
71.7284213
11
17.8870451
21
71.7284213
0
LINE
8
DEFAULT_255_2_778
10
17.9370451
20
76.9282213
11
17.9370451
21
74.9282213
0
LINE
8
DEFAULT_255_2_778
10
17.9370451
20
74.9282213
11
17.8870451
21
74.9282213
0
LINE
8
DEFAULT_255_2_778
10
17.8870451
20
74.9282213
11
17.8870451
21
76.9282213
0
LINE
8
DEFAULT_255_2_778
10
17.8870451
20
76.9282213
11
17.9370451
21
76.9282213
0
LINE
8
DEFAULT_255_2_778
10
6.7123451
20
9.3452213
11
6.7123451
21
4.2451213
0
LINE
8
DEFAULT_255_2_778
10
6.7123451
20
4.2451213
11
1.6122451
21
4.2451213
0
LINE
8
DEFAULT_255_2_778
10
1.6122451
20
4.2451213
11
1.6122451
21
9.3452213
0
LINE
8
DEFAULT_255_2_778
10
1.6122451
20
9.3452213
11
6.7123451
21
9.3452213
0
ARC
8
DEFAULT_255_2_778
10
4.1635774
20
6.7966132
40
0.6485056
50
359.9973457
51
46.2434198
0
ARC
8
DEFAULT_255_2_778
10
4.14194
20
6.7965831
40
0.6701429
50
359.8747958
51
359.9999981
0
ARC
8
DEFAULT_255_2_778
10
4.155821
20
6.794844
40
0.6562603
50
339.6399332
51
0.0239879
0
ARC
8
DEFAULT_255_2_778
10
4.1637113
20
6.7933673
40
0.6483507
50
269.9962419
51
339.5196809
0
ARC
8
DEFAULT_255_2_778
10
4.1637533
20
6.8570542
40
0.7120376
50
269.8574069
51
269.9931915
0
ARC
8
DEFAULT_255_2_778
10
4.1620408
20
6.7949783
40
0.6499596
50
179.9964406
51
269.9947484
0
ARC
8
DEFAULT_255_2_778
10
4.1620196
20
6.7949803
40
0.6499383
50
90.0033766
51
179.9966146
0
ARC
8
DEFAULT_255_2_778
10
4.163983
20
6.7778431
40
0.6670786
50
90.0059467
51
90.1719326
0
ARC
8
DEFAULT_255_2_778
10
4.1638191
20
6.7970257
40
0.647896
50
46.221398
51
89.991625
0
ARC
8
DEFAULT_255_2_778
10
4.1644419
20
6.7924382
40
0.9471227
50
269.8511445
51
311.2308743
0
ARC
8
DEFAULT_255_2_778
10
4.1652726
20
6.7926329
40
0.946722
50
311.1852994
51
357.7474774
0
ARC
8
DEFAULT_255_2_778
10
4.1358034
20
6.7953845
40
0.9762778
50
357.6540891
51
0.0020081
0
ARC
8
DEFAULT_255_2_778
10
4.1649541
20
6.7979565
40
0.9471305
50
359.8464796
51
40.8862657
0
ARC
8
DEFAULT_255_2_778
10
4.1648428
20
6.7987021
40
0.9467268
50
40.8477413
51
87.7347377
0
ARC
8
DEFAULT_255_2_778
10
4.1620221
20
6.7691262
40
0.9763924
50
87.6379405
51
90.0023928
0
ARC
8
DEFAULT_255_2_778
10
4.1594435
20
6.7983916
40
0.9471305
50
89.8464796
51
130.8862657
0
ARC
8
DEFAULT_255_2_778
10
4.1586979
20
6.7982803
40
0.9467268
50
130.8477413
51
177.7347377
0
ARC
8
DEFAULT_255_2_778
10
4.1882738
20
6.7954595
40
0.9763924
50
177.6379405
51
180.0023928
0
ARC
8
DEFAULT_255_2_778
10
4.1590084
20
6.7928809
40
0.9471305
50
179.8464796
51
220.8862657
0
ARC
8
DEFAULT_255_2_778
10
4.1591197
20
6.7921353
40
0.9467268
50
220.8477413
51
267.7347377
0
ARC
8
DEFAULT_255_2_778
10
4.1619405
20
6.8217112
40
0.9763924
50
267.6379405
51
270.0023928
0
LINE
8
DEFAULT_255_2_778
10
4.7705813
20
6.5668187
11
4.6120813
21
6.5985187
0
LINE
8
DEFAULT_255_2_778
10
4.6120813
20
6.5985187
11
4.6120813
21
7.2642187
0
LINE
8
DEFAULT_255_2_778
10
4.6120813
20
7.2648187
11
4.6120813
21
7.2650187
0
LINE
8
DEFAULT_255_2_778
10
4.1619813
20
5.8453187
11
4.1619813
21
5.8453187
0
ARC
8
DEFAULT_255_2_778
10
1.1624177
20
123.7985079
40
1.000095
50
135.0017048
51
180.0026977
0
ARC
8
DEFAULT_255_2_778
10
1.1623756
20
123.7984658
40
1.000095
50
89.9973023
51
134.9982952
0
ARC
8
DEFAULT_255_2_778
10
59.1625404
20
123.7983947
40
1.0001661
50
45.0033929
51
90.0010116
0
ARC
8
DEFAULT_255_2_778
10
59.1625315
20
123.798368
40
1.0001912
50
0.0053149
51
45.0041129
0
ARC
8
DEFAULT_255_2_778
10
59.1663271
20
0.7943817
40
0.9963962
50
318.3450194
51
0.0620519
0
ARC
8
DEFAULT_255_2_778
10
59.163695
20
0.7933985
40
0.9977123
50
271.7295808
51
318.4876695
0
ARC
8
DEFAULT_255_2_778
10
59.1625454
20
0.8144193
40
1.0187584
50
269.9987247
51
271.7585257
0
ARC
8
DEFAULT_255_2_778
10
1.1623756
20
0.7957558
40
1.000095
50
225.0017048
51
270.0026977
0
ARC
8
DEFAULT_255_2_778
10
1.162344
20
0.7956832
40
1.0000213
50
180.0242019
51
225.0000457
0
LINE
8
DEFAULT_255_2_778
10
0.1623227
20
65.4953608
11
0.1623227
21
73.7686608
0
LINE
8
DEFAULT_255_2_778
10
0.1623227
20
73.7686608
11
0.1623227
21
75.1613608
0
LINE
8
DEFAULT_255_2_778
10
0.1623227
20
75.1613608
11
0.1623227
21
75.4722608
0
LINE
8
DEFAULT_255_2_778
10
0.1623227
20
75.4722608
11
0.1623227
21
82.3948608
0
LINE
8
DEFAULT_255_2_778
10
0.1623227
20
82.3948608
11
0.1623227
21
82.9986608
0
LINE
8
DEFAULT_255_2_778
10
0.1623227
20
82.9986608
11
0.1623227
21
84.1985608
0
LINE
8
DEFAULT_255_2_778
10
0.1623227
20
84.1985608
11
0.1623227
21
123.7984608
0
LINE
8
DEFAULT_255_2_778
10
1.1624227
20
124.7985608
11
59.1625227
21
124.7985608
0
LINE
8
DEFAULT_255_2_778
10
60.1627227
20
123.7984608
11
60.1627227
21
84.1985608
0
LINE
8
DEFAULT_255_2_778
10
60.1627227
20
82.3948608
11
60.1627227
21
82.9986608
0
LINE
8
DEFAULT_255_2_778
10
60.1627227
20
82.9986608
11
60.1627227
21
84.1985608
0
LINE
8
DEFAULT_255_2_778
10
60.1627227
20
75.1613608
11
60.1627227
21
75.4725608
0
LINE
8
DEFAULT_255_2_778
10
60.1627227
20
82.3948608
11
60.1627227
21
75.4725608
0
LINE
8
DEFAULT_255_2_778
10
60.1627227
20
75.1613608
11
60.1627227
21
73.7887608
0
LINE
8
DEFAULT_255_2_778
10
60.1627227
20
73.7887608
11
60.1627227
21
73.7686608
0
LINE
8
DEFAULT_255_2_778
10
60.1627227
20
73.7686608
11
60.1627227
21
65.4953608
0
LINE
8
DEFAULT_255_2_778
10
60.1627227
20
65.4953608
11
60.1627227
21
63.8954608
0
LINE
8
DEFAULT_255_2_778
10
60.1627227
20
63.8954608
11
60.1627227
21
0.7954608
0
LINE
8
DEFAULT_255_2_778
10
59.1625227
20
-0.2043392
11
1.1624227
21
-0.2043392
0
LINE
8
DEFAULT_255_2_778
10
0.1623227
20
0.7952608
11
0.1623227
21
63.8954608
0
ARC
8
DEFAULT_255_2_778
10
59.1625314
20
63.8953024
40
1.0001912
50
0.0053149
51
45.0041129
0
ARC
8
DEFAULT_255_2_778
10
59.1625395
20
63.8953273
40
1.0001679
50
45.0034282
51
90.0009633
0
ARC
8
DEFAULT_255_2_778
10
1.1624396
20
63.8952455
40
1.0002497
50
90.000968
51
135.0027238
0
ARC
8
DEFAULT_255_2_778
10
1.1626121
20
63.8953618
40
1.0002894
50
135.0144211
51
179.9936642
0
LINE
8
DEFAULT_255_2_778
10
0.1623226
20
63.8954724
11
0.1623227
21
63.8950952
0
ARC
8
DEFAULT_255_2_778
10
59.1741496
20
75.2523974
40
2.1643379
50
269.6710254
51
277.7424174
0
ARC
8
DEFAULT_255_2_778
10
59.3009717
20
74.353514
40
1.2565719
50
277.5341017
51
290.2037257
0
ARC
8
DEFAULT_255_2_778
10
59.4972963
20
73.8381479
40
0.7051413
50
289.6951987
51
314.3478879
0
ARC
8
DEFAULT_255_2_778
10
59.5573524
20
73.7515298
40
0.6014775
50
316.0247333
51
354.7775744
0
ARC
8
DEFAULT_255_2_778
10
59.2910298
20
73.8004261
40
0.8714884
50
353.169771
51
356.9986338
0
LINE
8
DEFAULT_255_2_778
10
60.1613227
20
73.7547952
11
60.1619227
21
73.7679952
0
ARC
8
DEFAULT_255_2_778
10
59.6623258
20
82.9982982
40
0.5000969
50
359.9996485
51
90.0003515
0
ARC
8
DEFAULT_255_2_778
10
59.1455397
20
83.1132469
40
0.962798
50
270.9988023
51
302.4627537
0
ARC
8
DEFAULT_255_2_778
10
60.1905475
20
81.4444295
40
1.0062578
50
108.4547395
51
121.6641929
0
ARC
8
DEFAULT_255_2_778
10
60.106613
20
81.7066492
40
0.730961
50
96.5112933
51
108.7203806
0
ARC
8
DEFAULT_255_2_778
10
60.0676641
20
82.0112908
40
0.4238881
50
90.204202
51
95.9501341
0
ARC
8
DEFAULT_255_2_778
10
60.0739528
20
82.2567139
40
0.1786326
50
68.7100731
51
92.502437
0
ARC
8
DEFAULT_255_2_778
10
60.1290498
20
82.3910581
40
0.0335494
50
5.8801283
51
73.0832501
0
ARC
8
DEFAULT_255_2_778
10
56.8601392
20
75.4846692
40
3.3018078
50
359.7800687
51
6.1912745
0
ARC
8
DEFAULT_255_2_778
10
58.0542943
20
75.6182764
40
2.1002124
50
6.0810381
51
15.3317529
0
ARC
8
DEFAULT_255_2_778
10
58.8323125
20
75.8361566
40
1.2922816
50
15.1361294
51
29.6005093
0
ARC
8
DEFAULT_255_2_778
10
59.2449378
20
76.0804508
40
0.8128841
50
28.9946578
51
82.1064226
0
ARC
8
DEFAULT_255_2_778
10
59.1663779
20
75.6930603
40
1.2076439
50
80.9385553
51
90.220862
0
ARC
8
DEFAULT_255_2_778
10
57.8123982
20
76.8861195
40
0.5000756
50
89.9971984
51
179.9913379
0
ARC
8
DEFAULT_255_2_778
10
57.812887
20
76.813448
40
0.1589479
50
90.1673628
51
118.7549945
0
ARC
8
DEFAULT_255_2_778
10
57.8201548
20
76.8011105
40
0.1732608
50
118.8993216
51
145.1184518
0
ARC
8
DEFAULT_255_2_778
10
57.6967946
20
77.1951837
40
0.3847191
50
149.2610957
51
182.0539488
0
ARC
8
DEFAULT_255_2_778
10
57.6524749
20
77.1987345
40
0.3453679
50
105.2570414
51
146.0075866
0
ARC
8
DEFAULT_255_2_778
10
57.7813019
20
76.8015567
40
0.7627043
50
91.6901361
51
106.7423077
0
ARC
8
DEFAULT_255_2_778
10
57.8116835
20
76.3655817
40
1.1995135
50
89.9646911
51
92.5265289
0
ARC
8
DEFAULT_255_2_778
10
57.8124196
20
76.6863921
40
0.5000969
50
179.9996485
51
270.0003515
0
ARC
8
DEFAULT_255_2_778
10
57.8124196
20
76.2982921
40
0.5000969
50
179.9996485
51
270.0003515
0
ARC
8
DEFAULT_255_2_778
10
58.5431828
20
77.9641113
40
1.2308824
50
173.5992557
51
180.3452119
0
ARC
8
DEFAULT_255_2_778
10
57.9115236
20
78.0380814
40
0.5949224
50
162.4714212
51
173.8968968
0
ARC
8
DEFAULT_255_2_778
10
57.5800017
20
78.1471565
40
0.245978
50
138.9545296
51
163.4409661
0
ARC
8
DEFAULT_255_2_778
10
57.4946142
20
78.2177644
40
0.1352437
50
88.6740618
51
137.7603111
0
ARC
8
DEFAULT_255_2_778
10
57.492443
20
78.1077
40
0.2453292
50
69.1785118
51
88.7619196
0
ARC
8
DEFAULT_255_2_778
10
57.4056356
20
77.865856
40
0.5022585
50
59.3120883
51
69.7291765
0
ARC
8
DEFAULT_255_2_778
10
57.1888062
20
77.4941206
40
0.9326031
50
52.8772514
51
59.5120564
0
ARC
8
DEFAULT_255_2_778
10
56.8792438
20
77.0761584
40
1.4527015
50
50.0308637
51
53.0911231
0
ARC
8
DEFAULT_255_2_778
10
57.7904159
20
76.5312201
40
0.3859421
50
106.89984
51
147.691941
0
ARC
8
DEFAULT_255_2_778
10
57.7615675
20
76.5567827
40
0.3479525
50
148.7106908
51
178.9213716
0
ARC
8
DEFAULT_255_2_778
10
57.7699466
20
76.5559831
40
0.3563457
50
178.8181972
51
179.9983548
0
ARC
8
DEFAULT_255_2_778
10
57.7719964
20
76.5560468
40
0.3583954
50
180.0085361
51
189.1110837
0
ARC
8
DEFAULT_255_2_778
10
57.7642573
20
76.556025
40
0.3507527
50
189.3077589
51
231.0633002
0
ARC
8
DEFAULT_255_2_778
10
57.8088375
20
76.6183721
40
0.4272896
50
231.6675936
51
270.4405256
0
ARC
8
DEFAULT_255_2_778
10
58.3122055
20
66.4985838
40
1.0001827
50
180.0108049
51
240.0005674
0
ARC
8
DEFAULT_255_2_778
10
0.6624196
20
82.9982982
40
0.5000969
50
89.9996485
51
180.0003515
0
ARC
8
DEFAULT_255_2_778
10
1.1798424
20
83.1153663
40
0.9649284
50
237.5728953
51
268.9655885
0
ARC
8
DEFAULT_255_2_778
10
0.1343289
20
81.4446612
40
1.0059918
50
58.3352343
51
71.5489744
0
ARC
8
DEFAULT_255_2_778
10
0.2181217
20
81.7064611
40
0.7311378
50
71.2846671
51
83.4973295
0
ARC
8
DEFAULT_255_2_778
10
0.2570274
20
82.0121766
40
0.4230023
50
84.0436468
51
89.795852
0
ARC
8
DEFAULT_255_2_778
10
0.2507476
20
82.2569114
40
0.1784347
50
87.4987874
51
111.3015568
0
ARC
8
DEFAULT_255_2_778
10
0.1956972
20
82.3910592
40
0.0335508
50
106.9311787
51
174.1220984
0
ARC
8
DEFAULT_255_2_778
10
1.1515764
20
74.9050608
40
1.9956344
50
89.99293
51
90.8112081
0
ARC
8
DEFAULT_255_2_778
10
1.1313146
20
75.8834472
40
1.0170794
50
90.4502195
51
109.9091441
0
ARC
8
DEFAULT_255_2_778
10
1.071674
20
76.086891
40
0.8055935
50
110.8481813
51
152.7871036
0
ARC
8
DEFAULT_255_2_778
10
1.5403433
20
75.8215903
40
1.3438827
50
151.8655661
51
165.7514481
0
ARC
8
DEFAULT_255_2_778
10
2.3564955
20
75.606699
40
2.1878312
50
165.5575975
51
174.4535206
0
ARC
8
DEFAULT_255_2_778
10
3.5472755
20
75.4833077
40
3.384971
50
174.3228329
51
180.1880966
0
ARC
8
DEFAULT_255_2_778
10
2.5118591
20
76.8137502
40
0.1589456
50
61.2448301
51
89.8328811
0
ARC
8
DEFAULT_255_2_778
10
2.5026019
20
76.7997501
40
0.175678
50
34.9921412
51
60.7945425
0
ARC
8
DEFAULT_255_2_778
10
1.1502069
20
75.2462409
40
2.1581804
50
262.1575992
51
270.3243083
0
ARC
8
DEFAULT_255_2_778
10
1.0212094
20
74.3437944
40
1.2465813
50
249.5080502
51
262.3714801
0
ARC
8
DEFAULT_255_2_778
10
0.8235013
20
73.8324721
40
0.6984295
50
224.9582761
51
250.0163353
0
ARC
8
DEFAULT_255_2_778
10
0.7680328
20
73.7519867
40
0.6025702
50
185.403347
51
223.26934
0
ARC
8
DEFAULT_255_2_778
10
1.043577
20
73.8017174
40
0.8818877
50
182.1719472
51
186.9343852
0
ARC
8
DEFAULT_255_2_778
10
2.5249172
20
76.5114868
40
0.4078114
50
49.6747037
51
69.1114733
0
ARC
8
DEFAULT_255_2_778
10
2.5551586
20
76.551502
40
0.3577458
50
25.2128157
51
49.219962
0
ARC
8
DEFAULT_255_2_778
10
2.5586274
20
76.5563168
40
0.3525683
50
0.0018241
51
24.7450187
0
ARC
8
DEFAULT_255_2_778
10
2.5582073
20
76.5563417
40
0.3529884
50
359.1396044
51
359.9977853
0
ARC
8
DEFAULT_255_2_778
10
2.5593236
20
76.5563011
40
0.3518717
50
340.7504783
51
359.1434799
0
ARC
8
DEFAULT_255_2_778
10
2.560331
20
76.5571558
40
0.3512041
50
321.4309873
51
340.5646666
0
ARC
8
DEFAULT_255_2_778
10
2.5421094
20
76.5754251
40
0.3768523
50
303.2295826
51
320.9864728
0
ARC
8
DEFAULT_255_2_778
10
2.5250298
20
76.601863
40
0.4083267
50
286.0208416
51
303.201373
0
ARC
8
DEFAULT_255_2_778
10
2.5128531
20
76.6388587
40
0.4472486
50
272.6851991
51
286.2121617
0
ARC
8
DEFAULT_255_2_778
10
2.5125803
20
76.6370376
40
0.4454424
50
270.0054513
51
272.7312279
0
ARC
8
DEFAULT_255_2_778
10
2.5123258
20
76.8866982
40
0.5000969
50
359.9996485
51
90.0003515
0
ARC
8
DEFAULT_255_2_778
10
2.5123488
20
76.6870448
40
0.5000739
50
286.7924171
51
359.9828542
0
ARC
8
DEFAULT_255_2_778
10
2.6276744
20
77.1954856
40
0.3844957
50
357.9445764
51
30.759781
0
ARC
8
DEFAULT_255_2_778
10
2.6717771
20
77.1989012
40
0.3454082
50
34.0161961
51
74.7524232
0
ARC
8
DEFAULT_255_2_778
10
2.5429353
20
76.8015035
40
0.762958
50
73.2657453
51
88.3105266
0
ARC
8
DEFAULT_255_2_778
10
2.512553
20
76.3653896
40
1.1999059
50
87.4743245
51
90.0348719
0
ARC
8
DEFAULT_255_2_778
10
3.3640405
20
77.1784625
40
1.322584
50
125.0141902
51
130.0892508
0
ARC
8
DEFAULT_255_2_778
10
3.0427832
20
77.6398771
40
0.7603518
50
117.5647961
51
125.1375623
0
ARC
8
DEFAULT_255_2_778
10
2.8768931
20
77.9618541
40
0.398162
50
105.3146018
51
117.8433419
0
ARC
8
DEFAULT_255_2_778
10
2.8287705
20
78.1349616
40
0.2184925
50
90.5976839
51
105.1329166
0
ARC
8
DEFAULT_255_2_778
10
2.8263134
20
78.2071872
40
0.146255
50
21.6531343
51
89.9303176
0
ARC
8
DEFAULT_255_2_778
10
2.5901448
20
78.0842391
40
0.4120187
50
9.9339954
51
25.428482
0
ARC
8
DEFAULT_255_2_778
10
2.1029216
20
77.9904886
40
0.9081483
50
2.2551693
51
10.4571714
0
ARC
8
DEFAULT_255_2_778
10
1.5380504
20
77.9584937
40
1.473873
50
359.9378575
51
2.6339034
0
ARC
8
DEFAULT_255_2_778
10
2.0119978
20
66.4989237
40
1.0004249
50
300.0074313
51
359.9811828
0
ARC
8
DEFAULT_255_2_778
10
2.5123258
20
76.2987921
40
0.5000969
50
269.9996485
51
0.0003515
0
ARC
8
DEFAULT_255_2_778
10
2.511796
20
76.6958369
40
0.508942
50
270.0592902
51
279.9142536
0
LINE
8
DEFAULT_255_2_778
10
59.1623227
20
63.8950952
11
59.1623227
21
0.7951952
0
LINE
8
DEFAULT_255_2_778
10
59.1623227
20
63.8950952
11
1.1624227
21
63.8950952
0
LINE
8
DEFAULT_255_2_778
10
59.1625227
20
64.8951952
11
59.1625227
21
63.8953952
0
LINE
8
DEFAULT_255_2_778
10
59.1625227
20
63.8953952
11
60.1627227
21
63.8953952
0
LINE
8
DEFAULT_255_2_778
10
59.1625227
20
64.8954952
11
57.9126227
21
64.8954952
0
LINE
8
DEFAULT_255_2_778
10
57.9126227
20
64.8954952
11
57.8126227
21
64.8954952
0
LINE
8
DEFAULT_255_2_778
10
57.8126227
20
64.8954952
11
2.5123227
21
64.8954952
0
LINE
8
DEFAULT_255_2_778
10
2.5123227
20
64.8954952
11
2.4123227
21
64.8954952
0
LINE
8
DEFAULT_255_2_778
10
2.4123227
20
64.8954952
11
1.1624227
21
64.8954952
0
LINE
8
DEFAULT_255_2_778
10
0.1623227
20
63.8950952
11
1.1624227
21
63.8950952
0
LINE
8
DEFAULT_255_2_778
10
1.1624227
20
63.8950952
11
1.1624227
21
64.8949952
0
LINE
8
DEFAULT_255_2_778
10
60.1624227
20
0.7948952
11
59.1623227
21
0.7948952
0
LINE
8
DEFAULT_255_2_778
10
59.1623227
20
0.7948952
11
1.1624227
21
0.7948952
0
LINE
8
DEFAULT_255_2_778
10
0.1623227
20
0.7948952
11
1.1624227
21
0.7948952
0
LINE
8
DEFAULT_255_2_778
10
1.1624227
20
0.7948952
11
1.1624227
21
63.8950952
0
LINE
8
DEFAULT_255_2_778
10
60.1624227
20
123.7983952
11
59.1623227
21
123.7983952
0
LINE
8
DEFAULT_255_2_778
10
59.1623227
20
124.7984952
11
59.1623227
21
123.7983952
0
LINE
8
DEFAULT_255_2_778
10
59.1623227
20
123.7983952
11
1.1624227
21
123.7983952
0
LINE
8
DEFAULT_255_2_778
10
0.1623227
20
123.7983952
11
1.1624227
21
123.7983952
0
LINE
8
DEFAULT_255_2_778
10
1.1624227
20
124.7984952
11
1.1624227
21
123.7983952
0
LINE
8
DEFAULT_255_2_778
10
1.1624227
20
123.7983952
11
1.1624227
21
84.1984952
0
LINE
8
DEFAULT_255_2_778
10
59.6623227
20
82.3010952
11
59.6623227
21
83.4983952
0
LINE
8
DEFAULT_255_2_778
10
57.8124227
20
77.3864952
11
57.8124227
21
77.5650952
0
LINE
8
DEFAULT_255_2_778
10
57.8124227
20
65.6323952
11
57.8124227
21
67.9950952
0
LINE
8
DEFAULT_255_2_778
10
60.1619227
20
73.7679952
11
57.8124227
21
73.7682952
0
LINE
8
DEFAULT_255_2_778
10
59.1623227
20
66.4948952
11
59.1623227
21
73.0874952
0
LINE
8
DEFAULT_255_2_778
10
59.1623227
20
73.0874952
11
57.8124227
21
73.0874952
0
LINE
8
DEFAULT_255_2_778
10
57.8124227
20
73.0874952
11
57.8124227
21
73.7682952
0
LINE
8
DEFAULT_255_2_778
10
57.8124227
20
73.7682952
11
57.8124227
21
75.1610952
0
LINE
8
DEFAULT_255_2_778
10
57.8124227
20
75.1610952
11
57.8124227
21
75.7981952
0
LINE
8
DEFAULT_255_2_778
10
60.1624227
20
75.1610952
11
57.8124227
21
75.1610952
0
LINE
8
DEFAULT_255_2_778
10
57.8124227
20
73.0874952
11
57.8124227
21
67.9950952
0
LINE
8
DEFAULT_255_2_778
10
57.8124227
20
67.9950952
11
57.9124227
21
67.9950952
0
LINE
8
DEFAULT_255_2_778
10
57.9124227
20
67.9950952
11
57.9124227
21
66.4951952
0
LINE
8
DEFAULT_255_2_778
10
57.8124227
20
82.9694952
11
59.4123227
21
82.9694952
0
LINE
8
DEFAULT_255_2_778
10
59.4123227
20
82.9694952
11
59.4123227
21
83.4983952
0
LINE
8
DEFAULT_255_2_778
10
59.4123227
20
83.4983952
11
59.6623227
21
83.4983952
0
LINE
8
DEFAULT_255_2_778
10
57.8124227
20
77.3861952
11
57.8124227
21
76.9723952
0
LINE
8
DEFAULT_255_2_778
10
57.8124227
20
77.5650952
11
57.8124227
21
78.1894952
0
LINE
8
DEFAULT_255_2_778
10
57.8124227
20
76.1862952
11
57.8124227
21
75.7981952
0
LINE
8
DEFAULT_255_2_778
10
57.3123227
20
66.4983952
11
57.3123227
21
76.2982952
0
LINE
8
DEFAULT_255_2_778
10
57.3123227
20
76.2982952
11
57.3123227
21
76.6863952
0
LINE
8
DEFAULT_255_2_778
10
57.3123227
20
76.6863952
11
57.3123227
21
76.8863952
0
LINE
8
DEFAULT_255_2_778
10
57.3123227
20
76.8863952
11
57.3123227
21
77.1813952
0
LINE
8
DEFAULT_255_2_778
10
57.3123227
20
77.1813952
11
57.3123227
21
77.9566952
0
LINE
8
DEFAULT_255_2_778
10
57.8124227
20
78.1894952
11
57.8124227
21
82.1507952
0
LINE
8
DEFAULT_255_2_778
10
60.1624227
20
84.1984952
11
59.1623227
21
84.1984952
0
LINE
8
DEFAULT_255_2_778
10
59.1623227
20
84.1984952
11
57.8124227
21
84.1984952
0
LINE
8
DEFAULT_255_2_778
10
57.8124227
20
84.1984952
11
57.8124227
21
82.9694952
0
LINE
8
DEFAULT_255_2_778
10
57.8124227
20
82.9694952
11
57.8124227
21
82.1507952
0
LINE
8
DEFAULT_255_2_778
10
57.8124227
20
82.1507952
11
59.1623227
21
82.1507952
0
LINE
8
DEFAULT_255_2_778
10
59.1623227
20
82.1507952
11
59.1623227
21
76.9004952
0
LINE
8
DEFAULT_255_2_778
10
59.1623227
20
76.9004952
11
57.6782227
21
76.9004952
0
LINE
8
DEFAULT_255_2_778
10
57.8121227
20
76.1910952
11
57.8121227
21
76.1865952
0
LINE
8
DEFAULT_255_2_778
10
57.9121227
20
65.4952952
11
60.1621227
21
65.4952952
0
LINE
8
DEFAULT_255_2_778
10
60.1621227
20
65.4952952
11
59.1620227
21
66.4951952
0
LINE
8
DEFAULT_255_2_778
10
59.1620227
20
66.4951952
11
57.9121227
21
66.4951952
0
LINE
8
DEFAULT_255_2_778
10
57.9121227
20
66.4951952
11
57.9121227
21
65.4952952
0
LINE
8
DEFAULT_255_2_778
10
57.9121227
20
65.4952952
11
57.9121227
21
64.8951952
0
LINE
8
DEFAULT_255_2_778
10
2.4121227
20
64.8951952
11
2.4121227
21
65.4952952
0
LINE
8
DEFAULT_255_2_778
10
57.8121227
20
65.4984952
11
57.8121227
21
65.6323952
0
LINE
8
DEFAULT_255_2_778
10
57.3120227
20
66.4983952
11
3.0124227
21
66.4983952
0
LINE
8
DEFAULT_255_2_778
10
57.8124227
20
64.8951952
11
57.8124227
21
65.4984952
0
LINE
8
DEFAULT_255_2_778
10
57.8124227
20
65.4984952
11
2.5123227
21
65.4984952
0
LINE
8
DEFAULT_255_2_778
10
0.6624227
20
82.3010952
11
0.6624227
21
83.4983952
0
LINE
8
DEFAULT_255_2_778
10
2.5123227
20
82.9694952
11
0.9124227
21
82.9694952
0
LINE
8
DEFAULT_255_2_778
10
0.9124227
20
82.9694952
11
0.9124227
21
83.4983952
0
LINE
8
DEFAULT_255_2_778
10
0.9124227
20
83.4983952
11
0.6624227
21
83.4983952
0
LINE
8
DEFAULT_255_2_778
10
2.5123227
20
77.3864952
11
2.5123227
21
76.9726952
0
LINE
8
DEFAULT_255_2_778
10
0.1623227
20
75.1612952
11
2.5123227
21
75.1612952
0
LINE
8
DEFAULT_255_2_778
10
1.1624227
20
73.0877952
11
1.1624227
21
66.4951952
0
LINE
8
DEFAULT_255_2_778
10
1.1624227
20
66.4951952
11
2.4123227
21
66.4951952
0
LINE
8
DEFAULT_255_2_778
10
2.5123227
20
67.9950952
11
2.4123227
21
67.9950952
0
LINE
8
DEFAULT_255_2_778
10
2.4123227
20
67.9950952
11
2.4123227
21
66.4951952
0
LINE
8
DEFAULT_255_2_778
10
2.4123227
20
66.4951952
11
2.4123227
21
65.4952952
0
LINE
8
DEFAULT_255_2_778
10
2.4123227
20
65.4952952
11
0.1623227
21
65.4952952
0
LINE
8
DEFAULT_255_2_778
10
0.1623227
20
65.4952952
11
1.1624227
21
66.4953952
0
LINE
8
DEFAULT_255_2_778
10
2.5123227
20
65.6325952
11
2.5123227
21
67.9953952
0
LINE
8
DEFAULT_255_2_778
10
2.5123227
20
67.9953952
11
2.5123227
21
73.0880952
0
LINE
8
DEFAULT_255_2_778
10
2.5123227
20
73.0880952
11
2.5123227
21
73.7687952
0
LINE
8
DEFAULT_255_2_778
10
2.5123227
20
73.7687952
11
0.1623227
21
73.7687952
0
LINE
8
DEFAULT_255_2_778
10
0.1623227
20
73.7687952
11
0.1623227
21
73.7687952
0
LINE
8
DEFAULT_255_2_778
10
2.5123227
20
73.0880952
11
1.1624227
21
73.0880952
0
LINE
8
DEFAULT_255_2_778
10
2.5123227
20
78.1899952
11
2.5123227
21
82.1510952
0
LINE
8
DEFAULT_255_2_778
10
2.5123227
20
82.1510952
11
1.1624227
21
82.1510952
0
LINE
8
DEFAULT_255_2_778
10
1.1624227
20
82.1510952
11
1.1532227
21
76.9006952
0
LINE
8
DEFAULT_255_2_778
10
1.1532227
20
76.9006952
11
2.6467227
21
76.9006952
0
LINE
8
DEFAULT_255_2_778
10
2.6467227
20
76.9006952
11
2.6703227
21
76.8924952
0
LINE
8
DEFAULT_255_2_778
10
2.5126227
20
76.1915952
11
2.5126227
21
76.1870952
0
LINE
8
DEFAULT_255_2_778
10
2.5126227
20
75.7989952
11
2.5126227
21
75.1618952
0
LINE
8
DEFAULT_255_2_778
10
2.5126227
20
75.1618952
11
2.5126227
21
73.7690952
0
LINE
8
DEFAULT_255_2_778
10
2.5126227
20
84.1989952
11
2.5126227
21
82.9699952
0
LINE
8
DEFAULT_255_2_778
10
2.5126227
20
82.9699952
11
2.5126227
21
82.1513952
0
LINE
8
DEFAULT_255_2_778
10
0.1623227
20
84.1984952
11
1.1624227
21
84.1984952
0
LINE
8
DEFAULT_255_2_778
10
1.1624227
20
84.1984952
11
2.5123227
21
84.1984952
0
LINE
8
DEFAULT_255_2_778
10
2.5123227
20
84.1984952
11
3.0124227
21
84.1984952
0
LINE
8
DEFAULT_255_2_778
10
3.0124227
20
84.1984952
11
3.0124227
21
77.9558952
0
LINE
8
DEFAULT_255_2_778
10
2.5123227
20
77.3867952
11
2.5123227
21
77.5652952
0
LINE
8
DEFAULT_255_2_778
10
2.5118227
20
77.5652952
11
2.5123227
21
78.1902952
0
LINE
8
DEFAULT_255_2_778
10
3.0119227
20
77.9568952
11
3.0124227
21
77.1816952
0
LINE
8
DEFAULT_255_2_778
10
3.0124227
20
77.1816952
11
3.0124227
21
76.8866952
0
LINE
8
DEFAULT_255_2_778
10
3.0124227
20
76.8866952
11
3.0124227
21
76.6866952
0
LINE
8
DEFAULT_255_2_778
10
3.0124227
20
76.6866952
11
3.0124227
21
76.2984952
0
LINE
8
DEFAULT_255_2_778
10
3.0124227
20
76.2984952
11
3.0124227
21
66.4985952
0
LINE
8
DEFAULT_255_2_778
10
2.5123227
20
65.6325952
11
2.5123227
21
65.4987952
0
LINE
8
DEFAULT_255_2_778
10
2.5123227
20
65.4987952
11
2.5123227
21
64.8954952
0
LINE
8
DEFAULT_255_2_778
10
2.5123227
20
75.7986952
11
2.5123227
21
76.1868952
0
ENDSEC
0
EOF