0
SECTION
2
HEADER
9
$MEASUREMENT
70
1
0
ENDSEC
0
SECTION
2
TABLES
0
TABLE
2
LTYPE
0
LTYPE
72
65
70
64
2
CONTINUOUS
3
______
73
0
40
0
0
ENDTAB
0
TABLE
2
LAYER
0
LAYER
2
DEFAULT_255_2_778
70
0
62
255
6
CONTINUOUS
0
LAYER
2
DEFAULT_255_1_234
70
0
62
255
6
CONTINUOUS
0
LAYER
2
DEFAULT_255_2_778_1
70
0
62
255
6
CONTINUOUS
0
ENDTAB
0
ENDSEC
0
SECTION
2
ENTITIES
0
ARC
8
DEFAULT_255_2_778
10
3.5695693
20
123.4302024
40
0.7914215
50
129.1312896
51
180.1450914
0
ARC
8
DEFAULT_255_2_778
10
3.5698345
20
123.4306895
40
0.7912112
50
89.854026
51
129.1684493
0
ARC
8
DEFAULT_255_2_778
10
25.7988937
20
123.430376
40
0.7915249
50
39.4792447
51
90.147911
0
ARC
8
DEFAULT_255_2_778
10
25.7994935
20
123.4302227
40
0.7911595
50
359.8533901
51
39.5154338
0
ARC
8
DEFAULT_255_2_778
10
25.7991693
20
-1.9863499
40
0.7914836
50
309.4761667
51
0.1482649
0
ARC
8
DEFAULT_255_2_778
10
25.798898
20
-1.986781
40
0.7913235
50
269.8517415
51
309.511178
0
ARC
8
DEFAULT_255_2_778
10
3.569842
20
-1.9867228
40
0.7913815
50
219.1282118
51
270.1454017
0
ARC
8
DEFAULT_255_2_778
10
3.5695247
20
-1.9863403
40
0.7913769
50
179.8524075
51
219.1641908
0
LINE
8
DEFAULT_255_2_778
10
3.5718503
20
124.2218982
11
25.7968503
21
124.2218982
0
LINE
8
DEFAULT_255_2_778
10
26.5906503
20
123.4281982
11
26.5906503
21
-1.9843018
0
LINE
8
DEFAULT_255_2_778
10
25.7968503
20
-2.7781018
11
3.5718503
21
-2.7781018
0
LINE
8
DEFAULT_255_2_778
10
2.7781503
20
-1.9843018
11
2.7781503
21
123.4281982
0
LINE
8
DEFAULT_255_1_234
10
6.6998835
20
0.5189243
11
6.7263882
21
0.5189243
0
LINE
8
DEFAULT_255_1_234
10
6.7263882
20
0.5189243
11
6.7263882
21
0.392826
0
LINE
8
DEFAULT_255_1_234
10
6.7263882
20
0.392826
11
6.6990803
21
0.392826
0
LINE
8
DEFAULT_255_1_234
10
6.1521189
20
-0.2063417
11
6.1521189
21
-0.1493164
0
LINE
8
DEFAULT_255_1_234
10
6.3015093
20
-0.1685925
11
6.3015093
21
-0.2232083
0
ARC
8
DEFAULT_255_1_234
10
6.7043151
20
-0.1069545
40
0.4998079
50
90.6001036
51
104.514704
0
ARC
8
DEFAULT_255_1_234
10
6.6654667
20
0.0375131
40
0.3502176
50
104.2855254
51
133.862935
0
ARC
8
DEFAULT_255_1_234
10
6.6818424
20
0.026683
40
0.3693984
50
134.5302688
51
161.6210873
0
ARC
8
DEFAULT_255_1_234
10
6.8471613
20
-0.0316105
40
0.5446739
50
161.2849839
51
174.2076652
0
ARC
8
DEFAULT_255_1_234
10
6.987855
20
-0.0510213
40
0.6866274
50
173.7810589
51
174.9254635
0
ARC
8
DEFAULT_255_1_234
10
6.5328382
20
-0.1893161
40
0.3033419
50
95.8330959
51
138.9954921
0
ARC
8
DEFAULT_255_1_234
10
6.5551738
20
-0.3171625
40
0.4328947
50
89.8753725
51
97.0544009
0
ARC
8
DEFAULT_255_1_234
10
6.5599204
20
-0.2336252
40
0.3493769
50
71.6407809
51
90.6240094
0
ARC
8
DEFAULT_255_1_234
10
6.5749777
20
-0.1781918
40
0.2920396
50
39.6367836
51
71.019018
0
ARC
8
DEFAULT_255_1_234
10
6.511325
20
-0.2332002
40
0.3761538
50
10.658731
51
39.9043955
0
ARC
8
DEFAULT_255_1_234
10
6.3565333
20
-0.2668314
40
0.5345136
50
359.682601
51
11.132623
0
ARC
8
DEFAULT_255_1_234
10
6.3525464
20
-0.273899
40
0.5385081
50
347.2486944
51
0.4369317
0
ARC
8
DEFAULT_255_1_234
10
6.5192941
20
-0.3140193
40
0.3670249
50
318.1409698
51
347.6118597
0
ARC
8
DEFAULT_255_1_234
10
6.5517934
20
-0.3407298
40
0.3250007
50
275.6342139
51
317.8248465
0
ARC
8
DEFAULT_255_1_234
10
6.5297045
20
-0.2107781
40
0.4565864
50
269.8874292
51
276.7917694
0
ARC
8
DEFAULT_255_1_234
10
6.5242116
20
-0.3133257
40
0.3540676
50
246.9140195
51
270.7437342
0
ARC
8
DEFAULT_255_1_234
10
6.5248506
20
-0.3275616
40
0.3412781
50
218.1665114
51
245.878116
0
ARC
8
DEFAULT_255_1_234
10
6.6127967
20
-0.2539721
40
0.455911
50
191.4115814
51
218.6077802
0
ARC
8
DEFAULT_255_1_234
10
6.8066056
20
-0.2105167
40
0.6545001
50
179.6345085
51
191.7836486
0
ARC
8
DEFAULT_255_1_234
10
7.3648393
20
-0.1426303
40
1.2127388
50
171.4525249
51
180.3158839
0
ARC
8
DEFAULT_255_1_234
10
6.9253269
20
-0.0742392
40
0.7679464
50
157.9802646
51
171.6246686
0
ARC
8
DEFAULT_255_1_234
10
6.703929
20
0.0140421
40
0.5296008
50
141.4298019
51
157.854097
0
ARC
8
DEFAULT_255_1_234
10
6.639761
20
0.0594381
40
0.4511509
50
102.8715806
51
140.8564722
0
ARC
8
DEFAULT_255_1_234
10
6.7045226
20
-0.1845448
40
0.7034845
50
90.3778349
51
103.5869322
0
ARC
8
DEFAULT_255_1_234
10
6.5307002
20
-0.245027
40
0.2370698
50
89.8751008
51
126.2071704
0
ARC
8
DEFAULT_255_1_234
10
6.5352792
20
-0.2604697
40
0.2522934
50
124.9745049
51
144.895901
0
ARC
8
DEFAULT_255_1_234
10
6.5176982
20
-0.246144
40
0.2296779
50
145.2974905
51
160.2660252
0
ARC
8
DEFAULT_255_1_234
10
6.8249521
20
-0.2263929
40
0.5234525
50
179.6514266
51
190.2855912
0
ARC
8
DEFAULT_255_1_234
10
6.6555658
20
-0.2583214
40
0.3510893
50
190.0945431
51
207.5098196
0
ARC
8
DEFAULT_255_1_234
10
6.5989928
20
-0.2852377
40
0.288489
50
207.9583163
51
216.3251085
0
ARC
8
DEFAULT_255_1_234
10
6.5650036
20
-0.3131895
40
0.2445587
50
215.7661442
51
232.5456785
0
ARC
8
DEFAULT_255_1_234
10
6.5267019
20
-0.3618518
40
0.1826382
50
232.8005391
51
270.6605633
0
ARC
8
DEFAULT_255_1_234
10
6.531272
20
-0.3254388
40
0.2190529
50
269.35537
51
288.4744281
0
ARC
8
DEFAULT_255_1_234
10
6.5405617
20
-0.3603882
40
0.1829749
50
289.1833337
51
322.9683818
0
ARC
8
DEFAULT_255_1_234
10
6.4794139
20
-0.3121609
40
0.2608399
50
322.6007884
51
346.5182367
0
ARC
8
DEFAULT_255_1_234
10
6.3636735
20
-0.2826384
40
0.3802777
50
346.2582162
51
358.7741648
0
ARC
8
DEFAULT_255_1_234
10
6.2618404
20
-0.2771035
40
0.4822176
50
358.3755224
51
0.0098023
0
ARC
8
DEFAULT_255_1_234
10
6.3374591
20
-0.2743343
40
0.4066078
50
359.6214041
51
11.2839074
0
ARC
8
DEFAULT_255_1_234
10
6.4651738
20
-0.2476934
40
0.2761514
50
11.0482309
51
31.8146458
0
ARC
8
DEFAULT_255_1_234
10
6.4960781
20
-0.2309416
40
0.2410679
50
32.3035391
51
38.082671
0
ARC
8
DEFAULT_255_1_234
10
6.5381441
20
-0.1928338
40
0.1844966
50
36.825067
51
85.7415724
0
ARC
8
DEFAULT_255_1_234
10
6.5314274
20
-0.2428699
40
0.2349122
50
85.0140713
51
90.0513278
0
LINE
8
DEFAULT_255_1_234
10
7.7664983
20
0.0153343
11
7.7664983
21
-0.110764
0
LINE
8
DEFAULT_255_1_234
10
7.7664983
20
-0.110764
11
7.2596957
21
-0.110764
0
LINE
8
DEFAULT_255_1_234
10
7.2596957
20
-0.110764
11
7.2596957
21
-0.5252017
0
LINE
8
DEFAULT_255_1_234
10
7.2596957
20
-0.5252017
11
7.8484221
21
-0.5252017
0
LINE
8
DEFAULT_255_1_234
10
7.8484221
20
-0.5252017
11
7.8484221
21
-0.6513
0
LINE
8
DEFAULT_255_1_234
10
7.8484221
20
-0.6513
11
7.1054863
21
-0.6513
0
LINE
8
DEFAULT_255_1_234
10
7.1054863
20
-0.6513
11
7.1054863
21
0.5181211
0
LINE
8
DEFAULT_255_1_234
10
7.1054863
20
0.5181211
11
7.8403903
21
0.5181211
0
LINE
8
DEFAULT_255_1_234
10
7.8403903
20
0.5181211
11
7.8403903
21
0.3912196
0
LINE
8
DEFAULT_255_1_234
10
7.8403903
20
0.3912196
11
7.2596957
21
0.3912196
0
LINE
8
DEFAULT_255_1_234
10
7.2596957
20
0.3912196
11
7.2596957
21
0.0153343
0
LINE
8
DEFAULT_255_1_234
10
7.2596957
20
0.0153343
11
7.7664983
21
0.0153343
0
LINE
8
DEFAULT_255_1_234
10
8.8162465
20
0.1799849
11
8.661234
21
0.1799849
0
LINE
8
DEFAULT_255_1_234
10
7.9688981
20
-0.3123606
11
8.1239107
21
-0.3123606
0
ARC
8
DEFAULT_255_1_234
10
8.7271153
20
1.0746768
40
1.252368
50
248.9199003
51
254.1439814
0
ARC
8
DEFAULT_255_1_234
10
8.5590648
20
0.6420234
40
0.788226
50
241.633709
51
249.0064503
0
ARC
8
DEFAULT_255_1_234
10
8.4062042
20
0.3619317
40
0.4691427
50
230.498225
51
241.8087113
0
ARC
8
DEFAULT_255_1_234
10
8.3277616
20
0.2619906
40
0.3421437
50
227.4064532
51
229.9881192
0
ARC
8
DEFAULT_255_1_234
10
8.2790137
20
0.2144088
40
0.2741476
50
200.6781896
51
228.1763934
0
ARC
8
DEFAULT_255_1_234
10
8.2862447
20
0.2129077
40
0.2804109
50
179.5061581
51
199.8694617
0
ARC
8
DEFAULT_255_1_234
10
8.2853199
20
0.220321
40
0.2795204
50
132.4834203
51
181.0242172
0
ARC
8
DEFAULT_255_1_234
10
8.3448782
20
0.1640704
40
0.3612768
50
129.2532479
51
133.4242687
0
ARC
8
DEFAULT_255_1_234
10
8.3595231
20
0.1420965
40
0.3875675
50
101.98776
51
128.8742646
0
ARC
8
DEFAULT_255_1_234
10
8.3993842
20
-0.0300259
40
0.5642249
50
89.5906553
51
102.3169264
0
ARC
8
DEFAULT_255_1_234
10
8.4064334
20
0.0018148
40
0.5323783
50
77.2360837
51
90.3248275
0
ARC
8
DEFAULT_255_1_234
10
8.4271413
20
0.09854
40
0.4334697
50
63.837784
51
77.0809408
0
ARC
8
DEFAULT_255_1_234
10
8.4549175
20
0.1502911
40
0.3747796
50
45.9864267
51
64.1607727
0
ARC
8
DEFAULT_255_1_234
10
8.4810056
20
0.1800866
40
0.3352302
50
32.2747395
51
45.6547121
0
ARC
8
DEFAULT_255_1_234
10
8.4876497
20
0.181988
40
0.328603
50
359.6507365
51
32.6130309
0
ARC
8
DEFAULT_255_1_234
10
8.3933592
20
0.182466
40
0.2678863
50
359.469343
51
14.9832209
0
ARC
8
DEFAULT_255_1_234
10
8.4638654
20
0.2013539
40
0.1948938
50
14.9781179
51
48.2004265
0
ARC
8
DEFAULT_255_1_234
10
8.4474299
20
0.1806983
40
0.2212521
50
48.5927837
51
74.1241538
0
ARC
8
DEFAULT_255_1_234
10
8.4140788
20
0.0706248
40
0.3362561
50
73.7888341
51
86.6652678
0
ARC
8
DEFAULT_255_1_234
10
8.4038354
20
-0.0501119
40
0.4573953
50
86.2640471
51
90.0526343
0
ARC
8
DEFAULT_255_1_234
10
8.4010066
20
-0.0105808
40
0.4178709
50
89.6697524
51
99.2309573
0
ARC
8
DEFAULT_255_1_234
10
8.3767517
20
0.1338964
40
0.2713749
50
99.069534
51
113.7658566
0
ARC
8
DEFAULT_255_1_234
10
8.3493708
20
0.1984677
40
0.2012469
50
114.0401004
51
127.9850673
0
ARC
8
DEFAULT_255_1_234
10
8.3253272
20
0.228073
40
0.1631167
50
127.7287463
51
176.7105154
0
ARC
8
DEFAULT_255_1_234
10
8.393199
20
0.2179693
40
0.2315392
50
175.1779447
51
180.0581938
0
ARC
8
DEFAULT_255_1_234
10
8.3088836
20
0.2167428
40
0.1472271
50
179.6142195
51
228.1246017
0
ARC
8
DEFAULT_255_1_234
10
8.3530505
20
0.2576308
40
0.2072299
50
226.5779593
51
230.8800004
0
ARC
8
DEFAULT_255_1_234
10
8.4001584
20
0.3201636
40
0.2854818
50
231.4635071
51
241.9260842
0
ARC
8
DEFAULT_255_1_234
10
8.5198762
20
0.54048
40
0.53622
50
241.7178533
51
248.3259551
0
ARC
8
DEFAULT_255_1_234
10
8.6584134
20
0.8837064
40
0.9063478
50
248.2007737
51
252.4528373
0
ARC
8
DEFAULT_255_1_234
10
8.7787858
20
1.2558441
40
1.2974635
50
252.3391078
51
254.3469452
0
ARC
8
DEFAULT_255_1_234
10
8.0245561
20
-1.4418852
40
1.5037162
50
71.0197183
51
74.4087047
0
ARC
8
DEFAULT_255_1_234
10
8.1940246
20
-0.9526889
40
0.9859993
50
66.1847285
51
71.086374
0
ARC
8
DEFAULT_255_1_234
10
8.3496559
20
-0.60228
40
0.6025855
50
59.3536294
51
66.2691831
0
ARC
8
DEFAULT_255_1_234
10
8.4385211
20
-0.4519391
40
0.4279449
50
49.1020879
51
59.3293958
0
ARC
8
DEFAULT_255_1_234
10
8.5203951
20
-0.3586166
40
0.3038015
50
32.7919921
51
49.2505539
0
ARC
8
DEFAULT_255_1_234
10
8.5525041
20
-0.3357809
40
0.264448
50
31.1181161
51
32.4005348
0
ARC
8
DEFAULT_255_1_234
10
8.5436579
20
-0.3393221
40
0.2738556
50
8.1116974
51
30.7958831
0
ARC
8
DEFAULT_255_1_234
10
8.4626247
20
-0.3531247
40
0.3560327
50
359.8389159
51
8.4706516
0
ARC
8
DEFAULT_255_1_234
10
8.5252038
20
-0.3579863
40
0.2934776
50
337.4731098
51
0.7537279
0
ARC
8
DEFAULT_255_1_234
10
8.5430733
20
-0.3599613
40
0.2762607
50
307.5917067
51
336.4315538
0
ARC
8
DEFAULT_255_1_234
10
8.4970561
20
-0.3086898
40
0.3449979
50
307.6551545
51
308.4529766
0
ARC
8
DEFAULT_255_1_234
10
8.474028
20
-0.273175
40
0.3871988
50
284.3734338
51
307.1424381
0
ARC
8
DEFAULT_255_1_234
10
8.424511
20
-0.0910068
40
0.5759636
50
272.4382747
51
284.646547
0
ARC
8
DEFAULT_255_1_234
10
8.4118319
20
0.0889893
40
0.7563528
50
269.9708387
51
272.8178037
0
ARC
8
DEFAULT_255_1_234
10
8.4075358
20
-0.1148284
40
0.5525489
50
248.2707594
51
270.4055579
0
ARC
8
DEFAULT_255_1_234
10
8.40211
20
-0.1338808
40
0.5328452
50
246.1383403
51
248.0542782
0
ARC
8
DEFAULT_255_1_234
10
8.3602478
20
-0.2218157
40
0.4355005
50
233.1670131
51
246.4950969
0
ARC
8
DEFAULT_255_1_234
10
8.3048383
20
-0.2966188
40
0.3424126
50
215.3403242
51
233.0843104
0
ARC
8
DEFAULT_255_1_234
10
8.2775815
20
-0.3164451
40
0.3087104
50
179.2419209
51
215.2648451
0
ARC
8
DEFAULT_255_1_234
10
8.3543409
20
-0.3150334
40
0.2304457
50
179.335461
51
199.1045811
0
ARC
8
DEFAULT_255_1_234
10
8.3211085
20
-0.3237234
40
0.1962176
50
199.8828939
51
232.7063202
0
ARC
8
DEFAULT_255_1_234
10
8.3683353
20
-0.2643212
40
0.2720938
50
232.3738199
51
255.5136649
0
ARC
8
DEFAULT_255_1_234
10
8.402422
20
-0.1399165
40
0.4010747
50
255.2446292
51
267.5320849
0
ARC
8
DEFAULT_255_1_234
10
8.4111843
20
-0.0166298
40
0.5246356
50
267.1557994
51
270.0286766
0
ARC
8
DEFAULT_255_1_234
10
8.4139616
20
-0.061005
40
0.4802668
50
269.7000017
51
278.1660162
0
ARC
8
DEFAULT_255_1_234
10
8.439562
20
-0.2340485
40
0.3053425
50
278.0231263
51
290.625471
0
ARC
8
DEFAULT_255_1_234
10
8.4743308
20
-0.3267975
40
0.206291
50
290.6619762
51
307.0370976
0
ARC
8
DEFAULT_255_1_234
10
8.5043697
20
-0.3636496
40
0.1587906
50
306.3943566
51
355.3030547
0
ARC
8
DEFAULT_255_1_234
10
8.4531628
20
-0.3559887
40
0.2104809
50
354.3660432
51
0.0698737
0
ARC
8
DEFAULT_255_1_234
10
8.4673973
20
-0.3537383
40
0.1962563
50
359.417946
51
16.1971788
0
ARC
8
DEFAULT_255_1_234
10
8.5129284
20
-0.3412582
40
0.149053
50
16.4723299
51
52.6262157
0
ARC
8
DEFAULT_255_1_234
10
8.4308338
20
-0.4496567
40
0.2850296
50
52.7386432
51
62.4979148
0
ARC
8
DEFAULT_255_1_234
10
8.2923415
20
-0.7102717
40
0.5801521
50
62.2515216
51
68.1220564
0
ARC
8
DEFAULT_255_1_234
10
8.1203325
20
-1.1330128
40
1.0365451
50
68.0062803
51
71.8053402
0
ARC
8
DEFAULT_255_1_234
10
7.9407697
20
-1.6715242
40
1.6042013
50
71.7183119
51
73.9258742
0
LINE
8
DEFAULT_255_1_234
10
9.7326679
20
0.5181211
11
9.7326679
21
0.434591
0
LINE
8
DEFAULT_255_1_234
10
9.7326679
20
0.434591
11
9.2483541
21
-0.6513
0
LINE
8
DEFAULT_255_1_234
10
9.2483541
20
-0.6513
11
9.0925383
21
-0.6513
0
LINE
8
DEFAULT_255_1_234
10
9.0925383
20
-0.6513
11
9.5752458
21
0.3960387
0
LINE
8
DEFAULT_255_1_234
10
9.5752458
20
0.3960387
11
8.9423448
21
0.3960387
0
LINE
8
DEFAULT_255_1_234
10
8.9423448
20
0.3960387
11
8.9423448
21
0.5181211
0
LINE
8
DEFAULT_255_1_234
10
8.9423448
20
0.5181211
11
9.7326679
21
0.5181211
0
LINE
8
DEFAULT_255_1_234
10
10.1173881
20
-0.1155831
11
10.1173881
21
0.0056962
0
LINE
8
DEFAULT_255_1_234
10
10.1173881
20
0.0056962
11
10.2290293
21
0.0056962
0
LINE
8
DEFAULT_255_1_234
10
10.0386771
20
0.2113087
11
9.8900899
21
0.2113087
0
LINE
8
DEFAULT_255_1_234
10
9.8796487
20
-0.3428813
11
10.029039
21
-0.3428813
0
LINE
8
DEFAULT_255_1_234
10
10.2290293
20
-0.1155831
11
10.1173881
21
-0.1155831
0
ARC
8
DEFAULT_255_1_234
10
10.2261159
20
0.3449713
40
0.3392876
50
270.4919872
51
281.8951556
0
ARC
8
DEFAULT_255_1_234
10
10.2502421
20
0.2347702
40
0.2264817
50
281.6691735
51
301.2943132
0
ARC
8
DEFAULT_255_1_234
10
10.2672631
20
0.2036304
40
0.1910381
50
301.7833094
51
311.7545298
0
ARC
8
DEFAULT_255_1_234
10
10.2764207
20
0.1934748
40
0.1773635
50
311.7323931
51
354.2802411
0
ARC
8
DEFAULT_255_1_234
10
10.2037832
20
0.2059722
40
0.2509385
50
353.0937916
51
0.1181479
0
ARC
8
DEFAULT_255_1_234
10
10.1576617
20
0.2107386
40
0.2970898
50
359.1805295
51
15.0453146
0
ARC
8
DEFAULT_255_1_234
10
10.2922454
20
0.2499992
40
0.1569564
50
13.9577229
51
77.6713066
0
ARC
8
DEFAULT_255_1_234
10
10.2535983
20
0.1114949
40
0.3006298
50
76.1116566
51
90.7026153
0
ARC
8
DEFAULT_255_1_234
10
10.2476822
20
0.1388545
40
0.2732568
50
89.5324876
51
103.531937
0
ARC
8
DEFAULT_255_1_234
10
10.2276266
20
0.2187884
40
0.1908508
50
103.2931773
51
133.5619022
0
ARC
8
DEFAULT_255_1_234
10
10.2231754
20
0.2247375
40
0.1834746
50
133.8349307
51
173.5344437
0
ARC
8
DEFAULT_255_1_234
10
10.2954797
20
0.2119213
40
0.2568033
50
172.5096846
51
180.1366907
0
ARC
8
DEFAULT_255_1_234
10
10.2003691
20
0.2153622
40
0.3103056
50
155.3484492
51
180.7484736
0
ARC
8
DEFAULT_255_1_234
10
10.195478
20
0.2124846
40
0.3070957
50
131.5744599
51
154.4798489
0
ARC
8
DEFAULT_255_1_234
10
10.2267928
20
0.180831
40
0.3515643
50
96.9875458
51
131.9690667
0
ARC
8
DEFAULT_255_1_234
10
10.2487407
20
0.0562636
40
0.4779224
50
89.8596053
51
97.7825159
0
ARC
8
DEFAULT_255_1_234
10
10.2535471
20
0.0300616
40
0.5041361
50
78.3655447
51
90.4131539
0
ARC
8
DEFAULT_255_1_234
10
10.2893388
20
0.1959887
40
0.3344039
50
56.6229102
51
78.638727
0
ARC
8
DEFAULT_255_1_234
10
10.3108332
20
0.2335805
40
0.2912001
50
47.0253525
51
56.0854072
0
ARC
8
DEFAULT_255_1_234
10
10.3128112
20
0.2375223
40
0.2869704
50
10.9208013
51
46.7778124
0
ARC
8
DEFAULT_255_1_234
10
10.1764179
20
0.2059857
40
0.426899
50
359.6364486
51
11.6087304
0
ARC
8
DEFAULT_255_1_234
10
10.3599023
20
0.2044752
40
0.243409
50
332.3549906
51
359.7179418
0
ARC
8
DEFAULT_255_1_234
10
10.2948624
20
0.2353142
40
0.3153459
50
325.2333722
51
332.8745602
0
ARC
8
DEFAULT_255_1_234
10
10.3101248
20
0.2246828
40
0.2967456
50
292.9802137
51
325.2392345
0
ARC
8
DEFAULT_255_1_234
10
10.2826622
20
0.2780863
40
0.3566604
50
292.5402179
51
293.6924929
0
ARC
8
DEFAULT_255_1_234
10
10.3219218
20
-0.3673909
40
0.3307468
50
57.6435486
51
72.8625112
0
ARC
8
DEFAULT_255_1_234
10
10.3573717
20
-0.3099451
40
0.2632492
50
36.7248896
51
57.4697979
0
ARC
8
DEFAULT_255_1_234
10
10.356235
20
-0.308678
40
0.2634081
50
8.0545065
51
36.356114
0
ARC
8
DEFAULT_255_1_234
10
10.2699535
20
-0.3241826
40
0.3510261
50
359.8320645
51
8.5869982
0
ARC
8
DEFAULT_255_1_234
10
10.2324312
20
-0.3289899
40
0.3885653
50
343.9829931
51
0.5571613
0
ARC
8
DEFAULT_255_1_234
10
10.3210509
20
-0.3532562
40
0.2966924
50
311.6359546
51
343.7651759
0
ARC
8
DEFAULT_255_1_234
10
10.2832078
20
-0.3105898
40
0.3537231
50
279.7829875
51
311.6255694
0
ARC
8
DEFAULT_255_1_234
10
10.2530854
20
-0.166872
40
0.5004971
50
269.7286406
51
280.3856417
0
ARC
8
DEFAULT_255_1_234
10
10.2468927
20
-0.1710004
40
0.4963778
50
256.6828919
51
270.4412052
0
ARC
8
DEFAULT_255_1_234
10
10.2130223
20
-0.3094606
40
0.3538406
50
229.4223008
51
256.8556159
0
ARC
8
DEFAULT_255_1_234
10
10.1715615
20
-0.3561264
40
0.2914296
50
181.818294
51
229.6455059
0
ARC
8
DEFAULT_255_1_234
10
10.2755572
20
-0.3430504
40
0.3959084
50
179.9755256
51
183.2323064
0
ARC
8
DEFAULT_255_1_234
10
10.2583317
20
-0.3450963
40
0.2293034
50
179.4465117
51
196.2869258
0
ARC
8
DEFAULT_255_1_234
10
10.2095725
20
-0.3584349
40
0.1787621
50
196.5661473
51
227.705904
0
ARC
8
DEFAULT_255_1_234
10
10.225982
20
-0.3400845
40
0.2033784
50
227.7652068
51
257.8762805
0
ARC
8
DEFAULT_255_1_234
10
10.248479
20
-0.2457844
40
0.3003081
50
257.4584385
51
270.426602
0
ARC
8
DEFAULT_255_1_234
10
10.2530357
20
-0.2168004
40
0.329292
50
269.5962073
51
280.8789248
0
ARC
8
DEFAULT_255_1_234
10
10.2759885
20
-0.3314315
40
0.2123908
50
280.6346389
51
299.8595945
0
ARC
8
DEFAULT_255_1_234
10
10.2950792
20
-0.3676788
40
0.171457
50
300.3576302
51
314.5517981
0
ARC
8
DEFAULT_255_1_234
10
10.2867852
20
-0.3616081
40
0.1816095
50
315.0728369
51
345.0431014
0
ARC
8
DEFAULT_255_1_234
10
10.1944667
20
-0.3347159
40
0.2777492
50
344.5986631
51
357.9269593
0
ARC
8
DEFAULT_255_1_234
10
10.1048993
20
-0.3285724
40
0.3674917
50
357.4748886
51
0.0231117
0
ARC
8
DEFAULT_255_1_234
10
10.2072102
20
-0.3261321
40
0.2651907
50
359.5047933
51
13.4239635
0
ARC
8
DEFAULT_255_1_234
10
10.2938746
20
-0.3039522
40
0.1757509
50
12.9498199
51
48.7551375
0
ARC
8
DEFAULT_255_1_234
10
10.275648
20
-0.32886
40
0.2065134
50
49.5088623
51
72.1836453
0
ARC
8
DEFAULT_255_1_234
10
10.2398632
20
-0.4350709
40
0.3185836
50
71.9010081
51
84.3554254
0
ARC
8
DEFAULT_255_1_234
10
10.2237264
20
-0.5711674
40
0.4556151
50
84.0193428
51
89.333121
0
LINE
8
DEFAULT_255_1_234
10
11.041038
20
-0.1155831
11
11.041038
21
0.0056962
0
LINE
8
DEFAULT_255_1_234
10
11.041038
20
0.0056962
11
11.1526792
21
0.0056962
0
LINE
8
DEFAULT_255_1_234
10
10.962327
20
0.2113087
11
10.8137398
21
0.2113087
0
LINE
8
DEFAULT_255_1_234
10
10.8032986
20
-0.3428813
11
10.9526889
21
-0.3428813
0
LINE
8
DEFAULT_255_1_234
10
11.1526792
20
-0.1155831
11
11.041038
21
-0.1155831
0
ARC
8
DEFAULT_255_1_234
10
11.1497658
20
0.3449713
40
0.3392876
50
270.4919872
51
281.8951556
0
ARC
8
DEFAULT_255_1_234
10
11.173892
20
0.2347702
40
0.2264817
50
281.6691735
51
301.2943132
0
ARC
8
DEFAULT_255_1_234
10
11.190913
20
0.2036304
40
0.1910381
50
301.7833094
51
311.7545298
0
ARC
8
DEFAULT_255_1_234
10
11.2000706
20
0.1934748
40
0.1773635
50
311.7323931
51
354.2802411
0
ARC
8
DEFAULT_255_1_234
10
11.1274331
20
0.2059722
40
0.2509385
50
353.0937916
51
0.1181479
0
ARC
8
DEFAULT_255_1_234
10
11.0813116
20
0.2107386
40
0.2970898
50
359.1805295
51
15.0453146
0
ARC
8
DEFAULT_255_1_234
10
11.2158953
20
0.2499992
40
0.1569564
50
13.9577229
51
77.6713066
0
ARC
8
DEFAULT_255_1_234
10
11.1772482
20
0.1114949
40
0.3006298
50
76.1116566
51
90.7026153
0
ARC
8
DEFAULT_255_1_234
10
11.1713321
20
0.1388545
40
0.2732568
50
89.5324876
51
103.531937
0
ARC
8
DEFAULT_255_1_234
10
11.1512765
20
0.2187884
40
0.1908508
50
103.2931773
51
133.5619022
0
ARC
8
DEFAULT_255_1_234
10
11.1468253
20
0.2247375
40
0.1834746
50
133.8349307
51
173.5344437
0
ARC
8
DEFAULT_255_1_234
10
11.2191296
20
0.2119213
40
0.2568033
50
172.5096846
51
180.1366907
0
ARC
8
DEFAULT_255_1_234
10
11.124019
20
0.2153622
40
0.3103056
50
155.3484492
51
180.7484736
0
ARC
8
DEFAULT_255_1_234
10
11.1191279
20
0.2124846
40
0.3070957
50
131.5744599
51
154.4798489
0
ARC
8
DEFAULT_255_1_234
10
11.1504427
20
0.180831
40
0.3515643
50
96.9875458
51
131.9690667
0
ARC
8
DEFAULT_255_1_234
10
11.1723906
20
0.0562636
40
0.4779224
50
89.8596053
51
97.7825159
0
ARC
8
DEFAULT_255_1_234
10
11.177197
20
0.0300616
40
0.5041361
50
78.3655447
51
90.4131539
0
ARC
8
DEFAULT_255_1_234
10
11.2129887
20
0.1959887
40
0.3344039
50
56.6229102
51
78.638727
0
ARC
8
DEFAULT_255_1_234
10
11.2344831
20
0.2335805
40
0.2912001
50
47.0253525
51
56.0854072
0
ARC
8
DEFAULT_255_1_234
10
11.2364611
20
0.2375223
40
0.2869704
50
10.9208013
51
46.7778124
0
ARC
8
DEFAULT_255_1_234
10
11.1000678
20
0.2059857
40
0.426899
50
359.6364486
51
11.6087304
0
ARC
8
DEFAULT_255_1_234
10
11.2835522
20
0.2044752
40
0.243409
50
332.3549906
51
359.7179418
0
ARC
8
DEFAULT_255_1_234
10
11.2185123
20
0.2353142
40
0.3153459
50
325.2333722
51
332.8745602
0
ARC
8
DEFAULT_255_1_234
10
11.2337747
20
0.2246828
40
0.2967456
50
292.9802137
51
325.2392345
0
ARC
8
DEFAULT_255_1_234
10
11.2063121
20
0.2780863
40
0.3566604
50
292.5402179
51
293.6924929
0
ARC
8
DEFAULT_255_1_234
10
11.2455717
20
-0.3673909
40
0.3307468
50
57.6435486
51
72.8625112
0
ARC
8
DEFAULT_255_1_234
10
11.2810216
20
-0.3099451
40
0.2632492
50
36.7248896
51
57.4697979
0
ARC
8
DEFAULT_255_1_234
10
11.2798849
20
-0.308678
40
0.2634081
50
8.0545065
51
36.356114
0
ARC
8
DEFAULT_255_1_234
10
11.1936034
20
-0.3241826
40
0.3510261
50
359.8320645
51
8.5869982
0
ARC
8
DEFAULT_255_1_234
10
11.1560811
20
-0.3289899
40
0.3885653
50
343.9829931
51
0.5571613
0
ARC
8
DEFAULT_255_1_234
10
11.2447008
20
-0.3532562
40
0.2966924
50
311.6359546
51
343.7651759
0
ARC
8
DEFAULT_255_1_234
10
11.2068577
20
-0.3105898
40
0.3537231
50
279.7829875
51
311.6255694
0
ARC
8
DEFAULT_255_1_234
10
11.1767353
20
-0.166872
40
0.5004971
50
269.7286406
51
280.3856417
0
ARC
8
DEFAULT_255_1_234
10
11.1705426
20
-0.1710004
40
0.4963778
50
256.6828919
51
270.4412052
0
ARC
8
DEFAULT_255_1_234
10
11.1366722
20
-0.3094606
40
0.3538406
50
229.4223008
51
256.8556159
0
ARC
8
DEFAULT_255_1_234
10
11.0952114
20
-0.3561264
40
0.2914296
50
181.818294
51
229.6455059
0
ARC
8
DEFAULT_255_1_234
10
11.1992071
20
-0.3430504
40
0.3959084
50
179.9755256
51
183.2323064
0
ARC
8
DEFAULT_255_1_234
10
11.1819816
20
-0.3450963
40
0.2293034
50
179.4465117
51
196.2869258
0
ARC
8
DEFAULT_255_1_234
10
11.1332224
20
-0.3584349
40
0.1787621
50
196.5661473
51
227.705904
0
ARC
8
DEFAULT_255_1_234
10
11.1496319
20
-0.3400845
40
0.2033784
50
227.7652068
51
257.8762805
0
ARC
8
DEFAULT_255_1_234
10
11.1721289
20
-0.2457844
40
0.3003081
50
257.4584385
51
270.426602
0
ARC
8
DEFAULT_255_1_234
10
11.1766856
20
-0.2168004
40
0.329292
50
269.5962073
51
280.8789248
0
ARC
8
DEFAULT_255_1_234
10
11.1996384
20
-0.3314315
40
0.2123908
50
280.6346389
51
299.8595945
0
ARC
8
DEFAULT_255_1_234
10
11.2187291
20
-0.3676788
40
0.171457
50
300.3576302
51
314.5517981
0
ARC
8
DEFAULT_255_1_234
10
11.2104351
20
-0.3616081
40
0.1816095
50
315.0728369
51
345.0431014
0
ARC
8
DEFAULT_255_1_234
10
11.1181166
20
-0.3347159
40
0.2777492
50
344.5986631
51
357.9269593
0
ARC
8
DEFAULT_255_1_234
10
11.0285492
20
-0.3285724
40
0.3674917
50
357.4748886
51
0.0231117
0
ARC
8
DEFAULT_255_1_234
10
11.1308601
20
-0.3261321
40
0.2651907
50
359.5047933
51
13.4239635
0
ARC
8
DEFAULT_255_1_234
10
11.2175245
20
-0.3039522
40
0.1757509
50
12.9498199
51
48.7551375
0
ARC
8
DEFAULT_255_1_234
10
11.1992979
20
-0.32886
40
0.2065134
50
49.5088623
51
72.1836453
0
ARC
8
DEFAULT_255_1_234
10
11.1635131
20
-0.4350709
40
0.3185836
50
71.9010081
51
84.3554254
0
ARC
8
DEFAULT_255_1_234
10
11.1473763
20
-0.5711674
40
0.4556151
50
84.0193428
51
89.333121
0
LINE
8
DEFAULT_255_1_234
10
12.2369639
20
0.5237433
11
12.2369639
21
-0.6513
0
LINE
8
DEFAULT_255_1_234
10
12.2369639
20
-0.6513
11
12.0875735
21
-0.6513
0
LINE
8
DEFAULT_255_1_234
10
12.0875735
20
-0.6513
11
12.0875735
21
0.3390133
0
LINE
8
DEFAULT_255_1_234
10
12.0875735
20
0.3390133
11
11.7879897
21
0.2289785
0
LINE
8
DEFAULT_255_1_234
10
11.7879897
20
0.2289785
11
11.7879897
21
0.3639117
0
LINE
8
DEFAULT_255_1_234
10
11.7879897
20
0.3639117
11
12.2136718
21
0.5237433
0
LINE
8
DEFAULT_255_1_234
10
12.2136718
20
0.5237433
11
12.2369639
21
0.5237433
0
LINE
8
DEFAULT_255_1_234
10
12.9967663
20
-0.0938974
11
12.9967663
21
-0.2151766
0
LINE
8
DEFAULT_255_1_234
10
12.9967663
20
-0.2151766
11
12.6048175
21
-0.2151766
0
LINE
8
DEFAULT_255_1_234
10
12.6048175
20
-0.2151766
11
12.6048175
21
-0.0938974
0
LINE
8
DEFAULT_255_1_234
10
12.6048175
20
-0.0938974
11
12.9967663
21
-0.0938974
0
LINE
8
DEFAULT_255_1_234
10
13.8810607
20
0.5181211
11
13.8810607
21
0.434591
0
LINE
8
DEFAULT_255_1_234
10
13.8810607
20
0.434591
11
13.3967469
21
-0.6513
0
LINE
8
DEFAULT_255_1_234
10
13.3967469
20
-0.6513
11
13.2409312
21
-0.6513
0
LINE
8
DEFAULT_255_1_234
10
13.2409312
20
-0.6513
11
13.7236386
21
0.3960387
0
LINE
8
DEFAULT_255_1_234
10
13.7236386
20
0.3960387
11
13.0907376
21
0.3960387
0
LINE
8
DEFAULT_255_1_234
10
13.0907376
20
0.3960387
11
13.0907376
21
0.5181211
0
LINE
8
DEFAULT_255_1_234
10
13.0907376
20
0.5181211
11
13.8810607
21
0.5181211
0
LINE
8
DEFAULT_255_1_234
10
14.9870311
20
0.5181211
11
14.9870311
21
-0.6513
0
LINE
8
DEFAULT_255_1_234
10
14.9870311
20
-0.6513
11
14.8320185
21
-0.6513
0
LINE
8
DEFAULT_255_1_234
10
14.8320185
20
-0.6513
11
14.8320185
21
-0.110764
0
LINE
8
DEFAULT_255_1_234
10
14.8320185
20
-0.110764
11
14.2424889
21
-0.110764
0
LINE
8
DEFAULT_255_1_234
10
14.2424889
20
-0.110764
11
14.2424889
21
-0.6513
0
LINE
8
DEFAULT_255_1_234
10
14.2424889
20
-0.6513
11
14.0882795
21
-0.6513
0
LINE
8
DEFAULT_255_1_234
10
14.0882795
20
-0.6513
11
14.0882795
21
0.5181211
0
LINE
8
DEFAULT_255_1_234
10
14.0882795
20
0.5181211
11
14.2424889
21
0.5181211
0
LINE
8
DEFAULT_255_1_234
10
14.2424889
20
0.5181211
11
14.2424889
21
0.0153343
0
LINE
8
DEFAULT_255_1_234
10
14.2424889
20
0.0153343
11
14.8320185
21
0.0153343
0
LINE
8
DEFAULT_255_1_234
10
14.8320185
20
0.0153343
11
14.8320185
21
0.5181211
0
LINE
8
DEFAULT_255_1_234
10
14.8320185
20
0.5181211
11
14.9870311
21
0.5181211
0
LINE
8
DEFAULT_255_1_234
10
15.9058619
20
-0.0087609
11
15.9058619
21
-0.1348592
0
LINE
8
DEFAULT_255_1_234
10
15.9058619
20
-0.1348592
11
15.4151227
21
-0.1348592
0
LINE
8
DEFAULT_255_1_234
10
15.4151227
20
-0.1348592
11
15.4151227
21
-0.6513
0
LINE
8
DEFAULT_255_1_234
10
15.4151227
20
-0.6513
11
15.2609133
21
-0.6513
0
LINE
8
DEFAULT_255_1_234
10
15.2609133
20
-0.6513
11
15.2609133
21
0.5181211
0
LINE
8
DEFAULT_255_1_234
10
15.2609133
20
0.5181211
11
15.9853761
21
0.5181211
0
LINE
8
DEFAULT_255_1_234
10
15.9853761
20
0.5181211
11
15.9853761
21
0.3912196
0
LINE
8
DEFAULT_255_1_234
10
15.9853761
20
0.3912196
11
15.4151227
21
0.3912196
0
LINE
8
DEFAULT_255_1_234
10
15.4151227
20
0.3912196
11
15.4151227
21
-0.0087609
0
LINE
8
DEFAULT_255_1_234
10
15.4151227
20
-0.0087609
11
15.9058619
21
-0.0087609
0
LINE
8
DEFAULT_255_1_234
10
16.8648515
20
0.0402327
11
16.8648515
21
-0.1525291
0
LINE
8
DEFAULT_255_1_234
10
16.1267347
20
-0.1726084
11
16.1267347
21
0.0257755
0
LINE
8
DEFAULT_255_1_234
10
16.7162643
20
-0.1926877
11
16.7162643
21
0.0506739
0
LINE
8
DEFAULT_255_1_234
10
16.2753219
20
0.0619184
11
16.2753219
21
-0.1758211
0
ARC
8
DEFAULT_255_1_234
10
15.6401404
20
-0.1574195
40
1.2247208
50
353.8441951
51
0.2287902
0
ARC
8
DEFAULT_255_1_234
10
16.1040908
20
-0.2092194
40
0.7578929
50
344.4934747
51
353.9765454
0
ARC
8
DEFAULT_255_1_234
10
16.4033498
20
-0.2943019
40
0.4467846
50
329.2803592
51
344.7472793
0
ARC
8
DEFAULT_255_1_234
10
16.5026323
20
-0.3487982
40
0.3336173
50
324.9352394
51
328.6160465
0
ARC
8
DEFAULT_255_1_234
10
16.5403432
20
-0.3751573
40
0.2876076
50
280.580143
51
324.9173126
0
ARC
8
DEFAULT_255_1_234
10
16.5002224
20
-0.2080901
40
0.4592847
50
269.5977311
51
281.6734359
0
ARC
8
DEFAULT_255_1_234
10
16.493013
20
-0.2200827
40
0.4472986
50
256.6228859
51
270.51044
0
ARC
8
DEFAULT_255_1_234
10
16.4528108
20
-0.3749123
40
0.2873874
50
215.8618325
51
257.2788573
0
ARC
8
DEFAULT_255_1_234
10
16.5549139
20
-0.3064023
40
0.4102928
50
197.9693508
51
215.2623606
0
ARC
8
DEFAULT_255_1_234
10
16.8034255
20
-0.2225291
40
0.6725652
50
187.8816417
51
198.2346507
0
ARC
8
DEFAULT_255_1_234
10
17.1992463
20
-0.1653921
40
1.0724845
50
180.8976217
51
188.0055519
0
ARC
8
DEFAULT_255_1_234
10
17.4792651
20
-0.1550223
40
1.3526448
50
180.7449369
51
181.1510016
0
ARC
8
DEFAULT_255_1_234
10
17.321538
20
0.0306042
40
1.1948131
50
173.7675579
51
180.231553
0
ARC
8
DEFAULT_255_1_234
10
16.8697527
20
0.0816666
40
0.7401564
50
164.3058563
51
173.9002247
0
ARC
8
DEFAULT_255_1_234
10
16.5785596
20
0.1655656
40
0.4371288
50
148.7922025
51
164.568378
0
ARC
8
DEFAULT_255_1_234
10
16.4834048
20
0.2186929
40
0.3282386
50
144.5883898
51
148.1176286
0
ARC
8
DEFAULT_255_1_234
10
16.4490946
20
0.2426315
40
0.2864044
50
101.6440918
51
144.514236
0
ARC
8
DEFAULT_255_1_234
10
16.4916013
20
0.0737069
40
0.4604934
50
89.5284041
51
102.5819763
0
ARC
8
DEFAULT_255_1_234
10
16.49951
20
0.0698018
40
0.464401
50
77.0437873
51
90.5081339
0
ARC
8
DEFAULT_255_1_234
10
16.5397102
20
0.2340615
40
0.2953195
50
48.2778575
51
77.4994676
0
ARC
8
DEFAULT_255_1_234
10
16.5469733
20
0.2469746
40
0.2808655
50
36.3142134
51
47.6305865
0
ARC
8
DEFAULT_255_1_234
10
16.460104
20
0.1884515
40
0.3855453
50
18.2931786
51
35.6769206
0
ARC
8
DEFAULT_255_1_234
10
16.2057799
20
0.1011593
40
0.654423
50
8.024666
51
18.5605216
0
ARC
8
DEFAULT_255_1_234
10
15.7894719
20
0.0396792
40
1.0752407
50
1.1274072
51
8.1718305
0
ARC
8
DEFAULT_255_1_234
10
15.465891
20
0.0269885
40
1.3990231
50
0.5424119
51
1.3863029
0
ARC
8
DEFAULT_255_1_234
10
15.6480288
20
0.0542342
40
1.0682415
50
359.8090433
51
4.9407866
0
ARC
8
DEFAULT_255_1_234
10
16.0690302
20
0.0918113
40
0.6455691
50
4.8362157
51
12.2904523
0
ARC
8
DEFAULT_255_1_234
10
16.3445417
20
0.1531965
40
0.3633074
50
12.0805627
51
23.8173984
0
ARC
8
DEFAULT_255_1_234
10
16.4619122
20
0.2028919
40
0.2358723
50
24.2871213
51
31.3935614
0
ARC
8
DEFAULT_255_1_234
10
16.5143819
20
0.2372233
40
0.1732111
50
30.7407893
51
82.4657128
0
ARC
8
DEFAULT_255_1_234
10
16.4963953
20
0.1488691
40
0.263235
50
81.1060089
51
90.2184952
0
ARC
8
DEFAULT_255_1_234
10
16.4928252
20
0.1746924
40
0.2374236
50
89.3806855
51
105.6762551
0
ARC
8
DEFAULT_255_1_234
10
16.4744883
20
0.2413567
40
0.1682847
50
105.7981136
51
149.7388061
0
ARC
8
DEFAULT_255_1_234
10
16.5808961
20
0.177395
40
0.2924306
50
149.4208916
51
163.6286378
0
ARC
8
DEFAULT_255_1_234
10
16.7899849
20
0.113625
40
0.5110213
50
163.3763315
51
172.1410975
0
ARC
8
DEFAULT_255_1_234
10
17.1200568
20
0.0663518
40
0.8444586
50
172.0259487
51
178.0703232
0
ARC
8
DEFAULT_255_1_234
10
17.4230658
20
0.0519906
40
1.1477868
50
177.8631668
51
179.5044149
0
ARC
8
DEFAULT_255_1_234
10
17.3158062
20
-0.1794611
40
1.0404907
50
179.7995573
51
185.2460446
0
ARC
8
DEFAULT_255_1_234
10
16.9115102
20
-0.2177487
40
0.6343885
50
185.1411642
51
193.0079639
0
ARC
8
DEFAULT_255_1_234
10
16.6471574
20
-0.2802359
40
0.3627568
50
192.7897626
51
205.2507664
0
ARC
8
DEFAULT_255_1_234
10
16.5425121
20
-0.3269585
40
0.2481908
50
205.8005384
51
211.2537509
0
ARC
8
DEFAULT_255_1_234
10
16.4901562
20
-0.362042
40
0.1852521
50
210.3789793
51
238.4008143
0
ARC
8
DEFAULT_255_1_234
10
16.4882083
20
-0.3573624
40
0.1882621
50
239.6520629
51
265.9793761
0
ARC
8
DEFAULT_255_1_234
10
16.4967284
20
-0.2901573
40
0.2559272
50
265.1315437
51
270.060332
0
ARC
8
DEFAULT_255_1_234
10
16.4996062
20
-0.3225466
40
0.2235528
50
269.3314664
51
287.2178029
0
ARC
8
DEFAULT_255_1_234
10
16.5133914
20
-0.3728721
40
0.1714108
50
287.7958004
51
329.080874
0
ARC
8
DEFAULT_255_1_234
10
16.4176371
20
-0.313107
40
0.2842745
50
328.6634704
51
343.3325132
0
ARC
8
DEFAULT_255_1_234
10
16.2003391
20
-0.2454137
40
0.5118644
50
343.0499468
51
351.9393422
0
ARC
8
DEFAULT_255_1_234
10
15.8536691
20
-0.1943051
40
0.8622784
50
351.8069023
51
357.7959224
0
ARC
8
DEFAULT_255_1_234
10
15.5301247
20
-0.1775279
40
1.1862365
50
357.5871873
51
359.2677531
0
LINE
8
DEFAULT_255_1_234
10
17.5435333
20
0.5237433
11
17.5435333
21
-0.6513
0
LINE
8
DEFAULT_255_1_234
10
17.5435333
20
-0.6513
11
17.394143
21
-0.6513
0
LINE
8
DEFAULT_255_1_234
10
17.394143
20
-0.6513
11
17.394143
21
0.3390133
0
LINE
8
DEFAULT_255_1_234
10
17.394143
20
0.3390133
11
17.0945592
21
0.2289785
0
LINE
8
DEFAULT_255_1_234
10
17.0945592
20
0.2289785
11
17.0945592
21
0.3639117
0
LINE
8
DEFAULT_255_1_234
10
17.0945592
20
0.3639117
11
17.5202413
21
0.5237433
0
LINE
8
DEFAULT_255_1_234
10
17.5202413
20
0.5237433
11
17.5435333
21
0.5237433
0
LINE
8
DEFAULT_255_1_234
10
18.3033358
20
-0.0938974
11
18.3033358
21
-0.2151766
0
LINE
8
DEFAULT_255_1_234
10
18.3033358
20
-0.2151766
11
17.911387
21
-0.2151766
0
LINE
8
DEFAULT_255_1_234
10
17.911387
20
-0.2151766
11
17.911387
21
-0.0938974
0
LINE
8
DEFAULT_255_1_234
10
17.911387
20
-0.0938974
11
18.3033358
21
-0.0938974
0
LINE
8
DEFAULT_255_1_234
10
19.1659445
20
0.0402327
11
19.1659445
21
-0.1525291
0
LINE
8
DEFAULT_255_1_234
10
18.4278277
20
-0.1726084
11
18.4278277
21
0.0257755
0
LINE
8
DEFAULT_255_1_234
10
19.0173573
20
-0.1926877
11
19.0173573
21
0.0506739
0
LINE
8
DEFAULT_255_1_234
10
18.5764149
20
0.0619184
11
18.5764149
21
-0.1758211
0
ARC
8
DEFAULT_255_1_234
10
17.9412334
20
-0.1574195
40
1.2247208
50
353.8441951
51
0.2287902
0
ARC
8
DEFAULT_255_1_234
10
18.4051838
20
-0.2092194
40
0.7578929
50
344.4934747
51
353.9765454
0
ARC
8
DEFAULT_255_1_234
10
18.7044428
20
-0.2943019
40
0.4467846
50
329.2803592
51
344.7472793
0
ARC
8
DEFAULT_255_1_234
10
18.8037253
20
-0.3487982
40
0.3336173
50
324.9352394
51
328.6160465
0
ARC
8
DEFAULT_255_1_234
10
18.8414362
20
-0.3751573
40
0.2876076
50
280.580143
51
324.9173126
0
ARC
8
DEFAULT_255_1_234
10
18.8013154
20
-0.2080901
40
0.4592847
50
269.5977311
51
281.6734359
0
ARC
8
DEFAULT_255_1_234
10
18.794106
20
-0.2200827
40
0.4472986
50
256.6228859
51
270.51044
0
ARC
8
DEFAULT_255_1_234
10
18.7539038
20
-0.3749123
40
0.2873874
50
215.8618325
51
257.2788573
0
ARC
8
DEFAULT_255_1_234
10
18.8560069
20
-0.3064023
40
0.4102928
50
197.9693508
51
215.2623606
0
ARC
8
DEFAULT_255_1_234
10
19.1045185
20
-0.2225291
40
0.6725652
50
187.8816417
51
198.2346507
0
ARC
8
DEFAULT_255_1_234
10
19.5003393
20
-0.1653921
40
1.0724845
50
180.8976217
51
188.0055519
0
ARC
8
DEFAULT_255_1_234
10
19.7803582
20
-0.1550223
40
1.3526448
50
180.7449369
51
181.1510016
0
ARC
8
DEFAULT_255_1_234
10
19.6226311
20
0.0306042
40
1.1948131
50
173.7675579
51
180.231553
0
ARC
8
DEFAULT_255_1_234
10
19.1708457
20
0.0816666
40
0.7401564
50
164.3058563
51
173.9002247
0
ARC
8
DEFAULT_255_1_234
10
18.8796526
20
0.1655656
40
0.4371288
50
148.7922025
51
164.568378
0
ARC
8
DEFAULT_255_1_234
10
18.7844978
20
0.2186929
40
0.3282386
50
144.5883898
51
148.1176286
0
ARC
8
DEFAULT_255_1_234
10
18.7501876
20
0.2426315
40
0.2864044
50
101.6440918
51
144.514236
0
ARC
8
DEFAULT_255_1_234
10
18.7926943
20
0.0737069
40
0.4604934
50
89.5284041
51
102.5819763
0
ARC
8
DEFAULT_255_1_234
10
18.8006031
20
0.0698018
40
0.464401
50
77.0437873
51
90.5081339
0
ARC
8
DEFAULT_255_1_234
10
18.8408032
20
0.2340615
40
0.2953195
50
48.2778575
51
77.4994676
0
ARC
8
DEFAULT_255_1_234
10
18.8480664
20
0.2469746
40
0.2808655
50
36.3142134
51
47.6305865
0
ARC
8
DEFAULT_255_1_234
10
18.7611971
20
0.1884515
40
0.3855453
50
18.2931786
51
35.6769206
0
ARC
8
DEFAULT_255_1_234
10
18.5068729
20
0.1011593
40
0.654423
50
8.024666
51
18.5605216
0
ARC
8
DEFAULT_255_1_234
10
18.0905649
20
0.0396792
40
1.0752407
50
1.1274072
51
8.1718305
0
ARC
8
DEFAULT_255_1_234
10
17.766984
20
0.0269885
40
1.3990231
50
0.5424119
51
1.3863029
0
ARC
8
DEFAULT_255_1_234
10
17.9491218
20
0.0542342
40
1.0682415
50
359.8090433
51
4.9407866
0
ARC
8
DEFAULT_255_1_234
10
18.3701232
20
0.0918113
40
0.6455691
50
4.8362157
51
12.2904523
0
ARC
8
DEFAULT_255_1_234
10
18.6456347
20
0.1531965
40
0.3633074
50
12.0805627
51
23.8173984
0
ARC
8
DEFAULT_255_1_234
10
18.7630052
20
0.2028919
40
0.2358723
50
24.2871213
51
31.3935614
0
ARC
8
DEFAULT_255_1_234
10
18.8154749
20
0.2372233
40
0.1732111
50
30.7407893
51
82.4657128
0
ARC
8
DEFAULT_255_1_234
10
18.7974884
20
0.1488691
40
0.263235
50
81.1060089
51
90.2184952
0
ARC
8
DEFAULT_255_1_234
10
18.7939182
20
0.1746924
40
0.2374236
50
89.3806855
51
105.6762551
0
ARC
8
DEFAULT_255_1_234
10
18.7755813
20
0.2413567
40
0.1682847
50
105.7981136
51
149.7388061
0
ARC
8
DEFAULT_255_1_234
10
18.8819891
20
0.177395
40
0.2924306
50
149.4208916
51
163.6286378
0
ARC
8
DEFAULT_255_1_234
10
19.0910779
20
0.113625
40
0.5110213
50
163.3763315
51
172.1410975
0
ARC
8
DEFAULT_255_1_234
10
19.4211498
20
0.0663518
40
0.8444586
50
172.0259487
51
178.0703232
0
ARC
8
DEFAULT_255_1_234
10
19.7241588
20
0.0519906
40
1.1477868
50
177.8631668
51
179.5044149
0
ARC
8
DEFAULT_255_1_234
10
19.6168992
20
-0.1794611
40
1.0404907
50
179.7995573
51
185.2460446
0
ARC
8
DEFAULT_255_1_234
10
19.2126032
20
-0.2177487
40
0.6343885
50
185.1411642
51
193.0079639
0
ARC
8
DEFAULT_255_1_234
10
18.9482504
20
-0.2802359
40
0.3627568
50
192.7897626
51
205.2507664
0
ARC
8
DEFAULT_255_1_234
10
18.8436051
20
-0.3269585
40
0.2481908
50
205.8005384
51
211.2537509
0
ARC
8
DEFAULT_255_1_234
10
18.7912492
20
-0.362042
40
0.1852521
50
210.3789793
51
238.4008143
0
ARC
8
DEFAULT_255_1_234
10
18.7893014
20
-0.3573624
40
0.1882621
50
239.6520629
51
265.9793761
0
ARC
8
DEFAULT_255_1_234
10
18.7978214
20
-0.2901573
40
0.2559272
50
265.1315437
51
270.060332
0
ARC
8
DEFAULT_255_1_234
10
18.8006992
20
-0.3225466
40
0.2235528
50
269.3314664
51
287.2178029
0
ARC
8
DEFAULT_255_1_234
10
18.8144844
20
-0.3728721
40
0.1714108
50
287.7958004
51
329.080874
0
ARC
8
DEFAULT_255_1_234
10
18.7187301
20
-0.313107
40
0.2842745
50
328.6634704
51
343.3325132
0
ARC
8
DEFAULT_255_1_234
10
18.5014321
20
-0.2454137
40
0.5118644
50
343.0499468
51
351.9393422
0
ARC
8
DEFAULT_255_1_234
10
18.1547621
20
-0.1943051
40
0.8622784
50
351.8069023
51
357.7959224
0
ARC
8
DEFAULT_255_1_234
10
17.8312177
20
-0.1775279
40
1.1862365
50
357.5871873
51
359.2677531
0
LINE
8
DEFAULT_255_1_234
10
20.1522419
20
-0.6513
11
20.0406008
21
-0.3460939
0
LINE
8
DEFAULT_255_1_234
10
20.0406008
20
-0.3460939
11
19.5506647
21
-0.3460939
0
LINE
8
DEFAULT_255_1_234
10
19.5506647
20
-0.3460939
11
19.4406299
21
-0.6513
0
LINE
8
DEFAULT_255_1_234
10
19.4406299
20
-0.6513
11
19.2816015
21
-0.6513
0
LINE
8
DEFAULT_255_1_234
10
19.2816015
20
-0.6513
11
19.7281662
21
0.5181211
0
LINE
8
DEFAULT_255_1_234
10
19.7281662
20
0.5181211
11
19.8630994
21
0.5181211
0
LINE
8
DEFAULT_255_1_234
10
19.8630994
20
0.5181211
11
20.3104672
21
-0.6513
0
LINE
8
DEFAULT_255_1_234
10
20.3104672
20
-0.6513
11
20.1522419
21
-0.6513
0
LINE
8
DEFAULT_255_1_234
10
19.7956328
20
0.3277689
11
19.5972488
21
-0.2191925
0
LINE
8
DEFAULT_255_1_234
10
19.5972488
20
-0.2191925
11
19.9948199
21
-0.2191925
0
LINE
8
DEFAULT_255_1_234
10
19.9948199
20
-0.2191925
11
19.7956328
21
0.3277689
0
LINE
8
DEFAULT_255_1_234
10
20.873492
20
-0.6513
11
20.4678893
21
-0.6513
0
LINE
8
DEFAULT_255_1_234
10
20.4678893
20
-0.6513
11
20.4678893
21
0.5181211
0
LINE
8
DEFAULT_255_1_234
10
20.4678893
20
0.5181211
11
20.8502
21
0.5181211
0
LINE
8
DEFAULT_255_1_234
10
20.8791143
20
-0.1043386
11
20.6220986
21
-0.1043386
0
LINE
8
DEFAULT_255_1_234
10
20.6220986
20
-0.1043386
11
20.6220986
21
-0.5252017
0
LINE
8
DEFAULT_255_1_234
10
20.6220986
20
-0.5252017
11
20.8767047
21
-0.5252017
0
LINE
8
DEFAULT_255_1_234
10
20.6220986
20
0.3912196
11
20.6220986
21
0.0193501
0
LINE
8
DEFAULT_255_1_234
10
20.6220986
20
0.0193501
11
20.855019
21
0.0193501
0
LINE
8
DEFAULT_255_1_234
10
20.8502
20
0.3912196
11
20.6220986
21
0.3912196
0
ARC
8
DEFAULT_255_1_234
10
20.8539709
20
-0.2186099
40
0.7367406
50
82.1257326
51
90.2932599
0
ARC
8
DEFAULT_255_1_234
10
20.8928663
20
0.0532013
40
0.4621653
50
69.9044149
51
82.2857423
0
ARC
8
DEFAULT_255_1_234
10
20.9499341
20
0.2074637
40
0.2976871
50
51.1838526
51
70.0181538
0
ARC
8
DEFAULT_255_1_234
10
20.9754307
20
0.244524
40
0.2528517
50
12.1017251
51
50.4214761
0
ARC
8
DEFAULT_255_1_234
10
20.8370181
20
0.2097676
40
0.3955061
50
359.5251267
51
12.8211707
0
ARC
8
DEFAULT_255_1_234
10
20.9950108
20
0.2028344
40
0.2375281
50
323.4908128
51
0.8817314
0
ARC
8
DEFAULT_255_1_234
10
20.9531795
20
0.235155
40
0.2903817
50
298.6825083
51
323.2756573
0
ARC
8
DEFAULT_255_1_234
10
20.9170158
20
0.2952649
40
0.3604842
50
293.1999386
51
299.1396394
0
ARC
8
DEFAULT_255_1_234
10
20.9843131
20
-0.3132874
40
0.2871098
50
54.0011765
51
74.9167975
0
ARC
8
DEFAULT_255_1_234
10
20.995949
20
-0.2935668
40
0.2643248
50
36.3580696
51
53.5291921
0
ARC
8
DEFAULT_255_1_234
10
20.9832732
20
-0.3026002
40
0.2798884
50
4.8189881
51
36.3089977
0
ARC
8
DEFAULT_255_1_234
10
20.9053567
20
-0.313573
40
0.358478
50
359.9370252
51
5.5204067
0
ARC
8
DEFAULT_255_1_234
10
20.8729089
20
-0.3176333
40
0.3909429
50
344.7478609
51
0.5373281
0
ARC
8
DEFAULT_255_1_234
10
20.972006
20
-0.3443456
40
0.2883093
50
311.1786488
51
344.6886812
0
ARC
8
DEFAULT_255_1_234
10
20.9428107
20
-0.3080013
40
0.3348923
50
286.0418249
51
310.8441291
0
ARC
8
DEFAULT_255_1_234
10
20.8920939
20
-0.1433193
40
0.5071869
50
274.1042341
51
286.4071509
0
ARC
8
DEFAULT_255_1_234
10
20.8744195
20
0.0450229
40
0.6963234
50
269.9236873
51
274.445647
0
ARC
8
DEFAULT_255_1_234
10
20.8790195
20
-0.1889463
40
0.3362634
50
269.6055768
51
281.3740047
0
ARC
8
DEFAULT_255_1_234
10
20.9020834
20
-0.2982647
40
0.224546
50
281.1055983
51
302.5132223
0
ARC
8
DEFAULT_255_1_234
10
20.9167733
20
-0.3246177
40
0.1944357
50
303.0368945
51
311.8811219
0
ARC
8
DEFAULT_255_1_234
10
20.923914
20
-0.333111
40
0.1833454
50
311.9916004
51
351.7143462
0
ARC
8
DEFAULT_255_1_234
10
20.842237
20
-0.316607
40
0.2665871
50
350.7339597
51
0.2221581
0
ARC
8
DEFAULT_255_1_234
10
20.8314816
20
-0.3109533
40
0.2773789
50
359.0456241
51
17.2296242
0
ARC
8
DEFAULT_255_1_234
10
20.9353933
20
-0.2800837
40
0.1689915
50
17.6685481
51
78.9940892
0
ARC
8
DEFAULT_255_1_234
10
20.8837097
20
-0.4655776
40
0.3612658
50
76.5635957
51
90.6980921
0
LINE
8
DEFAULT_255_1_234
10
20.8793081
20
-0.1043387
11
20.8791143
21
-0.1043386
0
ARC
8
DEFAULT_255_1_234
10
20.8572757
20
0.3479036
40
0.3285612
50
269.6064736
51
281.4533503
0
ARC
8
DEFAULT_255_1_234
10
20.8795577
20
0.2427688
40
0.2210975
50
281.2041486
51
302.5148063
0
ARC
8
DEFAULT_255_1_234
10
20.8932427
20
0.2181241
40
0.1929674
50
303.021671
51
309.8369575
0
ARC
8
DEFAULT_255_1_234
10
20.9115888
20
0.1975488
40
0.1654181
50
309.5228395
51
356.9509836
0
ARC
8
DEFAULT_255_1_234
10
20.845247
20
0.2070932
40
0.2322512
50
355.4701227
51
0.0492546
0
ARC
8
DEFAULT_255_1_234
10
20.8173562
20
0.2093094
40
0.2601498
50
359.5558597
51
11.2096359
0
ARC
8
DEFAULT_255_1_234
10
20.9130852
20
0.229123
40
0.1623975
50
10.9182341
51
31.3230275
0
ARC
8
DEFAULT_255_1_234
10
20.9416585
20
0.2450214
40
0.1297302
50
31.8852677
51
52.1412565
0
ARC
8
DEFAULT_255_1_234
10
20.9142318
20
0.206275
40
0.1771663
50
52.8285564
51
71.9850297
0
ARC
8
DEFAULT_255_1_234
10
20.8766494
20
0.0956664
40
0.2939794
50
71.6863486
51
82.8455995
0
ARC
8
DEFAULT_255_1_234
10
20.852703
20
-0.0852851
40
0.476506
50
82.6984714
51
90.1729175
0
ARC
8
DEFAULT_255_1_234
10
20.8504665
20
0.0370623
40
0.3541573
50
89.8708275
51
90.0431131
0
LINE
8
DEFAULT_255_1_234
10
22.1866813
20
0.0402327
11
22.1866813
21
-0.1525291
0
LINE
8
DEFAULT_255_1_234
10
21.4485645
20
-0.1726084
11
21.4485645
21
0.0257755
0
LINE
8
DEFAULT_255_1_234
10
22.0380941
20
-0.1926877
11
22.0380941
21
0.0506739
0
LINE
8
DEFAULT_255_1_234
10
21.5971517
20
0.0619184
11
21.5971517
21
-0.1758211
0
ARC
8
DEFAULT_255_1_234
10
20.9619702
20
-0.1574195
40
1.2247208
50
353.8441951
51
0.2287902
0
ARC
8
DEFAULT_255_1_234
10
21.4259206
20
-0.2092194
40
0.7578929
50
344.4934747
51
353.9765454
0
ARC
8
DEFAULT_255_1_234
10
21.7251796
20
-0.2943019
40
0.4467846
50
329.2803592
51
344.7472793
0
ARC
8
DEFAULT_255_1_234
10
21.8244621
20
-0.3487982
40
0.3336173
50
324.9352394
51
328.6160465
0
ARC
8
DEFAULT_255_1_234
10
21.862173
20
-0.3751573
40
0.2876076
50
280.580143
51
324.9173126
0
ARC
8
DEFAULT_255_1_234
10
21.8220522
20
-0.2080901
40
0.4592847
50
269.5977311
51
281.6734359
0
ARC
8
DEFAULT_255_1_234
10
21.8148428
20
-0.2200827
40
0.4472986
50
256.6228859
51
270.51044
0
ARC
8
DEFAULT_255_1_234
10
21.7746406
20
-0.3749123
40
0.2873874
50
215.8618325
51
257.2788573
0
ARC
8
DEFAULT_255_1_234
10
21.8767437
20
-0.3064023
40
0.4102928
50
197.9693508
51
215.2623606
0
ARC
8
DEFAULT_255_1_234
10
22.1252553
20
-0.2225291
40
0.6725652
50
187.8816417
51
198.2346507
0
ARC
8
DEFAULT_255_1_234
10
22.5210761
20
-0.1653921
40
1.0724845
50
180.8976217
51
188.0055519
0
ARC
8
DEFAULT_255_1_234
10
22.8010949
20
-0.1550223
40
1.3526448
50
180.7449369
51
181.1510016
0
ARC
8
DEFAULT_255_1_234
10
22.6433678
20
0.0306042
40
1.1948131
50
173.7675579
51
180.231553
0
ARC
8
DEFAULT_255_1_234
10
22.1915825
20
0.0816666
40
0.7401564
50
164.3058563
51
173.9002247
0
ARC
8
DEFAULT_255_1_234
10
21.9003894
20
0.1655656
40
0.4371288
50
148.7922025
51
164.568378
0
ARC
8
DEFAULT_255_1_234
10
21.8052346
20
0.2186929
40
0.3282386
50
144.5883898
51
148.1176286
0
ARC
8
DEFAULT_255_1_234
10
21.7709244
20
0.2426315
40
0.2864044
50
101.6440918
51
144.514236
0
ARC
8
DEFAULT_255_1_234
10
21.8134311
20
0.0737069
40
0.4604934
50
89.5284041
51
102.5819763
0
ARC
8
DEFAULT_255_1_234
10
21.8213398
20
0.0698018
40
0.464401
50
77.0437873
51
90.5081339
0
ARC
8
DEFAULT_255_1_234
10
21.86154
20
0.2340615
40
0.2953195
50
48.2778575
51
77.4994676
0
ARC
8
DEFAULT_255_1_234
10
21.8688031
20
0.2469746
40
0.2808655
50
36.3142134
51
47.6305865
0
ARC
8
DEFAULT_255_1_234
10
21.7819338
20
0.1884515
40
0.3855453
50
18.2931786
51
35.6769206
0
ARC
8
DEFAULT_255_1_234
10
21.5276097
20
0.1011593
40
0.654423
50
8.024666
51
18.5605216
0
ARC
8
DEFAULT_255_1_234
10
21.1113017
20
0.0396792
40
1.0752407
50
1.1274072
51
8.1718305
0
ARC
8
DEFAULT_255_1_234
10
20.7877208
20
0.0269885
40
1.3990231
50
0.5424119
51
1.3863029
0
ARC
8
DEFAULT_255_1_234
10
20.9698586
20
0.0542342
40
1.0682415
50
359.8090433
51
4.9407866
0
ARC
8
DEFAULT_255_1_234
10
21.39086
20
0.0918113
40
0.6455691
50
4.8362157
51
12.2904523
0
ARC
8
DEFAULT_255_1_234
10
21.6663714
20
0.1531965
40
0.3633074
50
12.0805627
51
23.8173984
0
ARC
8
DEFAULT_255_1_234
10
21.783742
20
0.2028919
40
0.2358723
50
24.2871213
51
31.3935614
0
ARC
8
DEFAULT_255_1_234
10
21.8362117
20
0.2372233
40
0.1732111
50
30.7407893
51
82.4657128
0
ARC
8
DEFAULT_255_1_234
10
21.8182251
20
0.1488691
40
0.263235
50
81.1060089
51
90.2184952
0
ARC
8
DEFAULT_255_1_234
10
21.814655
20
0.1746924
40
0.2374236
50
89.3806855
51
105.6762551
0
ARC
8
DEFAULT_255_1_234
10
21.7963181
20
0.2413567
40
0.1682847
50
105.7981136
51
149.7388061
0
ARC
8
DEFAULT_255_1_234
10
21.9027259
20
0.177395
40
0.2924306
50
149.4208916
51
163.6286378
0
ARC
8
DEFAULT_255_1_234
10
22.1118147
20
0.113625
40
0.5110213
50
163.3763315
51
172.1410975
0
ARC
8
DEFAULT_255_1_234
10
22.4418866
20
0.0663518
40
0.8444586
50
172.0259487
51
178.0703232
0
ARC
8
DEFAULT_255_1_234
10
22.7448956
20
0.0519906
40
1.1477868
50
177.8631668
51
179.5044149
0
ARC
8
DEFAULT_255_1_234
10
22.637636
20
-0.1794611
40
1.0404907
50
179.7995573
51
185.2460446
0
ARC
8
DEFAULT_255_1_234
10
22.2333399
20
-0.2177487
40
0.6343885
50
185.1411642
51
193.0079639
0
ARC
8
DEFAULT_255_1_234
10
21.9689872
20
-0.2802359
40
0.3627568
50
192.7897626
51
205.2507664
0
ARC
8
DEFAULT_255_1_234
10
21.8643419
20
-0.3269585
40
0.2481908
50
205.8005384
51
211.2537509
0
ARC
8
DEFAULT_255_1_234
10
21.8119859
20
-0.362042
40
0.1852521
50
210.3789793
51
238.4008143
0
ARC
8
DEFAULT_255_1_234
10
21.8100381
20
-0.3573624
40
0.1882621
50
239.6520629
51
265.9793761
0
ARC
8
DEFAULT_255_1_234
10
21.8185581
20
-0.2901573
40
0.2559272
50
265.1315437
51
270.060332
0
ARC
8
DEFAULT_255_1_234
10
21.821436
20
-0.3225466
40
0.2235528
50
269.3314664
51
287.2178029
0
ARC
8
DEFAULT_255_1_234
10
21.8352212
20
-0.3728721
40
0.1714108
50
287.7958004
51
329.080874
0
ARC
8
DEFAULT_255_1_234
10
21.7394669
20
-0.313107
40
0.2842745
50
328.6634704
51
343.3325132
0
ARC
8
DEFAULT_255_1_234
10
21.5221689
20
-0.2454137
40
0.5118644
50
343.0499468
51
351.9393422
0
ARC
8
DEFAULT_255_1_234
10
21.1754989
20
-0.1943051
40
0.8622784
50
351.8069023
51
357.7959224
0
ARC
8
DEFAULT_255_1_234
10
20.8519545
20
-0.1775279
40
1.1862365
50
357.5871873
51
359.2677531
0
ARC
8
DEFAULT_255_2_778
10
7.7537338
20
123.7762992
40
3.0484709
50
251.6854144
51
258.6071955
0
ARC
8
DEFAULT_255_2_778
10
7.539521
20
122.6946738
40
1.9458471
50
258.4992492
51
268.3986479
0
ARC
8
DEFAULT_255_2_778
10
7.5172314
20
122.2644206
40
1.5151737
50
268.7865272
51
269.9950384
0
ARC
8
DEFAULT_255_2_778
10
7.5277432
20
121.8132355
40
1.0640417
50
269.426895
51
279.6711067
0
ARC
8
DEFAULT_255_2_778
10
7.6417753
20
121.1836746
40
0.4243233
50
278.7731084
51
300.3324923
0
ARC
8
DEFAULT_255_2_778
10
7.760746
20
120.9810552
40
0.1893587
50
300.2240287
51
1.9041213
0
ARC
8
DEFAULT_255_2_778
10
7.7452705
20
120.9902089
40
0.2047497
50
359.1991369
51
359.99965
0
ARC
8
DEFAULT_255_2_778
10
7.7523233
20
120.9910378
40
0.1976988
50
359.7594145
51
47.1793976
0
ARC
8
DEFAULT_255_2_778
10
7.6187277
20
120.842431
40
0.3975169
50
47.6144502
51
60.8366176
0
ARC
8
DEFAULT_255_2_778
10
7.0190958
20
119.8264865
40
1.5771337
50
59.799464
51
64.8885807
0
ARC
8
DEFAULT_255_2_778
10
6.0948833
20
117.8974682
40
3.7160912
50
64.6076081
51
66.8386974
0
ARC
8
DEFAULT_255_2_778
10
9.6419609
20
126.2605052
40
5.368109
50
244.3032309
51
247.1393781
0
ARC
8
DEFAULT_255_2_778
10
8.5507088
20
124.000518
40
2.8584574
50
240.2323579
51
244.3709759
0
ARC
8
DEFAULT_255_2_778
10
7.7800475
20
122.6636591
40
1.315392
50
233.2209971
51
240.4606284
0
ARC
8
DEFAULT_255_2_778
10
7.3561477
20
122.0925187
40
0.6041399
50
225.6990744
51
232.9899679
0
ARC
8
DEFAULT_255_2_778
10
7.3965073
20
122.1169214
40
0.6499005
50
178.2783416
51
224.6550883
0
ARC
8
DEFAULT_255_2_778
10
7.5059624
20
122.1502974
40
0.7591885
50
157.033673
51
181.0453383
0
ARC
8
DEFAULT_255_2_778
10
7.378439
20
122.1911396
40
0.6259551
50
124.9113017
51
155.9211516
0
ARC
8
DEFAULT_255_2_778
10
7.5960466
20
121.8825681
40
1.0035357
50
100.4079723
51
125.0168617
0
ARC
8
DEFAULT_255_2_778
10
7.6991199
20
121.3885046
40
1.5081396
50
89.6483922
51
100.8684975
0
ARC
8
DEFAULT_255_2_778
10
7.7083242
20
121.0362988
40
1.8603169
50
89.5079487
51
89.9984402
0
ARC
8
DEFAULT_255_2_778
10
7.7099573
20
120.9710694
40
1.9255311
50
83.9170631
51
89.5732113
0
ARC
8
DEFAULT_255_2_778
10
7.5071517
20
118.9634957
40
3.9433074
50
80.7325723
51
84.0779772
0
ARC
8
DEFAULT_255_2_778
10
7.0208457
20
115.940582
40
7.0050837
50
78.5086351
51
80.7886813
0
ARC
8
DEFAULT_255_2_778
10
7.6620177
20
120.5400544
40
1.9415426
50
67.135818
51
78.0934208
0
ARC
8
DEFAULT_255_2_778
10
7.7851814
20
121.1104809
40
1.3579807
50
78.2126325
51
89.7333975
0
ARC
8
DEFAULT_255_2_778
10
7.7793853
20
121.5256211
40
0.9429038
50
89.2638155
51
100.5666868
0
ARC
8
DEFAULT_255_2_778
10
7.6660949
20
122.0954419
40
0.362036
50
99.4784875
51
124.329414
0
ARC
8
DEFAULT_255_2_778
10
7.5705593
20
122.243551
40
0.1859067
50
125.7571195
51
182.2824883
0
ARC
8
DEFAULT_255_2_778
10
7.5493239
20
122.2368629
40
0.1645253
50
180.2492993
51
239.8144161
0
ARC
8
DEFAULT_255_2_778
10
7.932718
20
122.8369128
40
0.876484
50
237.8725734
51
242.8068846
0
ARC
8
DEFAULT_255_2_778
10
9.4175857
20
125.6534958
40
4.0604642
50
242.3328458
51
244.031083
0
ARC
8
DEFAULT_255_2_778
10
12.3804066
20
131.7019314
40
10.7955807
50
243.950624
51
244.8024316
0
ARC
8
DEFAULT_255_2_778
10
15.4009918
20
138.0859175
40
17.8580926
50
244.7535425
51
244.9563234
0
ARC
8
DEFAULT_255_2_778
10
5.8652927
20
117.5843264
40
4.7527588
50
62.2505456
51
65.4301556
0
ARC
8
DEFAULT_255_2_778
10
6.9275435
20
119.5924172
40
2.4810291
50
57.2951304
51
62.3684211
0
ARC
8
DEFAULT_255_2_778
10
7.6807233
20
120.7557235
40
1.0952081
50
48.7345704
51
57.5685367
0
ARC
8
DEFAULT_255_2_778
10
8.0117486
20
121.1432722
40
0.5856147
50
44.3236031
51
48.0704418
0
ARC
8
DEFAULT_255_2_778
10
7.9783002
20
121.1232468
40
0.6236013
50
1.3523843
51
43.4925744
0
ARC
8
DEFAULT_255_2_778
10
7.7103531
20
121.0903151
40
0.8926473
50
359.9763756
51
3.0599076
0
ARC
8
DEFAULT_255_2_778
10
7.8645343
20
121.0752407
40
0.7386124
50
333.0361889
51
1.1408766
0
ARC
8
DEFAULT_255_2_778
10
7.8947908
20
121.0821919
40
0.7150741
50
300.8430083
51
331.4403095
0
ARC
8
DEFAULT_255_2_778
10
7.694568
20
121.3957162
40
1.0869673
50
281.4258583
51
301.4316118
0
ARC
8
DEFAULT_255_2_778
10
7.5632666
20
122.0039414
40
1.7091691
50
270.2273513
51
281.7010805
0
ARC
8
DEFAULT_255_2_778
10
7.5453797
20
122.4806043
40
2.1859577
50
269.9983113
51
270.6466065
0
LINE
8
DEFAULT_255_2_778
10
7.5453153
20
120.2946465
11
7.5438002
21
120.294647
0
ARC
8
DEFAULT_255_2_778
10
7.5509161
20
123.4775969
40
3.1829579
50
256.2431122
51
269.871909
0
ARC
8
DEFAULT_255_2_778
10
21.7538511
20
123.7021629
40
2.9720345
50
251.5709223
51
258.7508181
0
ARC
8
DEFAULT_255_2_778
10
21.5538128
20
122.6789385
40
1.9294488
50
258.6495077
51
268.8281511
0
ARC
8
DEFAULT_255_2_778
10
21.5355488
20
122.2841193
40
1.5343723
50
269.2085037
51
269.9981866
0
ARC
8
DEFAULT_255_2_778
10
21.5473849
20
121.8157184
40
1.0660376
50
269.3612297
51
279.5899087
0
ARC
8
DEFAULT_255_2_778
10
21.6608439
20
121.1842324
40
0.424527
50
278.6895227
51
300.2363944
0
ARC
8
DEFAULT_255_2_778
10
21.7799083
20
120.9807793
40
0.188796
50
300.1108484
51
1.9024905
0
ARC
8
DEFAULT_255_2_778
10
21.7439577
20
120.9914221
40
0.2246851
50
358.8842611
51
0.0019649
0
ARC
8
DEFAULT_255_2_778
10
21.7769791
20
120.9953385
40
0.1917038
50
358.831716
51
47.0900458
0
ARC
8
DEFAULT_255_2_778
10
21.6364654
20
120.835984
40
0.4041259
50
47.8812665
51
61.174665
0
ARC
8
DEFAULT_255_2_778
10
21.0418848
20
119.8160117
40
1.5846568
50
60.1210877
51
65.1917015
0
ARC
8
DEFAULT_255_2_778
10
20.1415278
20
117.9104122
40
3.6922188
50
64.9168629
51
67.1565628
0
ARC
8
DEFAULT_255_2_778
10
23.6275467
20
126.1819888
40
5.2839333
50
244.2656926
51
247.1407051
0
ARC
8
DEFAULT_255_2_778
10
22.5594997
20
123.973765
40
2.8309849
50
240.1545061
51
244.3326325
0
ARC
8
DEFAULT_255_2_778
10
21.7856548
20
122.6377346
40
1.2870531
50
232.697515
51
240.4357497
0
ARC
8
DEFAULT_255_2_778
10
21.3705506
20
122.0867218
40
0.5972006
50
225.5850892
51
232.3393736
0
ARC
8
DEFAULT_255_2_778
10
21.4133941
20
122.1162933
40
0.6483829
50
178.7795739
51
224.7095916
0
ARC
8
DEFAULT_255_2_778
10
21.6669319
20
122.1403135
40
0.9018316
50
179.997867
51
180.6487041
0
ARC
8
DEFAULT_255_2_778
10
21.5167738
20
122.1541249
40
0.7517998
50
156.9195758
51
181.050088
0
ARC
8
DEFAULT_255_2_778
10
21.3928482
20
122.1935712
40
0.6224513
50
124.7111133
51
155.7879672
0
ARC
8
DEFAULT_255_2_778
10
21.6055459
20
121.9016942
40
0.9835402
50
101.7934503
51
125.2143527
0
ARC
8
DEFAULT_255_2_778
10
21.729848
20
121.3491326
40
1.5498677
50
89.5248728
51
102.1166783
0
ARC
8
DEFAULT_255_2_778
10
21.7283109
20
120.7955834
40
2.1034129
50
83.2889725
51
89.6080411
0
ARC
8
DEFAULT_255_2_778
10
21.529975
20
119.0277668
40
3.8823067
50
79.4764054
51
83.4308492
0
ARC
8
DEFAULT_255_2_778
10
21.2186357
20
117.2745673
40
5.6628977
50
78.2224868
51
79.6190915
0
ARC
8
DEFAULT_255_2_778
10
21.6838473
20
120.5520715
40
1.9311543
50
67.1323814
51
78.3148813
0
ARC
8
DEFAULT_255_2_778
10
21.801359
20
121.1035614
40
1.3672981
50
78.4565774
51
89.7552271
0
ARC
8
DEFAULT_255_2_778
10
21.7951366
20
121.534447
40
0.9364778
50
89.2619009
51
100.5950934
0
ARC
8
DEFAULT_255_2_778
10
21.6824182
20
122.0999169
40
0.3599879
50
99.5087086
51
124.406715
0
ARC
8
DEFAULT_255_2_778
10
21.5878565
20
122.246343
40
0.1858061
50
125.8630185
51
182.2986975
0
ARC
8
DEFAULT_255_2_778
10
21.5497296
20
122.2388047
40
0.1475296
50
179.9666559
51
180.100057
0
ARC
8
DEFAULT_255_2_778
10
21.566185
20
122.238793
40
0.163985
50
180.0859454
51
239.8819968
0
ARC
8
DEFAULT_255_2_778
10
21.9379018
20
122.8255619
40
0.8584853
50
238.072871
51
243.0442008
0
ARC
8
DEFAULT_255_2_778
10
23.4872034
20
125.7905845
40
4.2038426
50
242.5409111
51
244.1884903
0
ARC
8
DEFAULT_255_2_778
10
26.6463384
20
132.285196
40
11.4260319
50
244.1076525
51
244.9219574
0
ARC
8
DEFAULT_255_2_778
10
29.9038827
20
139.208855
40
19.0777309
50
244.8743531
51
245.066969
0
ARC
8
DEFAULT_255_2_778
10
19.8865272
20
117.6166274
40
4.7250654
50
62.0340028
51
65.293009
0
ARC
8
DEFAULT_255_2_778
10
20.9507744
20
119.6115758
40
2.464003
50
57.1127289
51
62.13736
0
ARC
8
DEFAULT_255_2_778
10
21.7037139
20
120.7652906
40
1.0863604
50
48.3695509
51
57.4197129
0
ARC
8
DEFAULT_255_2_778
10
22.0286268
20
121.1420419
40
0.5889589
50
44.472493
51
47.6467012
0
ARC
8
DEFAULT_255_2_778
10
21.9979457
20
121.1249032
40
0.6229283
50
1.2061613
51
43.6203607
0
ARC
8
DEFAULT_255_2_778
10
21.7312413
20
121.0924903
40
0.890659
50
359.9779196
51
2.9299178
0
ARC
8
DEFAULT_255_2_778
10
21.8802547
20
121.0773837
40
0.7417924
50
333.172934
51
1.140392
0
ARC
8
DEFAULT_255_2_778
10
21.9146167
20
121.0820736
40
0.7135172
50
300.9808035
51
331.5913995
0
ARC
8
DEFAULT_255_2_778
10
21.7182603
20
121.3919862
40
1.0803281
50
281.9040909
51
301.4483918
0
ARC
8
DEFAULT_255_2_778
10
21.5848425
20
121.9905518
40
1.6935565
50
270.5796874
51
282.1436175
0
ARC
8
DEFAULT_255_2_778
10
21.5636722
20
122.4854735
40
2.1887267
50
269.9959074
51
271.0027751
0
LINE
8
DEFAULT_255_2_778
10
21.5635158
20
120.2967468
11
21.5625002
21
120.296747
0
ARC
8
DEFAULT_255_2_778
10
21.5700221
20
123.4855174
40
3.1887792
50
256.2556596
51
269.8648469
0
LINE
8
DEFAULT_255_2_778
10
6.7958002
20
120.387547
11
6.7958002
21
120.882247
0
LINE
8
DEFAULT_255_2_778
10
8.4164002
20
122.805247
11
8.4164002
21
122.329047
0
LINE
8
DEFAULT_255_2_778
10
6.7940002
20
120.385947
11
6.7958002
21
120.387547
0
LINE
8
DEFAULT_255_2_778
10
8.9866002
20
122.854747
11
9.6629002
21
122.854747
0
LINE
8
DEFAULT_255_2_778
10
9.6629002
20
122.854747
11
9.6629002
21
120.347347
0
LINE
8
DEFAULT_255_2_778
10
9.6629002
20
120.347347
11
8.9866002
21
120.347347
0
LINE
8
DEFAULT_255_2_778
10
8.9866002
20
120.347347
11
8.9866002
21
122.854747
0
LINE
8
DEFAULT_255_2_778
10
10.2809002
20
120.347347
11
10.2809002
21
122.854747
0
LINE
8
DEFAULT_255_2_778
10
10.2809002
20
122.854747
11
12.0132002
21
122.854747
0
LINE
8
DEFAULT_255_2_778
10
12.0132002
20
122.854747
11
12.0132002
21
122.401047
0
LINE
8
DEFAULT_255_2_778
10
12.0132002
20
122.401047
11
10.9321002
21
122.401047
0
LINE
8
DEFAULT_255_2_778
10
10.9321002
20
122.401047
11
10.9321002
21
121.834747
0
LINE
8
DEFAULT_255_2_778
10
10.9321002
20
121.834747
11
11.8735002
21
121.834747
0
LINE
8
DEFAULT_255_2_778
10
11.8735002
20
121.834747
11
11.8735002
21
121.421247
0
LINE
8
DEFAULT_255_2_778
10
11.8735002
20
121.421247
11
10.9321002
21
121.421247
0
LINE
8
DEFAULT_255_2_778
10
10.9321002
20
121.421247
11
10.9321002
21
120.825947
0
LINE
8
DEFAULT_255_2_778
10
10.9321002
20
120.825947
11
12.0412002
21
120.825947
0
LINE
8
DEFAULT_255_2_778
10
12.0412002
20
120.825947
11
12.0412002
21
120.345747
0
LINE
8
DEFAULT_255_2_778
10
12.0412002
20
120.345747
11
10.2809002
21
120.347347
0
LINE
8
DEFAULT_255_2_778
10
12.4817002
20
120.347347
11
12.4817002
21
122.854747
0
LINE
8
DEFAULT_255_2_778
10
12.4817002
20
122.854747
11
13.3575002
21
122.854747
0
LINE
8
DEFAULT_255_2_778
10
13.3575002
20
122.854747
11
13.9671002
21
121.252447
0
LINE
8
DEFAULT_255_2_778
10
13.9671002
20
121.252447
11
14.5897002
21
122.854747
0
LINE
8
DEFAULT_255_2_778
10
14.5897002
20
122.854747
11
15.4215002
21
122.854747
0
LINE
8
DEFAULT_255_2_778
10
15.4215002
20
122.854747
11
15.4215002
21
120.347347
0
LINE
8
DEFAULT_255_2_778
10
15.4215002
20
120.347347
11
14.7812002
21
120.347347
0
LINE
8
DEFAULT_255_2_778
10
14.7812002
20
120.347347
11
14.7812002
21
122.123147
0
LINE
8
DEFAULT_255_2_778
10
14.7812002
20
122.123147
11
14.0724002
21
120.322947
0
LINE
8
DEFAULT_255_2_778
10
14.0724002
20
120.322947
11
13.6515002
21
120.322947
0
LINE
8
DEFAULT_255_2_778
10
13.6515002
20
120.322947
11
12.9559002
21
122.123147
0
LINE
8
DEFAULT_255_2_778
10
12.9559002
20
122.123147
11
12.9559002
21
120.347047
0
LINE
8
DEFAULT_255_2_778
10
12.9559002
20
120.347047
11
12.4817002
21
120.347347
0
LINE
8
DEFAULT_255_2_778
10
16.0409002
20
120.347347
11
16.0409002
21
122.854747
0
LINE
8
DEFAULT_255_2_778
10
16.0409002
20
122.854747
11
17.7731002
21
122.854747
0
LINE
8
DEFAULT_255_2_778
10
17.7731002
20
122.854747
11
17.7731002
21
122.401047
0
LINE
8
DEFAULT_255_2_778
10
17.7731002
20
122.401047
11
16.6921002
21
122.401047
0
LINE
8
DEFAULT_255_2_778
10
16.6921002
20
122.401047
11
16.6921002
21
121.834747
0
LINE
8
DEFAULT_255_2_778
10
16.6921002
20
121.834747
11
17.6334002
21
121.834747
0
LINE
8
DEFAULT_255_2_778
10
17.6334002
20
121.834747
11
17.6334002
21
121.421247
0
LINE
8
DEFAULT_255_2_778
10
17.6334002
20
121.421247
11
16.6921002
21
121.421247
0
LINE
8
DEFAULT_255_2_778
10
16.6921002
20
121.421247
11
16.6921002
21
120.825947
0
LINE
8
DEFAULT_255_2_778
10
16.6921002
20
120.825947
11
17.8030002
21
120.825947
0
LINE
8
DEFAULT_255_2_778
10
17.8030002
20
120.825947
11
17.8030002
21
120.345747
0
LINE
8
DEFAULT_255_2_778
10
17.8030002
20
120.345747
11
16.0409002
21
120.347347
0
LINE
8
DEFAULT_255_2_778
10
18.2454002
20
120.347347
11
18.2454002
21
122.854747
0
LINE
8
DEFAULT_255_2_778
10
18.2454002
20
122.854747
11
19.0283002
21
122.854747
0
LINE
8
DEFAULT_255_2_778
10
19.0283002
20
122.854747
11
19.8586002
21
121.175947
0
LINE
8
DEFAULT_255_2_778
10
19.8586002
20
121.175947
11
19.8586002
21
122.854747
0
LINE
8
DEFAULT_255_2_778
10
19.8586002
20
122.854747
11
20.3343002
21
122.854747
0
LINE
8
DEFAULT_255_2_778
10
20.3343002
20
122.854747
11
20.3343002
21
120.347347
0
LINE
8
DEFAULT_255_2_778
10
20.3343002
20
120.347347
11
19.5739002
21
120.347347
0
LINE
8
DEFAULT_255_2_778
10
19.5739002
20
120.347347
11
18.7214002
21
122.048547
0
LINE
8
DEFAULT_255_2_778
10
18.7214002
20
122.048547
11
18.7214002
21
120.347347
0
LINE
8
DEFAULT_255_2_778
10
18.7214002
20
120.347347
11
18.2454002
21
120.347347
0
LINE
8
DEFAULT_255_2_778
10
20.8143002
20
120.387747
11
20.8143002
21
120.882547
0
LINE
8
DEFAULT_255_2_778
10
22.3745002
20
122.818247
11
22.4343002
21
122.807647
0
LINE
8
DEFAULT_255_2_778
10
22.4343002
20
122.807647
11
22.4343002
21
122.331447
0
LINE
8
DEFAULT_255_2_778
10
20.8124002
20
120.388047
11
20.8143002
21
120.387747
0
LINE
8
DEFAULT_255_1_234
10
9.1344023
20
118.5809849
11
8.9793897
21
118.5809849
0
LINE
8
DEFAULT_255_1_234
10
8.2870539
20
118.0886394
11
8.4420665
21
118.0886394
0
ARC
8
DEFAULT_255_1_234
10
9.045271
20
119.4756768
40
1.252368
50
248.9199003
51
254.1439814
0
ARC
8
DEFAULT_255_1_234
10
8.8772205
20
119.0430234
40
0.788226
50
241.633709
51
249.0064503
0
ARC
8
DEFAULT_255_1_234
10
8.72436
20
118.7629317
40
0.4691427
50
230.498225
51
241.8087113
0
ARC
8
DEFAULT_255_1_234
10
8.6459174
20
118.6629906
40
0.3421437
50
227.4064532
51
229.9881192
0
ARC
8
DEFAULT_255_1_234
10
8.5971694
20
118.6154088
40
0.2741476
50
200.6781896
51
228.1763934
0
ARC
8
DEFAULT_255_1_234
10
8.6044005
20
118.6139077
40
0.2804109
50
179.5061581
51
199.8694617
0
ARC
8
DEFAULT_255_1_234
10
8.6034757
20
118.621321
40
0.2795204
50
132.4834203
51
181.0242172
0
ARC
8
DEFAULT_255_1_234
10
8.6630339
20
118.5650704
40
0.3612768
50
129.2532479
51
133.4242687
0
ARC
8
DEFAULT_255_1_234
10
8.6776789
20
118.5430965
40
0.3875675
50
101.98776
51
128.8742646
0
ARC
8
DEFAULT_255_1_234
10
8.7175399
20
118.3709741
40
0.5642249
50
89.5906553
51
102.3169264
0
ARC
8
DEFAULT_255_1_234
10
8.7245891
20
118.4028148
40
0.5323783
50
77.2360837
51
90.3248275
0
ARC
8
DEFAULT_255_1_234
10
8.7452971
20
118.49954
40
0.4334697
50
63.837784
51
77.0809408
0
ARC
8
DEFAULT_255_1_234
10
8.7730732
20
118.5512911
40
0.3747796
50
45.9864267
51
64.1607727
0
ARC
8
DEFAULT_255_1_234
10
8.7991614
20
118.5810866
40
0.3352302
50
32.2747395
51
45.6547121
0
ARC
8
DEFAULT_255_1_234
10
8.8058054
20
118.582988
40
0.328603
50
359.6507365
51
32.6130309
0
ARC
8
DEFAULT_255_1_234
10
8.711515
20
118.583466
40
0.2678863
50
359.469343
51
14.9832209
0
ARC
8
DEFAULT_255_1_234
10
8.7820212
20
118.6023539
40
0.1948938
50
14.9781179
51
48.2004265
0
ARC
8
DEFAULT_255_1_234
10
8.7655856
20
118.5816983
40
0.2212521
50
48.5927837
51
74.1241538
0
ARC
8
DEFAULT_255_1_234
10
8.7322346
20
118.4716248
40
0.3362561
50
73.7888341
51
86.6652678
0
ARC
8
DEFAULT_255_1_234
10
8.7219911
20
118.3508881
40
0.4573953
50
86.2640471
51
90.0526343
0
ARC
8
DEFAULT_255_1_234
10
8.7191624
20
118.3904192
40
0.4178709
50
89.6697524
51
99.2309573
0
ARC
8
DEFAULT_255_1_234
10
8.6949075
20
118.5348964
40
0.2713749
50
99.069534
51
113.7658566
0
ARC
8
DEFAULT_255_1_234
10
8.6675266
20
118.5994677
40
0.2012469
50
114.0401004
51
127.9850673
0
ARC
8
DEFAULT_255_1_234
10
8.643483
20
118.629073
40
0.1631167
50
127.7287463
51
176.7105154
0
ARC
8
DEFAULT_255_1_234
10
8.7113547
20
118.6189693
40
0.2315392
50
175.1779447
51
180.0581938
0
ARC
8
DEFAULT_255_1_234
10
8.6270394
20
118.6177428
40
0.1472271
50
179.6142195
51
228.1246017
0
ARC
8
DEFAULT_255_1_234
10
8.6712063
20
118.6586308
40
0.2072299
50
226.5779593
51
230.8800004
0
ARC
8
DEFAULT_255_1_234
10
8.7183141
20
118.7211636
40
0.2854818
50
231.4635071
51
241.9260842
0
ARC
8
DEFAULT_255_1_234
10
8.8380319
20
118.94148
40
0.53622
50
241.7178533
51
248.3259551
0
ARC
8
DEFAULT_255_1_234
10
8.9765691
20
119.2847064
40
0.9063478
50
248.2007737
51
252.4528373
0
ARC
8
DEFAULT_255_1_234
10
9.0969416
20
119.6568441
40
1.2974635
50
252.3391078
51
254.3469452
0
ARC
8
DEFAULT_255_1_234
10
8.3427119
20
116.9591148
40
1.5037162
50
71.0197183
51
74.4087047
0
ARC
8
DEFAULT_255_1_234
10
8.5121804
20
117.4483111
40
0.9859993
50
66.1847285
51
71.086374
0
ARC
8
DEFAULT_255_1_234
10
8.6678116
20
117.79872
40
0.6025855
50
59.3536294
51
66.2691831
0
ARC
8
DEFAULT_255_1_234
10
8.7566769
20
117.9490609
40
0.4279449
50
49.1020879
51
59.3293958
0
ARC
8
DEFAULT_255_1_234
10
8.8385509
20
118.0423834
40
0.3038015
50
32.7919921
51
49.2505539
0
ARC
8
DEFAULT_255_1_234
10
8.8706599
20
118.0652191
40
0.264448
50
31.1181161
51
32.4005348
0
ARC
8
DEFAULT_255_1_234
10
8.8618136
20
118.0616779
40
0.2738556
50
8.1116974
51
30.7958831
0
ARC
8
DEFAULT_255_1_234
10
8.7807804
20
118.0478753
40
0.3560327
50
359.8389159
51
8.4706516
0
ARC
8
DEFAULT_255_1_234
10
8.8433596
20
118.0430137
40
0.2934776
50
337.4731098
51
0.7537279
0
ARC
8
DEFAULT_255_1_234
10
8.8612291
20
118.0410387
40
0.2762607
50
307.5917067
51
336.4315538
0
ARC
8
DEFAULT_255_1_234
10
8.8152119
20
118.0923102
40
0.3449979
50
307.6551545
51
308.4529766
0
ARC
8
DEFAULT_255_1_234
10
8.7921838
20
118.127825
40
0.3871988
50
284.3734338
51
307.1424381
0
ARC
8
DEFAULT_255_1_234
10
8.7426668
20
118.3099932
40
0.5759636
50
272.4382747
51
284.646547
0
ARC
8
DEFAULT_255_1_234
10
8.7299876
20
118.4899893
40
0.7563528
50
269.9708387
51
272.8178037
0
ARC
8
DEFAULT_255_1_234
10
8.7256916
20
118.2861716
40
0.5525489
50
248.2707594
51
270.4055579
0
ARC
8
DEFAULT_255_1_234
10
8.7202657
20
118.2671192
40
0.5328452
50
246.1383403
51
248.0542782
0
ARC
8
DEFAULT_255_1_234
10
8.6784036
20
118.1791843
40
0.4355005
50
233.1670131
51
246.4950969
0
ARC
8
DEFAULT_255_1_234
10
8.6229941
20
118.1043812
40
0.3424126
50
215.3403242
51
233.0843104
0
ARC
8
DEFAULT_255_1_234
10
8.5957372
20
118.0845549
40
0.3087104
50
179.2419209
51
215.2648451
0
ARC
8
DEFAULT_255_1_234
10
8.6724966
20
118.0859666
40
0.2304457
50
179.335461
51
199.1045811
0
ARC
8
DEFAULT_255_1_234
10
8.6392643
20
118.0772766
40
0.1962176
50
199.8828939
51
232.7063202
0
ARC
8
DEFAULT_255_1_234
10
8.6864911
20
118.1366788
40
0.2720938
50
232.3738199
51
255.5136649
0
ARC
8
DEFAULT_255_1_234
10
8.7205778
20
118.2610835
40
0.4010747
50
255.2446292
51
267.5320849
0
ARC
8
DEFAULT_255_1_234
10
8.7293401
20
118.3843702
40
0.5246356
50
267.1557994
51
270.0286766
0
ARC
8
DEFAULT_255_1_234
10
8.7321173
20
118.339995
40
0.4802668
50
269.7000017
51
278.1660162
0
ARC
8
DEFAULT_255_1_234
10
8.7577178
20
118.1669515
40
0.3053425
50
278.0231263
51
290.625471
0
ARC
8
DEFAULT_255_1_234
10
8.7924865
20
118.0742025
40
0.206291
50
290.6619762
51
307.0370976
0
ARC
8
DEFAULT_255_1_234
10
8.8225254
20
118.0373504
40
0.1587906
50
306.3943566
51
355.3030547
0
ARC
8
DEFAULT_255_1_234
10
8.7713186
20
118.0450113
40
0.2104809
50
354.3660432
51
0.0698737
0
ARC
8
DEFAULT_255_1_234
10
8.7855531
20
118.0472617
40
0.1962563
50
359.417946
51
16.1971788
0
ARC
8
DEFAULT_255_1_234
10
8.8310841
20
118.0597418
40
0.149053
50
16.4723299
51
52.6262157
0
ARC
8
DEFAULT_255_1_234
10
8.7489895
20
117.9513433
40
0.2850296
50
52.7386432
51
62.4979148
0
ARC
8
DEFAULT_255_1_234
10
8.6104972
20
117.6907283
40
0.5801521
50
62.2515216
51
68.1220564
0
ARC
8
DEFAULT_255_1_234
10
8.4384883
20
117.2679872
40
1.0365451
50
68.0062803
51
71.8053402
0
ARC
8
DEFAULT_255_1_234
10
8.2589255
20
116.7294758
40
1.6042013
50
71.7183119
51
73.9258742
0
LINE
8
DEFAULT_255_1_234
10
9.4998464
20
118.9191211
11
9.4998464
21
117.7497
0
LINE
8
DEFAULT_255_1_234
10
9.4998464
20
117.7497
11
9.345637
21
117.7497
0
LINE
8
DEFAULT_255_1_234
10
9.345637
20
117.7497
11
9.345637
21
118.9191211
0
LINE
8
DEFAULT_255_1_234
10
9.345637
20
118.9191211
11
9.4998464
21
118.9191211
0
LINE
8
DEFAULT_255_1_234
10
9.7817604
20
118.9191211
11
9.9809475
21
118.9191211
0
LINE
8
DEFAULT_255_1_234
10
9.9809475
20
118.9191211
11
10.3632583
21
117.9649506
0
LINE
8
DEFAULT_255_1_234
10
10.3632583
20
117.9649506
11
10.745569
21
118.9191211
0
LINE
8
DEFAULT_255_1_234
10
10.745569
20
118.9191211
11
10.9455593
21
118.9191211
0
LINE
8
DEFAULT_255_1_234
10
10.9455593
20
118.9191211
11
10.9455593
21
117.7497
0
LINE
8
DEFAULT_255_1_234
10
10.9455593
20
117.7497
11
10.7913499
21
117.7497
0
LINE
8
DEFAULT_255_1_234
10
10.7913499
20
117.7497
11
10.7913499
21
118.2050996
0
LINE
8
DEFAULT_255_1_234
10
10.7913499
20
118.2050996
11
10.805807
21
118.6966419
0
LINE
8
DEFAULT_255_1_234
10
10.805807
20
118.6966419
11
10.4218899
21
117.7497
0
LINE
8
DEFAULT_255_1_234
10
10.4218899
20
117.7497
11
10.3038234
21
117.7497
0
LINE
8
DEFAULT_255_1_234
10
10.3038234
20
117.7497
11
9.9207095
21
118.6942324
0
LINE
8
DEFAULT_255_1_234
10
9.9207095
20
118.6942324
11
9.9359698
21
118.2050996
0
LINE
8
DEFAULT_255_1_234
10
9.9359698
20
118.2050996
11
9.9359698
21
117.7497
0
LINE
8
DEFAULT_255_1_234
10
9.9359698
20
117.7497
11
9.7817604
21
117.7497
0
LINE
8
DEFAULT_255_1_234
10
9.7817604
20
117.7497
11
9.7817604
21
118.9191211
0
LINE
8
DEFAULT_255_1_234
10
11.9896853
20
117.7497
11
11.8780441
21
118.0549061
0
LINE
8
DEFAULT_255_1_234
10
11.8780441
20
118.0549061
11
11.3881081
21
118.0549061
0
LINE
8
DEFAULT_255_1_234
10
11.3881081
20
118.0549061
11
11.2780732
21
117.7497
0
LINE
8
DEFAULT_255_1_234
10
11.2780732
20
117.7497
11
11.1190448
21
117.7497
0
LINE
8
DEFAULT_255_1_234
10
11.1190448
20
117.7497
11
11.5656095
21
118.9191211
0
LINE
8
DEFAULT_255_1_234
10
11.5656095
20
118.9191211
11
11.7005427
21
118.9191211
0
LINE
8
DEFAULT_255_1_234
10
11.7005427
20
118.9191211
11
12.1479105
21
117.7497
0
LINE
8
DEFAULT_255_1_234
10
12.1479105
20
117.7497
11
11.9896853
21
117.7497
0
LINE
8
DEFAULT_255_1_234
10
11.6330761
20
118.7287689
11
11.4346921
21
118.1818075
0
LINE
8
DEFAULT_255_1_234
10
11.4346921
20
118.1818075
11
11.8322632
21
118.1818075
0
LINE
8
DEFAULT_255_1_234
10
11.8322632
20
118.1818075
11
11.6330761
21
118.7287689
0
LINE
8
DEFAULT_255_1_234
10
13.009716
20
118.9191211
11
13.009716
21
118.7922196
0
LINE
8
DEFAULT_255_1_234
10
13.009716
20
118.7922196
11
12.6338307
21
118.7922196
0
LINE
8
DEFAULT_255_1_234
10
12.6338307
20
118.7922196
11
12.6338307
21
117.7497
0
LINE
8
DEFAULT_255_1_234
10
12.6338307
20
117.7497
11
12.4804245
21
117.7497
0
LINE
8
DEFAULT_255_1_234
10
12.4804245
20
117.7497
11
12.4804245
21
118.7922196
0
LINE
8
DEFAULT_255_1_234
10
12.4804245
20
118.7922196
11
12.1053423
21
118.7922196
0
LINE
8
DEFAULT_255_1_234
10
12.1053423
20
118.7922196
11
12.1053423
21
118.9191211
0
LINE
8
DEFAULT_255_1_234
10
12.1053423
20
118.9191211
11
13.009716
21
118.9191211
0
LINE
8
DEFAULT_255_1_234
10
13.3486554
20
118.9191211
11
13.3486554
21
117.7497
0
LINE
8
DEFAULT_255_1_234
10
13.3486554
20
117.7497
11
13.194446
21
117.7497
0
LINE
8
DEFAULT_255_1_234
10
13.194446
20
117.7497
11
13.194446
21
118.9191211
0
LINE
8
DEFAULT_255_1_234
10
13.194446
20
118.9191211
11
13.3486554
21
118.9191211
0
LINE
8
DEFAULT_255_1_234
10
14.335756
20
118.1207663
11
14.4907686
21
118.1207663
0
LINE
8
DEFAULT_255_1_234
10
13.5904107
20
118.2797947
11
13.5904107
21
118.3922391
0
LINE
8
DEFAULT_255_1_234
10
14.4907686
20
118.5432357
11
14.335756
21
118.5432357
0
LINE
8
DEFAULT_255_1_234
10
13.7454232
20
118.3882232
11
13.7454232
21
118.2749757
0
ARC
8
DEFAULT_255_1_234
10
13.9427072
20
118.1804846
40
0.5513052
50
340.1774281
51
353.7814284
0
ARC
8
DEFAULT_255_1_234
10
14.0998425
20
118.1219582
40
0.3836379
50
311.4558989
51
340.4421614
0
ARC
8
DEFAULT_255_1_234
10
14.0965093
20
118.1330528
40
0.3941894
50
282.4333181
51
310.7513653
0
ARC
8
DEFAULT_255_1_234
10
14.0525832
20
118.3145679
40
0.5809175
50
269.9358511
51
282.809604
0
ARC
8
DEFAULT_255_1_234
10
14.0473899
20
118.4603212
40
0.7266847
50
270.0021091
51
270.3581957
0
ARC
8
DEFAULT_255_1_234
10
14.0421315
20
118.2002585
40
0.4666519
50
250.7884749
51
270.6489167
0
ARC
8
DEFAULT_255_1_234
10
14.025315
20
118.1365319
40
0.4009729
50
219.3627325
51
250.0611886
0
ARC
8
DEFAULT_255_1_234
10
14.1082361
20
118.2070042
40
0.5097822
50
193.5479632
51
219.5756669
0
ARC
8
DEFAULT_255_1_234
10
14.3453982
20
118.2685919
40
0.7547848
50
181.1218675
51
193.87563
0
ARC
8
DEFAULT_255_1_234
10
14.5524163
20
118.279658
40
0.9620055
50
179.9918545
51
181.5394234
0
ARC
8
DEFAULT_255_1_234
10
14.3673265
20
118.3959788
40
0.7769248
50
169.5837241
51
180.2757934
0
ARC
8
DEFAULT_255_1_234
10
14.1836203
20
118.4299229
40
0.590109
50
155.0365899
51
169.6003176
0
ARC
8
DEFAULT_255_1_234
10
14.0700667
20
118.4846677
40
0.4640625
50
136.783148
51
155.2472683
0
ARC
8
DEFAULT_255_1_234
10
14.0311144
20
118.5177562
40
0.4130255
50
121.7633186
51
136.428115
0
ARC
8
DEFAULT_255_1_234
10
14.0446106
20
118.4928227
40
0.4413323
50
95.6459699
51
121.5490577
0
ARC
8
DEFAULT_255_1_234
10
14.0603388
20
118.3819949
40
0.55319
50
89.924208
51
96.1377933
0
ARC
8
DEFAULT_255_1_234
10
14.0653821
20
118.3938542
40
0.5413475
50
76.6779277
51
90.4563316
0
ARC
8
DEFAULT_255_1_234
10
14.1047444
20
118.5529114
40
0.3775041
50
47.485847
51
76.9287264
0
ARC
8
DEFAULT_255_1_234
10
14.0900417
20
118.5429159
40
0.3948286
50
16.5424086
51
46.8933463
0
ARC
8
DEFAULT_255_1_234
10
13.9292574
20
118.4900861
40
0.564021
50
5.4072051
51
17.0365086
0
ARC
8
DEFAULT_255_1_234
10
13.7853591
20
118.4669679
40
0.5556559
50
7.8891745
51
15.9239216
0
ARC
8
DEFAULT_255_1_234
10
13.9840605
20
118.5246631
40
0.3487515
50
15.7653144
51
27.9410532
0
ARC
8
DEFAULT_255_1_234
10
14.0944822
20
118.583779
40
0.2235026
50
27.8166557
51
46.4008329
0
ARC
8
DEFAULT_255_1_234
10
14.0994465
20
118.5832082
40
0.2205286
50
47.4371857
51
75.0698205
0
ARC
8
DEFAULT_255_1_234
10
14.068586
20
118.4757765
40
0.3322915
50
74.7008593
51
87.8124495
0
ARC
8
DEFAULT_255_1_234
10
14.0612547
20
118.3701844
40
0.4380987
50
87.3814673
51
90.0240855
0
ARC
8
DEFAULT_255_1_234
10
14.0574091
20
118.4879291
40
0.3203749
50
89.3451631
51
108.5745436
0
ARC
8
DEFAULT_255_1_234
10
14.0437196
20
118.5392908
40
0.2673494
50
109.2998449
51
143.3037509
0
ARC
8
DEFAULT_255_1_234
10
14.1199268
20
118.4806881
40
0.3634757
50
143.0753173
51
163.1916937
0
ARC
8
DEFAULT_255_1_234
10
14.3150996
20
118.4190967
40
0.5681262
50
162.9373603
51
174.6208611
0
ARC
8
DEFAULT_255_1_234
10
14.5777038
20
118.390301
40
0.8322832
50
174.3419979
51
180.1430411
0
ARC
8
DEFAULT_255_1_234
10
14.4846194
20
118.2708698
40
0.7392076
50
179.6817502
51
189.150529
0
ARC
8
DEFAULT_255_1_234
10
14.2345443
20
118.229219
40
0.4856932
50
188.9910863
51
203.5773039
0
ARC
8
DEFAULT_255_1_234
10
14.1265775
20
118.1844211
40
0.3688271
50
203.9077269
51
215.1312379
0
ARC
8
DEFAULT_255_1_234
10
14.0342869
20
118.1128941
40
0.2522457
50
213.9071664
51
263.8849284
0
ARC
8
DEFAULT_255_1_234
10
14.0468198
20
118.1913518
40
0.3316174
50
263.1758525
51
270.1031083
0
ARC
8
DEFAULT_255_1_234
10
14.050029
20
118.3160365
40
0.4563091
50
269.6719807
51
279.0609165
0
ARC
8
DEFAULT_255_1_234
10
14.0767058
20
118.1547907
40
0.2928759
50
278.8750225
51
293.6346586
0
ARC
8
DEFAULT_255_1_234
10
14.1087266
20
118.07959
40
0.2111472
50
293.8553404
51
310.0518804
0
ARC
8
DEFAULT_255_1_234
10
14.109212
20
118.0733516
40
0.2060917
50
311.0646779
51
332.0108348
0
ARC
8
DEFAULT_255_1_234
10
13.9899847
20
118.1390978
40
0.3422352
50
331.6588543
51
343.2878891
0
ARC
8
DEFAULT_255_1_234
10
13.7837362
20
118.2024798
40
0.5580003
50
343.1446044
51
351.010618
0
ARC
8
DEFAULT_255_1_234
10
13.6296008
20
118.2305871
40
0.7146438
50
350.7157277
51
351.1602153
0
LINE
8
DEFAULT_255_1_234
10
15.8842751
20
118.5809849
11
15.7292626
21
118.5809849
0
LINE
8
DEFAULT_255_1_234
10
15.0369268
20
118.0886394
11
15.1919393
21
118.0886394
0
ARC
8
DEFAULT_255_1_234
10
15.7951439
20
119.4756768
40
1.252368
50
248.9199003
51
254.1439814
0
ARC
8
DEFAULT_255_1_234
10
15.6270934
20
119.0430234
40
0.788226
50
241.633709
51
249.0064503
0
ARC
8
DEFAULT_255_1_234
10
15.4742328
20
118.7629317
40
0.4691427
50
230.498225
51
241.8087113
0
ARC
8
DEFAULT_255_1_234
10
15.3957902
20
118.6629906
40
0.3421437
50
227.4064532
51
229.9881192
0
ARC
8
DEFAULT_255_1_234
10
15.3470423
20
118.6154088
40
0.2741476
50
200.6781896
51
228.1763934
0
ARC
8
DEFAULT_255_1_234
10
15.3542734
20
118.6139077
40
0.2804109
50
179.5061581
51
199.8694617
0
ARC
8
DEFAULT_255_1_234
10
15.3533485
20
118.621321
40
0.2795204
50
132.4834203
51
181.0242172
0
ARC
8
DEFAULT_255_1_234
10
15.4129068
20
118.5650704
40
0.3612768
50
129.2532479
51
133.4242687
0
ARC
8
DEFAULT_255_1_234
10
15.4275517
20
118.5430965
40
0.3875675
50
101.98776
51
128.8742646
0
ARC
8
DEFAULT_255_1_234
10
15.4674128
20
118.3709741
40
0.5642249
50
89.5906553
51
102.3169264
0
ARC
8
DEFAULT_255_1_234
10
15.474462
20
118.4028148
40
0.5323783
50
77.2360837
51
90.3248275
0
ARC
8
DEFAULT_255_1_234
10
15.4951699
20
118.49954
40
0.4334697
50
63.837784
51
77.0809408
0
ARC
8
DEFAULT_255_1_234
10
15.5229461
20
118.5512911
40
0.3747796
50
45.9864267
51
64.1607727
0
ARC
8
DEFAULT_255_1_234
10
15.5490342
20
118.5810866
40
0.3352302
50
32.2747395
51
45.6547121
0
ARC
8
DEFAULT_255_1_234
10
15.5556783
20
118.582988
40
0.328603
50
359.6507365
51
32.6130309
0
ARC
8
DEFAULT_255_1_234
10
15.4613878
20
118.583466
40
0.2678863
50
359.469343
51
14.9832209
0
ARC
8
DEFAULT_255_1_234
10
15.5318941
20
118.6023539
40
0.1948938
50
14.9781179
51
48.2004265
0
ARC
8
DEFAULT_255_1_234
10
15.5154585
20
118.5816983
40
0.2212521
50
48.5927837
51
74.1241538
0
ARC
8
DEFAULT_255_1_234
10
15.4821074
20
118.4716248
40
0.3362561
50
73.7888341
51
86.6652678
0
ARC
8
DEFAULT_255_1_234
10
15.471864
20
118.3508881
40
0.4573953
50
86.2640471
51
90.0526343
0
ARC
8
DEFAULT_255_1_234
10
15.4690352
20
118.3904192
40
0.4178709
50
89.6697524
51
99.2309573
0
ARC
8
DEFAULT_255_1_234
10
15.4447803
20
118.5348964
40
0.2713749
50
99.069534
51
113.7658566
0
ARC
8
DEFAULT_255_1_234
10
15.4173994
20
118.5994677
40
0.2012469
50
114.0401004
51
127.9850673
0
ARC
8
DEFAULT_255_1_234
10
15.3933558
20
118.629073
40
0.1631167
50
127.7287463
51
176.7105154
0
ARC
8
DEFAULT_255_1_234
10
15.4612276
20
118.6189693
40
0.2315392
50
175.1779447
51
180.0581938
0
ARC
8
DEFAULT_255_1_234
10
15.3769123
20
118.6177428
40
0.1472271
50
179.6142195
51
228.1246017
0
ARC
8
DEFAULT_255_1_234
10
15.4210791
20
118.6586308
40
0.2072299
50
226.5779593
51
230.8800004
0
ARC
8
DEFAULT_255_1_234
10
15.468187
20
118.7211636
40
0.2854818
50
231.4635071
51
241.9260842
0
ARC
8
DEFAULT_255_1_234
10
15.5879048
20
118.94148
40
0.53622
50
241.7178533
51
248.3259551
0
ARC
8
DEFAULT_255_1_234
10
15.726442
20
119.2847064
40
0.9063478
50
248.2007737
51
252.4528373
0
ARC
8
DEFAULT_255_1_234
10
15.8468145
20
119.6568441
40
1.2974635
50
252.3391078
51
254.3469452
0
ARC
8
DEFAULT_255_1_234
10
15.0925847
20
116.9591148
40
1.5037162
50
71.0197183
51
74.4087047
0
ARC
8
DEFAULT_255_1_234
10
15.2620532
20
117.4483111
40
0.9859993
50
66.1847285
51
71.086374
0
ARC
8
DEFAULT_255_1_234
10
15.4176845
20
117.79872
40
0.6025855
50
59.3536294
51
66.2691831
0
ARC
8
DEFAULT_255_1_234
10
15.5065497
20
117.9490609
40
0.4279449
50
49.1020879
51
59.3293958
0
ARC
8
DEFAULT_255_1_234
10
15.5884237
20
118.0423834
40
0.3038015
50
32.7919921
51
49.2505539
0
ARC
8
DEFAULT_255_1_234
10
15.6205327
20
118.0652191
40
0.264448
50
31.1181161
51
32.4005348
0
ARC
8
DEFAULT_255_1_234
10
15.6116865
20
118.0616779
40
0.2738556
50
8.1116974
51
30.7958831
0
ARC
8
DEFAULT_255_1_234
10
15.5306533
20
118.0478753
40
0.3560327
50
359.8389159
51
8.4706516
0
ARC
8
DEFAULT_255_1_234
10
15.5932324
20
118.0430137
40
0.2934776
50
337.4731098
51
0.7537279
0
ARC
8
DEFAULT_255_1_234
10
15.6111019
20
118.0410387
40
0.2762607
50
307.5917067
51
336.4315538
0
ARC
8
DEFAULT_255_1_234
10
15.5650847
20
118.0923102
40
0.3449979
50
307.6551545
51
308.4529766
0
ARC
8
DEFAULT_255_1_234
10
15.5420566
20
118.127825
40
0.3871988
50
284.3734338
51
307.1424381
0
ARC
8
DEFAULT_255_1_234
10
15.4925396
20
118.3099932
40
0.5759636
50
272.4382747
51
284.646547
0
ARC
8
DEFAULT_255_1_234
10
15.4798605
20
118.4899893
40
0.7563528
50
269.9708387
51
272.8178037
0
ARC
8
DEFAULT_255_1_234
10
15.4755645
20
118.2861716
40
0.5525489
50
248.2707594
51
270.4055579
0
ARC
8
DEFAULT_255_1_234
10
15.4701386
20
118.2671192
40
0.5328452
50
246.1383403
51
248.0542782
0
ARC
8
DEFAULT_255_1_234
10
15.4282765
20
118.1791843
40
0.4355005
50
233.1670131
51
246.4950969
0
ARC
8
DEFAULT_255_1_234
10
15.372867
20
118.1043812
40
0.3424126
50
215.3403242
51
233.0843104
0
ARC
8
DEFAULT_255_1_234
10
15.3456101
20
118.0845549
40
0.3087104
50
179.2419209
51
215.2648451
0
ARC
8
DEFAULT_255_1_234
10
15.4223695
20
118.0859666
40
0.2304457
50
179.335461
51
199.1045811
0
ARC
8
DEFAULT_255_1_234
10
15.3891371
20
118.0772766
40
0.1962176
50
199.8828939
51
232.7063202
0
ARC
8
DEFAULT_255_1_234
10
15.436364
20
118.1366788
40
0.2720938
50
232.3738199
51
255.5136649
0
ARC
8
DEFAULT_255_1_234
10
15.4704506
20
118.2610835
40
0.4010747
50
255.2446292
51
267.5320849
0
ARC
8
DEFAULT_255_1_234
10
15.479213
20
118.3843702
40
0.5246356
50
267.1557994
51
270.0286766
0
ARC
8
DEFAULT_255_1_234
10
15.4819902
20
118.339995
40
0.4802668
50
269.7000017
51
278.1660162
0
ARC
8
DEFAULT_255_1_234
10
15.5075907
20
118.1669515
40
0.3053425
50
278.0231263
51
290.625471
0
ARC
8
DEFAULT_255_1_234
10
15.5423594
20
118.0742025
40
0.206291
50
290.6619762
51
307.0370976
0
ARC
8
DEFAULT_255_1_234
10
15.5723983
20
118.0373504
40
0.1587906
50
306.3943566
51
355.3030547
0
ARC
8
DEFAULT_255_1_234
10
15.5211914
20
118.0450113
40
0.2104809
50
354.3660432
51
0.0698737
0
ARC
8
DEFAULT_255_1_234
10
15.535426
20
118.0472617
40
0.1962563
50
359.417946
51
16.1971788
0
ARC
8
DEFAULT_255_1_234
10
15.580957
20
118.0597418
40
0.149053
50
16.4723299
51
52.6262157
0
ARC
8
DEFAULT_255_1_234
10
15.4988624
20
117.9513433
40
0.2850296
50
52.7386432
51
62.4979148
0
ARC
8
DEFAULT_255_1_234
10
15.3603701
20
117.6907283
40
0.5801521
50
62.2515216
51
68.1220564
0
ARC
8
DEFAULT_255_1_234
10
15.1883612
20
117.2679872
40
1.0365451
50
68.0062803
51
71.8053402
0
ARC
8
DEFAULT_255_1_234
10
15.0087983
20
116.7294758
40
1.6042013
50
71.7183119
51
73.9258742
0
LINE
8
DEFAULT_255_1_234
10
16.8006965
20
118.9191211
11
16.8006965
21
118.835591
0
LINE
8
DEFAULT_255_1_234
10
16.8006965
20
118.835591
11
16.3163827
21
117.7497
0
LINE
8
DEFAULT_255_1_234
10
16.3163827
20
117.7497
11
16.1605669
21
117.7497
0
LINE
8
DEFAULT_255_1_234
10
16.1605669
20
117.7497
11
16.6432744
21
118.7970387
0
LINE
8
DEFAULT_255_1_234
10
16.6432744
20
118.7970387
11
16.0103734
21
118.7970387
0
LINE
8
DEFAULT_255_1_234
10
16.0103734
20
118.7970387
11
16.0103734
21
118.9191211
0
LINE
8
DEFAULT_255_1_234
10
16.0103734
20
118.9191211
11
16.8006965
21
118.9191211
0
LINE
8
DEFAULT_255_1_234
10
17.2938452
20
118.3071026
11
17.2938452
21
118.1858234
0
LINE
8
DEFAULT_255_1_234
10
17.2938452
20
118.1858234
11
16.9018964
21
118.1858234
0
LINE
8
DEFAULT_255_1_234
10
16.9018964
20
118.1858234
11
16.9018964
21
118.3071026
0
LINE
8
DEFAULT_255_1_234
10
16.9018964
20
118.3071026
11
17.2938452
21
118.3071026
0
LINE
8
DEFAULT_255_1_234
10
17.63921
20
118.2854169
11
17.63921
21
118.4066962
0
LINE
8
DEFAULT_255_1_234
10
17.63921
20
118.4066962
11
17.7508511
21
118.4066962
0
LINE
8
DEFAULT_255_1_234
10
17.5604989
20
118.6123087
11
17.4119118
21
118.6123087
0
LINE
8
DEFAULT_255_1_234
10
17.4014705
20
118.0581188
11
17.5508608
21
118.0581188
0
LINE
8
DEFAULT_255_1_234
10
17.7508511
20
118.2854169
11
17.63921
21
118.2854169
0
ARC
8
DEFAULT_255_1_234
10
17.7479378
20
118.7459713
40
0.3392876
50
270.4919872
51
281.8951556
0
ARC
8
DEFAULT_255_1_234
10
17.7720639
20
118.6357702
40
0.2264817
50
281.6691735
51
301.2943132
0
ARC
8
DEFAULT_255_1_234
10
17.789085
20
118.6046304
40
0.1910381
50
301.7833094
51
311.7545298
0
ARC
8
DEFAULT_255_1_234
10
17.7982425
20
118.5944748
40
0.1773635
50
311.7323931
51
354.2802411
0
ARC
8
DEFAULT_255_1_234
10
17.7256051
20
118.6069722
40
0.2509385
50
353.0937916
51
0.1181479
0
ARC
8
DEFAULT_255_1_234
10
17.6794835
20
118.6117386
40
0.2970898
50
359.1805295
51
15.0453146
0
ARC
8
DEFAULT_255_1_234
10
17.8140672
20
118.6509992
40
0.1569564
50
13.9577229
51
77.6713066
0
ARC
8
DEFAULT_255_1_234
10
17.7754202
20
118.5124949
40
0.3006298
50
76.1116566
51
90.7026153
0
ARC
8
DEFAULT_255_1_234
10
17.769504
20
118.5398545
40
0.2732568
50
89.5324876
51
103.531937
0
ARC
8
DEFAULT_255_1_234
10
17.7494484
20
118.6197884
40
0.1908508
50
103.2931773
51
133.5619022
0
ARC
8
DEFAULT_255_1_234
10
17.7449972
20
118.6257375
40
0.1834746
50
133.8349307
51
173.5344437
0
ARC
8
DEFAULT_255_1_234
10
17.8173015
20
118.6129213
40
0.2568033
50
172.5096846
51
180.1366907
0
ARC
8
DEFAULT_255_1_234
10
17.7221909
20
118.6163622
40
0.3103056
50
155.3484492
51
180.7484736
0
ARC
8
DEFAULT_255_1_234
10
17.7172998
20
118.6134846
40
0.3070957
50
131.5744599
51
154.4798489
0
ARC
8
DEFAULT_255_1_234
10
17.7486146
20
118.581831
40
0.3515643
50
96.9875458
51
131.9690667
0
ARC
8
DEFAULT_255_1_234
10
17.7705626
20
118.4572636
40
0.4779224
50
89.8596053
51
97.7825159
0
ARC
8
DEFAULT_255_1_234
10
17.7753689
20
118.4310616
40
0.5041361
50
78.3655447
51
90.4131539
0
ARC
8
DEFAULT_255_1_234
10
17.8111607
20
118.5969887
40
0.3344039
50
56.6229102
51
78.638727
0
ARC
8
DEFAULT_255_1_234
10
17.832655
20
118.6345805
40
0.2912001
50
47.0253525
51
56.0854072
0
ARC
8
DEFAULT_255_1_234
10
17.834633
20
118.6385223
40
0.2869704
50
10.9208013
51
46.7778124
0
ARC
8
DEFAULT_255_1_234
10
17.6982397
20
118.6069857
40
0.426899
50
359.6364486
51
11.6087304
0
ARC
8
DEFAULT_255_1_234
10
17.8817241
20
118.6054752
40
0.243409
50
332.3549906
51
359.7179418
0
ARC
8
DEFAULT_255_1_234
10
17.8166842
20
118.6363142
40
0.3153459
50
325.2333722
51
332.8745602
0
ARC
8
DEFAULT_255_1_234
10
17.8319466
20
118.6256828
40
0.2967456
50
292.9802137
51
325.2392345
0
ARC
8
DEFAULT_255_1_234
10
17.804484
20
118.6790863
40
0.3566604
50
292.5402179
51
293.6924929
0
ARC
8
DEFAULT_255_1_234
10
17.8437436
20
118.0336091
40
0.3307468
50
57.6435486
51
72.8625112
0
ARC
8
DEFAULT_255_1_234
10
17.8791936
20
118.0910549
40
0.2632492
50
36.7248896
51
57.4697979
0
ARC
8
DEFAULT_255_1_234
10
17.8780568
20
118.092322
40
0.2634081
50
8.0545065
51
36.356114
0
ARC
8
DEFAULT_255_1_234
10
17.7917754
20
118.0768174
40
0.3510261
50
359.8320645
51
8.5869982
0
ARC
8
DEFAULT_255_1_234
10
17.754253
20
118.0720101
40
0.3885653
50
343.9829931
51
0.5571613
0
ARC
8
DEFAULT_255_1_234
10
17.8428727
20
118.0477438
40
0.2966924
50
311.6359546
51
343.7651759
0
ARC
8
DEFAULT_255_1_234
10
17.8050296
20
118.0904102
40
0.3537231
50
279.7829875
51
311.6255694
0
ARC
8
DEFAULT_255_1_234
10
17.7749072
20
118.234128
40
0.5004971
50
269.7286406
51
280.3856417
0
ARC
8
DEFAULT_255_1_234
10
17.7687145
20
118.2299996
40
0.4963778
50
256.6828919
51
270.4412052
0
ARC
8
DEFAULT_255_1_234
10
17.7348441
20
118.0915394
40
0.3538406
50
229.4223008
51
256.8556159
0
ARC
8
DEFAULT_255_1_234
10
17.6933834
20
118.0448736
40
0.2914296
50
181.818294
51
229.6455059
0
ARC
8
DEFAULT_255_1_234
10
17.797379
20
118.0579496
40
0.3959084
50
179.9755256
51
183.2323064
0
ARC
8
DEFAULT_255_1_234
10
17.7801536
20
118.0559037
40
0.2293034
50
179.4465117
51
196.2869258
0
ARC
8
DEFAULT_255_1_234
10
17.7313944
20
118.0425651
40
0.1787621
50
196.5661473
51
227.705904
0
ARC
8
DEFAULT_255_1_234
10
17.7478038
20
118.0609155
40
0.2033784
50
227.7652068
51
257.8762805
0
ARC
8
DEFAULT_255_1_234
10
17.7703009
20
118.1552156
40
0.3003081
50
257.4584385
51
270.426602
0
ARC
8
DEFAULT_255_1_234
10
17.7748575
20
118.1841996
40
0.329292
50
269.5962073
51
280.8789248
0
ARC
8
DEFAULT_255_1_234
10
17.7978104
20
118.0695685
40
0.2123908
50
280.6346389
51
299.8595945
0
ARC
8
DEFAULT_255_1_234
10
17.816901
20
118.0333212
40
0.171457
50
300.3576302
51
314.5517981
0
ARC
8
DEFAULT_255_1_234
10
17.808607
20
118.0393919
40
0.1816095
50
315.0728369
51
345.0431014
0
ARC
8
DEFAULT_255_1_234
10
17.7162885
20
118.0662841
40
0.2777492
50
344.5986631
51
357.9269593
0
ARC
8
DEFAULT_255_1_234
10
17.6267211
20
118.0724276
40
0.3674917
50
357.4748886
51
0.0231117
0
ARC
8
DEFAULT_255_1_234
10
17.729032
20
118.0748679
40
0.2651907
50
359.5047933
51
13.4239635
0
ARC
8
DEFAULT_255_1_234
10
17.8156964
20
118.0970478
40
0.1757509
50
12.9498199
51
48.7551375
0
ARC
8
DEFAULT_255_1_234
10
17.7974698
20
118.07214
40
0.2065134
50
49.5088623
51
72.1836453
0
ARC
8
DEFAULT_255_1_234
10
17.761685
20
117.9659291
40
0.3185836
50
71.9010081
51
84.3554254
0
ARC
8
DEFAULT_255_1_234
10
17.7455482
20
117.8298326
40
0.4556151
50
84.0193428
51
89.333121
0
LINE
8
DEFAULT_255_1_234
10
19.0801038
20
118.4412327
11
19.0801038
21
118.2484709
0
LINE
8
DEFAULT_255_1_234
10
18.3419871
20
118.2283916
11
18.3419871
21
118.4267755
0
LINE
8
DEFAULT_255_1_234
10
18.9315167
20
118.2083123
11
18.9315167
21
118.4516739
0
LINE
8
DEFAULT_255_1_234
10
18.4905742
20
118.4629184
11
18.4905742
21
118.2251789
0
ARC
8
DEFAULT_255_1_234
10
17.8553928
20
118.2435805
40
1.2247208
50
353.8441951
51
0.2287902
0
ARC
8
DEFAULT_255_1_234
10
18.3193431
20
118.1917806
40
0.7578929
50
344.4934747
51
353.9765454
0
ARC
8
DEFAULT_255_1_234
10
18.6186022
20
118.1066981
40
0.4467846
50
329.2803592
51
344.7472793
0
ARC
8
DEFAULT_255_1_234
10
18.7178846
20
118.0522018
40
0.3336173
50
324.9352394
51
328.6160465
0
ARC
8
DEFAULT_255_1_234
10
18.7555955
20
118.0258427
40
0.2876076
50
280.580143
51
324.9173126
0
ARC
8
DEFAULT_255_1_234
10
18.7154748
20
118.1929099
40
0.4592847
50
269.5977311
51
281.6734359
0
ARC
8
DEFAULT_255_1_234
10
18.7082653
20
118.1809173
40
0.4472986
50
256.6228859
51
270.51044
0
ARC
8
DEFAULT_255_1_234
10
18.6680631
20
118.0260877
40
0.2873874
50
215.8618325
51
257.2788573
0
ARC
8
DEFAULT_255_1_234
10
18.7701663
20
118.0945977
40
0.4102928
50
197.9693508
51
215.2623606
0
ARC
8
DEFAULT_255_1_234
10
19.0186778
20
118.1784709
40
0.6725652
50
187.8816417
51
198.2346507
0
ARC
8
DEFAULT_255_1_234
10
19.4144987
20
118.2356079
40
1.0724845
50
180.8976217
51
188.0055519
0
ARC
8
DEFAULT_255_1_234
10
19.6945175
20
118.2459777
40
1.3526448
50
180.7449369
51
181.1510016
0
ARC
8
DEFAULT_255_1_234
10
19.5367904
20
118.4316042
40
1.1948131
50
173.7675579
51
180.231553
0
ARC
8
DEFAULT_255_1_234
10
19.085005
20
118.4826666
40
0.7401564
50
164.3058563
51
173.9002247
0
ARC
8
DEFAULT_255_1_234
10
18.7938119
20
118.5665656
40
0.4371288
50
148.7922025
51
164.568378
0
ARC
8
DEFAULT_255_1_234
10
18.6986571
20
118.6196929
40
0.3282386
50
144.5883898
51
148.1176286
0
ARC
8
DEFAULT_255_1_234
10
18.6643469
20
118.6436315
40
0.2864044
50
101.6440918
51
144.514236
0
ARC
8
DEFAULT_255_1_234
10
18.7068536
20
118.4747069
40
0.4604934
50
89.5284041
51
102.5819763
0
ARC
8
DEFAULT_255_1_234
10
18.7147624
20
118.4708018
40
0.464401
50
77.0437873
51
90.5081339
0
ARC
8
DEFAULT_255_1_234
10
18.7549626
20
118.6350615
40
0.2953195
50
48.2778575
51
77.4994676
0
ARC
8
DEFAULT_255_1_234
10
18.7622257
20
118.6479746
40
0.2808655
50
36.3142134
51
47.6305865
0
ARC
8
DEFAULT_255_1_234
10
18.6753564
20
118.5894515
40
0.3855453
50
18.2931786
51
35.6769206
0
ARC
8
DEFAULT_255_1_234
10
18.4210323
20
118.5021593
40
0.654423
50
8.024666
51
18.5605216
0
ARC
8
DEFAULT_255_1_234
10
18.0047243
20
118.4406792
40
1.0752407
50
1.1274072
51
8.1718305
0
ARC
8
DEFAULT_255_1_234
10
17.6811433
20
118.4279885
40
1.3990231
50
0.5424119
51
1.3863029
0
ARC
8
DEFAULT_255_1_234
10
17.8632811
20
118.4552342
40
1.0682415
50
359.8090433
51
4.9407866
0
ARC
8
DEFAULT_255_1_234
10
18.2842825
20
118.4928113
40
0.6455691
50
4.8362157
51
12.2904523
0
ARC
8
DEFAULT_255_1_234
10
18.559794
20
118.5541965
40
0.3633074
50
12.0805627
51
23.8173984
0
ARC
8
DEFAULT_255_1_234
10
18.6771645
20
118.6038919
40
0.2358723
50
24.2871213
51
31.3935614
0
ARC
8
DEFAULT_255_1_234
10
18.7296342
20
118.6382233
40
0.1732111
50
30.7407893
51
82.4657128
0
ARC
8
DEFAULT_255_1_234
10
18.7116477
20
118.5498691
40
0.263235
50
81.1060089
51
90.2184952
0
ARC
8
DEFAULT_255_1_234
10
18.7080776
20
118.5756924
40
0.2374236
50
89.3806855
51
105.6762551
0
ARC
8
DEFAULT_255_1_234
10
18.6897406
20
118.6423567
40
0.1682847
50
105.7981136
51
149.7388061
0
ARC
8
DEFAULT_255_1_234
10
18.7961485
20
118.578395
40
0.2924306
50
149.4208916
51
163.6286378
0
ARC
8
DEFAULT_255_1_234
10
19.0052373
20
118.514625
40
0.5110213
50
163.3763315
51
172.1410975
0
ARC
8
DEFAULT_255_1_234
10
19.3353092
20
118.4673518
40
0.8444586
50
172.0259487
51
178.0703232
0
ARC
8
DEFAULT_255_1_234
10
19.6383181
20
118.4529906
40
1.1477868
50
177.8631668
51
179.5044149
0
ARC
8
DEFAULT_255_1_234
10
19.5310586
20
118.2215389
40
1.0404907
50
179.7995573
51
185.2460446
0
ARC
8
DEFAULT_255_1_234
10
19.1267625
20
118.1832513
40
0.6343885
50
185.1411642
51
193.0079639
0
ARC
8
DEFAULT_255_1_234
10
18.8624097
20
118.1207641
40
0.3627568
50
192.7897626
51
205.2507664
0
ARC
8
DEFAULT_255_1_234
10
18.7577644
20
118.0740415
40
0.2481908
50
205.8005384
51
211.2537509
0
ARC
8
DEFAULT_255_1_234
10
18.7054085
20
118.038958
40
0.1852521
50
210.3789793
51
238.4008143
0
ARC
8
DEFAULT_255_1_234
10
18.7034607
20
118.0436376
40
0.1882621
50
239.6520629
51
265.9793761
0
ARC
8
DEFAULT_255_1_234
10
18.7119807
20
118.1108427
40
0.2559272
50
265.1315437
51
270.060332
0
ARC
8
DEFAULT_255_1_234
10
18.7148586
20
118.0784534
40
0.2235528
50
269.3314664
51
287.2178029
0
ARC
8
DEFAULT_255_1_234
10
18.7286438
20
118.0281279
40
0.1714108
50
287.7958004
51
329.080874
0
ARC
8
DEFAULT_255_1_234
10
18.6328894
20
118.087893
40
0.2842745
50
328.6634704
51
343.3325132
0
ARC
8
DEFAULT_255_1_234
10
18.4155915
20
118.1555863
40
0.5118644
50
343.0499468
51
351.9393422
0
ARC
8
DEFAULT_255_1_234
10
18.0689215
20
118.2066949
40
0.8622784
50
351.8069023
51
357.7959224
0
ARC
8
DEFAULT_255_1_234
10
17.7453771
20
118.2234721
40
1.1862365
50
357.5871873
51
359.2677531
0
LINE
8
DEFAULT_255_1_234
10
20.0037537
20
118.4412327
11
20.0037537
21
118.2484709
0
LINE
8
DEFAULT_255_1_234
10
19.265637
20
118.2283916
11
19.265637
21
118.4267755
0
LINE
8
DEFAULT_255_1_234
10
19.8551666
20
118.2083123
11
19.8551666
21
118.4516739
0
LINE
8
DEFAULT_255_1_234
10
19.4142241
20
118.4629184
11
19.4142241
21
118.2251789
0
ARC
8
DEFAULT_255_1_234
10
18.7790427
20
118.2435805
40
1.2247208
50
353.8441951
51
0.2287902
0
ARC
8
DEFAULT_255_1_234
10
19.242993
20
118.1917806
40
0.7578929
50
344.4934747
51
353.9765454
0
ARC
8
DEFAULT_255_1_234
10
19.5422521
20
118.1066981
40
0.4467846
50
329.2803592
51
344.7472793
0
ARC
8
DEFAULT_255_1_234
10
19.6415345
20
118.0522018
40
0.3336173
50
324.9352394
51
328.6160465
0
ARC
8
DEFAULT_255_1_234
10
19.6792454
20
118.0258427
40
0.2876076
50
280.580143
51
324.9173126
0
ARC
8
DEFAULT_255_1_234
10
19.6391247
20
118.1929099
40
0.4592847
50
269.5977311
51
281.6734359
0
ARC
8
DEFAULT_255_1_234
10
19.6319152
20
118.1809173
40
0.4472986
50
256.6228859
51
270.51044
0
ARC
8
DEFAULT_255_1_234
10
19.591713
20
118.0260877
40
0.2873874
50
215.8618325
51
257.2788573
0
ARC
8
DEFAULT_255_1_234
10
19.6938162
20
118.0945977
40
0.4102928
50
197.9693508
51
215.2623606
0
ARC
8
DEFAULT_255_1_234
10
19.9423277
20
118.1784709
40
0.6725652
50
187.8816417
51
198.2346507
0
ARC
8
DEFAULT_255_1_234
10
20.3381486
20
118.2356079
40
1.0724845
50
180.8976217
51
188.0055519
0
ARC
8
DEFAULT_255_1_234
10
20.6181674
20
118.2459777
40
1.3526448
50
180.7449369
51
181.1510016
0
ARC
8
DEFAULT_255_1_234
10
20.4604403
20
118.4316042
40
1.1948131
50
173.7675579
51
180.231553
0
ARC
8
DEFAULT_255_1_234
10
20.0086549
20
118.4826666
40
0.7401564
50
164.3058563
51
173.9002247
0
ARC
8
DEFAULT_255_1_234
10
19.7174618
20
118.5665656
40
0.4371288
50
148.7922025
51
164.568378
0
ARC
8
DEFAULT_255_1_234
10
19.622307
20
118.6196929
40
0.3282386
50
144.5883898
51
148.1176286
0
ARC
8
DEFAULT_255_1_234
10
19.5879968
20
118.6436315
40
0.2864044
50
101.6440918
51
144.514236
0
ARC
8
DEFAULT_255_1_234
10
19.6305035
20
118.4747069
40
0.4604934
50
89.5284041
51
102.5819763
0
ARC
8
DEFAULT_255_1_234
10
19.6384123
20
118.4708018
40
0.464401
50
77.0437873
51
90.5081339
0
ARC
8
DEFAULT_255_1_234
10
19.6786125
20
118.6350615
40
0.2953195
50
48.2778575
51
77.4994676
0
ARC
8
DEFAULT_255_1_234
10
19.6858756
20
118.6479746
40
0.2808655
50
36.3142134
51
47.6305865
0
ARC
8
DEFAULT_255_1_234
10
19.5990063
20
118.5894515
40
0.3855453
50
18.2931786
51
35.6769206
0
ARC
8
DEFAULT_255_1_234
10
19.3446822
20
118.5021593
40
0.654423
50
8.024666
51
18.5605216
0
ARC
8
DEFAULT_255_1_234
10
18.9283742
20
118.4406792
40
1.0752407
50
1.1274072
51
8.1718305
0
ARC
8
DEFAULT_255_1_234
10
18.6047932
20
118.4279885
40
1.3990231
50
0.5424119
51
1.3863029
0
ARC
8
DEFAULT_255_1_234
10
18.786931
20
118.4552342
40
1.0682415
50
359.8090433
51
4.9407866
0
ARC
8
DEFAULT_255_1_234
10
19.2079324
20
118.4928113
40
0.6455691
50
4.8362157
51
12.2904523
0
ARC
8
DEFAULT_255_1_234
10
19.4834439
20
118.5541965
40
0.3633074
50
12.0805627
51
23.8173984
0
ARC
8
DEFAULT_255_1_234
10
19.6008144
20
118.6038919
40
0.2358723
50
24.2871213
51
31.3935614
0
ARC
8
DEFAULT_255_1_234
10
19.6532841
20
118.6382233
40
0.1732111
50
30.7407893
51
82.4657128
0
ARC
8
DEFAULT_255_1_234
10
19.6352976
20
118.5498691
40
0.263235
50
81.1060089
51
90.2184952
0
ARC
8
DEFAULT_255_1_234
10
19.6317275
20
118.5756924
40
0.2374236
50
89.3806855
51
105.6762551
0
ARC
8
DEFAULT_255_1_234
10
19.6133905
20
118.6423567
40
0.1682847
50
105.7981136
51
149.7388061
0
ARC
8
DEFAULT_255_1_234
10
19.7197984
20
118.578395
40
0.2924306
50
149.4208916
51
163.6286378
0
ARC
8
DEFAULT_255_1_234
10
19.9288872
20
118.514625
40
0.5110213
50
163.3763315
51
172.1410975
0
ARC
8
DEFAULT_255_1_234
10
20.2589591
20
118.4673518
40
0.8444586
50
172.0259487
51
178.0703232
0
ARC
8
DEFAULT_255_1_234
10
20.561968
20
118.4529906
40
1.1477868
50
177.8631668
51
179.5044149
0
ARC
8
DEFAULT_255_1_234
10
20.4547085
20
118.2215389
40
1.0404907
50
179.7995573
51
185.2460446
0
ARC
8
DEFAULT_255_1_234
10
20.0504124
20
118.1832513
40
0.6343885
50
185.1411642
51
193.0079639
0
ARC
8
DEFAULT_255_1_234
10
19.7860596
20
118.1207641
40
0.3627568
50
192.7897626
51
205.2507664
0
ARC
8
DEFAULT_255_1_234
10
19.6814143
20
118.0740415
40
0.2481908
50
205.8005384
51
211.2537509
0
ARC
8
DEFAULT_255_1_234
10
19.6290584
20
118.038958
40
0.1852521
50
210.3789793
51
238.4008143
0
ARC
8
DEFAULT_255_1_234
10
19.6271106
20
118.0436376
40
0.1882621
50
239.6520629
51
265.9793761
0
ARC
8
DEFAULT_255_1_234
10
19.6356306
20
118.1108427
40
0.2559272
50
265.1315437
51
270.060332
0
ARC
8
DEFAULT_255_1_234
10
19.6385085
20
118.0784534
40
0.2235528
50
269.3314664
51
287.2178029
0
ARC
8
DEFAULT_255_1_234
10
19.6522937
20
118.0281279
40
0.1714108
50
287.7958004
51
329.080874
0
ARC
8
DEFAULT_255_1_234
10
19.5565394
20
118.087893
40
0.2842745
50
328.6634704
51
343.3325132
0
ARC
8
DEFAULT_255_1_234
10
19.3392414
20
118.1555863
40
0.5118644
50
343.0499468
51
351.9393422
0
ARC
8
DEFAULT_255_1_234
10
18.9925714
20
118.2066949
40
0.8622784
50
351.8069023
51
357.7959224
0
ARC
8
DEFAULT_255_1_234
10
18.669027
20
118.2234721
40
1.1862365
50
357.5871873
51
359.2677531
0
LINE
8
DEFAULT_255_2_778
10
9.3927417
20
108.3468577
11
10.7156417
21
108.3468577
0
LINE
8
DEFAULT_255_2_778
10
10.7156417
20
108.3468577
11
10.7156417
21
59.3989577
0
LINE
8
DEFAULT_255_2_778
10
9.3926834
20
59.3989333
11
12.0384834
21
59.3989333
0
LINE
8
DEFAULT_255_2_778
10
12.0384834
20
59.3989333
11
12.0384834
21
54.1072333
0
LINE
8
DEFAULT_255_2_778
10
12.0384834
20
54.1072333
11
9.3926834
21
54.1072333
0
LINE
8
DEFAULT_255_2_778
10
9.3926834
20
54.1072333
11
9.3926834
21
59.3989333
0
ARC
8
DEFAULT_255_2_778_1
10
13.1922591
20
54.209677
40
4.816461
50
120.9442904
51
122.351755
0
ARC
8
DEFAULT_255_2_778_1
10
12.7456523
20
54.9133039
40
3.9830657
50
122.3407904
51
124.1946752
0
ARC
8
DEFAULT_255_2_778_1
10
12.3057464
20
55.5598306
40
3.2010724
50
124.1855758
51
126.4338849
0
ARC
8
DEFAULT_255_2_778_1
10
11.9198129
20
56.0825611
40
2.5513094
50
126.4326926
51
128.8877368
0
ARC
8
DEFAULT_255_2_778_1
10
11.5849968
20
56.4969658
40
2.0185498
50
128.8749205
51
131.8726567
0
ARC
8
DEFAULT_255_2_778_1
10
11.2878677
20
56.8279854
40
1.5737356
50
131.8616166
51
135.4168838
0
ARC
8
DEFAULT_255_2_778_1
10
11.025068
20
57.0861765
40
1.2053256
50
135.3893975
51
139.9687014
0
ARC
8
DEFAULT_255_2_778_1
10
10.7921889
20
57.2810102
40
0.9016937
50
139.9301659
51
145.9260426
0
ARC
8
DEFAULT_255_2_778_1
10
10.596054
20
57.4130104
40
0.6652776
50
145.8787362
51
153.8146208
0
ARC
8
DEFAULT_255_2_778_1
10
10.4439553
20
57.4873797
40
0.4959714
50
153.770634
51
164.3484794
0
ARC
8
DEFAULT_255_2_778_1
10
10.3426387
20
57.5155786
40
0.3908039
50
164.3220276
51
179.8083066
0
ARC
8
DEFAULT_255_2_778_1
10
10.3636789
20
57.523715
40
0.4118985
50
180.9499449
51
213.8111542
0
ARC
8
DEFAULT_255_2_778_1
10
10.6395828
20
57.6932896
40
0.73561
50
212.8271214
51
224.258472
0
ARC
8
DEFAULT_255_2_778_1
10
11.0224335
20
58.0626236
40
1.267567
50
224.1376218
51
231.4508261
0
ARC
8
DEFAULT_255_2_778_1
10
11.6651195
20
58.8656168
40
2.2960809
50
231.3955893
51
236.1256478
0
ARC
8
DEFAULT_255_2_778_1
10
13.4974223
20
61.6121293
40
5.5976905
50
236.2233172
51
239.1314682
0
ARC
8
DEFAULT_255_2_778_1
10
25.447327
20
81.3398568
40
28.6623793
50
238.8606853
51
239.0711101
0
ARC
8
DEFAULT_255_2_778_1
10
6.2751281
20
49.2427653
40
8.7248518
50
57.2420924
51
59.4062964
0
ARC
8
DEFAULT_255_2_778_1
10
9.5028241
20
54.2737102
40
2.747542
50
52.8289294
51
57.079028
0
ARC
8
DEFAULT_255_2_778_1
10
10.2774783
20
55.2940488
40
1.466457
50
46.3041868
51
52.8596521
0
ARC
8
DEFAULT_255_2_778_1
10
10.7097073
20
55.7441842
40
0.8424061
50
36.2174211
51
46.4090895
0
ARC
8
DEFAULT_255_2_778_1
10
10.9942088
20
55.9490128
40
0.4918609
50
17.400375
51
36.5489745
0
ARC
8
DEFAULT_255_2_778_1
10
11.1082994
20
55.9888754
40
0.3710912
50
0.0676858
51
16.7951297
0
ARC
8
DEFAULT_255_2_778_1
10
11.0872613
20
55.9907428
40
0.3921317
50
343.8035191
51
359.7912046
0
ARC
8
DEFAULT_255_2_778_1
10
10.9809912
20
56.0212167
40
0.5026844
50
333.2506233
51
343.8465691
0
ARC
8
DEFAULT_255_2_778_1
10
10.8271757
20
56.0979313
40
0.6745679
50
325.6600948
51
333.3122657
0
ARC
8
DEFAULT_255_2_778_1
10
10.6317344
20
56.2307296
40
0.9108568
50
319.7560915
51
325.6976089
0
ARC
8
DEFAULT_255_2_778_1
10
10.403599
20
56.4225002
40
1.2088854
50
315.4577584
51
319.8037947
0
ARC
8
DEFAULT_255_2_778_1
10
10.1402127
20
56.6813507
40
1.5781764
50
311.7298824
51
315.4670864
0
ARC
8
DEFAULT_255_2_778_1
10
9.8311879
20
57.0269074
40
2.0417554
50
308.723055
51
311.7470879
0
ARC
8
DEFAULT_255_2_778_1
10
9.476989
20
57.4681492
40
2.6075745
50
306.1165163
51
308.7300151
0
ARC
8
DEFAULT_255_2_778_1
10
9.0740091
20
58.0194523
40
3.2904564
50
303.9559446
51
306.1266333
0
ARC
8
DEFAULT_255_2_778_1
10
8.6624432
20
58.628715
40
4.0257023
50
302.3733397
51
303.9712246
0
ARC
8
DEFAULT_255_2_778_1
10
8.2428347
20
59.2902058
40
4.8090549
50
300.9434827
51
302.3758078
0
LINE
8
DEFAULT_255_2_778
10
10.7156417
20
54.1072577
11
10.7156417
21
5.1593577
0
LINE
8
DEFAULT_255_2_778
10
10.7156417
20
5.1593577
11
9.3927417
21
5.1593577
0
LINE
8
DEFAULT_255_1_234
10
4.2454489
20
116.9348211
11
4.2454489
21
115.8914983
0
LINE
8
DEFAULT_255_1_234
10
4.2454489
20
115.8914983
11
4.7996389
21
115.8914983
0
LINE
8
DEFAULT_255_1_234
10
4.7996389
20
115.8914983
11
4.7996389
21
115.7654
0
LINE
8
DEFAULT_255_1_234
10
4.7996389
20
115.7654
11
4.0904364
21
115.7654
0
LINE
8
DEFAULT_255_1_234
10
4.0904364
20
115.7654
11
4.0904364
21
116.9348211
0
LINE
8
DEFAULT_255_1_234
10
4.0904364
20
116.9348211
11
4.2454489
21
116.9348211
0
LINE
8
DEFAULT_255_1_234
10
5.377924
20
116.7340276
11
5.377924
21
116.3926788
0
LINE
8
DEFAULT_255_1_234
10
5.377924
20
116.3926788
11
5.7040126
21
116.3926788
0
LINE
8
DEFAULT_255_1_234
10
5.7040126
20
116.3926788
11
5.7040126
21
116.2521233
0
LINE
8
DEFAULT_255_1_234
10
5.7040126
20
116.2521233
11
5.377924
21
116.2521233
0
LINE
8
DEFAULT_255_1_234
10
5.377924
20
116.2521233
11
5.377924
21
115.8826634
0
LINE
8
DEFAULT_255_1_234
10
5.377924
20
115.8826634
11
5.2285337
21
115.8826634
0
LINE
8
DEFAULT_255_1_234
10
5.2285337
20
115.8826634
11
5.2285337
21
116.2521233
0
LINE
8
DEFAULT_255_1_234
10
5.2285337
20
116.2521233
11
4.9024451
21
116.2521233
0
LINE
8
DEFAULT_255_1_234
10
4.9024451
20
116.2521233
11
4.9024451
21
116.3926788
0
LINE
8
DEFAULT_255_1_234
10
4.9024451
20
116.3926788
11
5.2285337
21
116.3926788
0
LINE
8
DEFAULT_255_1_234
10
5.2285337
20
116.3926788
11
5.2285337
21
116.7340276
0
LINE
8
DEFAULT_255_1_234
10
5.2285337
20
116.7340276
11
5.377924
21
116.7340276
0
LINE
8
DEFAULT_255_1_234
10
4.857077
20
5.8098211
11
5.0120896
21
5.8098211
0
LINE
8
DEFAULT_255_1_234
10
5.0120896
20
5.8098211
11
5.0120896
21
5.014679
0
LINE
8
DEFAULT_255_1_234
10
4.6281725
20
4.6259429
11
4.5872106
21
4.6243365
0
LINE
8
DEFAULT_255_1_234
10
4.1655443
20
5.0130727
11
4.1655443
21
5.8098211
0
LINE
8
DEFAULT_255_1_234
10
4.1655443
20
5.8098211
11
4.3181474
21
5.8098211
0
LINE
8
DEFAULT_255_1_234
10
4.3181474
20
5.8098211
11
4.3181474
21
5.0178917
0
LINE
8
DEFAULT_255_1_234
10
4.857077
20
5.0170885
11
4.857077
21
5.8098211
0
ARC
8
DEFAULT_255_1_234
10
4.5767794
20
5.0126928
40
0.4353147
50
343.0898354
51
0.2614217
0
ARC
8
DEFAULT_255_1_234
10
4.6596195
20
4.9895837
40
0.3493402
50
315.3345598
51
342.7641223
0
ARC
8
DEFAULT_255_1_234
10
4.6372644
20
5.0127682
40
0.3815385
50
284.6606969
51
315.2182466
0
ARC
8
DEFAULT_255_1_234
10
4.5917357
20
5.1673755
40
0.5426573
50
273.8500273
51
285.1797701
0
ARC
8
DEFAULT_255_1_234
10
4.5829408
20
5.2015475
40
0.5772268
50
257.6317484
51
270.4238298
0
ARC
8
DEFAULT_255_1_234
10
4.5404606
20
5.0194198
40
0.3902347
50
230.6087562
51
257.9964012
0
ARC
8
DEFAULT_255_1_234
10
4.5272608
20
4.9987802
40
0.3659186
50
227.7440991
51
230.1551448
0
ARC
8
DEFAULT_255_1_234
10
4.5138439
20
4.9826471
40
0.3449568
50
189.2524587
51
227.5916061
0
ARC
8
DEFAULT_255_1_234
10
4.6660126
20
5.0154013
40
0.5004737
50
180.2665968
51
190.1525252
0
ARC
8
DEFAULT_255_1_234
10
4.6882146
20
5.0150918
40
0.3700778
50
179.5665184
51
191.9952995
0
ARC
8
DEFAULT_255_1_234
10
4.5654252
20
4.9877043
40
0.2442808
50
191.6974072
51
215.1404042
0
ARC
8
DEFAULT_255_1_234
10
4.5416167
20
4.9735108
40
0.2166522
50
215.6950207
51
224.8513522
0
ARC
8
DEFAULT_255_1_234
10
4.547191
20
4.9814697
40
0.2262237
50
225.2846858
51
255.0111758
0
ARC
8
DEFAULT_255_1_234
10
4.579587
20
5.0928455
40
0.3421979
50
254.5944985
51
267.9129803
0
ARC
8
DEFAULT_255_1_234
10
4.5870351
20
5.2012903
40
0.4508556
50
267.4689655
51
270.0223026
0
ARC
8
DEFAULT_255_1_234
10
4.5900496
20
5.1423849
40
0.3919604
50
269.5849941
51
281.1843768
0
ARC
8
DEFAULT_255_1_234
10
4.6179261
20
5.0071059
40
0.2538457
50
280.9344262
51
300.9743589
0
ARC
8
DEFAULT_255_1_234
10
4.6391866
20
4.9679688
40
0.2093566
50
301.4980046
51
315.1466847
0
ARC
8
DEFAULT_255_1_234
10
4.6247405
20
4.9798236
40
0.2279656
50
315.5952539
51
345.6678731
0
ARC
8
DEFAULT_255_1_234
10
4.5127921
20
5.0110009
40
0.3441564
50
345.2524969
51
358.6304371
0
ARC
8
DEFAULT_255_1_234
10
4.4110275
20
5.0169916
40
0.4460494
50
358.1735671
51
0.0124524
0
LINE
8
DEFAULT_255_1_234
10
5.9718823
20
5.8098211
11
5.9718823
21
5.726291
0
LINE
8
DEFAULT_255_1_234
10
5.9718823
20
5.726291
11
5.4875685
21
4.6404
0
LINE
8
DEFAULT_255_1_234
10
5.4875685
20
4.6404
11
5.3317527
21
4.6404
0
LINE
8
DEFAULT_255_1_234
10
5.3317527
20
4.6404
11
5.8144602
21
5.6877387
0
LINE
8
DEFAULT_255_1_234
10
5.8144602
20
5.6877387
11
5.1815592
21
5.6877387
0
LINE
8
DEFAULT_255_1_234
10
5.1815592
20
5.6877387
11
5.1815592
21
5.8098211
0
LINE
8
DEFAULT_255_1_234
10
5.1815592
20
5.8098211
11
5.9718823
21
5.8098211
0
LINE
8
DEFAULT_255_1_234
10
6.465031
20
5.1978026
11
6.465031
21
5.0765234
0
LINE
8
DEFAULT_255_1_234
10
6.465031
20
5.0765234
11
6.0730822
21
5.0765234
0
LINE
8
DEFAULT_255_1_234
10
6.0730822
20
5.0765234
11
6.0730822
21
5.1978026
0
LINE
8
DEFAULT_255_1_234
10
6.0730822
20
5.1978026
11
6.465031
21
5.1978026
0
LINE
8
DEFAULT_255_1_234
10
4.828977
20
13.7473211
11
4.9839896
21
13.7473211
0
LINE
8
DEFAULT_255_1_234
10
4.9839896
20
13.7473211
11
4.9839896
21
12.952179
0
LINE
8
DEFAULT_255_1_234
10
4.6000725
20
12.5634429
11
4.5591106
21
12.5618365
0
LINE
8
DEFAULT_255_1_234
10
4.1374443
20
12.9505727
11
4.1374443
21
13.7473211
0
LINE
8
DEFAULT_255_1_234
10
4.1374443
20
13.7473211
11
4.2900474
21
13.7473211
0
LINE
8
DEFAULT_255_1_234
10
4.2900474
20
13.7473211
11
4.2900474
21
12.9553917
0
LINE
8
DEFAULT_255_1_234
10
4.828977
20
12.9545885
11
4.828977
21
13.7473211
0
ARC
8
DEFAULT_255_1_234
10
4.5486794
20
12.9501928
40
0.4353147
50
343.0898354
51
0.2614217
0
ARC
8
DEFAULT_255_1_234
10
4.6315195
20
12.9270837
40
0.3493402
50
315.3345598
51
342.7641223
0
ARC
8
DEFAULT_255_1_234
10
4.6091644
20
12.9502682
40
0.3815385
50
284.6606969
51
315.2182466
0
ARC
8
DEFAULT_255_1_234
10
4.5636357
20
13.1048755
40
0.5426573
50
273.8500273
51
285.1797701
0
ARC
8
DEFAULT_255_1_234
10
4.5548408
20
13.1390475
40
0.5772268
50
257.6317484
51
270.4238298
0
ARC
8
DEFAULT_255_1_234
10
4.5123606
20
12.9569198
40
0.3902347
50
230.6087562
51
257.9964012
0
ARC
8
DEFAULT_255_1_234
10
4.4991608
20
12.9362802
40
0.3659186
50
227.7440991
51
230.1551448
0
ARC
8
DEFAULT_255_1_234
10
4.4857439
20
12.9201471
40
0.3449568
50
189.2524587
51
227.5916061
0
ARC
8
DEFAULT_255_1_234
10
4.6379126
20
12.9529013
40
0.5004737
50
180.2665968
51
190.1525252
0
ARC
8
DEFAULT_255_1_234
10
4.6601146
20
12.9525918
40
0.3700778
50
179.5665184
51
191.9952995
0
ARC
8
DEFAULT_255_1_234
10
4.5373252
20
12.9252043
40
0.2442808
50
191.6974072
51
215.1404042
0
ARC
8
DEFAULT_255_1_234
10
4.5135167
20
12.9110108
40
0.2166522
50
215.6950207
51
224.8513522
0
ARC
8
DEFAULT_255_1_234
10
4.519091
20
12.9189697
40
0.2262237
50
225.2846858
51
255.0111758
0
ARC
8
DEFAULT_255_1_234
10
4.551487
20
13.0303455
40
0.3421979
50
254.5944985
51
267.9129803
0
ARC
8
DEFAULT_255_1_234
10
4.5589351
20
13.1387903
40
0.4508556
50
267.4689655
51
270.0223026
0
ARC
8
DEFAULT_255_1_234
10
4.5619496
20
13.0798849
40
0.3919604
50
269.5849941
51
281.1843768
0
ARC
8
DEFAULT_255_1_234
10
4.5898261
20
12.9446059
40
0.2538457
50
280.9344262
51
300.9743589
0
ARC
8
DEFAULT_255_1_234
10
4.6110866
20
12.9054688
40
0.2093566
50
301.4980046
51
315.1466847
0
ARC
8
DEFAULT_255_1_234
10
4.5966405
20
12.9173236
40
0.2279656
50
315.5952539
51
345.6678731
0
ARC
8
DEFAULT_255_1_234
10
4.4846921
20
12.9485009
40
0.3441564
50
345.2524969
51
358.6304371
0
ARC
8
DEFAULT_255_1_234
10
4.3829275
20
12.9544916
40
0.4460494
50
358.1735671
51
0.0124524
0
LINE
8
DEFAULT_255_1_234
10
5.9437823
20
13.7473211
11
5.9437823
21
13.663791
0
LINE
8
DEFAULT_255_1_234
10
5.9437823
20
13.663791
11
5.4594685
21
12.5779
0
LINE
8
DEFAULT_255_1_234
10
5.4594685
20
12.5779
11
5.3036527
21
12.5779
0
LINE
8
DEFAULT_255_1_234
10
5.3036527
20
12.5779
11
5.7863602
21
13.6252387
0
LINE
8
DEFAULT_255_1_234
10
5.7863602
20
13.6252387
11
5.1534592
21
13.6252387
0
LINE
8
DEFAULT_255_1_234
10
5.1534592
20
13.6252387
11
5.1534592
21
13.7473211
0
LINE
8
DEFAULT_255_1_234
10
5.1534592
20
13.7473211
11
5.9437823
21
13.7473211
0
LINE
8
DEFAULT_255_1_234
10
6.5533912
20
13.5465276
11
6.5533912
21
13.2051788
0
LINE
8
DEFAULT_255_1_234
10
6.5533912
20
13.2051788
11
6.8794798
21
13.2051788
0
LINE
8
DEFAULT_255_1_234
10
6.8794798
20
13.2051788
11
6.8794798
21
13.0646233
0
LINE
8
DEFAULT_255_1_234
10
6.8794798
20
13.0646233
11
6.5533912
21
13.0646233
0
LINE
8
DEFAULT_255_1_234
10
6.5533912
20
13.0646233
11
6.5533912
21
12.6951634
0
LINE
8
DEFAULT_255_1_234
10
6.5533912
20
12.6951634
11
6.4040009
21
12.6951634
0
LINE
8
DEFAULT_255_1_234
10
6.4040009
20
12.6951634
11
6.4040009
21
13.0646233
0
LINE
8
DEFAULT_255_1_234
10
6.4040009
20
13.0646233
11
6.0779123
21
13.0646233
0
LINE
8
DEFAULT_255_1_234
10
6.0779123
20
13.0646233
11
6.0779123
21
13.2051788
0
LINE
8
DEFAULT_255_1_234
10
6.0779123
20
13.2051788
11
6.4040009
21
13.2051788
0
LINE
8
DEFAULT_255_1_234
10
6.4040009
20
13.2051788
11
6.4040009
21
13.5465276
0
LINE
8
DEFAULT_255_1_234
10
6.4040009
20
13.5465276
11
6.5533912
21
13.5465276
0
LINE
8
DEFAULT_255_1_234
10
4.857077
20
21.6848211
11
5.0120896
21
21.6848211
0
LINE
8
DEFAULT_255_1_234
10
5.0120896
20
21.6848211
11
5.0120896
21
20.889679
0
LINE
8
DEFAULT_255_1_234
10
4.6281725
20
20.5009429
11
4.5872106
21
20.4993365
0
LINE
8
DEFAULT_255_1_234
10
4.1655443
20
20.8880727
11
4.1655443
21
21.6848211
0
LINE
8
DEFAULT_255_1_234
10
4.1655443
20
21.6848211
11
4.3181474
21
21.6848211
0
LINE
8
DEFAULT_255_1_234
10
4.3181474
20
21.6848211
11
4.3181474
21
20.8928917
0
LINE
8
DEFAULT_255_1_234
10
4.857077
20
20.8920885
11
4.857077
21
21.6848211
0
ARC
8
DEFAULT_255_1_234
10
4.5767794
20
20.8876928
40
0.4353147
50
343.0898354
51
0.2614217
0
ARC
8
DEFAULT_255_1_234
10
4.6596195
20
20.8645837
40
0.3493402
50
315.3345598
51
342.7641223
0
ARC
8
DEFAULT_255_1_234
10
4.6372644
20
20.8877682
40
0.3815385
50
284.6606969
51
315.2182466
0
ARC
8
DEFAULT_255_1_234
10
4.5917357
20
21.0423755
40
0.5426573
50
273.8500273
51
285.1797701
0
ARC
8
DEFAULT_255_1_234
10
4.5829408
20
21.0765475
40
0.5772268
50
257.6317484
51
270.4238298
0
ARC
8
DEFAULT_255_1_234
10
4.5404606
20
20.8944198
40
0.3902347
50
230.6087562
51
257.9964012
0
ARC
8
DEFAULT_255_1_234
10
4.5272608
20
20.8737802
40
0.3659186
50
227.7440991
51
230.1551448
0
ARC
8
DEFAULT_255_1_234
10
4.5138439
20
20.8576471
40
0.3449568
50
189.2524587
51
227.5916061
0
ARC
8
DEFAULT_255_1_234
10
4.6660126
20
20.8904013
40
0.5004737
50
180.2665968
51
190.1525252
0
ARC
8
DEFAULT_255_1_234
10
4.6882146
20
20.8900918
40
0.3700778
50
179.5665184
51
191.9952995
0
ARC
8
DEFAULT_255_1_234
10
4.5654252
20
20.8627043
40
0.2442808
50
191.6974072
51
215.1404042
0
ARC
8
DEFAULT_255_1_234
10
4.5416167
20
20.8485108
40
0.2166522
50
215.6950207
51
224.8513522
0
ARC
8
DEFAULT_255_1_234
10
4.547191
20
20.8564697
40
0.2262237
50
225.2846858
51
255.0111758
0
ARC
8
DEFAULT_255_1_234
10
4.579587
20
20.9678455
40
0.3421979
50
254.5944985
51
267.9129803
0
ARC
8
DEFAULT_255_1_234
10
4.5870351
20
21.0762903
40
0.4508556
50
267.4689655
51
270.0223026
0
ARC
8
DEFAULT_255_1_234
10
4.5900496
20
21.0173849
40
0.3919604
50
269.5849941
51
281.1843768
0
ARC
8
DEFAULT_255_1_234
10
4.6179261
20
20.8821059
40
0.2538457
50
280.9344262
51
300.9743589
0
ARC
8
DEFAULT_255_1_234
10
4.6391866
20
20.8429688
40
0.2093566
50
301.4980046
51
315.1466847
0
ARC
8
DEFAULT_255_1_234
10
4.6247405
20
20.8548236
40
0.2279656
50
315.5952539
51
345.6678731
0
ARC
8
DEFAULT_255_1_234
10
4.5127921
20
20.8860009
40
0.3441564
50
345.2524969
51
358.6304371
0
ARC
8
DEFAULT_255_1_234
10
4.4110275
20
20.8919916
40
0.4460494
50
358.1735671
51
0.0124524
0
LINE
8
DEFAULT_255_1_234
10
5.7734983
20
21.6856243
11
5.8000031
21
21.6856243
0
LINE
8
DEFAULT_255_1_234
10
5.8000031
20
21.6856243
11
5.8000031
21
21.559526
0
LINE
8
DEFAULT_255_1_234
10
5.8000031
20
21.559526
11
5.7726952
21
21.559526
0
LINE
8
DEFAULT_255_1_234
10
5.2257338
20
20.9603583
11
5.2257338
21
21.0173836
0
LINE
8
DEFAULT_255_1_234
10
5.3751241
20
20.9981075
11
5.3751241
21
20.9434917
0
ARC
8
DEFAULT_255_1_234
10
5.77793
20
21.0597455
40
0.4998079
50
90.6001036
51
104.514704
0
ARC
8
DEFAULT_255_1_234
10
5.7390815
20
21.2042131
40
0.3502176
50
104.2855254
51
133.862935
0
ARC
8
DEFAULT_255_1_234
10
5.7554572
20
21.193383
40
0.3693984
50
134.5302688
51
161.6210873
0
ARC
8
DEFAULT_255_1_234
10
5.9207761
20
21.1350895
40
0.5446739
50
161.2849839
51
174.2076652
0
ARC
8
DEFAULT_255_1_234
10
6.0614698
20
21.1156787
40
0.6866274
50
173.7810589
51
174.9254635
0
ARC
8
DEFAULT_255_1_234
10
5.606453
20
20.9773839
40
0.3033419
50
95.8330959
51
138.9954921
0
ARC
8
DEFAULT_255_1_234
10
5.6287886
20
20.8495375
40
0.4328947
50
89.8753725
51
97.0544009
0
ARC
8
DEFAULT_255_1_234
10
5.6335352
20
20.9330748
40
0.3493769
50
71.6407809
51
90.6240094
0
ARC
8
DEFAULT_255_1_234
10
5.6485926
20
20.9885082
40
0.2920396
50
39.6367836
51
71.019018
0
ARC
8
DEFAULT_255_1_234
10
5.5849399
20
20.9334998
40
0.3761538
50
10.658731
51
39.9043955
0
ARC
8
DEFAULT_255_1_234
10
5.4301482
20
20.8998686
40
0.5345136
50
359.682601
51
11.132623
0
ARC
8
DEFAULT_255_1_234
10
5.4261612
20
20.892801
40
0.5385081
50
347.2486944
51
0.4369317
0
ARC
8
DEFAULT_255_1_234
10
5.5929089
20
20.8526807
40
0.3670249
50
318.1409698
51
347.6118597
0
ARC
8
DEFAULT_255_1_234
10
5.6254082
20
20.8259702
40
0.3250007
50
275.6342139
51
317.8248465
0
ARC
8
DEFAULT_255_1_234
10
5.6033194
20
20.9559219
40
0.4565864
50
269.8874292
51
276.7917694
0
ARC
8
DEFAULT_255_1_234
10
5.5978264
20
20.8533743
40
0.3540676
50
246.9140195
51
270.7437342
0
ARC
8
DEFAULT_255_1_234
10
5.5984655
20
20.8391384
40
0.3412781
50
218.1665114
51
245.878116
0
ARC
8
DEFAULT_255_1_234
10
5.6864115
20
20.9127279
40
0.455911
50
191.4115814
51
218.6077802
0
ARC
8
DEFAULT_255_1_234
10
5.8802205
20
20.9561833
40
0.6545001
50
179.6345085
51
191.7836486
0
ARC
8
DEFAULT_255_1_234
10
6.4384541
20
21.0240697
40
1.2127388
50
171.4525249
51
180.3158839
0
ARC
8
DEFAULT_255_1_234
10
5.9989417
20
21.0924608
40
0.7679464
50
157.9802646
51
171.6246686
0
ARC
8
DEFAULT_255_1_234
10
5.7775438
20
21.1807421
40
0.5296008
50
141.4298019
51
157.854097
0
ARC
8
DEFAULT_255_1_234
10
5.7133759
20
21.2261381
40
0.4511509
50
102.8715806
51
140.8564722
0
ARC
8
DEFAULT_255_1_234
10
5.7781374
20
20.9821552
40
0.7034845
50
90.3778349
51
103.5869322
0
ARC
8
DEFAULT_255_1_234
10
5.604315
20
20.921673
40
0.2370698
50
89.8751008
51
126.2071704
0
ARC
8
DEFAULT_255_1_234
10
5.608894
20
20.9062303
40
0.2522934
50
124.9745049
51
144.895901
0
ARC
8
DEFAULT_255_1_234
10
5.5913131
20
20.920556
40
0.2296779
50
145.2974905
51
160.2660252
0
ARC
8
DEFAULT_255_1_234
10
5.898567
20
20.9403071
40
0.5234525
50
179.6514266
51
190.2855912
0
ARC
8
DEFAULT_255_1_234
10
5.7291807
20
20.9083786
40
0.3510893
50
190.0945431
51
207.5098196
0
ARC
8
DEFAULT_255_1_234
10
5.6726077
20
20.8814623
40
0.288489
50
207.9583163
51
216.3251085
0
ARC
8
DEFAULT_255_1_234
10
5.6386184
20
20.8535105
40
0.2445587
50
215.7661442
51
232.5456785
0
ARC
8
DEFAULT_255_1_234
10
5.6003167
20
20.8048482
40
0.1826382
50
232.8005391
51
270.6605633
0
ARC
8
DEFAULT_255_1_234
10
5.6048868
20
20.8412612
40
0.2190529
50
269.35537
51
288.4744281
0
ARC
8
DEFAULT_255_1_234
10
5.6141765
20
20.8063118
40
0.1829749
50
289.1833337
51
322.9683818
0
ARC
8
DEFAULT_255_1_234
10
5.5530288
20
20.8545391
40
0.2608399
50
322.6007884
51
346.5182367
0
ARC
8
DEFAULT_255_1_234
10
5.4372884
20
20.8840616
40
0.3802777
50
346.2582162
51
358.7741648
0
ARC
8
DEFAULT_255_1_234
10
5.3354552
20
20.8895965
40
0.4822176
50
358.3755224
51
0.0098023
0
ARC
8
DEFAULT_255_1_234
10
5.411074
20
20.8923657
40
0.4066078
50
359.6214041
51
11.2839074
0
ARC
8
DEFAULT_255_1_234
10
5.5387886
20
20.9190066
40
0.2761514
50
11.0482309
51
31.8146458
0
ARC
8
DEFAULT_255_1_234
10
5.5696929
20
20.9357584
40
0.2410679
50
32.3035391
51
38.082671
0
ARC
8
DEFAULT_255_1_234
10
5.6117589
20
20.9738662
40
0.1844966
50
36.825067
51
85.7415724
0
ARC
8
DEFAULT_255_1_234
10
5.6050423
20
20.9238301
40
0.2349122
50
85.0140713
51
90.0513278
0
LINE
8
DEFAULT_255_1_234
10
6.465031
20
21.0728026
11
6.465031
21
20.9515234
0
LINE
8
DEFAULT_255_1_234
10
6.465031
20
20.9515234
11
6.0730822
21
20.9515234
0
LINE
8
DEFAULT_255_1_234
10
6.0730822
20
20.9515234
11
6.0730822
21
21.0728026
0
LINE
8
DEFAULT_255_1_234
10
6.0730822
20
21.0728026
11
6.465031
21
21.0728026
0
LINE
8
DEFAULT_255_1_234
10
4.828977
20
29.6223211
11
4.9839896
21
29.6223211
0
LINE
8
DEFAULT_255_1_234
10
4.9839896
20
29.6223211
11
4.9839896
21
28.827179
0
LINE
8
DEFAULT_255_1_234
10
4.6000725
20
28.4384429
11
4.5591106
21
28.4368365
0
LINE
8
DEFAULT_255_1_234
10
4.1374443
20
28.8255727
11
4.1374443
21
29.6223211
0
LINE
8
DEFAULT_255_1_234
10
4.1374443
20
29.6223211
11
4.2900474
21
29.6223211
0
LINE
8
DEFAULT_255_1_234
10
4.2900474
20
29.6223211
11
4.2900474
21
28.8303917
0
LINE
8
DEFAULT_255_1_234
10
4.828977
20
28.8295885
11
4.828977
21
29.6223211
0
ARC
8
DEFAULT_255_1_234
10
4.5486794
20
28.8251928
40
0.4353147
50
343.0898354
51
0.2614217
0
ARC
8
DEFAULT_255_1_234
10
4.6315195
20
28.8020837
40
0.3493402
50
315.3345598
51
342.7641223
0
ARC
8
DEFAULT_255_1_234
10
4.6091644
20
28.8252682
40
0.3815385
50
284.6606969
51
315.2182466
0
ARC
8
DEFAULT_255_1_234
10
4.5636357
20
28.9798755
40
0.5426573
50
273.8500273
51
285.1797701
0
ARC
8
DEFAULT_255_1_234
10
4.5548408
20
29.0140475
40
0.5772268
50
257.6317484
51
270.4238298
0
ARC
8
DEFAULT_255_1_234
10
4.5123606
20
28.8319198
40
0.3902347
50
230.6087562
51
257.9964012
0
ARC
8
DEFAULT_255_1_234
10
4.4991608
20
28.8112802
40
0.3659186
50
227.7440991
51
230.1551448
0
ARC
8
DEFAULT_255_1_234
10
4.4857439
20
28.7951471
40
0.3449568
50
189.2524587
51
227.5916061
0
ARC
8
DEFAULT_255_1_234
10
4.6379126
20
28.8279013
40
0.5004737
50
180.2665968
51
190.1525252
0
ARC
8
DEFAULT_255_1_234
10
4.6601146
20
28.8275918
40
0.3700778
50
179.5665184
51
191.9952995
0
ARC
8
DEFAULT_255_1_234
10
4.5373252
20
28.8002043
40
0.2442808
50
191.6974072
51
215.1404042
0
ARC
8
DEFAULT_255_1_234
10
4.5135167
20
28.7860108
40
0.2166522
50
215.6950207
51
224.8513522
0
ARC
8
DEFAULT_255_1_234
10
4.519091
20
28.7939697
40
0.2262237
50
225.2846858
51
255.0111758
0
ARC
8
DEFAULT_255_1_234
10
4.551487
20
28.9053455
40
0.3421979
50
254.5944985
51
267.9129803
0
ARC
8
DEFAULT_255_1_234
10
4.5589351
20
29.0137903
40
0.4508556
50
267.4689655
51
270.0223026
0
ARC
8
DEFAULT_255_1_234
10
4.5619496
20
28.9548849
40
0.3919604
50
269.5849941
51
281.1843768
0
ARC
8
DEFAULT_255_1_234
10
4.5898261
20
28.8196059
40
0.2538457
50
280.9344262
51
300.9743589
0
ARC
8
DEFAULT_255_1_234
10
4.6110866
20
28.7804688
40
0.2093566
50
301.4980046
51
315.1466847
0
ARC
8
DEFAULT_255_1_234
10
4.5966405
20
28.7923236
40
0.2279656
50
315.5952539
51
345.6678731
0
ARC
8
DEFAULT_255_1_234
10
4.4846921
20
28.8235009
40
0.3441564
50
345.2524969
51
358.6304371
0
ARC
8
DEFAULT_255_1_234
10
4.3829275
20
28.8294916
40
0.4460494
50
358.1735671
51
0.0124524
0
LINE
8
DEFAULT_255_1_234
10
5.7453983
20
29.6231243
11
5.7719031
21
29.6231243
0
LINE
8
DEFAULT_255_1_234
10
5.7719031
20
29.6231243
11
5.7719031
21
29.497026
0
LINE
8
DEFAULT_255_1_234
10
5.7719031
20
29.497026
11
5.7445952
21
29.497026
0
LINE
8
DEFAULT_255_1_234
10
5.1976338
20
28.8978583
11
5.1976338
21
28.9548836
0
LINE
8
DEFAULT_255_1_234
10
5.3470241
20
28.9356075
11
5.3470241
21
28.8809917
0
ARC
8
DEFAULT_255_1_234
10
5.74983
20
28.9972455
40
0.4998079
50
90.6001036
51
104.514704
0
ARC
8
DEFAULT_255_1_234
10
5.7109815
20
29.1417131
40
0.3502176
50
104.2855254
51
133.862935
0
ARC
8
DEFAULT_255_1_234
10
5.7273572
20
29.130883
40
0.3693984
50
134.5302688
51
161.6210873
0
ARC
8
DEFAULT_255_1_234
10
5.8926761
20
29.0725895
40
0.5446739
50
161.2849839
51
174.2076652
0
ARC
8
DEFAULT_255_1_234
10
6.0333698
20
29.0531787
40
0.6866274
50
173.7810589
51
174.9254635
0
ARC
8
DEFAULT_255_1_234
10
5.578353
20
28.9148839
40
0.3033419
50
95.8330959
51
138.9954921
0
ARC
8
DEFAULT_255_1_234
10
5.6006886
20
28.7870375
40
0.4328947
50
89.8753725
51
97.0544009
0
ARC
8
DEFAULT_255_1_234
10
5.6054352
20
28.8705748
40
0.3493769
50
71.6407809
51
90.6240094
0
ARC
8
DEFAULT_255_1_234
10
5.6204926
20
28.9260082
40
0.2920396
50
39.6367836
51
71.019018
0
ARC
8
DEFAULT_255_1_234
10
5.5568399
20
28.8709998
40
0.3761538
50
10.658731
51
39.9043955
0
ARC
8
DEFAULT_255_1_234
10
5.4020482
20
28.8373686
40
0.5345136
50
359.682601
51
11.132623
0
ARC
8
DEFAULT_255_1_234
10
5.3980612
20
28.830301
40
0.5385081
50
347.2486944
51
0.4369317
0
ARC
8
DEFAULT_255_1_234
10
5.5648089
20
28.7901807
40
0.3670249
50
318.1409698
51
347.6118597
0
ARC
8
DEFAULT_255_1_234
10
5.5973082
20
28.7634702
40
0.3250007
50
275.6342139
51
317.8248465
0
ARC
8
DEFAULT_255_1_234
10
5.5752194
20
28.8934219
40
0.4565864
50
269.8874292
51
276.7917694
0
ARC
8
DEFAULT_255_1_234
10
5.5697264
20
28.7908743
40
0.3540676
50
246.9140195
51
270.7437342
0
ARC
8
DEFAULT_255_1_234
10
5.5703655
20
28.7766384
40
0.3412781
50
218.1665114
51
245.878116
0
ARC
8
DEFAULT_255_1_234
10
5.6583115
20
28.8502279
40
0.455911
50
191.4115814
51
218.6077802
0
ARC
8
DEFAULT_255_1_234
10
5.8521205
20
28.8936833
40
0.6545001
50
179.6345085
51
191.7836486
0
ARC
8
DEFAULT_255_1_234
10
6.4103541
20
28.9615697
40
1.2127388
50
171.4525249
51
180.3158839
0
ARC
8
DEFAULT_255_1_234
10
5.9708417
20
29.0299608
40
0.7679464
50
157.9802646
51
171.6246686
0
ARC
8
DEFAULT_255_1_234
10
5.7494438
20
29.1182421
40
0.5296008
50
141.4298019
51
157.854097
0
ARC
8
DEFAULT_255_1_234
10
5.6852759
20
29.1636381
40
0.4511509
50
102.8715806
51
140.8564722
0
ARC
8
DEFAULT_255_1_234
10
5.7500374
20
28.9196552
40
0.7034845
50
90.3778349
51
103.5869322
0
ARC
8
DEFAULT_255_1_234
10
5.576215
20
28.859173
40
0.2370698
50
89.8751008
51
126.2071704
0
ARC
8
DEFAULT_255_1_234
10
5.580794
20
28.8437303
40
0.2522934
50
124.9745049
51
144.895901
0
ARC
8
DEFAULT_255_1_234
10
5.5632131
20
28.858056
40
0.2296779
50
145.2974905
51
160.2660252
0
ARC
8
DEFAULT_255_1_234
10
5.870467
20
28.8778071
40
0.5234525
50
179.6514266
51
190.2855912
0
ARC
8
DEFAULT_255_1_234
10
5.7010807
20
28.8458786
40
0.3510893
50
190.0945431
51
207.5098196
0
ARC
8
DEFAULT_255_1_234
10
5.6445077
20
28.8189623
40
0.288489
50
207.9583163
51
216.3251085
0
ARC
8
DEFAULT_255_1_234
10
5.6105184
20
28.7910105
40
0.2445587
50
215.7661442
51
232.5456785
0
ARC
8
DEFAULT_255_1_234
10
5.5722167
20
28.7423482
40
0.1826382
50
232.8005391
51
270.6605633
0
ARC
8
DEFAULT_255_1_234
10
5.5767868
20
28.7787612
40
0.2190529
50
269.35537
51
288.4744281
0
ARC
8
DEFAULT_255_1_234
10
5.5860765
20
28.7438118
40
0.1829749
50
289.1833337
51
322.9683818
0
ARC
8
DEFAULT_255_1_234
10
5.5249288
20
28.7920391
40
0.2608399
50
322.6007884
51
346.5182367
0
ARC
8
DEFAULT_255_1_234
10
5.4091884
20
28.8215616
40
0.3802777
50
346.2582162
51
358.7741648
0
ARC
8
DEFAULT_255_1_234
10
5.3073552
20
28.8270965
40
0.4822176
50
358.3755224
51
0.0098023
0
ARC
8
DEFAULT_255_1_234
10
5.382974
20
28.8298657
40
0.4066078
50
359.6214041
51
11.2839074
0
ARC
8
DEFAULT_255_1_234
10
5.5106886
20
28.8565066
40
0.2761514
50
11.0482309
51
31.8146458
0
ARC
8
DEFAULT_255_1_234
10
5.5415929
20
28.8732584
40
0.2410679
50
32.3035391
51
38.082671
0
ARC
8
DEFAULT_255_1_234
10
5.5836589
20
28.9113662
40
0.1844966
50
36.825067
51
85.7415724
0
ARC
8
DEFAULT_255_1_234
10
5.5769423
20
28.8613301
40
0.2349122
50
85.0140713
51
90.0513278
0
LINE
8
DEFAULT_255_1_234
10
6.5533912
20
29.4215276
11
6.5533912
21
29.0801788
0
LINE
8
DEFAULT_255_1_234
10
6.5533912
20
29.0801788
11
6.8794798
21
29.0801788
0
LINE
8
DEFAULT_255_1_234
10
6.8794798
20
29.0801788
11
6.8794798
21
28.9396233
0
LINE
8
DEFAULT_255_1_234
10
6.8794798
20
28.9396233
11
6.5533912
21
28.9396233
0
LINE
8
DEFAULT_255_1_234
10
6.5533912
20
28.9396233
11
6.5533912
21
28.5701634
0
LINE
8
DEFAULT_255_1_234
10
6.5533912
20
28.5701634
11
6.4040009
21
28.5701634
0
LINE
8
DEFAULT_255_1_234
10
6.4040009
20
28.5701634
11
6.4040009
21
28.9396233
0
LINE
8
DEFAULT_255_1_234
10
6.4040009
20
28.9396233
11
6.0779123
21
28.9396233
0
LINE
8
DEFAULT_255_1_234
10
6.0779123
20
28.9396233
11
6.0779123
21
29.0801788
0
LINE
8
DEFAULT_255_1_234
10
6.0779123
20
29.0801788
11
6.4040009
21
29.0801788
0
LINE
8
DEFAULT_255_1_234
10
6.4040009
20
29.0801788
11
6.4040009
21
29.4215276
0
LINE
8
DEFAULT_255_1_234
10
6.4040009
20
29.4215276
11
6.5533912
21
29.4215276
0
LINE
8
DEFAULT_255_1_234
10
4.857077
20
37.5598211
11
5.0120896
21
37.5598211
0
LINE
8
DEFAULT_255_1_234
10
5.0120896
20
37.5598211
11
5.0120896
21
36.764679
0
LINE
8
DEFAULT_255_1_234
10
4.6281725
20
36.3759429
11
4.5872106
21
36.3743365
0
LINE
8
DEFAULT_255_1_234
10
4.1655443
20
36.7630727
11
4.1655443
21
37.5598211
0
LINE
8
DEFAULT_255_1_234
10
4.1655443
20
37.5598211
11
4.3181474
21
37.5598211
0
LINE
8
DEFAULT_255_1_234
10
4.3181474
20
37.5598211
11
4.3181474
21
36.7678917
0
LINE
8
DEFAULT_255_1_234
10
4.857077
20
36.7670885
11
4.857077
21
37.5598211
0
ARC
8
DEFAULT_255_1_234
10
4.5767794
20
36.7626928
40
0.4353147
50
343.0898354
51
0.2614217
0
ARC
8
DEFAULT_255_1_234
10
4.6596195
20
36.7395837
40
0.3493402
50
315.3345598
51
342.7641223
0
ARC
8
DEFAULT_255_1_234
10
4.6372644
20
36.7627682
40
0.3815385
50
284.6606969
51
315.2182466
0
ARC
8
DEFAULT_255_1_234
10
4.5917357
20
36.9173755
40
0.5426573
50
273.8500273
51
285.1797701
0
ARC
8
DEFAULT_255_1_234
10
4.5829408
20
36.9515475
40
0.5772268
50
257.6317484
51
270.4238298
0
ARC
8
DEFAULT_255_1_234
10
4.5404606
20
36.7694198
40
0.3902347
50
230.6087562
51
257.9964012
0
ARC
8
DEFAULT_255_1_234
10
4.5272608
20
36.7487802
40
0.3659186
50
227.7440991
51
230.1551448
0
ARC
8
DEFAULT_255_1_234
10
4.5138439
20
36.7326471
40
0.3449568
50
189.2524587
51
227.5916061
0
ARC
8
DEFAULT_255_1_234
10
4.6660126
20
36.7654013
40
0.5004737
50
180.2665968
51
190.1525252
0
ARC
8
DEFAULT_255_1_234
10
4.6882146
20
36.7650918
40
0.3700778
50
179.5665184
51
191.9952995
0
ARC
8
DEFAULT_255_1_234
10
4.5654252
20
36.7377043
40
0.2442808
50
191.6974072
51
215.1404042
0
ARC
8
DEFAULT_255_1_234
10
4.5416167
20
36.7235108
40
0.2166522
50
215.6950207
51
224.8513522
0
ARC
8
DEFAULT_255_1_234
10
4.547191
20
36.7314697
40
0.2262237
50
225.2846858
51
255.0111758
0
ARC
8
DEFAULT_255_1_234
10
4.579587
20
36.8428455
40
0.3421979
50
254.5944985
51
267.9129803
0
ARC
8
DEFAULT_255_1_234
10
4.5870351
20
36.9512903
40
0.4508556
50
267.4689655
51
270.0223026
0
ARC
8
DEFAULT_255_1_234
10
4.5900496
20
36.8923849
40
0.3919604
50
269.5849941
51
281.1843768
0
ARC
8
DEFAULT_255_1_234
10
4.6179261
20
36.7571059
40
0.2538457
50
280.9344262
51
300.9743589
0
ARC
8
DEFAULT_255_1_234
10
4.6391866
20
36.7179688
40
0.2093566
50
301.4980046
51
315.1466847
0
ARC
8
DEFAULT_255_1_234
10
4.6247405
20
36.7298236
40
0.2279656
50
315.5952539
51
345.6678731
0
ARC
8
DEFAULT_255_1_234
10
4.5127921
20
36.7610009
40
0.3441564
50
345.2524969
51
358.6304371
0
ARC
8
DEFAULT_255_1_234
10
4.4110275
20
36.7669916
40
0.4460494
50
358.1735671
51
0.0124524
0
LINE
8
DEFAULT_255_1_234
10
5.4040384
20
36.9461963
11
5.2851687
21
36.9767169
0
LINE
8
DEFAULT_255_1_234
10
5.2851687
20
36.9767169
11
5.3446035
21
37.5598211
0
LINE
8
DEFAULT_255_1_234
10
5.3446035
20
37.5598211
11
5.9437712
21
37.5598211
0
LINE
8
DEFAULT_255_1_234
10
5.9437712
20
37.5598211
11
5.9437712
21
37.4224784
0
LINE
8
DEFAULT_255_1_234
10
5.9437712
20
37.4224784
11
5.4707018
21
37.4224784
0
LINE
8
DEFAULT_255_1_234
10
5.4707018
20
37.4224784
11
5.4353622
21
37.1036184
0
LINE
8
DEFAULT_255_1_234
10
5.2434036
20
36.6980156
11
5.383959
21
36.6980156
0
LINE
8
DEFAULT_255_1_234
10
5.4433939
20
36.9783232
11
5.4040384
21
36.9461963
0
ARC
8
DEFAULT_255_1_234
10
5.6208406
20
36.785623
40
0.3681349
50
93.7182161
51
120.2538958
0
ARC
8
DEFAULT_255_1_234
10
5.6302669
20
36.7048394
40
0.449379
50
89.9660152
51
94.2496022
0
ARC
8
DEFAULT_255_1_234
10
5.6343402
20
36.7637549
40
0.390482
50
73.8043271
51
90.5585896
0
ARC
8
DEFAULT_255_1_234
10
5.6578299
20
36.8495602
40
0.3015334
50
41.3071453
51
73.5430202
0
ARC
8
DEFAULT_255_1_234
10
5.6162127
20
36.8137324
40
0.3564457
50
13.5075983
51
41.2174222
0
ARC
8
DEFAULT_255_1_234
10
5.4520331
20
36.7707486
40
0.5261351
50
1.1331335
51
13.8829381
0
ARC
8
DEFAULT_255_1_234
10
5.3108699
20
36.7631665
40
0.6674378
50
359.9919444
51
1.544251
0
ARC
8
DEFAULT_255_1_234
10
5.4385526
20
36.759028
40
0.5397702
50
347.8572367
51
0.4293338
0
ARC
8
DEFAULT_255_1_234
10
5.6135843
20
36.7193736
40
0.3603188
50
323.673004
51
348.1672506
0
ARC
8
DEFAULT_255_1_234
10
5.6430352
20
36.7014168
40
0.3259678
50
316.8171152
51
323.1492751
0
ARC
8
DEFAULT_255_1_234
10
5.6491541
20
36.697746
40
0.3189975
50
281.8396411
51
316.5457803
0
ARC
8
DEFAULT_255_1_234
10
5.6115804
20
36.8532762
40
0.4789527
50
269.5770101
51
282.4214771
0
ARC
8
DEFAULT_255_1_234
10
5.6044616
20
36.8319125
40
0.45759
50
256.2427136
51
270.4486331
0
ARC
8
DEFAULT_255_1_234
10
5.5745518
20
36.7119229
40
0.3339303
50
228.9023911
51
256.3314342
0
ARC
8
DEFAULT_255_1_234
10
5.5671751
20
36.7002746
40
0.32031
50
193.753695
51
228.5271154
0
ARC
8
DEFAULT_255_1_234
10
5.6909705
20
36.73658
40
0.4492253
50
184.924711
51
194.497588
0
ARC
8
DEFAULT_255_1_234
10
5.7102272
20
36.7401591
40
0.3289787
50
187.3600538
51
198.6732863
0
ARC
8
DEFAULT_255_1_234
10
5.6052565
20
36.7037674
40
0.217884
50
198.4451669
51
217.794479
0
ARC
8
DEFAULT_255_1_234
10
5.5756741
20
36.6828085
40
0.1816698
50
218.2887171
51
228.5612368
0
ARC
8
DEFAULT_255_1_234
10
5.5854528
20
36.6959963
40
0.1980329
50
228.9654866
51
258.1234728
0
ARC
8
DEFAULT_255_1_234
10
5.6060238
20
36.7840833
40
0.2884748
50
257.7258293
51
270.401361
0
ARC
8
DEFAULT_255_1_234
10
5.6105124
20
36.7395821
40
0.2439788
50
269.4204404
51
286.4209037
0
ARC
8
DEFAULT_255_1_234
10
5.6253611
20
36.6856657
40
0.1880666
50
286.7251356
51
320.600362
0
ARC
8
DEFAULT_255_1_234
10
5.5870437
20
36.7167595
40
0.2374121
50
320.6712579
51
344.5441685
0
ARC
8
DEFAULT_255_1_234
10
5.4713763
20
36.7507045
40
0.3579479
50
344.2412205
51
356.7357071
0
ARC
8
DEFAULT_255_1_234
10
5.3464911
20
36.7610444
40
0.4832297
50
356.3548756
51
0.0500261
0
ARC
8
DEFAULT_255_1_234
10
5.480142
20
36.764165
40
0.3495889
50
359.5576869
51
12.953486
0
ARC
8
DEFAULT_255_1_234
10
5.5856318
20
36.7897434
40
0.2410532
50
12.6490276
51
41.6081334
0
ARC
8
DEFAULT_255_1_234
10
5.6086689
20
36.8093321
40
0.2108218
50
41.7850273
51
85.9892764
0
ARC
8
DEFAULT_255_1_234
10
5.5963425
20
36.7280462
40
0.2928454
50
84.6957577
51
90.0676183
0
ARC
8
DEFAULT_255_1_234
10
5.5939909
20
36.6611716
40
0.3597255
50
89.6804936
51
99.1614436
0
ARC
8
DEFAULT_255_1_234
10
5.5734541
20
36.7839131
40
0.235281
50
98.9830931
51
113.8908934
0
ARC
8
DEFAULT_255_1_234
10
5.5504951
20
36.8380587
40
0.176479
50
114.1950727
51
127.3641004
0
LINE
8
DEFAULT_255_1_234
10
6.465031
20
36.9478026
11
6.465031
21
36.8265234
0
LINE
8
DEFAULT_255_1_234
10
6.465031
20
36.8265234
11
6.0730822
21
36.8265234
0
LINE
8
DEFAULT_255_1_234
10
6.0730822
20
36.8265234
11
6.0730822
21
36.9478026
0
LINE
8
DEFAULT_255_1_234
10
6.0730822
20
36.9478026
11
6.465031
21
36.9478026
0
LINE
8
DEFAULT_255_1_234
10
4.828977
20
45.4973211
11
4.9839896
21
45.4973211
0
LINE
8
DEFAULT_255_1_234
10
4.9839896
20
45.4973211
11
4.9839896
21
44.702179
0
LINE
8
DEFAULT_255_1_234
10
4.6000725
20
44.3134429
11
4.5591106
21
44.3118365
0
LINE
8
DEFAULT_255_1_234
10
4.1374443
20
44.7005727
11
4.1374443
21
45.4973211
0
LINE
8
DEFAULT_255_1_234
10
4.1374443
20
45.4973211
11
4.2900474
21
45.4973211
0
LINE
8
DEFAULT_255_1_234
10
4.2900474
20
45.4973211
11
4.2900474
21
44.7053917
0
LINE
8
DEFAULT_255_1_234
10
4.828977
20
44.7045885
11
4.828977
21
45.4973211
0
ARC
8
DEFAULT_255_1_234
10
4.5486794
20
44.7001928
40
0.4353147
50
343.0898354
51
0.2614217
0
ARC
8
DEFAULT_255_1_234
10
4.6315195
20
44.6770837
40
0.3493402
50
315.3345598
51
342.7641223
0
ARC
8
DEFAULT_255_1_234
10
4.6091644
20
44.7002682
40
0.3815385
50
284.6606969
51
315.2182466
0
ARC
8
DEFAULT_255_1_234
10
4.5636357
20
44.8548755
40
0.5426573
50
273.8500273
51
285.1797701
0
ARC
8
DEFAULT_255_1_234
10
4.5548408
20
44.8890475
40
0.5772268
50
257.6317484
51
270.4238298
0
ARC
8
DEFAULT_255_1_234
10
4.5123606
20
44.7069198
40
0.3902347
50
230.6087562
51
257.9964012
0
ARC
8
DEFAULT_255_1_234
10
4.4991608
20
44.6862802
40
0.3659186
50
227.7440991
51
230.1551448
0
ARC
8
DEFAULT_255_1_234
10
4.4857439
20
44.6701471
40
0.3449568
50
189.2524587
51
227.5916061
0
ARC
8
DEFAULT_255_1_234
10
4.6379126
20
44.7029013
40
0.5004737
50
180.2665968
51
190.1525252
0
ARC
8
DEFAULT_255_1_234
10
4.6601146
20
44.7025918
40
0.3700778
50
179.5665184
51
191.9952995
0
ARC
8
DEFAULT_255_1_234
10
4.5373252
20
44.6752043
40
0.2442808
50
191.6974072
51
215.1404042
0
ARC
8
DEFAULT_255_1_234
10
4.5135167
20
44.6610108
40
0.2166522
50
215.6950207
51
224.8513522
0
ARC
8
DEFAULT_255_1_234
10
4.519091
20
44.6689697
40
0.2262237
50
225.2846858
51
255.0111758
0
ARC
8
DEFAULT_255_1_234
10
4.551487
20
44.7803455
40
0.3421979
50
254.5944985
51
267.9129803
0
ARC
8
DEFAULT_255_1_234
10
4.5589351
20
44.8887903
40
0.4508556
50
267.4689655
51
270.0223026
0
ARC
8
DEFAULT_255_1_234
10
4.5619496
20
44.8298849
40
0.3919604
50
269.5849941
51
281.1843768
0
ARC
8
DEFAULT_255_1_234
10
4.5898261
20
44.6946059
40
0.2538457
50
280.9344262
51
300.9743589
0
ARC
8
DEFAULT_255_1_234
10
4.6110866
20
44.6554688
40
0.2093566
50
301.4980046
51
315.1466847
0
ARC
8
DEFAULT_255_1_234
10
4.5966405
20
44.6673236
40
0.2279656
50
315.5952539
51
345.6678731
0
ARC
8
DEFAULT_255_1_234
10
4.4846921
20
44.6985009
40
0.3441564
50
345.2524969
51
358.6304371
0
ARC
8
DEFAULT_255_1_234
10
4.3829275
20
44.7044916
40
0.4460494
50
358.1735671
51
0.0124524
0
LINE
8
DEFAULT_255_1_234
10
5.3759384
20
44.8836963
11
5.2570687
21
44.9142169
0
LINE
8
DEFAULT_255_1_234
10
5.2570687
20
44.9142169
11
5.3165035
21
45.4973211
0
LINE
8
DEFAULT_255_1_234
10
5.3165035
20
45.4973211
11
5.9156712
21
45.4973211
0
LINE
8
DEFAULT_255_1_234
10
5.9156712
20
45.4973211
11
5.9156712
21
45.3599784
0
LINE
8
DEFAULT_255_1_234
10
5.9156712
20
45.3599784
11
5.4426018
21
45.3599784
0
LINE
8
DEFAULT_255_1_234
10
5.4426018
20
45.3599784
11
5.4072622
21
45.0411184
0
LINE
8
DEFAULT_255_1_234
10
5.2153036
20
44.6355156
11
5.355859
21
44.6355156
0
LINE
8
DEFAULT_255_1_234
10
5.4152939
20
44.9158232
11
5.3759384
21
44.8836963
0
ARC
8
DEFAULT_255_1_234
10
5.5927406
20
44.723123
40
0.3681349
50
93.7182161
51
120.2538958
0
ARC
8
DEFAULT_255_1_234
10
5.6021669
20
44.6423394
40
0.449379
50
89.9660152
51
94.2496022
0
ARC
8
DEFAULT_255_1_234
10
5.6062402
20
44.7012549
40
0.390482
50
73.8043271
51
90.5585896
0
ARC
8
DEFAULT_255_1_234
10
5.6297299
20
44.7870602
40
0.3015334
50
41.3071453
51
73.5430202
0
ARC
8
DEFAULT_255_1_234
10
5.5881127
20
44.7512324
40
0.3564457
50
13.5075983
51
41.2174222
0
ARC
8
DEFAULT_255_1_234
10
5.4239331
20
44.7082486
40
0.5261351
50
1.1331335
51
13.8829381
0
ARC
8
DEFAULT_255_1_234
10
5.2827699
20
44.7006665
40
0.6674378
50
359.9919444
51
1.544251
0
ARC
8
DEFAULT_255_1_234
10
5.4104526
20
44.696528
40
0.5397702
50
347.8572367
51
0.4293338
0
ARC
8
DEFAULT_255_1_234
10
5.5854843
20
44.6568736
40
0.3603188
50
323.673004
51
348.1672506
0
ARC
8
DEFAULT_255_1_234
10
5.6149352
20
44.6389168
40
0.3259678
50
316.8171152
51
323.1492751
0
ARC
8
DEFAULT_255_1_234
10
5.6210541
20
44.635246
40
0.3189975
50
281.8396411
51
316.5457803
0
ARC
8
DEFAULT_255_1_234
10
5.5834804
20
44.7907762
40
0.4789527
50
269.5770101
51
282.4214771
0
ARC
8
DEFAULT_255_1_234
10
5.5763616
20
44.7694125
40
0.45759
50
256.2427136
51
270.4486331
0
ARC
8
DEFAULT_255_1_234
10
5.5464518
20
44.6494229
40
0.3339303
50
228.9023911
51
256.3314342
0
ARC
8
DEFAULT_255_1_234
10
5.5390751
20
44.6377746
40
0.32031
50
193.753695
51
228.5271154
0
ARC
8
DEFAULT_255_1_234
10
5.6628705
20
44.67408
40
0.4492253
50
184.924711
51
194.497588
0
ARC
8
DEFAULT_255_1_234
10
5.6821272
20
44.6776591
40
0.3289787
50
187.3600538
51
198.6732863
0
ARC
8
DEFAULT_255_1_234
10
5.5771565
20
44.6412674
40
0.217884
50
198.4451669
51
217.794479
0
ARC
8
DEFAULT_255_1_234
10
5.5475741
20
44.6203085
40
0.1816698
50
218.2887171
51
228.5612368
0
ARC
8
DEFAULT_255_1_234
10
5.5573528
20
44.6334963
40
0.1980329
50
228.9654866
51
258.1234728
0
ARC
8
DEFAULT_255_1_234
10
5.5779238
20
44.7215833
40
0.2884748
50
257.7258293
51
270.401361
0
ARC
8
DEFAULT_255_1_234
10
5.5824124
20
44.6770821
40
0.2439788
50
269.4204404
51
286.4209037
0
ARC
8
DEFAULT_255_1_234
10
5.5972611
20
44.6231657
40
0.1880666
50
286.7251356
51
320.600362
0
ARC
8
DEFAULT_255_1_234
10
5.5589437
20
44.6542595
40
0.2374121
50
320.6712579
51
344.5441685
0
ARC
8
DEFAULT_255_1_234
10
5.4432763
20
44.6882045
40
0.3579479
50
344.2412205
51
356.7357071
0
ARC
8
DEFAULT_255_1_234
10
5.3183911
20
44.6985444
40
0.4832297
50
356.3548756
51
0.0500261
0
ARC
8
DEFAULT_255_1_234
10
5.452042
20
44.701665
40
0.3495889
50
359.5576869
51
12.953486
0
ARC
8
DEFAULT_255_1_234
10
5.5575318
20
44.7272434
40
0.2410532
50
12.6490276
51
41.6081334
0
ARC
8
DEFAULT_255_1_234
10
5.5805689
20
44.7468321
40
0.2108218
50
41.7850273
51
85.9892764
0
ARC
8
DEFAULT_255_1_234
10
5.5682425
20
44.6655462
40
0.2928454
50
84.6957577
51
90.0676183
0
ARC
8
DEFAULT_255_1_234
10
5.5658909
20
44.5986716
40
0.3597255
50
89.6804936
51
99.1614436
0
ARC
8
DEFAULT_255_1_234
10
5.5453541
20
44.7214131
40
0.235281
50
98.9830931
51
113.8908934
0
ARC
8
DEFAULT_255_1_234
10
5.5223951
20
44.7755587
40
0.176479
50
114.1950727
51
127.3641004
0
LINE
8
DEFAULT_255_1_234
10
6.5533912
20
45.2965276
11
6.5533912
21
44.9551788
0
LINE
8
DEFAULT_255_1_234
10
6.5533912
20
44.9551788
11
6.8794798
21
44.9551788
0
LINE
8
DEFAULT_255_1_234
10
6.8794798
20
44.9551788
11
6.8794798
21
44.8146233
0
LINE
8
DEFAULT_255_1_234
10
6.8794798
20
44.8146233
11
6.5533912
21
44.8146233
0
LINE
8
DEFAULT_255_1_234
10
6.5533912
20
44.8146233
11
6.5533912
21
44.4451634
0
LINE
8
DEFAULT_255_1_234
10
6.5533912
20
44.4451634
11
6.4040009
21
44.4451634
0
LINE
8
DEFAULT_255_1_234
10
6.4040009
20
44.4451634
11
6.4040009
21
44.8146233
0
LINE
8
DEFAULT_255_1_234
10
6.4040009
20
44.8146233
11
6.0779123
21
44.8146233
0
LINE
8
DEFAULT_255_1_234
10
6.0779123
20
44.8146233
11
6.0779123
21
44.9551788
0
LINE
8
DEFAULT_255_1_234
10
6.0779123
20
44.9551788
11
6.4040009
21
44.9551788
0
LINE
8
DEFAULT_255_1_234
10
6.4040009
20
44.9551788
11
6.4040009
21
45.2965276
0
LINE
8
DEFAULT_255_1_234
10
6.4040009
20
45.2965276
11
6.5533912
21
45.2965276
0
LINE
8
DEFAULT_255_1_234
10
4.857077
20
53.4348211
11
5.0120896
21
53.4348211
0
LINE
8
DEFAULT_255_1_234
10
5.0120896
20
53.4348211
11
5.0120896
21
52.639679
0
LINE
8
DEFAULT_255_1_234
10
4.6281725
20
52.2509429
11
4.5872106
21
52.2493365
0
LINE
8
DEFAULT_255_1_234
10
4.1655443
20
52.6380727
11
4.1655443
21
53.4348211
0
LINE
8
DEFAULT_255_1_234
10
4.1655443
20
53.4348211
11
4.3181474
21
53.4348211
0
LINE
8
DEFAULT_255_1_234
10
4.3181474
20
53.4348211
11
4.3181474
21
52.6428917
0
LINE
8
DEFAULT_255_1_234
10
4.857077
20
52.6420885
11
4.857077
21
53.4348211
0
ARC
8
DEFAULT_255_1_234
10
4.5767794
20
52.6376928
40
0.4353147
50
343.0898354
51
0.2614217
0
ARC
8
DEFAULT_255_1_234
10
4.6596195
20
52.6145837
40
0.3493402
50
315.3345598
51
342.7641223
0
ARC
8
DEFAULT_255_1_234
10
4.6372644
20
52.6377682
40
0.3815385
50
284.6606969
51
315.2182466
0
ARC
8
DEFAULT_255_1_234
10
4.5917357
20
52.7923755
40
0.5426573
50
273.8500273
51
285.1797701
0
ARC
8
DEFAULT_255_1_234
10
4.5829408
20
52.8265475
40
0.5772268
50
257.6317484
51
270.4238298
0
ARC
8
DEFAULT_255_1_234
10
4.5404606
20
52.6444198
40
0.3902347
50
230.6087562
51
257.9964012
0
ARC
8
DEFAULT_255_1_234
10
4.5272608
20
52.6237802
40
0.3659186
50
227.7440991
51
230.1551448
0
ARC
8
DEFAULT_255_1_234
10
4.5138439
20
52.6076471
40
0.3449568
50
189.2524587
51
227.5916061
0
ARC
8
DEFAULT_255_1_234
10
4.6660126
20
52.6404013
40
0.5004737
50
180.2665968
51
190.1525252
0
ARC
8
DEFAULT_255_1_234
10
4.6882146
20
52.6400918
40
0.3700778
50
179.5665184
51
191.9952995
0
ARC
8
DEFAULT_255_1_234
10
4.5654252
20
52.6127043
40
0.2442808
50
191.6974072
51
215.1404042
0
ARC
8
DEFAULT_255_1_234
10
4.5416167
20
52.5985108
40
0.2166522
50
215.6950207
51
224.8513522
0
ARC
8
DEFAULT_255_1_234
10
4.547191
20
52.6064697
40
0.2262237
50
225.2846858
51
255.0111758
0
ARC
8
DEFAULT_255_1_234
10
4.579587
20
52.7178455
40
0.3421979
50
254.5944985
51
267.9129803
0
ARC
8
DEFAULT_255_1_234
10
4.5870351
20
52.8262903
40
0.4508556
50
267.4689655
51
270.0223026
0
ARC
8
DEFAULT_255_1_234
10
4.5900496
20
52.7673849
40
0.3919604
50
269.5849941
51
281.1843768
0
ARC
8
DEFAULT_255_1_234
10
4.6179261
20
52.6321059
40
0.2538457
50
280.9344262
51
300.9743589
0
ARC
8
DEFAULT_255_1_234
10
4.6391866
20
52.5929688
40
0.2093566
50
301.4980046
51
315.1466847
0
ARC
8
DEFAULT_255_1_234
10
4.6247405
20
52.6048236
40
0.2279656
50
315.5952539
51
345.6678731
0
ARC
8
DEFAULT_255_1_234
10
4.5127921
20
52.6360009
40
0.3441564
50
345.2524969
51
358.6304371
0
ARC
8
DEFAULT_255_1_234
10
4.4110275
20
52.6419916
40
0.4460494
50
358.1735671
51
0.0124524
0
LINE
8
DEFAULT_255_1_234
10
5.8441776
20
53.4348211
11
5.8441776
21
52.658152
0
LINE
8
DEFAULT_255_1_234
10
5.8441776
20
52.658152
11
6.0064188
21
52.658152
0
LINE
8
DEFAULT_255_1_234
10
6.0064188
20
52.658152
11
6.0064188
21
52.5368728
0
LINE
8
DEFAULT_255_1_234
10
6.0064188
20
52.5368728
11
5.8441776
21
52.5368728
0
LINE
8
DEFAULT_255_1_234
10
5.8441776
20
52.5368728
11
5.8441776
21
52.2654
0
LINE
8
DEFAULT_255_1_234
10
5.8441776
20
52.2654
11
5.6947873
21
52.2654
0
LINE
8
DEFAULT_255_1_234
10
5.6947873
20
52.2654
11
5.6947873
21
52.5368728
0
LINE
8
DEFAULT_255_1_234
10
5.6947873
20
52.5368728
11
5.1622831
21
52.5368728
0
LINE
8
DEFAULT_255_1_234
10
5.1622831
20
52.5368728
11
5.1622831
21
52.6244187
0
LINE
8
DEFAULT_255_1_234
10
5.1622831
20
52.6244187
11
5.6859524
21
53.4348211
0
LINE
8
DEFAULT_255_1_234
10
5.6859524
20
53.4348211
11
5.8441776
21
53.4348211
0
LINE
8
DEFAULT_255_1_234
10
5.6771175
20
53.1994912
11
5.3309496
21
52.658152
0
LINE
8
DEFAULT_255_1_234
10
5.3309496
20
52.658152
11
5.6947873
21
52.658152
0
LINE
8
DEFAULT_255_1_234
10
5.6947873
20
52.658152
11
5.6947873
21
53.2316181
0
LINE
8
DEFAULT_255_1_234
10
5.6947873
20
53.2316181
11
5.6771175
21
53.1994912
0
LINE
8
DEFAULT_255_1_234
10
6.465031
20
52.8228026
11
6.465031
21
52.7015234
0
LINE
8
DEFAULT_255_1_234
10
6.465031
20
52.7015234
11
6.0730822
21
52.7015234
0
LINE
8
DEFAULT_255_1_234
10
6.0730822
20
52.7015234
11
6.0730822
21
52.8228026
0
LINE
8
DEFAULT_255_1_234
10
6.0730822
20
52.8228026
11
6.465031
21
52.8228026
0
LINE
8
DEFAULT_255_1_234
10
4.828977
20
61.3723211
11
4.9839896
21
61.3723211
0
LINE
8
DEFAULT_255_1_234
10
4.9839896
20
61.3723211
11
4.9839896
21
60.577179
0
LINE
8
DEFAULT_255_1_234
10
4.6000725
20
60.1884429
11
4.5591106
21
60.1868365
0
LINE
8
DEFAULT_255_1_234
10
4.1374443
20
60.5755727
11
4.1374443
21
61.3723211
0
LINE
8
DEFAULT_255_1_234
10
4.1374443
20
61.3723211
11
4.2900474
21
61.3723211
0
LINE
8
DEFAULT_255_1_234
10
4.2900474
20
61.3723211
11
4.2900474
21
60.5803917
0
LINE
8
DEFAULT_255_1_234
10
4.828977
20
60.5795885
11
4.828977
21
61.3723211
0
ARC
8
DEFAULT_255_1_234
10
4.5486794
20
60.5751928
40
0.4353147
50
343.0898354
51
0.2614217
0
ARC
8
DEFAULT_255_1_234
10
4.6315195
20
60.5520837
40
0.3493402
50
315.3345598
51
342.7641223
0
ARC
8
DEFAULT_255_1_234
10
4.6091644
20
60.5752682
40
0.3815385
50
284.6606969
51
315.2182466
0
ARC
8
DEFAULT_255_1_234
10
4.5636357
20
60.7298755
40
0.5426573
50
273.8500273
51
285.1797701
0
ARC
8
DEFAULT_255_1_234
10
4.5548408
20
60.7640475
40
0.5772268
50
257.6317484
51
270.4238298
0
ARC
8
DEFAULT_255_1_234
10
4.5123606
20
60.5819198
40
0.3902347
50
230.6087562
51
257.9964012
0
ARC
8
DEFAULT_255_1_234
10
4.4991608
20
60.5612802
40
0.3659186
50
227.7440991
51
230.1551448
0
ARC
8
DEFAULT_255_1_234
10
4.4857439
20
60.5451471
40
0.3449568
50
189.2524587
51
227.5916061
0
ARC
8
DEFAULT_255_1_234
10
4.6379126
20
60.5779013
40
0.5004737
50
180.2665968
51
190.1525252
0
ARC
8
DEFAULT_255_1_234
10
4.6601146
20
60.5775918
40
0.3700778
50
179.5665184
51
191.9952995
0
ARC
8
DEFAULT_255_1_234
10
4.5373252
20
60.5502043
40
0.2442808
50
191.6974072
51
215.1404042
0
ARC
8
DEFAULT_255_1_234
10
4.5135167
20
60.5360108
40
0.2166522
50
215.6950207
51
224.8513522
0
ARC
8
DEFAULT_255_1_234
10
4.519091
20
60.5439697
40
0.2262237
50
225.2846858
51
255.0111758
0
ARC
8
DEFAULT_255_1_234
10
4.551487
20
60.6553455
40
0.3421979
50
254.5944985
51
267.9129803
0
ARC
8
DEFAULT_255_1_234
10
4.5589351
20
60.7637903
40
0.4508556
50
267.4689655
51
270.0223026
0
ARC
8
DEFAULT_255_1_234
10
4.5619496
20
60.7048849
40
0.3919604
50
269.5849941
51
281.1843768
0
ARC
8
DEFAULT_255_1_234
10
4.5898261
20
60.5696059
40
0.2538457
50
280.9344262
51
300.9743589
0
ARC
8
DEFAULT_255_1_234
10
4.6110866
20
60.5304688
40
0.2093566
50
301.4980046
51
315.1466847
0
ARC
8
DEFAULT_255_1_234
10
4.5966405
20
60.5423236
40
0.2279656
50
315.5952539
51
345.6678731
0
ARC
8
DEFAULT_255_1_234
10
4.4846921
20
60.5735009
40
0.3441564
50
345.2524969
51
358.6304371
0
ARC
8
DEFAULT_255_1_234
10
4.3829275
20
60.5794916
40
0.4460494
50
358.1735671
51
0.0124524
0
LINE
8
DEFAULT_255_1_234
10
5.8160776
20
61.3723211
11
5.8160776
21
60.595652
0
LINE
8
DEFAULT_255_1_234
10
5.8160776
20
60.595652
11
5.9783188
21
60.595652
0
LINE
8
DEFAULT_255_1_234
10
5.9783188
20
60.595652
11
5.9783188
21
60.4743728
0
LINE
8
DEFAULT_255_1_234
10
5.9783188
20
60.4743728
11
5.8160776
21
60.4743728
0
LINE
8
DEFAULT_255_1_234
10
5.8160776
20
60.4743728
11
5.8160776
21
60.2029
0
LINE
8
DEFAULT_255_1_234
10
5.8160776
20
60.2029
11
5.6666873
21
60.2029
0
LINE
8
DEFAULT_255_1_234
10
5.6666873
20
60.2029
11
5.6666873
21
60.4743728
0
LINE
8
DEFAULT_255_1_234
10
5.6666873
20
60.4743728
11
5.1341831
21
60.4743728
0
LINE
8
DEFAULT_255_1_234
10
5.1341831
20
60.4743728
11
5.1341831
21
60.5619187
0
LINE
8
DEFAULT_255_1_234
10
5.1341831
20
60.5619187
11
5.6578524
21
61.3723211
0
LINE
8
DEFAULT_255_1_234
10
5.6578524
20
61.3723211
11
5.8160776
21
61.3723211
0
LINE
8
DEFAULT_255_1_234
10
5.6490175
20
61.1369912
11
5.3028496
21
60.595652
0
LINE
8
DEFAULT_255_1_234
10
5.3028496
20
60.595652
11
5.6666873
21
60.595652
0
LINE
8
DEFAULT_255_1_234
10
5.6666873
20
60.595652
11
5.6666873
21
61.1691181
0
LINE
8
DEFAULT_255_1_234
10
5.6666873
20
61.1691181
11
5.6490175
21
61.1369912
0
LINE
8
DEFAULT_255_1_234
10
6.5533912
20
61.1715276
11
6.5533912
21
60.8301788
0
LINE
8
DEFAULT_255_1_234
10
6.5533912
20
60.8301788
11
6.8794798
21
60.8301788
0
LINE
8
DEFAULT_255_1_234
10
6.8794798
20
60.8301788
11
6.8794798
21
60.6896233
0
LINE
8
DEFAULT_255_1_234
10
6.8794798
20
60.6896233
11
6.5533912
21
60.6896233
0
LINE
8
DEFAULT_255_1_234
10
6.5533912
20
60.6896233
11
6.5533912
21
60.3201634
0
LINE
8
DEFAULT_255_1_234
10
6.5533912
20
60.3201634
11
6.4040009
21
60.3201634
0
LINE
8
DEFAULT_255_1_234
10
6.4040009
20
60.3201634
11
6.4040009
21
60.6896233
0
LINE
8
DEFAULT_255_1_234
10
6.4040009
20
60.6896233
11
6.0779123
21
60.6896233
0
LINE
8
DEFAULT_255_1_234
10
6.0779123
20
60.6896233
11
6.0779123
21
60.8301788
0
LINE
8
DEFAULT_255_1_234
10
6.0779123
20
60.8301788
11
6.4040009
21
60.8301788
0
LINE
8
DEFAULT_255_1_234
10
6.4040009
20
60.8301788
11
6.4040009
21
61.1715276
0
LINE
8
DEFAULT_255_1_234
10
6.4040009
20
61.1715276
11
6.5533912
21
61.1715276
0
LINE
8
DEFAULT_255_1_234
10
4.857077
20
69.3098211
11
5.0120896
21
69.3098211
0
LINE
8
DEFAULT_255_1_234
10
5.0120896
20
69.3098211
11
5.0120896
21
68.514679
0
LINE
8
DEFAULT_255_1_234
10
4.6281725
20
68.1259429
11
4.5872106
21
68.1243365
0
LINE
8
DEFAULT_255_1_234
10
4.1655443
20
68.5130727
11
4.1655443
21
69.3098211
0
LINE
8
DEFAULT_255_1_234
10
4.1655443
20
69.3098211
11
4.3181474
21
69.3098211
0
LINE
8
DEFAULT_255_1_234
10
4.3181474
20
69.3098211
11
4.3181474
21
68.5178917
0
LINE
8
DEFAULT_255_1_234
10
4.857077
20
68.5170885
11
4.857077
21
69.3098211
0
ARC
8
DEFAULT_255_1_234
10
4.5767794
20
68.5126928
40
0.4353147
50
343.0898354
51
0.2614217
0
ARC
8
DEFAULT_255_1_234
10
4.6596195
20
68.4895837
40
0.3493402
50
315.3345598
51
342.7641223
0
ARC
8
DEFAULT_255_1_234
10
4.6372644
20
68.5127682
40
0.3815385
50
284.6606969
51
315.2182466
0
ARC
8
DEFAULT_255_1_234
10
4.5917357
20
68.6673755
40
0.5426573
50
273.8500273
51
285.1797701
0
ARC
8
DEFAULT_255_1_234
10
4.5829408
20
68.7015475
40
0.5772268
50
257.6317484
51
270.4238298
0
ARC
8
DEFAULT_255_1_234
10
4.5404606
20
68.5194198
40
0.3902347
50
230.6087562
51
257.9964012
0
ARC
8
DEFAULT_255_1_234
10
4.5272608
20
68.4987802
40
0.3659186
50
227.7440991
51
230.1551448
0
ARC
8
DEFAULT_255_1_234
10
4.5138439
20
68.4826471
40
0.3449568
50
189.2524587
51
227.5916061
0
ARC
8
DEFAULT_255_1_234
10
4.6660126
20
68.5154013
40
0.5004737
50
180.2665968
51
190.1525252
0
ARC
8
DEFAULT_255_1_234
10
4.6882146
20
68.5150918
40
0.3700778
50
179.5665184
51
191.9952995
0
ARC
8
DEFAULT_255_1_234
10
4.5654252
20
68.4877043
40
0.2442808
50
191.6974072
51
215.1404042
0
ARC
8
DEFAULT_255_1_234
10
4.5416167
20
68.4735108
40
0.2166522
50
215.6950207
51
224.8513522
0
ARC
8
DEFAULT_255_1_234
10
4.547191
20
68.4814697
40
0.2262237
50
225.2846858
51
255.0111758
0
ARC
8
DEFAULT_255_1_234
10
4.579587
20
68.5928455
40
0.3421979
50
254.5944985
51
267.9129803
0
ARC
8
DEFAULT_255_1_234
10
4.5870351
20
68.7012903
40
0.4508556
50
267.4689655
51
270.0223026
0
ARC
8
DEFAULT_255_1_234
10
4.5900496
20
68.6423849
40
0.3919604
50
269.5849941
51
281.1843768
0
ARC
8
DEFAULT_255_1_234
10
4.6179261
20
68.5071059
40
0.2538457
50
280.9344262
51
300.9743589
0
ARC
8
DEFAULT_255_1_234
10
4.6391866
20
68.4679688
40
0.2093566
50
301.4980046
51
315.1466847
0
ARC
8
DEFAULT_255_1_234
10
4.6247405
20
68.4798236
40
0.2279656
50
315.5952539
51
345.6678731
0
ARC
8
DEFAULT_255_1_234
10
4.5127921
20
68.5110009
40
0.3441564
50
345.2524969
51
358.6304371
0
ARC
8
DEFAULT_255_1_234
10
4.4110275
20
68.5169916
40
0.4460494
50
358.1735671
51
0.0124524
0
LINE
8
DEFAULT_255_1_234
10
5.4329526
20
68.6761169
11
5.4329526
21
68.7973962
0
LINE
8
DEFAULT_255_1_234
10
5.4329526
20
68.7973962
11
5.5445938
21
68.7973962
0
LINE
8
DEFAULT_255_1_234
10
5.3542416
20
69.0030087
11
5.2056544
21
69.0030087
0
LINE
8
DEFAULT_255_1_234
10
5.1952132
20
68.4488188
11
5.3446035
21
68.4488188
0
LINE
8
DEFAULT_255_1_234
10
5.5445938
20
68.6761169
11
5.4329526
21
68.6761169
0
ARC
8
DEFAULT_255_1_234
10
5.5416804
20
69.1366713
40
0.3392876
50
270.4919872
51
281.8951556
0
ARC
8
DEFAULT_255_1_234
10
5.5658066
20
69.0264702
40
0.2264817
50
281.6691735
51
301.2943132
0
ARC
8
DEFAULT_255_1_234
10
5.5828276
20
68.9953304
40
0.1910381
50
301.7833094
51
311.7545298
0
ARC
8
DEFAULT_255_1_234
10
5.5919852
20
68.9851748
40
0.1773635
50
311.7323931
51
354.2802411
0
ARC
8
DEFAULT_255_1_234
10
5.5193477
20
68.9976722
40
0.2509385
50
353.0937916
51
0.1181479
0
ARC
8
DEFAULT_255_1_234
10
5.4732262
20
69.0024386
40
0.2970898
50
359.1805295
51
15.0453146
0
ARC
8
DEFAULT_255_1_234
10
5.6078099
20
69.0416992
40
0.1569564
50
13.9577229
51
77.6713066
0
ARC
8
DEFAULT_255_1_234
10
5.5691628
20
68.9031949
40
0.3006298
50
76.1116566
51
90.7026153
0
ARC
8
DEFAULT_255_1_234
10
5.5632467
20
68.9305545
40
0.2732568
50
89.5324876
51
103.531937
0
ARC
8
DEFAULT_255_1_234
10
5.5431911
20
69.0104884
40
0.1908508
50
103.2931773
51
133.5619022
0
ARC
8
DEFAULT_255_1_234
10
5.5387399
20
69.0164375
40
0.1834746
50
133.8349307
51
173.5344437
0
ARC
8
DEFAULT_255_1_234
10
5.6110442
20
69.0036213
40
0.2568033
50
172.5096846
51
180.1366907
0
ARC
8
DEFAULT_255_1_234
10
5.5159336
20
69.0070622
40
0.3103056
50
155.3484492
51
180.7484736
0
ARC
8
DEFAULT_255_1_234
10
5.5110425
20
69.0041846
40
0.3070957
50
131.5744599
51
154.4798489
0
ARC
8
DEFAULT_255_1_234
10
5.5423573
20
68.972531
40
0.3515643
50
96.9875458
51
131.9690667
0
ARC
8
DEFAULT_255_1_234
10
5.5643052
20
68.8479636
40
0.4779224
50
89.8596053
51
97.7825159
0
ARC
8
DEFAULT_255_1_234
10
5.5691116
20
68.8217616
40
0.5041361
50
78.3655447
51
90.4131539
0
ARC
8
DEFAULT_255_1_234
10
5.6049033
20
68.9876887
40
0.3344039
50
56.6229102
51
78.638727
0
ARC
8
DEFAULT_255_1_234
10
5.6263977
20
69.0252805
40
0.2912001
50
47.0253525
51
56.0854072
0
ARC
8
DEFAULT_255_1_234
10
5.6283757
20
69.0292223
40
0.2869704
50
10.9208013
51
46.7778124
0
ARC
8
DEFAULT_255_1_234
10
5.4919824
20
68.9976857
40
0.426899
50
359.6364486
51
11.6087304
0
ARC
8
DEFAULT_255_1_234
10
5.6754668
20
68.9961752
40
0.243409
50
332.3549906
51
359.7179418
0
ARC
8
DEFAULT_255_1_234
10
5.6104269
20
69.0270142
40
0.3153459
50
325.2333722
51
332.8745602
0
ARC
8
DEFAULT_255_1_234
10
5.6256893
20
69.0163828
40
0.2967456
50
292.9802137
51
325.2392345
0
ARC
8
DEFAULT_255_1_234
10
5.5982267
20
69.0697863
40
0.3566604
50
292.5402179
51
293.6924929
0
ARC
8
DEFAULT_255_1_234
10
5.6374863
20
68.4243091
40
0.3307468
50
57.6435486
51
72.8625112
0
ARC
8
DEFAULT_255_1_234
10
5.6729362
20
68.4817549
40
0.2632492
50
36.7248896
51
57.4697979
0
ARC
8
DEFAULT_255_1_234
10
5.6717995
20
68.483022
40
0.2634081
50
8.0545065
51
36.356114
0
ARC
8
DEFAULT_255_1_234
10
5.585518
20
68.4675174
40
0.3510261
50
359.8320645
51
8.5869982
0
ARC
8
DEFAULT_255_1_234
10
5.5479957
20
68.4627101
40
0.3885653
50
343.9829931
51
0.5571613
0
ARC
8
DEFAULT_255_1_234
10
5.6366154
20
68.4384438
40
0.2966924
50
311.6359546
51
343.7651759
0
ARC
8
DEFAULT_255_1_234
10
5.5987723
20
68.4811102
40
0.3537231
50
279.7829875
51
311.6255694
0
ARC
8
DEFAULT_255_1_234
10
5.5686499
20
68.624828
40
0.5004971
50
269.7286406
51
280.3856417
0
ARC
8
DEFAULT_255_1_234
10
5.5624572
20
68.6206996
40
0.4963778
50
256.6828919
51
270.4412052
0
ARC
8
DEFAULT_255_1_234
10
5.5285868
20
68.4822394
40
0.3538406
50
229.4223008
51
256.8556159
0
ARC
8
DEFAULT_255_1_234
10
5.487126
20
68.4355736
40
0.2914296
50
181.818294
51
229.6455059
0
ARC
8
DEFAULT_255_1_234
10
5.5911217
20
68.4486496
40
0.3959084
50
179.9755256
51
183.2323064
0
ARC
8
DEFAULT_255_1_234
10
5.5738962
20
68.4466037
40
0.2293034
50
179.4465117
51
196.2869258
0
ARC
8
DEFAULT_255_1_234
10
5.525137
20
68.4332651
40
0.1787621
50
196.5661473
51
227.705904
0
ARC
8
DEFAULT_255_1_234
10
5.5415465
20
68.4516155
40
0.2033784
50
227.7652068
51
257.8762805
0
ARC
8
DEFAULT_255_1_234
10
5.5640435
20
68.5459156
40
0.3003081
50
257.4584385
51
270.426602
0
ARC
8
DEFAULT_255_1_234
10
5.5686002
20
68.5748996
40
0.329292
50
269.5962073
51
280.8789248
0
ARC
8
DEFAULT_255_1_234
10
5.591553
20
68.4602685
40
0.2123908
50
280.6346389
51
299.8595945
0
ARC
8
DEFAULT_255_1_234
10
5.6106437
20
68.4240212
40
0.171457
50
300.3576302
51
314.5517981
0
ARC
8
DEFAULT_255_1_234
10
5.6023497
20
68.4300919
40
0.1816095
50
315.0728369
51
345.0431014
0
ARC
8
DEFAULT_255_1_234
10
5.5100312
20
68.4569841
40
0.2777492
50
344.5986631
51
357.9269593
0
ARC
8
DEFAULT_255_1_234
10
5.4204638
20
68.4631276
40
0.3674917
50
357.4748886
51
0.0231117
0
ARC
8
DEFAULT_255_1_234
10
5.5227747
20
68.4655679
40
0.2651907
50
359.5047933
51
13.4239635
0
ARC
8
DEFAULT_255_1_234
10
5.6094391
20
68.4877478
40
0.1757509
50
12.9498199
51
48.7551375
0
ARC
8
DEFAULT_255_1_234
10
5.5912125
20
68.46284
40
0.2065134
50
49.5088623
51
72.1836453
0
ARC
8
DEFAULT_255_1_234
10
5.5554277
20
68.3566291
40
0.3185836
50
71.9010081
51
84.3554254
0
ARC
8
DEFAULT_255_1_234
10
5.5392909
20
68.2205326
40
0.4556151
50
84.0193428
51
89.333121
0
LINE
8
DEFAULT_255_1_234
10
6.465031
20
68.6978026
11
6.465031
21
68.5765234
0
LINE
8
DEFAULT_255_1_234
10
6.465031
20
68.5765234
11
6.0730822
21
68.5765234
0
LINE
8
DEFAULT_255_1_234
10
6.0730822
20
68.5765234
11
6.0730822
21
68.6978026
0
LINE
8
DEFAULT_255_1_234
10
6.0730822
20
68.6978026
11
6.465031
21
68.6978026
0
LINE
8
DEFAULT_255_1_234
10
4.828977
20
77.2473211
11
4.9839896
21
77.2473211
0
LINE
8
DEFAULT_255_1_234
10
4.9839896
20
77.2473211
11
4.9839896
21
76.452179
0
LINE
8
DEFAULT_255_1_234
10
4.6000725
20
76.0634429
11
4.5591106
21
76.0618365
0
LINE
8
DEFAULT_255_1_234
10
4.1374443
20
76.4505727
11
4.1374443
21
77.2473211
0
LINE
8
DEFAULT_255_1_234
10
4.1374443
20
77.2473211
11
4.2900474
21
77.2473211
0
LINE
8
DEFAULT_255_1_234
10
4.2900474
20
77.2473211
11
4.2900474
21
76.4553917
0
LINE
8
DEFAULT_255_1_234
10
4.828977
20
76.4545885
11
4.828977
21
77.2473211
0
ARC
8
DEFAULT_255_1_234
10
4.5486794
20
76.4501928
40
0.4353147
50
343.0898354
51
0.2614217
0
ARC
8
DEFAULT_255_1_234
10
4.6315195
20
76.4270837
40
0.3493402
50
315.3345598
51
342.7641223
0
ARC
8
DEFAULT_255_1_234
10
4.6091644
20
76.4502682
40
0.3815385
50
284.6606969
51
315.2182466
0
ARC
8
DEFAULT_255_1_234
10
4.5636357
20
76.6048755
40
0.5426573
50
273.8500273
51
285.1797701
0
ARC
8
DEFAULT_255_1_234
10
4.5548408
20
76.6390475
40
0.5772268
50
257.6317484
51
270.4238298
0
ARC
8
DEFAULT_255_1_234
10
4.5123606
20
76.4569198
40
0.3902347
50
230.6087562
51
257.9964012
0
ARC
8
DEFAULT_255_1_234
10
4.4991608
20
76.4362802
40
0.3659186
50
227.7440991
51
230.1551448
0
ARC
8
DEFAULT_255_1_234
10
4.4857439
20
76.4201471
40
0.3449568
50
189.2524587
51
227.5916061
0
ARC
8
DEFAULT_255_1_234
10
4.6379126
20
76.4529013
40
0.5004737
50
180.2665968
51
190.1525252
0
ARC
8
DEFAULT_255_1_234
10
4.6601146
20
76.4525918
40
0.3700778
50
179.5665184
51
191.9952995
0
ARC
8
DEFAULT_255_1_234
10
4.5373252
20
76.4252043
40
0.2442808
50
191.6974072
51
215.1404042
0
ARC
8
DEFAULT_255_1_234
10
4.5135167
20
76.4110108
40
0.2166522
50
215.6950207
51
224.8513522
0
ARC
8
DEFAULT_255_1_234
10
4.519091
20
76.4189697
40
0.2262237
50
225.2846858
51
255.0111758
0
ARC
8
DEFAULT_255_1_234
10
4.551487
20
76.5303455
40
0.3421979
50
254.5944985
51
267.9129803
0
ARC
8
DEFAULT_255_1_234
10
4.5589351
20
76.6387903
40
0.4508556
50
267.4689655
51
270.0223026
0
ARC
8
DEFAULT_255_1_234
10
4.5619496
20
76.5798849
40
0.3919604
50
269.5849941
51
281.1843768
0
ARC
8
DEFAULT_255_1_234
10
4.5898261
20
76.4446059
40
0.2538457
50
280.9344262
51
300.9743589
0
ARC
8
DEFAULT_255_1_234
10
4.6110866
20
76.4054688
40
0.2093566
50
301.4980046
51
315.1466847
0
ARC
8
DEFAULT_255_1_234
10
4.5966405
20
76.4173236
40
0.2279656
50
315.5952539
51
345.6678731
0
ARC
8
DEFAULT_255_1_234
10
4.4846921
20
76.4485009
40
0.3441564
50
345.2524969
51
358.6304371
0
ARC
8
DEFAULT_255_1_234
10
4.3829275
20
76.4544916
40
0.4460494
50
358.1735671
51
0.0124524
0
LINE
8
DEFAULT_255_1_234
10
5.4048526
20
76.6136169
11
5.4048526
21
76.7348962
0
LINE
8
DEFAULT_255_1_234
10
5.4048526
20
76.7348962
11
5.5164938
21
76.7348962
0
LINE
8
DEFAULT_255_1_234
10
5.3261416
20
76.9405087
11
5.1775544
21
76.9405087
0
LINE
8
DEFAULT_255_1_234
10
5.1671132
20
76.3863188
11
5.3165035
21
76.3863188
0
LINE
8
DEFAULT_255_1_234
10
5.5164938
20
76.6136169
11
5.4048526
21
76.6136169
0
ARC
8
DEFAULT_255_1_234
10
5.5135804
20
77.0741713
40
0.3392876
50
270.4919872
51
281.8951556
0
ARC
8
DEFAULT_255_1_234
10
5.5377066
20
76.9639702
40
0.2264817
50
281.6691735
51
301.2943132
0
ARC
8
DEFAULT_255_1_234
10
5.5547276
20
76.9328304
40
0.1910381
50
301.7833094
51
311.7545298
0
ARC
8
DEFAULT_255_1_234
10
5.5638852
20
76.9226748
40
0.1773635
50
311.7323931
51
354.2802411
0
ARC
8
DEFAULT_255_1_234
10
5.4912477
20
76.9351722
40
0.2509385
50
353.0937916
51
0.1181479
0
ARC
8
DEFAULT_255_1_234
10
5.4451262
20
76.9399386
40
0.2970898
50
359.1805295
51
15.0453146
0
ARC
8
DEFAULT_255_1_234
10
5.5797099
20
76.9791992
40
0.1569564
50
13.9577229
51
77.6713066
0
ARC
8
DEFAULT_255_1_234
10
5.5410628
20
76.8406949
40
0.3006298
50
76.1116566
51
90.7026153
0
ARC
8
DEFAULT_255_1_234
10
5.5351467
20
76.8680545
40
0.2732568
50
89.5324876
51
103.531937
0
ARC
8
DEFAULT_255_1_234
10
5.5150911
20
76.9479884
40
0.1908508
50
103.2931773
51
133.5619022
0
ARC
8
DEFAULT_255_1_234
10
5.5106399
20
76.9539375
40
0.1834746
50
133.8349307
51
173.5344437
0
ARC
8
DEFAULT_255_1_234
10
5.5829442
20
76.9411213
40
0.2568033
50
172.5096846
51
180.1366907
0
ARC
8
DEFAULT_255_1_234
10
5.4878336
20
76.9445622
40
0.3103056
50
155.3484492
51
180.7484736
0
ARC
8
DEFAULT_255_1_234
10
5.4829425
20
76.9416846
40
0.3070957
50
131.5744599
51
154.4798489
0
ARC
8
DEFAULT_255_1_234
10
5.5142573
20
76.910031
40
0.3515643
50
96.9875458
51
131.9690667
0
ARC
8
DEFAULT_255_1_234
10
5.5362052
20
76.7854636
40
0.4779224
50
89.8596053
51
97.7825159
0
ARC
8
DEFAULT_255_1_234
10
5.5410116
20
76.7592616
40
0.5041361
50
78.3655447
51
90.4131539
0
ARC
8
DEFAULT_255_1_234
10
5.5768033
20
76.9251887
40
0.3344039
50
56.6229102
51
78.638727
0
ARC
8
DEFAULT_255_1_234
10
5.5982977
20
76.9627805
40
0.2912001
50
47.0253525
51
56.0854072
0
ARC
8
DEFAULT_255_1_234
10
5.6002757
20
76.9667223
40
0.2869704
50
10.9208013
51
46.7778124
0
ARC
8
DEFAULT_255_1_234
10
5.4638824
20
76.9351857
40
0.426899
50
359.6364486
51
11.6087304
0
ARC
8
DEFAULT_255_1_234
10
5.6473668
20
76.9336752
40
0.243409
50
332.3549906
51
359.7179418
0
ARC
8
DEFAULT_255_1_234
10
5.5823269
20
76.9645142
40
0.3153459
50
325.2333722
51
332.8745602
0
ARC
8
DEFAULT_255_1_234
10
5.5975893
20
76.9538828
40
0.2967456
50
292.9802137
51
325.2392345
0
ARC
8
DEFAULT_255_1_234
10
5.5701267
20
77.0072863
40
0.3566604
50
292.5402179
51
293.6924929
0
ARC
8
DEFAULT_255_1_234
10
5.6093863
20
76.3618091
40
0.3307468
50
57.6435486
51
72.8625112
0
ARC
8
DEFAULT_255_1_234
10
5.6448362
20
76.4192549
40
0.2632492
50
36.7248896
51
57.4697979
0
ARC
8
DEFAULT_255_1_234
10
5.6436995
20
76.420522
40
0.2634081
50
8.0545065
51
36.356114
0
ARC
8
DEFAULT_255_1_234
10
5.557418
20
76.4050174
40
0.3510261
50
359.8320645
51
8.5869982
0
ARC
8
DEFAULT_255_1_234
10
5.5198957
20
76.4002101
40
0.3885653
50
343.9829931
51
0.5571613
0
ARC
8
DEFAULT_255_1_234
10
5.6085154
20
76.3759438
40
0.2966924
50
311.6359546
51
343.7651759
0
ARC
8
DEFAULT_255_1_234
10
5.5706723
20
76.4186102
40
0.3537231
50
279.7829875
51
311.6255694
0
ARC
8
DEFAULT_255_1_234
10
5.5405499
20
76.562328
40
0.5004971
50
269.7286406
51
280.3856417
0
ARC
8
DEFAULT_255_1_234
10
5.5343572
20
76.5581996
40
0.4963778
50
256.6828919
51
270.4412052
0
ARC
8
DEFAULT_255_1_234
10
5.5004868
20
76.4197394
40
0.3538406
50
229.4223008
51
256.8556159
0
ARC
8
DEFAULT_255_1_234
10
5.459026
20
76.3730736
40
0.2914296
50
181.818294
51
229.6455059
0
ARC
8
DEFAULT_255_1_234
10
5.5630217
20
76.3861496
40
0.3959084
50
179.9755256
51
183.2323064
0
ARC
8
DEFAULT_255_1_234
10
5.5457962
20
76.3841037
40
0.2293034
50
179.4465117
51
196.2869258
0
ARC
8
DEFAULT_255_1_234
10
5.497037
20
76.3707651
40
0.1787621
50
196.5661473
51
227.705904
0
ARC
8
DEFAULT_255_1_234
10
5.5134465
20
76.3891155
40
0.2033784
50
227.7652068
51
257.8762805
0
ARC
8
DEFAULT_255_1_234
10
5.5359435
20
76.4834156
40
0.3003081
50
257.4584385
51
270.426602
0
ARC
8
DEFAULT_255_1_234
10
5.5405002
20
76.5123996
40
0.329292
50
269.5962073
51
280.8789248
0
ARC
8
DEFAULT_255_1_234
10
5.563453
20
76.3977685
40
0.2123908
50
280.6346389
51
299.8595945
0
ARC
8
DEFAULT_255_1_234
10
5.5825437
20
76.3615212
40
0.171457
50
300.3576302
51
314.5517981
0
ARC
8
DEFAULT_255_1_234
10
5.5742497
20
76.3675919
40
0.1816095
50
315.0728369
51
345.0431014
0
ARC
8
DEFAULT_255_1_234
10
5.4819312
20
76.3944841
40
0.2777492
50
344.5986631
51
357.9269593
0
ARC
8
DEFAULT_255_1_234
10
5.3923638
20
76.4006276
40
0.3674917
50
357.4748886
51
0.0231117
0
ARC
8
DEFAULT_255_1_234
10
5.4946747
20
76.4030679
40
0.2651907
50
359.5047933
51
13.4239635
0
ARC
8
DEFAULT_255_1_234
10
5.5813391
20
76.4252478
40
0.1757509
50
12.9498199
51
48.7551375
0
ARC
8
DEFAULT_255_1_234
10
5.5631125
20
76.40034
40
0.2065134
50
49.5088623
51
72.1836453
0
ARC
8
DEFAULT_255_1_234
10
5.5273277
20
76.2941291
40
0.3185836
50
71.9010081
51
84.3554254
0
ARC
8
DEFAULT_255_1_234
10
5.5111909
20
76.1580326
40
0.4556151
50
84.0193428
51
89.333121
0
LINE
8
DEFAULT_255_1_234
10
6.5533912
20
77.0465276
11
6.5533912
21
76.7051788
0
LINE
8
DEFAULT_255_1_234
10
6.5533912
20
76.7051788
11
6.8794798
21
76.7051788
0
LINE
8
DEFAULT_255_1_234
10
6.8794798
20
76.7051788
11
6.8794798
21
76.5646233
0
LINE
8
DEFAULT_255_1_234
10
6.8794798
20
76.5646233
11
6.5533912
21
76.5646233
0
LINE
8
DEFAULT_255_1_234
10
6.5533912
20
76.5646233
11
6.5533912
21
76.1951634
0
LINE
8
DEFAULT_255_1_234
10
6.5533912
20
76.1951634
11
6.4040009
21
76.1951634
0
LINE
8
DEFAULT_255_1_234
10
6.4040009
20
76.1951634
11
6.4040009
21
76.5646233
0
LINE
8
DEFAULT_255_1_234
10
6.4040009
20
76.5646233
11
6.0779123
21
76.5646233
0
LINE
8
DEFAULT_255_1_234
10
6.0779123
20
76.5646233
11
6.0779123
21
76.7051788
0
LINE
8
DEFAULT_255_1_234
10
6.0779123
20
76.7051788
11
6.4040009
21
76.7051788
0
LINE
8
DEFAULT_255_1_234
10
6.4040009
20
76.7051788
11
6.4040009
21
77.0465276
0
LINE
8
DEFAULT_255_1_234
10
6.4040009
20
77.0465276
11
6.5533912
21
77.0465276
0
LINE
8
DEFAULT_255_1_234
10
4.857077
20
85.1848211
11
5.0120896
21
85.1848211
0
LINE
8
DEFAULT_255_1_234
10
5.0120896
20
85.1848211
11
5.0120896
21
84.389679
0
LINE
8
DEFAULT_255_1_234
10
4.6281725
20
84.0009429
11
4.5872106
21
83.9993365
0
LINE
8
DEFAULT_255_1_234
10
4.1655443
20
84.3880727
11
4.1655443
21
85.1848211
0
LINE
8
DEFAULT_255_1_234
10
4.1655443
20
85.1848211
11
4.3181474
21
85.1848211
0
LINE
8
DEFAULT_255_1_234
10
4.3181474
20
85.1848211
11
4.3181474
21
84.3928917
0
LINE
8
DEFAULT_255_1_234
10
4.857077
20
84.3920885
11
4.857077
21
85.1848211
0
ARC
8
DEFAULT_255_1_234
10
4.5767794
20
84.3876928
40
0.4353147
50
343.0898354
51
0.2614217
0
ARC
8
DEFAULT_255_1_234
10
4.6596195
20
84.3645837
40
0.3493402
50
315.3345598
51
342.7641223
0
ARC
8
DEFAULT_255_1_234
10
4.6372644
20
84.3877682
40
0.3815385
50
284.6606969
51
315.2182466
0
ARC
8
DEFAULT_255_1_234
10
4.5917357
20
84.5423755
40
0.5426573
50
273.8500273
51
285.1797701
0
ARC
8
DEFAULT_255_1_234
10
4.5829408
20
84.5765475
40
0.5772268
50
257.6317484
51
270.4238298
0
ARC
8
DEFAULT_255_1_234
10
4.5404606
20
84.3944198
40
0.3902347
50
230.6087562
51
257.9964012
0
ARC
8
DEFAULT_255_1_234
10
4.5272608
20
84.3737802
40
0.3659186
50
227.7440991
51
230.1551448
0
ARC
8
DEFAULT_255_1_234
10
4.5138439
20
84.3576471
40
0.3449568
50
189.2524587
51
227.5916061
0
ARC
8
DEFAULT_255_1_234
10
4.6660126
20
84.3904013
40
0.5004737
50
180.2665968
51
190.1525252
0
ARC
8
DEFAULT_255_1_234
10
4.6882146
20
84.3900918
40
0.3700778
50
179.5665184
51
191.9952995
0
ARC
8
DEFAULT_255_1_234
10
4.5654252
20
84.3627043
40
0.2442808
50
191.6974072
51
215.1404042
0
ARC
8
DEFAULT_255_1_234
10
4.5416167
20
84.3485108
40
0.2166522
50
215.6950207
51
224.8513522
0
ARC
8
DEFAULT_255_1_234
10
4.547191
20
84.3564697
40
0.2262237
50
225.2846858
51
255.0111758
0
ARC
8
DEFAULT_255_1_234
10
4.579587
20
84.4678455
40
0.3421979
50
254.5944985
51
267.9129803
0
ARC
8
DEFAULT_255_1_234
10
4.5870351
20
84.5762903
40
0.4508556
50
267.4689655
51
270.0223026
0
ARC
8
DEFAULT_255_1_234
10
4.5900496
20
84.5173849
40
0.3919604
50
269.5849941
51
281.1843768
0
ARC
8
DEFAULT_255_1_234
10
4.6179261
20
84.3821059
40
0.2538457
50
280.9344262
51
300.9743589
0
ARC
8
DEFAULT_255_1_234
10
4.6391866
20
84.3429688
40
0.2093566
50
301.4980046
51
315.1466847
0
ARC
8
DEFAULT_255_1_234
10
4.6247405
20
84.3548236
40
0.2279656
50
315.5952539
51
345.6678731
0
ARC
8
DEFAULT_255_1_234
10
4.5127921
20
84.3860009
40
0.3441564
50
345.2524969
51
358.6304371
0
ARC
8
DEFAULT_255_1_234
10
4.4110275
20
84.3919916
40
0.4460494
50
358.1735671
51
0.0124524
0
LINE
8
DEFAULT_255_1_234
10
5.9831267
20
84.1366792
11
5.9831267
21
84.0154
0
LINE
8
DEFAULT_255_1_234
10
5.9831267
20
84.0154
11
5.2168989
21
84.0154
0
LINE
8
DEFAULT_255_1_234
10
5.2168989
20
84.0154
11
5.2168989
21
84.1222221
0
LINE
8
DEFAULT_255_1_234
10
5.2168989
20
84.1222221
11
5.6216985
21
84.5719995
0
LINE
8
DEFAULT_255_1_234
10
5.3429972
20
84.8402595
11
5.19441
21
84.8402595
0
LINE
8
DEFAULT_255_1_234
10
5.7092444
20
84.4764218
11
5.3960066
21
84.1366792
0
LINE
8
DEFAULT_255_1_234
10
5.3960066
20
84.1366792
11
5.9831267
21
84.1366792
0
ARC
8
DEFAULT_255_1_234
10
4.2726818
20
85.7649527
40
1.8008286
50
318.5132453
51
320.7828378
0
ARC
8
DEFAULT_255_1_234
10
4.8013793
20
85.3346426
40
1.1191493
50
320.7372736
51
323.9737074
0
ARC
8
DEFAULT_255_1_234
10
5.1933649
20
85.0506361
40
0.6350923
50
323.8961724
51
328.6421089
0
ARC
8
DEFAULT_255_1_234
10
5.3980244
20
84.9244031
40
0.3946393
50
328.8299013
51
331.789948
0
ARC
8
DEFAULT_255_1_234
10
5.4977423
20
84.8729509
40
0.2824501
50
331.4255242
51
352.9364833
0
ARC
8
DEFAULT_255_1_234
10
5.5113924
20
84.8698976
40
0.2685315
50
353.2248685
51
0.0169286
0
ARC
8
DEFAULT_255_1_234
10
5.53238
20
84.872195
40
0.2475536
50
359.4866256
51
15.9339782
0
ARC
8
DEFAULT_255_1_234
10
5.5830786
20
84.8858286
40
0.1950618
50
16.1714718
51
43.5284424
0
ARC
8
DEFAULT_255_1_234
10
5.5908094
20
84.8935573
40
0.184134
50
43.4415429
51
83.1661404
0
ARC
8
DEFAULT_255_1_234
10
5.5774012
20
84.8198771
40
0.258926
50
82.160215
51
90.1505798
0
ARC
8
DEFAULT_255_1_234
10
5.574244
20
84.7661865
40
0.3126255
50
89.5460705
51
102.5418777
0
ARC
8
DEFAULT_255_1_234
10
5.5499526
20
84.8692665
40
0.2067346
50
102.1739365
51
129.2061916
0
ARC
8
DEFAULT_255_1_234
10
5.5420598
20
84.8817094
40
0.1921118
50
129.7279328
51
135.7542026
0
ARC
8
DEFAULT_255_1_234
10
5.5542125
20
84.8720045
40
0.2075944
50
136.175737
51
166.3674722
0
ARC
8
DEFAULT_255_1_234
10
5.6549045
20
84.8450182
40
0.3118201
50
165.9092917
51
178.8683903
0
ARC
8
DEFAULT_255_1_234
10
5.7413906
20
84.8403179
40
0.3983935
50
178.438168
51
180.0083905
0
ARC
8
DEFAULT_255_1_234
10
5.6012508
20
84.8442231
40
0.4068601
50
163.2878735
51
180.5581814
0
ARC
8
DEFAULT_255_1_234
10
5.5210769
20
84.866284
40
0.3237344
50
133.454115
51
162.9470031
0
ARC
8
DEFAULT_255_1_234
10
5.5389311
20
84.8473
40
0.349795
50
100.7869394
51
133.4384016
0
ARC
8
DEFAULT_255_1_234
10
5.5737082
20
84.6924319
40
0.5084616
50
89.6605301
51
101.3704185
0
ARC
8
DEFAULT_255_1_234
10
5.5803421
20
84.6985496
40
0.502348
50
78.2171172
51
90.4130393
0
ARC
8
DEFAULT_255_1_234
10
5.6158499
20
84.8609637
40
0.3361092
50
55.9268222
51
78.4888551
0
ARC
8
DEFAULT_255_1_234
10
5.6354939
20
84.8948324
40
0.2970617
50
47.9292255
51
55.4054003
0
ARC
8
DEFAULT_255_1_234
10
5.64565
20
84.9051502
40
0.2825983
50
4.3347696
51
48.0560701
0
ARC
8
DEFAULT_255_1_234
10
5.5360894
20
84.8881601
40
0.393225
50
359.925209
51
5.5967654
0
ARC
8
DEFAULT_255_1_234
10
5.5789785
20
84.8937816
40
0.3503892
50
337.8914096
51
358.9967724
0
ARC
8
DEFAULT_255_1_234
10
5.3076198
20
84.9984706
40
0.6412172
50
326.9135351
51
338.3505194
0
ARC
8
DEFAULT_255_1_234
10
4.9090501
20
85.2539284
40
1.1146189
50
319.6472867
51
327.095818
0
ARC
8
DEFAULT_255_1_234
10
4.5257504
20
85.5701
40
1.6114559
50
317.2586784
51
319.9046139
0
LINE
8
DEFAULT_255_1_234
10
6.465031
20
84.5728026
11
6.465031
21
84.4515234
0
LINE
8
DEFAULT_255_1_234
10
6.465031
20
84.4515234
11
6.0730822
21
84.4515234
0
LINE
8
DEFAULT_255_1_234
10
6.0730822
20
84.4515234
11
6.0730822
21
84.5728026
0
LINE
8
DEFAULT_255_1_234
10
6.0730822
20
84.5728026
11
6.465031
21
84.5728026
0
LINE
8
DEFAULT_255_1_234
10
4.828977
20
93.1223211
11
4.9839896
21
93.1223211
0
LINE
8
DEFAULT_255_1_234
10
4.9839896
20
93.1223211
11
4.9839896
21
92.327179
0
LINE
8
DEFAULT_255_1_234
10
4.6000725
20
91.9384429
11
4.5591106
21
91.9368365
0
LINE
8
DEFAULT_255_1_234
10
4.1374443
20
92.3255727
11
4.1374443
21
93.1223211
0
LINE
8
DEFAULT_255_1_234
10
4.1374443
20
93.1223211
11
4.2900474
21
93.1223211
0
LINE
8
DEFAULT_255_1_234
10
4.2900474
20
93.1223211
11
4.2900474
21
92.3303917
0
LINE
8
DEFAULT_255_1_234
10
4.828977
20
92.3295885
11
4.828977
21
93.1223211
0
ARC
8
DEFAULT_255_1_234
10
4.5486794
20
92.3251928
40
0.4353147
50
343.0898354
51
0.2614217
0
ARC
8
DEFAULT_255_1_234
10
4.6315195
20
92.3020837
40
0.3493402
50
315.3345598
51
342.7641223
0
ARC
8
DEFAULT_255_1_234
10
4.6091644
20
92.3252682
40
0.3815385
50
284.6606969
51
315.2182466
0
ARC
8
DEFAULT_255_1_234
10
4.5636357
20
92.4798755
40
0.5426573
50
273.8500273
51
285.1797701
0
ARC
8
DEFAULT_255_1_234
10
4.5548408
20
92.5140475
40
0.5772268
50
257.6317484
51
270.4238298
0
ARC
8
DEFAULT_255_1_234
10
4.5123606
20
92.3319198
40
0.3902347
50
230.6087562
51
257.9964012
0
ARC
8
DEFAULT_255_1_234
10
4.4991608
20
92.3112802
40
0.3659186
50
227.7440991
51
230.1551448
0
ARC
8
DEFAULT_255_1_234
10
4.4857439
20
92.2951471
40
0.3449568
50
189.2524587
51
227.5916061
0
ARC
8
DEFAULT_255_1_234
10
4.6379126
20
92.3279013
40
0.5004737
50
180.2665968
51
190.1525252
0
ARC
8
DEFAULT_255_1_234
10
4.6601146
20
92.3275918
40
0.3700778
50
179.5665184
51
191.9952995
0
ARC
8
DEFAULT_255_1_234
10
4.5373252
20
92.3002043
40
0.2442808
50
191.6974072
51
215.1404042
0
ARC
8
DEFAULT_255_1_234
10
4.5135167
20
92.2860108
40
0.2166522
50
215.6950207
51
224.8513522
0
ARC
8
DEFAULT_255_1_234
10
4.519091
20
92.2939697
40
0.2262237
50
225.2846858
51
255.0111758
0
ARC
8
DEFAULT_255_1_234
10
4.551487
20
92.4053455
40
0.3421979
50
254.5944985
51
267.9129803
0
ARC
8
DEFAULT_255_1_234
10
4.5589351
20
92.5137903
40
0.4508556
50
267.4689655
51
270.0223026
0
ARC
8
DEFAULT_255_1_234
10
4.5619496
20
92.4548849
40
0.3919604
50
269.5849941
51
281.1843768
0
ARC
8
DEFAULT_255_1_234
10
4.5898261
20
92.3196059
40
0.2538457
50
280.9344262
51
300.9743589
0
ARC
8
DEFAULT_255_1_234
10
4.6110866
20
92.2804688
40
0.2093566
50
301.4980046
51
315.1466847
0
ARC
8
DEFAULT_255_1_234
10
4.5966405
20
92.2923236
40
0.2279656
50
315.5952539
51
345.6678731
0
ARC
8
DEFAULT_255_1_234
10
4.4846921
20
92.3235009
40
0.3441564
50
345.2524969
51
358.6304371
0
ARC
8
DEFAULT_255_1_234
10
4.3829275
20
92.3294916
40
0.4460494
50
358.1735671
51
0.0124524
0
LINE
8
DEFAULT_255_1_234
10
5.9550267
20
92.0741792
11
5.9550267
21
91.9529
0
LINE
8
DEFAULT_255_1_234
10
5.9550267
20
91.9529
11
5.1887989
21
91.9529
0
LINE
8
DEFAULT_255_1_234
10
5.1887989
20
91.9529
11
5.1887989
21
92.0597221
0
LINE
8
DEFAULT_255_1_234
10
5.1887989
20
92.0597221
11
5.5935985
21
92.5094995
0
LINE
8
DEFAULT_255_1_234
10
5.3148972
20
92.7777595
11
5.16631
21
92.7777595
0
LINE
8
DEFAULT_255_1_234
10
5.6811444
20
92.4139218
11
5.3679066
21
92.0741792
0
LINE
8
DEFAULT_255_1_234
10
5.3679066
20
92.0741792
11
5.9550267
21
92.0741792
0
ARC
8
DEFAULT_255_1_234
10
4.2445818
20
93.7024527
40
1.8008286
50
318.5132453
51
320.7828378
0
ARC
8
DEFAULT_255_1_234
10
4.7732793
20
93.2721426
40
1.1191493
50
320.7372736
51
323.9737074
0
ARC
8
DEFAULT_255_1_234
10
5.1652649
20
92.9881361
40
0.6350923
50
323.8961724
51
328.6421089
0
ARC
8
DEFAULT_255_1_234
10
5.3699244
20
92.8619031
40
0.3946393
50
328.8299013
51
331.789948
0
ARC
8
DEFAULT_255_1_234
10
5.4696423
20
92.8104509
40
0.2824501
50
331.4255242
51
352.9364833
0
ARC
8
DEFAULT_255_1_234
10
5.4832924
20
92.8073976
40
0.2685315
50
353.2248685
51
0.0169286
0
ARC
8
DEFAULT_255_1_234
10
5.50428
20
92.809695
40
0.2475536
50
359.4866256
51
15.9339782
0
ARC
8
DEFAULT_255_1_234
10
5.5549786
20
92.8233286
40
0.1950618
50
16.1714718
51
43.5284424
0
ARC
8
DEFAULT_255_1_234
10
5.5627094
20
92.8310573
40
0.184134
50
43.4415429
51
83.1661404
0
ARC
8
DEFAULT_255_1_234
10
5.5493012
20
92.7573771
40
0.258926
50
82.160215
51
90.1505798
0
ARC
8
DEFAULT_255_1_234
10
5.546144
20
92.7036865
40
0.3126255
50
89.5460705
51
102.5418777
0
ARC
8
DEFAULT_255_1_234
10
5.5218526
20
92.8067665
40
0.2067346
50
102.1739365
51
129.2061916
0
ARC
8
DEFAULT_255_1_234
10
5.5139598
20
92.8192094
40
0.1921118
50
129.7279328
51
135.7542026
0
ARC
8
DEFAULT_255_1_234
10
5.5261125
20
92.8095045
40
0.2075944
50
136.175737
51
166.3674722
0
ARC
8
DEFAULT_255_1_234
10
5.6268045
20
92.7825182
40
0.3118201
50
165.9092917
51
178.8683903
0
ARC
8
DEFAULT_255_1_234
10
5.7132906
20
92.7778179
40
0.3983935
50
178.438168
51
180.0083905
0
ARC
8
DEFAULT_255_1_234
10
5.5731508
20
92.7817231
40
0.4068601
50
163.2878735
51
180.5581814
0
ARC
8
DEFAULT_255_1_234
10
5.4929769
20
92.803784
40
0.3237344
50
133.454115
51
162.9470031
0
ARC
8
DEFAULT_255_1_234
10
5.5108311
20
92.7848
40
0.349795
50
100.7869394
51
133.4384016
0
ARC
8
DEFAULT_255_1_234
10
5.5456082
20
92.6299319
40
0.5084616
50
89.6605301
51
101.3704185
0
ARC
8
DEFAULT_255_1_234
10
5.5522421
20
92.6360496
40
0.502348
50
78.2171172
51
90.4130393
0
ARC
8
DEFAULT_255_1_234
10
5.5877499
20
92.7984637
40
0.3361092
50
55.9268222
51
78.4888551
0
ARC
8
DEFAULT_255_1_234
10
5.6073939
20
92.8323324
40
0.2970617
50
47.9292255
51
55.4054003
0
ARC
8
DEFAULT_255_1_234
10
5.61755
20
92.8426502
40
0.2825983
50
4.3347696
51
48.0560701
0
ARC
8
DEFAULT_255_1_234
10
5.5079894
20
92.8256601
40
0.393225
50
359.925209
51
5.5967654
0
ARC
8
DEFAULT_255_1_234
10
5.5508785
20
92.8312816
40
0.3503892
50
337.8914096
51
358.9967724
0
ARC
8
DEFAULT_255_1_234
10
5.2795198
20
92.9359706
40
0.6412172
50
326.9135351
51
338.3505194
0
ARC
8
DEFAULT_255_1_234
10
4.8809501
20
93.1914284
40
1.1146189
50
319.6472867
51
327.095818
0
ARC
8
DEFAULT_255_1_234
10
4.4976504
20
93.5076
40
1.6114559
50
317.2586784
51
319.9046139
0
LINE
8
DEFAULT_255_1_234
10
6.5533912
20
92.9215276
11
6.5533912
21
92.5801788
0
LINE
8
DEFAULT_255_1_234
10
6.5533912
20
92.5801788
11
6.8794798
21
92.5801788
0
LINE
8
DEFAULT_255_1_234
10
6.8794798
20
92.5801788
11
6.8794798
21
92.4396233
0
LINE
8
DEFAULT_255_1_234
10
6.8794798
20
92.4396233
11
6.5533912
21
92.4396233
0
LINE
8
DEFAULT_255_1_234
10
6.5533912
20
92.4396233
11
6.5533912
21
92.0701634
0
LINE
8
DEFAULT_255_1_234
10
6.5533912
20
92.0701634
11
6.4040009
21
92.0701634
0
LINE
8
DEFAULT_255_1_234
10
6.4040009
20
92.0701634
11
6.4040009
21
92.4396233
0
LINE
8
DEFAULT_255_1_234
10
6.4040009
20
92.4396233
11
6.0779123
21
92.4396233
0
LINE
8
DEFAULT_255_1_234
10
6.0779123
20
92.4396233
11
6.0779123
21
92.5801788
0
LINE
8
DEFAULT_255_1_234
10
6.0779123
20
92.5801788
11
6.4040009
21
92.5801788
0
LINE
8
DEFAULT_255_1_234
10
6.4040009
20
92.5801788
11
6.4040009
21
92.9215276
0
LINE
8
DEFAULT_255_1_234
10
6.4040009
20
92.9215276
11
6.5533912
21
92.9215276
0
LINE
8
DEFAULT_255_1_234
10
4.857077
20
101.0598211
11
5.0120896
21
101.0598211
0
LINE
8
DEFAULT_255_1_234
10
5.0120896
20
101.0598211
11
5.0120896
21
100.264679
0
LINE
8
DEFAULT_255_1_234
10
4.6281725
20
99.8759429
11
4.5872106
21
99.8743365
0
LINE
8
DEFAULT_255_1_234
10
4.1655443
20
100.2630727
11
4.1655443
21
101.0598211
0
LINE
8
DEFAULT_255_1_234
10
4.1655443
20
101.0598211
11
4.3181474
21
101.0598211
0
LINE
8
DEFAULT_255_1_234
10
4.3181474
20
101.0598211
11
4.3181474
21
100.2678917
0
LINE
8
DEFAULT_255_1_234
10
4.857077
20
100.2670885
11
4.857077
21
101.0598211
0
ARC
8
DEFAULT_255_1_234
10
4.5767794
20
100.2626928
40
0.4353147
50
343.0898354
51
0.2614217
0
ARC
8
DEFAULT_255_1_234
10
4.6596195
20
100.2395837
40
0.3493402
50
315.3345598
51
342.7641223
0
ARC
8
DEFAULT_255_1_234
10
4.6372644
20
100.2627682
40
0.3815385
50
284.6606969
51
315.2182466
0
ARC
8
DEFAULT_255_1_234
10
4.5917357
20
100.4173755
40
0.5426573
50
273.8500273
51
285.1797701
0
ARC
8
DEFAULT_255_1_234
10
4.5829408
20
100.4515475
40
0.5772268
50
257.6317484
51
270.4238298
0
ARC
8
DEFAULT_255_1_234
10
4.5404606
20
100.2694198
40
0.3902347
50
230.6087562
51
257.9964012
0
ARC
8
DEFAULT_255_1_234
10
4.5272608
20
100.2487802
40
0.3659186
50
227.7440991
51
230.1551448
0
ARC
8
DEFAULT_255_1_234
10
4.5138439
20
100.2326471
40
0.3449568
50
189.2524587
51
227.5916061
0
ARC
8
DEFAULT_255_1_234
10
4.6660126
20
100.2654013
40
0.5004737
50
180.2665968
51
190.1525252
0
ARC
8
DEFAULT_255_1_234
10
4.6882146
20
100.2650918
40
0.3700778
50
179.5665184
51
191.9952995
0
ARC
8
DEFAULT_255_1_234
10
4.5654252
20
100.2377043
40
0.2442808
50
191.6974072
51
215.1404042
0
ARC
8
DEFAULT_255_1_234
10
4.5416167
20
100.2235108
40
0.2166522
50
215.6950207
51
224.8513522
0
ARC
8
DEFAULT_255_1_234
10
4.547191
20
100.2314697
40
0.2262237
50
225.2846858
51
255.0111758
0
ARC
8
DEFAULT_255_1_234
10
4.579587
20
100.3428455
40
0.3421979
50
254.5944985
51
267.9129803
0
ARC
8
DEFAULT_255_1_234
10
4.5870351
20
100.4512903
40
0.4508556
50
267.4689655
51
270.0223026
0
ARC
8
DEFAULT_255_1_234
10
4.5900496
20
100.3923849
40
0.3919604
50
269.5849941
51
281.1843768
0
ARC
8
DEFAULT_255_1_234
10
4.6179261
20
100.2571059
40
0.2538457
50
280.9344262
51
300.9743589
0
ARC
8
DEFAULT_255_1_234
10
4.6391866
20
100.2179688
40
0.2093566
50
301.4980046
51
315.1466847
0
ARC
8
DEFAULT_255_1_234
10
4.6247405
20
100.2298236
40
0.2279656
50
315.5952539
51
345.6678731
0
ARC
8
DEFAULT_255_1_234
10
4.5127921
20
100.2610009
40
0.3441564
50
345.2524969
51
358.6304371
0
ARC
8
DEFAULT_255_1_234
10
4.4110275
20
100.2669916
40
0.4460494
50
358.1735671
51
0.0124524
0
LINE
8
DEFAULT_255_1_234
10
5.7052286
20
101.0654433
11
5.7052286
21
99.8904
0
LINE
8
DEFAULT_255_1_234
10
5.7052286
20
99.8904
11
5.5558382
21
99.8904
0
LINE
8
DEFAULT_255_1_234
10
5.5558382
20
99.8904
11
5.5558382
21
100.8807133
0
LINE
8
DEFAULT_255_1_234
10
5.5558382
20
100.8807133
11
5.2562544
21
100.7706785
0
LINE
8
DEFAULT_255_1_234
10
5.2562544
20
100.7706785
11
5.2562544
21
100.9056117
0
LINE
8
DEFAULT_255_1_234
10
5.2562544
20
100.9056117
11
5.6819365
21
101.0654433
0
LINE
8
DEFAULT_255_1_234
10
5.6819365
20
101.0654433
11
5.7052286
21
101.0654433
0
LINE
8
DEFAULT_255_1_234
10
6.465031
20
100.4478026
11
6.465031
21
100.3265234
0
LINE
8
DEFAULT_255_1_234
10
6.465031
20
100.3265234
11
6.0730822
21
100.3265234
0
LINE
8
DEFAULT_255_1_234
10
6.0730822
20
100.3265234
11
6.0730822
21
100.4478026
0
LINE
8
DEFAULT_255_1_234
10
6.0730822
20
100.4478026
11
6.465031
21
100.4478026
0
LINE
8
DEFAULT_255_1_234
10
4.828977
20
108.9973211
11
4.9839896
21
108.9973211
0
LINE
8
DEFAULT_255_1_234
10
4.9839896
20
108.9973211
11
4.9839896
21
108.202179
0
LINE
8
DEFAULT_255_1_234
10
4.6000725
20
107.8134429
11
4.5591106
21
107.8118365
0
LINE
8
DEFAULT_255_1_234
10
4.1374443
20
108.2005727
11
4.1374443
21
108.9973211
0
LINE
8
DEFAULT_255_1_234
10
4.1374443
20
108.9973211
11
4.2900474
21
108.9973211
0
LINE
8
DEFAULT_255_1_234
10
4.2900474
20
108.9973211
11
4.2900474
21
108.2053917
0
LINE
8
DEFAULT_255_1_234
10
4.828977
20
108.2045885
11
4.828977
21
108.9973211
0
ARC
8
DEFAULT_255_1_234
10
4.5486794
20
108.2001928
40
0.4353147
50
343.0898354
51
0.2614217
0
ARC
8
DEFAULT_255_1_234
10
4.6315195
20
108.1770837
40
0.3493402
50
315.3345598
51
342.7641223
0
ARC
8
DEFAULT_255_1_234
10
4.6091644
20
108.2002682
40
0.3815385
50
284.6606969
51
315.2182466
0
ARC
8
DEFAULT_255_1_234
10
4.5636357
20
108.3548755
40
0.5426573
50
273.8500273
51
285.1797701
0
ARC
8
DEFAULT_255_1_234
10
4.5548408
20
108.3890475
40
0.5772268
50
257.6317484
51
270.4238298
0
ARC
8
DEFAULT_255_1_234
10
4.5123606
20
108.2069198
40
0.3902347
50
230.6087562
51
257.9964012
0
ARC
8
DEFAULT_255_1_234
10
4.4991608
20
108.1862802
40
0.3659186
50
227.7440991
51
230.1551448
0
ARC
8
DEFAULT_255_1_234
10
4.4857439
20
108.1701471
40
0.3449568
50
189.2524587
51
227.5916061
0
ARC
8
DEFAULT_255_1_234
10
4.6379126
20
108.2029013
40
0.5004737
50
180.2665968
51
190.1525252
0
ARC
8
DEFAULT_255_1_234
10
4.6601146
20
108.2025918
40
0.3700778
50
179.5665184
51
191.9952995
0
ARC
8
DEFAULT_255_1_234
10
4.5373252
20
108.1752043
40
0.2442808
50
191.6974072
51
215.1404042
0
ARC
8
DEFAULT_255_1_234
10
4.5135167
20
108.1610108
40
0.2166522
50
215.6950207
51
224.8513522
0
ARC
8
DEFAULT_255_1_234
10
4.519091
20
108.1689697
40
0.2262237
50
225.2846858
51
255.0111758
0
ARC
8
DEFAULT_255_1_234
10
4.551487
20
108.2803455
40
0.3421979
50
254.5944985
51
267.9129803
0
ARC
8
DEFAULT_255_1_234
10
4.5589351
20
108.3887903
40
0.4508556
50
267.4689655
51
270.0223026
0
ARC
8
DEFAULT_255_1_234
10
4.5619496
20
108.3298849
40
0.3919604
50
269.5849941
51
281.1843768
0
ARC
8
DEFAULT_255_1_234
10
4.5898261
20
108.1946059
40
0.2538457
50
280.9344262
51
300.9743589
0
ARC
8
DEFAULT_255_1_234
10
4.6110866
20
108.1554688
40
0.2093566
50
301.4980046
51
315.1466847
0
ARC
8
DEFAULT_255_1_234
10
4.5966405
20
108.1673236
40
0.2279656
50
315.5952539
51
345.6678731
0
ARC
8
DEFAULT_255_1_234
10
4.4846921
20
108.1985009
40
0.3441564
50
345.2524969
51
358.6304371
0
ARC
8
DEFAULT_255_1_234
10
4.3829275
20
108.2044916
40
0.4460494
50
358.1735671
51
0.0124524
0
LINE
8
DEFAULT_255_1_234
10
5.6771286
20
109.0029433
11
5.6771286
21
107.8279
0
LINE
8
DEFAULT_255_1_234
10
5.6771286
20
107.8279
11
5.5277382
21
107.8279
0
LINE
8
DEFAULT_255_1_234
10
5.5277382
20
107.8279
11
5.5277382
21
108.8182133
0
LINE
8
DEFAULT_255_1_234
10
5.5277382
20
108.8182133
11
5.2281544
21
108.7081785
0
LINE
8
DEFAULT_255_1_234
10
5.2281544
20
108.7081785
11
5.2281544
21
108.8431117
0
LINE
8
DEFAULT_255_1_234
10
5.2281544
20
108.8431117
11
5.6538365
21
109.0029433
0
LINE
8
DEFAULT_255_1_234
10
5.6538365
20
109.0029433
11
5.6771286
21
109.0029433
0
LINE
8
DEFAULT_255_1_234
10
6.5533912
20
108.7965276
11
6.5533912
21
108.4551788
0
LINE
8
DEFAULT_255_1_234
10
6.5533912
20
108.4551788
11
6.8794798
21
108.4551788
0
LINE
8
DEFAULT_255_1_234
10
6.8794798
20
108.4551788
11
6.8794798
21
108.3146233
0
LINE
8
DEFAULT_255_1_234
10
6.8794798
20
108.3146233
11
6.5533912
21
108.3146233
0
LINE
8
DEFAULT_255_1_234
10
6.5533912
20
108.3146233
11
6.5533912
21
107.9451634
0
LINE
8
DEFAULT_255_1_234
10
6.5533912
20
107.9451634
11
6.4040009
21
107.9451634
0
LINE
8
DEFAULT_255_1_234
10
6.4040009
20
107.9451634
11
6.4040009
21
108.3146233
0
LINE
8
DEFAULT_255_1_234
10
6.4040009
20
108.3146233
11
6.0779123
21
108.3146233
0
LINE
8
DEFAULT_255_1_234
10
6.0779123
20
108.3146233
11
6.0779123
21
108.4551788
0
LINE
8
DEFAULT_255_1_234
10
6.0779123
20
108.4551788
11
6.4040009
21
108.4551788
0
LINE
8
DEFAULT_255_1_234
10
6.4040009
20
108.4551788
11
6.4040009
21
108.7965276
0
LINE
8
DEFAULT_255_1_234
10
6.4040009
20
108.7965276
11
6.5533912
21
108.7965276
0
LINE
8
DEFAULT_255_1_234
10
23.0455364
20
116.9348211
11
23.2447235
21
116.9348211
0
LINE
8
DEFAULT_255_1_234
10
23.2447235
20
116.9348211
11
23.6270342
21
115.9806506
0
LINE
8
DEFAULT_255_1_234
10
23.6270342
20
115.9806506
11
24.009345
21
116.9348211
0
LINE
8
DEFAULT_255_1_234
10
24.009345
20
116.9348211
11
24.2093353
21
116.9348211
0
LINE
8
DEFAULT_255_1_234
10
24.2093353
20
116.9348211
11
24.2093353
21
115.7654
0
LINE
8
DEFAULT_255_1_234
10
24.2093353
20
115.7654
11
24.0551259
21
115.7654
0
LINE
8
DEFAULT_255_1_234
10
24.0551259
20
115.7654
11
24.0551259
21
116.2207996
0
LINE
8
DEFAULT_255_1_234
10
24.0551259
20
116.2207996
11
24.069583
21
116.7123419
0
LINE
8
DEFAULT_255_1_234
10
24.069583
20
116.7123419
11
23.6856659
21
115.7654
0
LINE
8
DEFAULT_255_1_234
10
23.6856659
20
115.7654
11
23.5675994
21
115.7654
0
LINE
8
DEFAULT_255_1_234
10
23.5675994
20
115.7654
11
23.1844854
21
116.7099324
0
LINE
8
DEFAULT_255_1_234
10
23.1844854
20
116.7099324
11
23.1997458
21
116.2207996
0
LINE
8
DEFAULT_255_1_234
10
23.1997458
20
116.2207996
11
23.1997458
21
115.7654
0
LINE
8
DEFAULT_255_1_234
10
23.1997458
20
115.7654
11
23.0455364
21
115.7654
0
LINE
8
DEFAULT_255_1_234
10
23.0455364
20
115.7654
11
23.0455364
21
116.9348211
0
ENDSEC
0
EOF