0
SECTION
2
HEADER
9
$MEASUREMENT
70
1
0
ENDSEC
0
SECTION
2
TABLES
0
TABLE
2
LTYPE
0
LTYPE
72
65
70
64
2
CONTINUOUS
3
______
73
0
40
0
0
ENDTAB
0
TABLE
2
LAYER
0
LAYER
2
DEFAULT_255_2_778
70
0
62
255
6
CONTINUOUS
0
LAYER
2
DEFAULT_255_1_234
70
0
62
255
6
CONTINUOUS
0
LAYER
2
DEFAULT_255_2_778_1
70
0
62
255
6
CONTINUOUS
0
ENDTAB
0
ENDSEC
0
SECTION
2
ENTITIES
0
ARC
8
DEFAULT_255_2_778
10
3.5695693
20
139.3052021
40
0.7914215
50
129.1312896
51
180.1450914
0
ARC
8
DEFAULT_255_2_778
10
3.5698345
20
139.3056893
40
0.7912112
50
89.854026
51
129.1684493
0
ARC
8
DEFAULT_255_2_778
10
25.7988937
20
139.3053758
40
0.7915249
50
39.4792447
51
90.147911
0
ARC
8
DEFAULT_255_2_778
10
25.7994935
20
139.3052224
40
0.7911595
50
359.8533901
51
39.5154338
0
ARC
8
DEFAULT_255_2_778
10
25.7991693
20
-1.9863501
40
0.7914836
50
309.4761667
51
0.1482649
0
ARC
8
DEFAULT_255_2_778
10
25.798898
20
-1.9867812
40
0.7913235
50
269.8517415
51
309.511178
0
ARC
8
DEFAULT_255_2_778
10
3.569842
20
-1.986723
40
0.7913815
50
219.1282118
51
270.1454017
0
ARC
8
DEFAULT_255_2_778
10
3.5695247
20
-1.9863406
40
0.7913769
50
179.8524075
51
219.1641908
0
LINE
8
DEFAULT_255_2_778
10
3.5718503
20
140.096898
11
25.7968503
21
140.096898
0
LINE
8
DEFAULT_255_2_778
10
26.5906503
20
139.303198
11
26.5906503
21
-1.984302
0
LINE
8
DEFAULT_255_2_778
10
25.7968503
20
-2.778102
11
3.5718503
21
-2.778102
0
LINE
8
DEFAULT_255_2_778
10
2.7781503
20
-1.984302
11
2.7781503
21
139.303198
0
LINE
8
DEFAULT_255_1_234
10
6.7529835
20
0.5189243
11
6.7794882
21
0.5189243
0
LINE
8
DEFAULT_255_1_234
10
6.7794882
20
0.5189243
11
6.7794882
21
0.392826
0
LINE
8
DEFAULT_255_1_234
10
6.7794882
20
0.392826
11
6.7521803
21
0.392826
0
LINE
8
DEFAULT_255_1_234
10
6.2052189
20
-0.2063417
11
6.2052189
21
-0.1493164
0
LINE
8
DEFAULT_255_1_234
10
6.3546093
20
-0.1685925
11
6.3546093
21
-0.2232083
0
ARC
8
DEFAULT_255_1_234
10
6.7574151
20
-0.1069545
40
0.4998079
50
90.6001036
51
104.514704
0
ARC
8
DEFAULT_255_1_234
10
6.7185667
20
0.0375131
40
0.3502176
50
104.2855254
51
133.862935
0
ARC
8
DEFAULT_255_1_234
10
6.7349424
20
0.026683
40
0.3693984
50
134.5302688
51
161.6210873
0
ARC
8
DEFAULT_255_1_234
10
6.9002613
20
-0.0316105
40
0.5446739
50
161.2849839
51
174.2076652
0
ARC
8
DEFAULT_255_1_234
10
7.040955
20
-0.0510213
40
0.6866274
50
173.7810589
51
174.9254635
0
ARC
8
DEFAULT_255_1_234
10
6.5859382
20
-0.1893161
40
0.3033419
50
95.8330959
51
138.9954921
0
ARC
8
DEFAULT_255_1_234
10
6.6082738
20
-0.3171625
40
0.4328947
50
89.8753725
51
97.0544009
0
ARC
8
DEFAULT_255_1_234
10
6.6130204
20
-0.2336252
40
0.3493769
50
71.6407809
51
90.6240094
0
ARC
8
DEFAULT_255_1_234
10
6.6280777
20
-0.1781918
40
0.2920396
50
39.6367836
51
71.019018
0
ARC
8
DEFAULT_255_1_234
10
6.564425
20
-0.2332002
40
0.3761538
50
10.658731
51
39.9043955
0
ARC
8
DEFAULT_255_1_234
10
6.4096333
20
-0.2668314
40
0.5345136
50
359.682601
51
11.132623
0
ARC
8
DEFAULT_255_1_234
10
6.4056464
20
-0.273899
40
0.5385081
50
347.2486944
51
0.4369317
0
ARC
8
DEFAULT_255_1_234
10
6.5723941
20
-0.3140193
40
0.3670249
50
318.1409698
51
347.6118597
0
ARC
8
DEFAULT_255_1_234
10
6.6048934
20
-0.3407298
40
0.3250007
50
275.6342139
51
317.8248465
0
ARC
8
DEFAULT_255_1_234
10
6.5828045
20
-0.2107781
40
0.4565864
50
269.8874292
51
276.7917694
0
ARC
8
DEFAULT_255_1_234
10
6.5773116
20
-0.3133257
40
0.3540676
50
246.9140195
51
270.7437342
0
ARC
8
DEFAULT_255_1_234
10
6.5779506
20
-0.3275616
40
0.3412781
50
218.1665114
51
245.878116
0
ARC
8
DEFAULT_255_1_234
10
6.6658967
20
-0.2539721
40
0.455911
50
191.4115814
51
218.6077802
0
ARC
8
DEFAULT_255_1_234
10
6.8597056
20
-0.2105167
40
0.6545001
50
179.6345085
51
191.7836486
0
ARC
8
DEFAULT_255_1_234
10
7.4179393
20
-0.1426303
40
1.2127388
50
171.4525249
51
180.3158839
0
ARC
8
DEFAULT_255_1_234
10
6.9784269
20
-0.0742392
40
0.7679464
50
157.9802646
51
171.6246686
0
ARC
8
DEFAULT_255_1_234
10
6.757029
20
0.0140421
40
0.5296008
50
141.4298019
51
157.854097
0
ARC
8
DEFAULT_255_1_234
10
6.692861
20
0.0594381
40
0.4511509
50
102.8715806
51
140.8564722
0
ARC
8
DEFAULT_255_1_234
10
6.7576226
20
-0.1845448
40
0.7034845
50
90.3778349
51
103.5869322
0
ARC
8
DEFAULT_255_1_234
10
6.5838002
20
-0.245027
40
0.2370698
50
89.8751008
51
126.2071704
0
ARC
8
DEFAULT_255_1_234
10
6.5883792
20
-0.2604697
40
0.2522934
50
124.9745049
51
144.895901
0
ARC
8
DEFAULT_255_1_234
10
6.5707982
20
-0.246144
40
0.2296779
50
145.2974905
51
160.2660252
0
ARC
8
DEFAULT_255_1_234
10
6.8780521
20
-0.2263929
40
0.5234525
50
179.6514266
51
190.2855912
0
ARC
8
DEFAULT_255_1_234
10
6.7086658
20
-0.2583214
40
0.3510893
50
190.0945431
51
207.5098196
0
ARC
8
DEFAULT_255_1_234
10
6.6520928
20
-0.2852377
40
0.288489
50
207.9583163
51
216.3251085
0
ARC
8
DEFAULT_255_1_234
10
6.6181036
20
-0.3131895
40
0.2445587
50
215.7661442
51
232.5456785
0
ARC
8
DEFAULT_255_1_234
10
6.5798019
20
-0.3618518
40
0.1826382
50
232.8005391
51
270.6605633
0
ARC
8
DEFAULT_255_1_234
10
6.584372
20
-0.3254388
40
0.2190529
50
269.35537
51
288.4744281
0
ARC
8
DEFAULT_255_1_234
10
6.5936617
20
-0.3603882
40
0.1829749
50
289.1833337
51
322.9683818
0
ARC
8
DEFAULT_255_1_234
10
6.5325139
20
-0.3121609
40
0.2608399
50
322.6007884
51
346.5182367
0
ARC
8
DEFAULT_255_1_234
10
6.4167735
20
-0.2826384
40
0.3802777
50
346.2582162
51
358.7741648
0
ARC
8
DEFAULT_255_1_234
10
6.3149404
20
-0.2771035
40
0.4822176
50
358.3755224
51
0.0098023
0
ARC
8
DEFAULT_255_1_234
10
6.3905591
20
-0.2743343
40
0.4066078
50
359.6214041
51
11.2839074
0
ARC
8
DEFAULT_255_1_234
10
6.5182738
20
-0.2476934
40
0.2761514
50
11.0482309
51
31.8146458
0
ARC
8
DEFAULT_255_1_234
10
6.5491781
20
-0.2309416
40
0.2410679
50
32.3035391
51
38.082671
0
ARC
8
DEFAULT_255_1_234
10
6.5912441
20
-0.1928338
40
0.1844966
50
36.825067
51
85.7415724
0
ARC
8
DEFAULT_255_1_234
10
6.5845274
20
-0.2428699
40
0.2349122
50
85.0140713
51
90.0513278
0
LINE
8
DEFAULT_255_1_234
10
7.8195983
20
0.0153343
11
7.8195983
21
-0.110764
0
LINE
8
DEFAULT_255_1_234
10
7.8195983
20
-0.110764
11
7.3127957
21
-0.110764
0
LINE
8
DEFAULT_255_1_234
10
7.3127957
20
-0.110764
11
7.3127957
21
-0.5252017
0
LINE
8
DEFAULT_255_1_234
10
7.3127957
20
-0.5252017
11
7.9015221
21
-0.5252017
0
LINE
8
DEFAULT_255_1_234
10
7.9015221
20
-0.5252017
11
7.9015221
21
-0.6513
0
LINE
8
DEFAULT_255_1_234
10
7.9015221
20
-0.6513
11
7.1585863
21
-0.6513
0
LINE
8
DEFAULT_255_1_234
10
7.1585863
20
-0.6513
11
7.1585863
21
0.5181211
0
LINE
8
DEFAULT_255_1_234
10
7.1585863
20
0.5181211
11
7.8934903
21
0.5181211
0
LINE
8
DEFAULT_255_1_234
10
7.8934903
20
0.5181211
11
7.8934903
21
0.3912196
0
LINE
8
DEFAULT_255_1_234
10
7.8934903
20
0.3912196
11
7.3127957
21
0.3912196
0
LINE
8
DEFAULT_255_1_234
10
7.3127957
20
0.3912196
11
7.3127957
21
0.0153343
0
LINE
8
DEFAULT_255_1_234
10
7.3127957
20
0.0153343
11
7.8195983
21
0.0153343
0
LINE
8
DEFAULT_255_1_234
10
8.8693465
20
0.1799849
11
8.714334
21
0.1799849
0
LINE
8
DEFAULT_255_1_234
10
8.0219981
20
-0.3123606
11
8.1770107
21
-0.3123606
0
ARC
8
DEFAULT_255_1_234
10
8.7802153
20
1.0746768
40
1.252368
50
248.9199003
51
254.1439814
0
ARC
8
DEFAULT_255_1_234
10
8.6121648
20
0.6420234
40
0.788226
50
241.633709
51
249.0064503
0
ARC
8
DEFAULT_255_1_234
10
8.4593042
20
0.3619317
40
0.4691427
50
230.498225
51
241.8087113
0
ARC
8
DEFAULT_255_1_234
10
8.3808616
20
0.2619906
40
0.3421437
50
227.4064532
51
229.9881192
0
ARC
8
DEFAULT_255_1_234
10
8.3321137
20
0.2144088
40
0.2741476
50
200.6781896
51
228.1763934
0
ARC
8
DEFAULT_255_1_234
10
8.3393447
20
0.2129077
40
0.2804109
50
179.5061581
51
199.8694617
0
ARC
8
DEFAULT_255_1_234
10
8.3384199
20
0.220321
40
0.2795204
50
132.4834203
51
181.0242172
0
ARC
8
DEFAULT_255_1_234
10
8.3979782
20
0.1640704
40
0.3612768
50
129.2532479
51
133.4242687
0
ARC
8
DEFAULT_255_1_234
10
8.4126231
20
0.1420965
40
0.3875675
50
101.98776
51
128.8742646
0
ARC
8
DEFAULT_255_1_234
10
8.4524842
20
-0.0300259
40
0.5642249
50
89.5906553
51
102.3169264
0
ARC
8
DEFAULT_255_1_234
10
8.4595334
20
0.0018148
40
0.5323783
50
77.2360837
51
90.3248275
0
ARC
8
DEFAULT_255_1_234
10
8.4802413
20
0.09854
40
0.4334697
50
63.837784
51
77.0809408
0
ARC
8
DEFAULT_255_1_234
10
8.5080175
20
0.1502911
40
0.3747796
50
45.9864267
51
64.1607727
0
ARC
8
DEFAULT_255_1_234
10
8.5341056
20
0.1800866
40
0.3352302
50
32.2747395
51
45.6547121
0
ARC
8
DEFAULT_255_1_234
10
8.5407497
20
0.181988
40
0.328603
50
359.6507365
51
32.6130309
0
ARC
8
DEFAULT_255_1_234
10
8.4464592
20
0.182466
40
0.2678863
50
359.469343
51
14.9832209
0
ARC
8
DEFAULT_255_1_234
10
8.5169654
20
0.2013539
40
0.1948938
50
14.9781179
51
48.2004265
0
ARC
8
DEFAULT_255_1_234
10
8.5005299
20
0.1806983
40
0.2212521
50
48.5927837
51
74.1241538
0
ARC
8
DEFAULT_255_1_234
10
8.4671788
20
0.0706248
40
0.3362561
50
73.7888341
51
86.6652678
0
ARC
8
DEFAULT_255_1_234
10
8.4569354
20
-0.0501119
40
0.4573953
50
86.2640471
51
90.0526343
0
ARC
8
DEFAULT_255_1_234
10
8.4541066
20
-0.0105808
40
0.4178709
50
89.6697524
51
99.2309573
0
ARC
8
DEFAULT_255_1_234
10
8.4298517
20
0.1338964
40
0.2713749
50
99.069534
51
113.7658566
0
ARC
8
DEFAULT_255_1_234
10
8.4024708
20
0.1984677
40
0.2012469
50
114.0401004
51
127.9850673
0
ARC
8
DEFAULT_255_1_234
10
8.3784272
20
0.228073
40
0.1631167
50
127.7287463
51
176.7105154
0
ARC
8
DEFAULT_255_1_234
10
8.446299
20
0.2179693
40
0.2315392
50
175.1779447
51
180.0581938
0
ARC
8
DEFAULT_255_1_234
10
8.3619836
20
0.2167428
40
0.1472271
50
179.6142195
51
228.1246017
0
ARC
8
DEFAULT_255_1_234
10
8.4061505
20
0.2576308
40
0.2072299
50
226.5779593
51
230.8800004
0
ARC
8
DEFAULT_255_1_234
10
8.4532584
20
0.3201636
40
0.2854818
50
231.4635071
51
241.9260842
0
ARC
8
DEFAULT_255_1_234
10
8.5729762
20
0.54048
40
0.53622
50
241.7178533
51
248.3259551
0
ARC
8
DEFAULT_255_1_234
10
8.7115134
20
0.8837064
40
0.9063478
50
248.2007737
51
252.4528373
0
ARC
8
DEFAULT_255_1_234
10
8.8318858
20
1.2558441
40
1.2974635
50
252.3391078
51
254.3469452
0
ARC
8
DEFAULT_255_1_234
10
8.0776561
20
-1.4418852
40
1.5037162
50
71.0197183
51
74.4087047
0
ARC
8
DEFAULT_255_1_234
10
8.2471246
20
-0.9526889
40
0.9859993
50
66.1847285
51
71.086374
0
ARC
8
DEFAULT_255_1_234
10
8.4027559
20
-0.60228
40
0.6025855
50
59.3536294
51
66.2691831
0
ARC
8
DEFAULT_255_1_234
10
8.4916211
20
-0.4519391
40
0.4279449
50
49.1020879
51
59.3293958
0
ARC
8
DEFAULT_255_1_234
10
8.5734951
20
-0.3586166
40
0.3038015
50
32.7919921
51
49.2505539
0
ARC
8
DEFAULT_255_1_234
10
8.6056041
20
-0.3357809
40
0.264448
50
31.1181161
51
32.4005348
0
ARC
8
DEFAULT_255_1_234
10
8.5967579
20
-0.3393221
40
0.2738556
50
8.1116974
51
30.7958831
0
ARC
8
DEFAULT_255_1_234
10
8.5157247
20
-0.3531247
40
0.3560327
50
359.8389159
51
8.4706516
0
ARC
8
DEFAULT_255_1_234
10
8.5783038
20
-0.3579863
40
0.2934776
50
337.4731098
51
0.7537279
0
ARC
8
DEFAULT_255_1_234
10
8.5961733
20
-0.3599613
40
0.2762607
50
307.5917067
51
336.4315538
0
ARC
8
DEFAULT_255_1_234
10
8.5501561
20
-0.3086898
40
0.3449979
50
307.6551545
51
308.4529766
0
ARC
8
DEFAULT_255_1_234
10
8.527128
20
-0.273175
40
0.3871988
50
284.3734338
51
307.1424381
0
ARC
8
DEFAULT_255_1_234
10
8.477611
20
-0.0910068
40
0.5759636
50
272.4382747
51
284.646547
0
ARC
8
DEFAULT_255_1_234
10
8.4649319
20
0.0889893
40
0.7563528
50
269.9708387
51
272.8178037
0
ARC
8
DEFAULT_255_1_234
10
8.4606358
20
-0.1148284
40
0.5525489
50
248.2707594
51
270.4055579
0
ARC
8
DEFAULT_255_1_234
10
8.45521
20
-0.1338808
40
0.5328452
50
246.1383403
51
248.0542782
0
ARC
8
DEFAULT_255_1_234
10
8.4133478
20
-0.2218157
40
0.4355005
50
233.1670131
51
246.4950969
0
ARC
8
DEFAULT_255_1_234
10
8.3579383
20
-0.2966188
40
0.3424126
50
215.3403242
51
233.0843104
0
ARC
8
DEFAULT_255_1_234
10
8.3306815
20
-0.3164451
40
0.3087104
50
179.2419209
51
215.2648451
0
ARC
8
DEFAULT_255_1_234
10
8.4074409
20
-0.3150334
40
0.2304457
50
179.335461
51
199.1045811
0
ARC
8
DEFAULT_255_1_234
10
8.3742085
20
-0.3237234
40
0.1962176
50
199.8828939
51
232.7063202
0
ARC
8
DEFAULT_255_1_234
10
8.4214353
20
-0.2643212
40
0.2720938
50
232.3738199
51
255.5136649
0
ARC
8
DEFAULT_255_1_234
10
8.455522
20
-0.1399165
40
0.4010747
50
255.2446292
51
267.5320849
0
ARC
8
DEFAULT_255_1_234
10
8.4642843
20
-0.0166298
40
0.5246356
50
267.1557994
51
270.0286766
0
ARC
8
DEFAULT_255_1_234
10
8.4670616
20
-0.061005
40
0.4802668
50
269.7000017
51
278.1660162
0
ARC
8
DEFAULT_255_1_234
10
8.492662
20
-0.2340485
40
0.3053425
50
278.0231263
51
290.625471
0
ARC
8
DEFAULT_255_1_234
10
8.5274308
20
-0.3267975
40
0.206291
50
290.6619762
51
307.0370976
0
ARC
8
DEFAULT_255_1_234
10
8.5574697
20
-0.3636496
40
0.1587906
50
306.3943566
51
355.3030547
0
ARC
8
DEFAULT_255_1_234
10
8.5062628
20
-0.3559887
40
0.2104809
50
354.3660432
51
0.0698737
0
ARC
8
DEFAULT_255_1_234
10
8.5204973
20
-0.3537383
40
0.1962563
50
359.417946
51
16.1971788
0
ARC
8
DEFAULT_255_1_234
10
8.5660284
20
-0.3412582
40
0.149053
50
16.4723299
51
52.6262157
0
ARC
8
DEFAULT_255_1_234
10
8.4839338
20
-0.4496567
40
0.2850296
50
52.7386432
51
62.4979148
0
ARC
8
DEFAULT_255_1_234
10
8.3454415
20
-0.7102717
40
0.5801521
50
62.2515216
51
68.1220564
0
ARC
8
DEFAULT_255_1_234
10
8.1734325
20
-1.1330128
40
1.0365451
50
68.0062803
51
71.8053402
0
ARC
8
DEFAULT_255_1_234
10
7.9938697
20
-1.6715242
40
1.6042013
50
71.7183119
51
73.9258742
0
LINE
8
DEFAULT_255_1_234
10
9.7857679
20
0.5181211
11
9.7857679
21
0.434591
0
LINE
8
DEFAULT_255_1_234
10
9.7857679
20
0.434591
11
9.3014541
21
-0.6513
0
LINE
8
DEFAULT_255_1_234
10
9.3014541
20
-0.6513
11
9.1456383
21
-0.6513
0
LINE
8
DEFAULT_255_1_234
10
9.1456383
20
-0.6513
11
9.6283458
21
0.3960387
0
LINE
8
DEFAULT_255_1_234
10
9.6283458
20
0.3960387
11
8.9954448
21
0.3960387
0
LINE
8
DEFAULT_255_1_234
10
8.9954448
20
0.3960387
11
8.9954448
21
0.5181211
0
LINE
8
DEFAULT_255_1_234
10
8.9954448
20
0.5181211
11
9.7857679
21
0.5181211
0
LINE
8
DEFAULT_255_1_234
10
10.1704881
20
-0.1155831
11
10.1704881
21
0.0056962
0
LINE
8
DEFAULT_255_1_234
10
10.1704881
20
0.0056962
11
10.2821293
21
0.0056962
0
LINE
8
DEFAULT_255_1_234
10
10.0917771
20
0.2113087
11
9.9431899
21
0.2113087
0
LINE
8
DEFAULT_255_1_234
10
9.9327487
20
-0.3428812
11
10.082139
21
-0.3428812
0
LINE
8
DEFAULT_255_1_234
10
10.2821293
20
-0.1155831
11
10.1704881
21
-0.1155831
0
ARC
8
DEFAULT_255_1_234
10
10.2792159
20
0.3449713
40
0.3392876
50
270.4919872
51
281.8951556
0
ARC
8
DEFAULT_255_1_234
10
10.3033421
20
0.2347702
40
0.2264817
50
281.6691735
51
301.2943132
0
ARC
8
DEFAULT_255_1_234
10
10.3203631
20
0.2036304
40
0.1910381
50
301.7833094
51
311.7545298
0
ARC
8
DEFAULT_255_1_234
10
10.3295207
20
0.1934748
40
0.1773635
50
311.7323931
51
354.2802411
0
ARC
8
DEFAULT_255_1_234
10
10.2568832
20
0.2059722
40
0.2509385
50
353.0937916
51
0.1181479
0
ARC
8
DEFAULT_255_1_234
10
10.2107617
20
0.2107386
40
0.2970898
50
359.1805295
51
15.0453146
0
ARC
8
DEFAULT_255_1_234
10
10.3453454
20
0.2499992
40
0.1569564
50
13.9577229
51
77.6713066
0
ARC
8
DEFAULT_255_1_234
10
10.3066983
20
0.1114949
40
0.3006298
50
76.1116566
51
90.7026153
0
ARC
8
DEFAULT_255_1_234
10
10.3007822
20
0.1388545
40
0.2732568
50
89.5324876
51
103.531937
0
ARC
8
DEFAULT_255_1_234
10
10.2807266
20
0.2187884
40
0.1908508
50
103.2931773
51
133.5619022
0
ARC
8
DEFAULT_255_1_234
10
10.2762754
20
0.2247375
40
0.1834746
50
133.8349307
51
173.5344437
0
ARC
8
DEFAULT_255_1_234
10
10.3485797
20
0.2119213
40
0.2568033
50
172.5096846
51
180.1366907
0
ARC
8
DEFAULT_255_1_234
10
10.2534691
20
0.2153622
40
0.3103056
50
155.3484492
51
180.7484736
0
ARC
8
DEFAULT_255_1_234
10
10.248578
20
0.2124846
40
0.3070957
50
131.5744599
51
154.4798489
0
ARC
8
DEFAULT_255_1_234
10
10.2798928
20
0.180831
40
0.3515643
50
96.9875458
51
131.9690667
0
ARC
8
DEFAULT_255_1_234
10
10.3018407
20
0.0562636
40
0.4779224
50
89.8596053
51
97.7825159
0
ARC
8
DEFAULT_255_1_234
10
10.3066471
20
0.0300616
40
0.5041361
50
78.3655447
51
90.4131539
0
ARC
8
DEFAULT_255_1_234
10
10.3424388
20
0.1959887
40
0.3344039
50
56.6229102
51
78.638727
0
ARC
8
DEFAULT_255_1_234
10
10.3639332
20
0.2335805
40
0.2912001
50
47.0253525
51
56.0854072
0
ARC
8
DEFAULT_255_1_234
10
10.3659112
20
0.2375223
40
0.2869704
50
10.9208013
51
46.7778124
0
ARC
8
DEFAULT_255_1_234
10
10.2295179
20
0.2059857
40
0.426899
50
359.6364486
51
11.6087304
0
ARC
8
DEFAULT_255_1_234
10
10.4130023
20
0.2044752
40
0.243409
50
332.3549906
51
359.7179418
0
ARC
8
DEFAULT_255_1_234
10
10.3479624
20
0.2353142
40
0.3153459
50
325.2333722
51
332.8745602
0
ARC
8
DEFAULT_255_1_234
10
10.3632248
20
0.2246828
40
0.2967456
50
292.9802137
51
325.2392345
0
ARC
8
DEFAULT_255_1_234
10
10.3357622
20
0.2780863
40
0.3566604
50
292.5402179
51
293.6924929
0
ARC
8
DEFAULT_255_1_234
10
10.3750218
20
-0.3673909
40
0.3307468
50
57.6435486
51
72.8625112
0
ARC
8
DEFAULT_255_1_234
10
10.4104717
20
-0.3099451
40
0.2632492
50
36.7248896
51
57.4697979
0
ARC
8
DEFAULT_255_1_234
10
10.409335
20
-0.308678
40
0.2634081
50
8.0545065
51
36.356114
0
ARC
8
DEFAULT_255_1_234
10
10.3230535
20
-0.3241826
40
0.3510261
50
359.8320645
51
8.5869982
0
ARC
8
DEFAULT_255_1_234
10
10.2855312
20
-0.3289899
40
0.3885653
50
343.9829931
51
0.5571613
0
ARC
8
DEFAULT_255_1_234
10
10.3741509
20
-0.3532562
40
0.2966924
50
311.6359546
51
343.7651759
0
ARC
8
DEFAULT_255_1_234
10
10.3363078
20
-0.3105898
40
0.3537231
50
279.7829875
51
311.6255694
0
ARC
8
DEFAULT_255_1_234
10
10.3061854
20
-0.166872
40
0.5004971
50
269.7286406
51
280.3856417
0
ARC
8
DEFAULT_255_1_234
10
10.2999927
20
-0.1710004
40
0.4963778
50
256.6828919
51
270.4412052
0
ARC
8
DEFAULT_255_1_234
10
10.2661223
20
-0.3094606
40
0.3538406
50
229.4223008
51
256.8556159
0
ARC
8
DEFAULT_255_1_234
10
10.2246615
20
-0.3561264
40
0.2914296
50
181.818294
51
229.6455059
0
ARC
8
DEFAULT_255_1_234
10
10.3286572
20
-0.3430504
40
0.3959084
50
179.9755256
51
183.2323064
0
ARC
8
DEFAULT_255_1_234
10
10.3114317
20
-0.3450963
40
0.2293034
50
179.4465117
51
196.2869258
0
ARC
8
DEFAULT_255_1_234
10
10.2626725
20
-0.3584349
40
0.1787621
50
196.5661473
51
227.705904
0
ARC
8
DEFAULT_255_1_234
10
10.279082
20
-0.3400845
40
0.2033784
50
227.7652068
51
257.8762805
0
ARC
8
DEFAULT_255_1_234
10
10.301579
20
-0.2457844
40
0.3003081
50
257.4584385
51
270.426602
0
ARC
8
DEFAULT_255_1_234
10
10.3061357
20
-0.2168004
40
0.329292
50
269.5962073
51
280.8789248
0
ARC
8
DEFAULT_255_1_234
10
10.3290885
20
-0.3314315
40
0.2123908
50
280.6346389
51
299.8595945
0
ARC
8
DEFAULT_255_1_234
10
10.3481792
20
-0.3676788
40
0.171457
50
300.3576302
51
314.5517981
0
ARC
8
DEFAULT_255_1_234
10
10.3398852
20
-0.3616081
40
0.1816095
50
315.0728369
51
345.0431014
0
ARC
8
DEFAULT_255_1_234
10
10.2475667
20
-0.3347159
40
0.2777492
50
344.5986631
51
357.9269593
0
ARC
8
DEFAULT_255_1_234
10
10.1579993
20
-0.3285724
40
0.3674917
50
357.4748886
51
0.0231117
0
ARC
8
DEFAULT_255_1_234
10
10.2603102
20
-0.3261321
40
0.2651907
50
359.5047933
51
13.4239635
0
ARC
8
DEFAULT_255_1_234
10
10.3469746
20
-0.3039522
40
0.1757509
50
12.9498199
51
48.7551375
0
ARC
8
DEFAULT_255_1_234
10
10.328748
20
-0.32886
40
0.2065134
50
49.5088623
51
72.1836453
0
ARC
8
DEFAULT_255_1_234
10
10.2929632
20
-0.4350709
40
0.3185836
50
71.9010081
51
84.3554254
0
ARC
8
DEFAULT_255_1_234
10
10.2768264
20
-0.5711674
40
0.4556151
50
84.0193428
51
89.333121
0
LINE
8
DEFAULT_255_1_234
10
11.094138
20
-0.1155831
11
11.094138
21
0.0056962
0
LINE
8
DEFAULT_255_1_234
10
11.094138
20
0.0056962
11
11.2057792
21
0.0056962
0
LINE
8
DEFAULT_255_1_234
10
11.015427
20
0.2113087
11
10.8668398
21
0.2113087
0
LINE
8
DEFAULT_255_1_234
10
10.8563986
20
-0.3428812
11
11.0057889
21
-0.3428812
0
LINE
8
DEFAULT_255_1_234
10
11.2057792
20
-0.1155831
11
11.094138
21
-0.1155831
0
ARC
8
DEFAULT_255_1_234
10
11.2028658
20
0.3449713
40
0.3392876
50
270.4919872
51
281.8951556
0
ARC
8
DEFAULT_255_1_234
10
11.226992
20
0.2347702
40
0.2264817
50
281.6691735
51
301.2943132
0
ARC
8
DEFAULT_255_1_234
10
11.244013
20
0.2036304
40
0.1910381
50
301.7833094
51
311.7545298
0
ARC
8
DEFAULT_255_1_234
10
11.2531706
20
0.1934748
40
0.1773635
50
311.7323931
51
354.2802411
0
ARC
8
DEFAULT_255_1_234
10
11.1805331
20
0.2059722
40
0.2509385
50
353.0937916
51
0.1181479
0
ARC
8
DEFAULT_255_1_234
10
11.1344116
20
0.2107386
40
0.2970898
50
359.1805295
51
15.0453146
0
ARC
8
DEFAULT_255_1_234
10
11.2689953
20
0.2499992
40
0.1569564
50
13.9577229
51
77.6713066
0
ARC
8
DEFAULT_255_1_234
10
11.2303482
20
0.1114949
40
0.3006298
50
76.1116566
51
90.7026153
0
ARC
8
DEFAULT_255_1_234
10
11.2244321
20
0.1388545
40
0.2732568
50
89.5324876
51
103.531937
0
ARC
8
DEFAULT_255_1_234
10
11.2043765
20
0.2187884
40
0.1908508
50
103.2931773
51
133.5619022
0
ARC
8
DEFAULT_255_1_234
10
11.1999253
20
0.2247375
40
0.1834746
50
133.8349307
51
173.5344437
0
ARC
8
DEFAULT_255_1_234
10
11.2722296
20
0.2119213
40
0.2568033
50
172.5096846
51
180.1366907
0
ARC
8
DEFAULT_255_1_234
10
11.177119
20
0.2153622
40
0.3103056
50
155.3484492
51
180.7484736
0
ARC
8
DEFAULT_255_1_234
10
11.1722279
20
0.2124846
40
0.3070957
50
131.5744599
51
154.4798489
0
ARC
8
DEFAULT_255_1_234
10
11.2035427
20
0.180831
40
0.3515643
50
96.9875458
51
131.9690667
0
ARC
8
DEFAULT_255_1_234
10
11.2254906
20
0.0562636
40
0.4779224
50
89.8596053
51
97.7825159
0
ARC
8
DEFAULT_255_1_234
10
11.230297
20
0.0300616
40
0.5041361
50
78.3655447
51
90.4131539
0
ARC
8
DEFAULT_255_1_234
10
11.2660887
20
0.1959887
40
0.3344039
50
56.6229102
51
78.638727
0
ARC
8
DEFAULT_255_1_234
10
11.2875831
20
0.2335805
40
0.2912001
50
47.0253525
51
56.0854072
0
ARC
8
DEFAULT_255_1_234
10
11.2895611
20
0.2375223
40
0.2869704
50
10.9208013
51
46.7778124
0
ARC
8
DEFAULT_255_1_234
10
11.1531678
20
0.2059857
40
0.426899
50
359.6364486
51
11.6087304
0
ARC
8
DEFAULT_255_1_234
10
11.3366522
20
0.2044752
40
0.243409
50
332.3549906
51
359.7179418
0
ARC
8
DEFAULT_255_1_234
10
11.2716123
20
0.2353142
40
0.3153459
50
325.2333722
51
332.8745602
0
ARC
8
DEFAULT_255_1_234
10
11.2868747
20
0.2246828
40
0.2967456
50
292.9802137
51
325.2392345
0
ARC
8
DEFAULT_255_1_234
10
11.2594121
20
0.2780863
40
0.3566604
50
292.5402179
51
293.6924929
0
ARC
8
DEFAULT_255_1_234
10
11.2986717
20
-0.3673909
40
0.3307468
50
57.6435486
51
72.8625112
0
ARC
8
DEFAULT_255_1_234
10
11.3341216
20
-0.3099451
40
0.2632492
50
36.7248896
51
57.4697979
0
ARC
8
DEFAULT_255_1_234
10
11.3329849
20
-0.308678
40
0.2634081
50
8.0545065
51
36.356114
0
ARC
8
DEFAULT_255_1_234
10
11.2467034
20
-0.3241826
40
0.3510261
50
359.8320645
51
8.5869982
0
ARC
8
DEFAULT_255_1_234
10
11.2091811
20
-0.3289899
40
0.3885653
50
343.9829931
51
0.5571613
0
ARC
8
DEFAULT_255_1_234
10
11.2978008
20
-0.3532562
40
0.2966924
50
311.6359546
51
343.7651759
0
ARC
8
DEFAULT_255_1_234
10
11.2599577
20
-0.3105898
40
0.3537231
50
279.7829875
51
311.6255694
0
ARC
8
DEFAULT_255_1_234
10
11.2298353
20
-0.166872
40
0.5004971
50
269.7286406
51
280.3856417
0
ARC
8
DEFAULT_255_1_234
10
11.2236426
20
-0.1710004
40
0.4963778
50
256.6828919
51
270.4412052
0
ARC
8
DEFAULT_255_1_234
10
11.1897722
20
-0.3094606
40
0.3538406
50
229.4223008
51
256.8556159
0
ARC
8
DEFAULT_255_1_234
10
11.1483114
20
-0.3561264
40
0.2914296
50
181.818294
51
229.6455059
0
ARC
8
DEFAULT_255_1_234
10
11.2523071
20
-0.3430504
40
0.3959084
50
179.9755256
51
183.2323064
0
ARC
8
DEFAULT_255_1_234
10
11.2350816
20
-0.3450963
40
0.2293034
50
179.4465117
51
196.2869258
0
ARC
8
DEFAULT_255_1_234
10
11.1863224
20
-0.3584349
40
0.1787621
50
196.5661473
51
227.705904
0
ARC
8
DEFAULT_255_1_234
10
11.2027319
20
-0.3400845
40
0.2033784
50
227.7652068
51
257.8762805
0
ARC
8
DEFAULT_255_1_234
10
11.2252289
20
-0.2457844
40
0.3003081
50
257.4584385
51
270.426602
0
ARC
8
DEFAULT_255_1_234
10
11.2297856
20
-0.2168004
40
0.329292
50
269.5962073
51
280.8789248
0
ARC
8
DEFAULT_255_1_234
10
11.2527384
20
-0.3314315
40
0.2123908
50
280.6346389
51
299.8595945
0
ARC
8
DEFAULT_255_1_234
10
11.2718291
20
-0.3676788
40
0.171457
50
300.3576302
51
314.5517981
0
ARC
8
DEFAULT_255_1_234
10
11.2635351
20
-0.3616081
40
0.1816095
50
315.0728369
51
345.0431014
0
ARC
8
DEFAULT_255_1_234
10
11.1712166
20
-0.3347159
40
0.2777492
50
344.5986631
51
357.9269593
0
ARC
8
DEFAULT_255_1_234
10
11.0816492
20
-0.3285724
40
0.3674917
50
357.4748886
51
0.0231117
0
ARC
8
DEFAULT_255_1_234
10
11.1839601
20
-0.3261321
40
0.2651907
50
359.5047933
51
13.4239635
0
ARC
8
DEFAULT_255_1_234
10
11.2706245
20
-0.3039522
40
0.1757509
50
12.9498199
51
48.7551375
0
ARC
8
DEFAULT_255_1_234
10
11.2523979
20
-0.32886
40
0.2065134
50
49.5088623
51
72.1836453
0
ARC
8
DEFAULT_255_1_234
10
11.2166131
20
-0.4350709
40
0.3185836
50
71.9010081
51
84.3554254
0
ARC
8
DEFAULT_255_1_234
10
11.2004763
20
-0.5711674
40
0.4556151
50
84.0193428
51
89.333121
0
LINE
8
DEFAULT_255_1_234
10
12.4290129
20
0.5181211
11
12.4290129
21
-0.258548
0
LINE
8
DEFAULT_255_1_234
10
12.4290129
20
-0.258548
11
12.5912541
21
-0.258548
0
LINE
8
DEFAULT_255_1_234
10
12.5912541
20
-0.258548
11
12.5912541
21
-0.3798272
0
LINE
8
DEFAULT_255_1_234
10
12.5912541
20
-0.3798272
11
12.4290129
21
-0.3798272
0
LINE
8
DEFAULT_255_1_234
10
12.4290129
20
-0.3798272
11
12.4290129
21
-0.6513
0
LINE
8
DEFAULT_255_1_234
10
12.4290129
20
-0.6513
11
12.2796226
21
-0.6513
0
LINE
8
DEFAULT_255_1_234
10
12.2796226
20
-0.6513
11
12.2796226
21
-0.3798272
0
LINE
8
DEFAULT_255_1_234
10
12.2796226
20
-0.3798272
11
11.7471184
21
-0.3798272
0
LINE
8
DEFAULT_255_1_234
10
11.7471184
20
-0.3798272
11
11.7471184
21
-0.2922813
0
LINE
8
DEFAULT_255_1_234
10
11.7471184
20
-0.2922813
11
12.2707877
21
0.5181211
0
LINE
8
DEFAULT_255_1_234
10
12.2707877
20
0.5181211
11
12.4290129
21
0.5181211
0
LINE
8
DEFAULT_255_1_234
10
12.2619528
20
0.2827912
11
11.9157849
21
-0.258548
0
LINE
8
DEFAULT_255_1_234
10
11.9157849
20
-0.258548
11
12.2796226
21
-0.258548
0
LINE
8
DEFAULT_255_1_234
10
12.2796226
20
-0.258548
11
12.2796226
21
0.3149181
0
LINE
8
DEFAULT_255_1_234
10
12.2796226
20
0.3149181
11
12.2619528
21
0.2827912
0
LINE
8
DEFAULT_255_1_234
10
13.0498663
20
-0.0938974
11
13.0498663
21
-0.2151766
0
LINE
8
DEFAULT_255_1_234
10
13.0498663
20
-0.2151766
11
12.6579175
21
-0.2151766
0
LINE
8
DEFAULT_255_1_234
10
12.6579175
20
-0.2151766
11
12.6579175
21
-0.0938974
0
LINE
8
DEFAULT_255_1_234
10
12.6579175
20
-0.0938974
11
13.0498663
21
-0.0938974
0
LINE
8
DEFAULT_255_1_234
10
13.912475
20
0.0402327
11
13.912475
21
-0.1525291
0
LINE
8
DEFAULT_255_1_234
10
13.1743583
20
-0.1726084
11
13.1743583
21
0.0257755
0
LINE
8
DEFAULT_255_1_234
10
13.7638878
20
-0.1926877
11
13.7638878
21
0.0506739
0
LINE
8
DEFAULT_255_1_234
10
13.3229454
20
0.0619184
11
13.3229454
21
-0.1758211
0
ARC
8
DEFAULT_255_1_234
10
12.687764
20
-0.1574195
40
1.2247208
50
353.8441951
51
0.2287902
0
ARC
8
DEFAULT_255_1_234
10
13.1517143
20
-0.2092194
40
0.7578929
50
344.4934747
51
353.9765454
0
ARC
8
DEFAULT_255_1_234
10
13.4509733
20
-0.2943019
40
0.4467846
50
329.2803592
51
344.7472793
0
ARC
8
DEFAULT_255_1_234
10
13.5502558
20
-0.3487982
40
0.3336173
50
324.9352394
51
328.6160465
0
ARC
8
DEFAULT_255_1_234
10
13.5879667
20
-0.3751573
40
0.2876076
50
280.580143
51
324.9173126
0
ARC
8
DEFAULT_255_1_234
10
13.547846
20
-0.2080901
40
0.4592847
50
269.5977311
51
281.6734359
0
ARC
8
DEFAULT_255_1_234
10
13.5406365
20
-0.2200827
40
0.4472986
50
256.6228859
51
270.51044
0
ARC
8
DEFAULT_255_1_234
10
13.5004343
20
-0.3749123
40
0.2873874
50
215.8618325
51
257.2788573
0
ARC
8
DEFAULT_255_1_234
10
13.6025375
20
-0.3064023
40
0.4102928
50
197.9693508
51
215.2623606
0
ARC
8
DEFAULT_255_1_234
10
13.851049
20
-0.2225291
40
0.6725652
50
187.8816417
51
198.2346507
0
ARC
8
DEFAULT_255_1_234
10
14.2468699
20
-0.1653921
40
1.0724845
50
180.8976217
51
188.0055519
0
ARC
8
DEFAULT_255_1_234
10
14.5268887
20
-0.1550223
40
1.3526448
50
180.7449369
51
181.1510016
0
ARC
8
DEFAULT_255_1_234
10
14.3691616
20
0.0306042
40
1.1948131
50
173.7675579
51
180.231553
0
ARC
8
DEFAULT_255_1_234
10
13.9173762
20
0.0816666
40
0.7401564
50
164.3058563
51
173.9002247
0
ARC
8
DEFAULT_255_1_234
10
13.6261831
20
0.1655656
40
0.4371288
50
148.7922025
51
164.568378
0
ARC
8
DEFAULT_255_1_234
10
13.5310283
20
0.2186929
40
0.3282386
50
144.5883898
51
148.1176286
0
ARC
8
DEFAULT_255_1_234
10
13.4967181
20
0.2426315
40
0.2864044
50
101.6440918
51
144.514236
0
ARC
8
DEFAULT_255_1_234
10
13.5392248
20
0.0737069
40
0.4604934
50
89.5284041
51
102.5819763
0
ARC
8
DEFAULT_255_1_234
10
13.5471336
20
0.0698018
40
0.464401
50
77.0437873
51
90.5081339
0
ARC
8
DEFAULT_255_1_234
10
13.5873337
20
0.2340615
40
0.2953195
50
48.2778575
51
77.4994676
0
ARC
8
DEFAULT_255_1_234
10
13.5945969
20
0.2469746
40
0.2808655
50
36.3142134
51
47.6305865
0
ARC
8
DEFAULT_255_1_234
10
13.5077276
20
0.1884515
40
0.3855453
50
18.2931786
51
35.6769206
0
ARC
8
DEFAULT_255_1_234
10
13.2534035
20
0.1011593
40
0.654423
50
8.024666
51
18.5605216
0
ARC
8
DEFAULT_255_1_234
10
12.8370955
20
0.0396792
40
1.0752407
50
1.1274072
51
8.1718305
0
ARC
8
DEFAULT_255_1_234
10
12.5135145
20
0.0269885
40
1.3990231
50
0.5424119
51
1.3863029
0
ARC
8
DEFAULT_255_1_234
10
12.6956523
20
0.0542342
40
1.0682415
50
359.8090433
51
4.9407866
0
ARC
8
DEFAULT_255_1_234
10
13.1166537
20
0.0918113
40
0.6455691
50
4.8362157
51
12.2904523
0
ARC
8
DEFAULT_255_1_234
10
13.3921652
20
0.1531965
40
0.3633074
50
12.0805627
51
23.8173984
0
ARC
8
DEFAULT_255_1_234
10
13.5095357
20
0.2028919
40
0.2358723
50
24.2871213
51
31.3935614
0
ARC
8
DEFAULT_255_1_234
10
13.5620054
20
0.2372233
40
0.1732111
50
30.7407893
51
82.4657128
0
ARC
8
DEFAULT_255_1_234
10
13.5440189
20
0.1488691
40
0.263235
50
81.1060089
51
90.2184952
0
ARC
8
DEFAULT_255_1_234
10
13.5404488
20
0.1746924
40
0.2374236
50
89.3806855
51
105.6762551
0
ARC
8
DEFAULT_255_1_234
10
13.5221118
20
0.2413567
40
0.1682847
50
105.7981136
51
149.7388061
0
ARC
8
DEFAULT_255_1_234
10
13.6285197
20
0.177395
40
0.2924306
50
149.4208916
51
163.6286378
0
ARC
8
DEFAULT_255_1_234
10
13.8376085
20
0.113625
40
0.5110213
50
163.3763315
51
172.1410975
0
ARC
8
DEFAULT_255_1_234
10
14.1676804
20
0.0663518
40
0.8444586
50
172.0259487
51
178.0703232
0
ARC
8
DEFAULT_255_1_234
10
14.4706893
20
0.0519906
40
1.1477868
50
177.8631668
51
179.5044149
0
ARC
8
DEFAULT_255_1_234
10
14.3634297
20
-0.1794611
40
1.0404907
50
179.7995573
51
185.2460446
0
ARC
8
DEFAULT_255_1_234
10
13.9591337
20
-0.2177487
40
0.6343885
50
185.1411642
51
193.0079639
0
ARC
8
DEFAULT_255_1_234
10
13.6947809
20
-0.2802359
40
0.3627568
50
192.7897626
51
205.2507664
0
ARC
8
DEFAULT_255_1_234
10
13.5901356
20
-0.3269585
40
0.2481908
50
205.8005384
51
211.2537509
0
ARC
8
DEFAULT_255_1_234
10
13.5377797
20
-0.362042
40
0.1852521
50
210.3789793
51
238.4008143
0
ARC
8
DEFAULT_255_1_234
10
13.5358319
20
-0.3573624
40
0.1882621
50
239.6520629
51
265.9793761
0
ARC
8
DEFAULT_255_1_234
10
13.5443519
20
-0.2901573
40
0.2559272
50
265.1315437
51
270.060332
0
ARC
8
DEFAULT_255_1_234
10
13.5472298
20
-0.3225466
40
0.2235528
50
269.3314664
51
287.2178029
0
ARC
8
DEFAULT_255_1_234
10
13.561015
20
-0.3728721
40
0.1714108
50
287.7958004
51
329.080874
0
ARC
8
DEFAULT_255_1_234
10
13.4652606
20
-0.313107
40
0.2842745
50
328.6634704
51
343.3325132
0
ARC
8
DEFAULT_255_1_234
10
13.2479626
20
-0.2454137
40
0.5118644
50
343.0499468
51
351.9393422
0
ARC
8
DEFAULT_255_1_234
10
12.9012926
20
-0.1943051
40
0.8622784
50
351.8069023
51
357.7959224
0
ARC
8
DEFAULT_255_1_234
10
12.5777482
20
-0.1775279
40
1.1862365
50
357.5871873
51
359.2677531
0
LINE
8
DEFAULT_255_1_234
10
14.8529916
20
-0.6513
11
14.4385539
21
-0.1075513
0
LINE
8
DEFAULT_255_1_234
10
14.4385539
20
-0.1075513
11
14.2955889
21
-0.2561385
0
LINE
8
DEFAULT_255_1_234
10
14.2955889
20
-0.2561385
11
14.2955889
21
-0.6513
0
LINE
8
DEFAULT_255_1_234
10
14.2955889
20
-0.6513
11
14.1413795
21
-0.6513
0
LINE
8
DEFAULT_255_1_234
10
14.1413795
20
-0.6513
11
14.1413795
21
0.5181211
0
LINE
8
DEFAULT_255_1_234
10
14.1413795
20
0.5181211
11
14.2955889
21
0.5181211
0
LINE
8
DEFAULT_255_1_234
10
14.2955889
20
0.5181211
11
14.2955889
21
-0.0601641
0
LINE
8
DEFAULT_255_1_234
10
14.2955889
20
-0.0601641
11
14.8152424
21
0.5181211
0
LINE
8
DEFAULT_255_1_234
10
14.8152424
20
0.5181211
11
15.0015787
21
0.5181211
0
LINE
8
DEFAULT_255_1_234
10
15.0015787
20
0.5181211
11
14.5413601
21
0.0016803
0
LINE
8
DEFAULT_255_1_234
10
14.5413601
20
0.0016803
11
15.0377215
21
-0.6513
0
LINE
8
DEFAULT_255_1_234
10
15.0377215
20
-0.6513
11
14.8529916
21
-0.6513
0
LINE
8
DEFAULT_255_1_234
10
15.8336668
20
0.0153343
11
15.8336668
21
-0.110764
0
LINE
8
DEFAULT_255_1_234
10
15.8336668
20
-0.110764
11
15.3268641
21
-0.110764
0
LINE
8
DEFAULT_255_1_234
10
15.3268641
20
-0.110764
11
15.3268641
21
-0.5252017
0
LINE
8
DEFAULT_255_1_234
10
15.3268641
20
-0.5252017
11
15.9155905
21
-0.5252017
0
LINE
8
DEFAULT_255_1_234
10
15.9155905
20
-0.5252017
11
15.9155905
21
-0.6513
0
LINE
8
DEFAULT_255_1_234
10
15.9155905
20
-0.6513
11
15.1726547
21
-0.6513
0
LINE
8
DEFAULT_255_1_234
10
15.1726547
20
-0.6513
11
15.1726547
21
0.5181211
0
LINE
8
DEFAULT_255_1_234
10
15.1726547
20
0.5181211
11
15.9075588
21
0.5181211
0
LINE
8
DEFAULT_255_1_234
10
15.9075588
20
0.5181211
11
15.9075588
21
0.3912196
0
LINE
8
DEFAULT_255_1_234
10
15.9075588
20
0.3912196
11
15.3268641
21
0.3912196
0
LINE
8
DEFAULT_255_1_234
10
15.3268641
20
0.3912196
11
15.3268641
21
0.0153343
0
LINE
8
DEFAULT_255_1_234
10
15.3268641
20
0.0153343
11
15.8336668
21
0.0153343
0
LINE
8
DEFAULT_255_1_234
10
16.8022944
20
0.0402327
11
16.8022944
21
-0.1525291
0
LINE
8
DEFAULT_255_1_234
10
16.0641777
20
-0.1726084
11
16.0641777
21
0.0257755
0
LINE
8
DEFAULT_255_1_234
10
16.6537073
20
-0.1926877
11
16.6537073
21
0.0506739
0
LINE
8
DEFAULT_255_1_234
10
16.2127648
20
0.0619184
11
16.2127648
21
-0.1758211
0
ARC
8
DEFAULT_255_1_234
10
15.5775834
20
-0.1574195
40
1.2247208
50
353.8441951
51
0.2287902
0
ARC
8
DEFAULT_255_1_234
10
16.0415338
20
-0.2092194
40
0.7578929
50
344.4934747
51
353.9765454
0
ARC
8
DEFAULT_255_1_234
10
16.3407928
20
-0.2943019
40
0.4467846
50
329.2803592
51
344.7472793
0
ARC
8
DEFAULT_255_1_234
10
16.4400753
20
-0.3487982
40
0.3336173
50
324.9352394
51
328.6160465
0
ARC
8
DEFAULT_255_1_234
10
16.4777861
20
-0.3751573
40
0.2876076
50
280.580143
51
324.9173126
0
ARC
8
DEFAULT_255_1_234
10
16.4376654
20
-0.2080901
40
0.4592847
50
269.5977311
51
281.6734359
0
ARC
8
DEFAULT_255_1_234
10
16.430456
20
-0.2200827
40
0.4472986
50
256.6228859
51
270.51044
0
ARC
8
DEFAULT_255_1_234
10
16.3902537
20
-0.3749123
40
0.2873874
50
215.8618325
51
257.2788573
0
ARC
8
DEFAULT_255_1_234
10
16.4923569
20
-0.3064023
40
0.4102928
50
197.9693508
51
215.2623606
0
ARC
8
DEFAULT_255_1_234
10
16.7408685
20
-0.2225291
40
0.6725652
50
187.8816417
51
198.2346507
0
ARC
8
DEFAULT_255_1_234
10
17.1366893
20
-0.1653921
40
1.0724845
50
180.8976217
51
188.0055519
0
ARC
8
DEFAULT_255_1_234
10
17.4167081
20
-0.1550223
40
1.3526448
50
180.7449369
51
181.1510016
0
ARC
8
DEFAULT_255_1_234
10
17.258981
20
0.0306042
40
1.1948131
50
173.7675579
51
180.231553
0
ARC
8
DEFAULT_255_1_234
10
16.8071957
20
0.0816666
40
0.7401564
50
164.3058563
51
173.9002247
0
ARC
8
DEFAULT_255_1_234
10
16.5160025
20
0.1655656
40
0.4371288
50
148.7922025
51
164.568378
0
ARC
8
DEFAULT_255_1_234
10
16.4208478
20
0.2186929
40
0.3282386
50
144.5883898
51
148.1176286
0
ARC
8
DEFAULT_255_1_234
10
16.3865376
20
0.2426315
40
0.2864044
50
101.6440918
51
144.514236
0
ARC
8
DEFAULT_255_1_234
10
16.4290442
20
0.0737069
40
0.4604934
50
89.5284041
51
102.5819763
0
ARC
8
DEFAULT_255_1_234
10
16.436953
20
0.0698018
40
0.464401
50
77.0437873
51
90.5081339
0
ARC
8
DEFAULT_255_1_234
10
16.4771532
20
0.2340615
40
0.2953195
50
48.2778575
51
77.4994676
0
ARC
8
DEFAULT_255_1_234
10
16.4844163
20
0.2469746
40
0.2808655
50
36.3142134
51
47.6305865
0
ARC
8
DEFAULT_255_1_234
10
16.397547
20
0.1884515
40
0.3855453
50
18.2931786
51
35.6769206
0
ARC
8
DEFAULT_255_1_234
10
16.1432229
20
0.1011593
40
0.654423
50
8.024666
51
18.5605216
0
ARC
8
DEFAULT_255_1_234
10
15.7269149
20
0.0396792
40
1.0752407
50
1.1274072
51
8.1718305
0
ARC
8
DEFAULT_255_1_234
10
15.4033339
20
0.0269885
40
1.3990231
50
0.5424119
51
1.3863029
0
ARC
8
DEFAULT_255_1_234
10
15.5854717
20
0.0542342
40
1.0682415
50
359.8090433
51
4.9407866
0
ARC
8
DEFAULT_255_1_234
10
16.0064731
20
0.0918113
40
0.6455691
50
4.8362157
51
12.2904523
0
ARC
8
DEFAULT_255_1_234
10
16.2819846
20
0.1531965
40
0.3633074
50
12.0805627
51
23.8173984
0
ARC
8
DEFAULT_255_1_234
10
16.3993551
20
0.2028919
40
0.2358723
50
24.2871213
51
31.3935614
0
ARC
8
DEFAULT_255_1_234
10
16.4518249
20
0.2372233
40
0.1732111
50
30.7407893
51
82.4657128
0
ARC
8
DEFAULT_255_1_234
10
16.4338383
20
0.1488691
40
0.263235
50
81.1060089
51
90.2184952
0
ARC
8
DEFAULT_255_1_234
10
16.4302682
20
0.1746924
40
0.2374236
50
89.3806855
51
105.6762551
0
ARC
8
DEFAULT_255_1_234
10
16.4119313
20
0.2413567
40
0.1682847
50
105.7981136
51
149.7388061
0
ARC
8
DEFAULT_255_1_234
10
16.5183391
20
0.177395
40
0.2924306
50
149.4208916
51
163.6286378
0
ARC
8
DEFAULT_255_1_234
10
16.7274279
20
0.113625
40
0.5110213
50
163.3763315
51
172.1410975
0
ARC
8
DEFAULT_255_1_234
10
17.0574998
20
0.0663518
40
0.8444586
50
172.0259487
51
178.0703232
0
ARC
8
DEFAULT_255_1_234
10
17.3605087
20
0.0519906
40
1.1477868
50
177.8631668
51
179.5044149
0
ARC
8
DEFAULT_255_1_234
10
17.2532492
20
-0.1794611
40
1.0404907
50
179.7995573
51
185.2460446
0
ARC
8
DEFAULT_255_1_234
10
16.8489531
20
-0.2177487
40
0.6343885
50
185.1411642
51
193.0079639
0
ARC
8
DEFAULT_255_1_234
10
16.5846004
20
-0.2802359
40
0.3627568
50
192.7897626
51
205.2507664
0
ARC
8
DEFAULT_255_1_234
10
16.4799551
20
-0.3269585
40
0.2481908
50
205.8005384
51
211.2537509
0
ARC
8
DEFAULT_255_1_234
10
16.4275991
20
-0.362042
40
0.1852521
50
210.3789793
51
238.4008143
0
ARC
8
DEFAULT_255_1_234
10
16.4256513
20
-0.3573624
40
0.1882621
50
239.6520629
51
265.9793761
0
ARC
8
DEFAULT_255_1_234
10
16.4341713
20
-0.2901573
40
0.2559272
50
265.1315437
51
270.060332
0
ARC
8
DEFAULT_255_1_234
10
16.4370492
20
-0.3225466
40
0.2235528
50
269.3314664
51
287.2178029
0
ARC
8
DEFAULT_255_1_234
10
16.4508344
20
-0.3728721
40
0.1714108
50
287.7958004
51
329.080874
0
ARC
8
DEFAULT_255_1_234
10
16.3550801
20
-0.313107
40
0.2842745
50
328.6634704
51
343.3325132
0
ARC
8
DEFAULT_255_1_234
10
16.1377821
20
-0.2454137
40
0.5118644
50
343.0499468
51
351.9393422
0
ARC
8
DEFAULT_255_1_234
10
15.7911121
20
-0.1943051
40
0.8622784
50
351.8069023
51
357.7959224
0
ARC
8
DEFAULT_255_1_234
10
15.4675677
20
-0.1775279
40
1.1862365
50
357.5871873
51
359.2677531
0
LINE
8
DEFAULT_255_1_234
10
17.7259443
20
0.0402327
11
17.7259443
21
-0.1525291
0
LINE
8
DEFAULT_255_1_234
10
16.9878276
20
-0.1726084
11
16.9878276
21
0.0257755
0
LINE
8
DEFAULT_255_1_234
10
17.5773572
20
-0.1926877
11
17.5773572
21
0.0506739
0
LINE
8
DEFAULT_255_1_234
10
17.1364147
20
0.0619184
11
17.1364147
21
-0.1758211
0
ARC
8
DEFAULT_255_1_234
10
16.5012333
20
-0.1574195
40
1.2247208
50
353.8441951
51
0.2287902
0
ARC
8
DEFAULT_255_1_234
10
16.9651837
20
-0.2092194
40
0.7578929
50
344.4934747
51
353.9765454
0
ARC
8
DEFAULT_255_1_234
10
17.2644427
20
-0.2943019
40
0.4467846
50
329.2803592
51
344.7472793
0
ARC
8
DEFAULT_255_1_234
10
17.3637252
20
-0.3487982
40
0.3336173
50
324.9352394
51
328.6160465
0
ARC
8
DEFAULT_255_1_234
10
17.401436
20
-0.3751573
40
0.2876076
50
280.580143
51
324.9173126
0
ARC
8
DEFAULT_255_1_234
10
17.3613153
20
-0.2080901
40
0.4592847
50
269.5977311
51
281.6734359
0
ARC
8
DEFAULT_255_1_234
10
17.3541059
20
-0.2200827
40
0.4472986
50
256.6228859
51
270.51044
0
ARC
8
DEFAULT_255_1_234
10
17.3139036
20
-0.3749123
40
0.2873874
50
215.8618325
51
257.2788573
0
ARC
8
DEFAULT_255_1_234
10
17.4160068
20
-0.3064023
40
0.4102928
50
197.9693508
51
215.2623606
0
ARC
8
DEFAULT_255_1_234
10
17.6645184
20
-0.2225291
40
0.6725652
50
187.8816417
51
198.2346507
0
ARC
8
DEFAULT_255_1_234
10
18.0603392
20
-0.1653921
40
1.0724845
50
180.8976217
51
188.0055519
0
ARC
8
DEFAULT_255_1_234
10
18.340358
20
-0.1550223
40
1.3526448
50
180.7449369
51
181.1510016
0
ARC
8
DEFAULT_255_1_234
10
18.1826309
20
0.0306042
40
1.1948131
50
173.7675579
51
180.231553
0
ARC
8
DEFAULT_255_1_234
10
17.7308456
20
0.0816666
40
0.7401564
50
164.3058563
51
173.9002247
0
ARC
8
DEFAULT_255_1_234
10
17.4396525
20
0.1655656
40
0.4371288
50
148.7922025
51
164.568378
0
ARC
8
DEFAULT_255_1_234
10
17.3444977
20
0.2186929
40
0.3282386
50
144.5883898
51
148.1176286
0
ARC
8
DEFAULT_255_1_234
10
17.3101875
20
0.2426315
40
0.2864044
50
101.6440918
51
144.514236
0
ARC
8
DEFAULT_255_1_234
10
17.3526941
20
0.0737069
40
0.4604934
50
89.5284041
51
102.5819763
0
ARC
8
DEFAULT_255_1_234
10
17.3606029
20
0.0698018
40
0.464401
50
77.0437873
51
90.5081339
0
ARC
8
DEFAULT_255_1_234
10
17.4008031
20
0.2340615
40
0.2953195
50
48.2778575
51
77.4994676
0
ARC
8
DEFAULT_255_1_234
10
17.4080662
20
0.2469746
40
0.2808655
50
36.3142134
51
47.6305865
0
ARC
8
DEFAULT_255_1_234
10
17.3211969
20
0.1884515
40
0.3855453
50
18.2931786
51
35.6769206
0
ARC
8
DEFAULT_255_1_234
10
17.0668728
20
0.1011593
40
0.654423
50
8.024666
51
18.5605216
0
ARC
8
DEFAULT_255_1_234
10
16.6505648
20
0.0396792
40
1.0752407
50
1.1274072
51
8.1718305
0
ARC
8
DEFAULT_255_1_234
10
16.3269839
20
0.0269885
40
1.3990231
50
0.5424119
51
1.3863029
0
ARC
8
DEFAULT_255_1_234
10
16.5091216
20
0.0542342
40
1.0682415
50
359.8090433
51
4.9407866
0
ARC
8
DEFAULT_255_1_234
10
16.930123
20
0.0918113
40
0.6455691
50
4.8362157
51
12.2904523
0
ARC
8
DEFAULT_255_1_234
10
17.2056345
20
0.1531965
40
0.3633074
50
12.0805627
51
23.8173984
0
ARC
8
DEFAULT_255_1_234
10
17.3230051
20
0.2028919
40
0.2358723
50
24.2871213
51
31.3935614
0
ARC
8
DEFAULT_255_1_234
10
17.3754748
20
0.2372233
40
0.1732111
50
30.7407893
51
82.4657128
0
ARC
8
DEFAULT_255_1_234
10
17.3574882
20
0.1488691
40
0.263235
50
81.1060089
51
90.2184952
0
ARC
8
DEFAULT_255_1_234
10
17.3539181
20
0.1746924
40
0.2374236
50
89.3806855
51
105.6762551
0
ARC
8
DEFAULT_255_1_234
10
17.3355812
20
0.2413567
40
0.1682847
50
105.7981136
51
149.7388061
0
ARC
8
DEFAULT_255_1_234
10
17.441989
20
0.177395
40
0.2924306
50
149.4208916
51
163.6286378
0
ARC
8
DEFAULT_255_1_234
10
17.6510778
20
0.113625
40
0.5110213
50
163.3763315
51
172.1410975
0
ARC
8
DEFAULT_255_1_234
10
17.9811497
20
0.0663518
40
0.8444586
50
172.0259487
51
178.0703232
0
ARC
8
DEFAULT_255_1_234
10
18.2841586
20
0.0519906
40
1.1477868
50
177.8631668
51
179.5044149
0
ARC
8
DEFAULT_255_1_234
10
18.1768991
20
-0.1794611
40
1.0404907
50
179.7995573
51
185.2460446
0
ARC
8
DEFAULT_255_1_234
10
17.772603
20
-0.2177487
40
0.6343885
50
185.1411642
51
193.0079639
0
ARC
8
DEFAULT_255_1_234
10
17.5082503
20
-0.2802359
40
0.3627568
50
192.7897626
51
205.2507664
0
ARC
8
DEFAULT_255_1_234
10
17.403605
20
-0.3269585
40
0.2481908
50
205.8005384
51
211.2537509
0
ARC
8
DEFAULT_255_1_234
10
17.351249
20
-0.362042
40
0.1852521
50
210.3789793
51
238.4008143
0
ARC
8
DEFAULT_255_1_234
10
17.3493012
20
-0.3573624
40
0.1882621
50
239.6520629
51
265.9793761
0
ARC
8
DEFAULT_255_1_234
10
17.3578212
20
-0.2901573
40
0.2559272
50
265.1315437
51
270.060332
0
ARC
8
DEFAULT_255_1_234
10
17.3606991
20
-0.3225466
40
0.2235528
50
269.3314664
51
287.2178029
0
ARC
8
DEFAULT_255_1_234
10
17.3744843
20
-0.3728721
40
0.1714108
50
287.7958004
51
329.080874
0
ARC
8
DEFAULT_255_1_234
10
17.27873
20
-0.313107
40
0.2842745
50
328.6634704
51
343.3325132
0
ARC
8
DEFAULT_255_1_234
10
17.061432
20
-0.2454137
40
0.5118644
50
343.0499468
51
351.9393422
0
ARC
8
DEFAULT_255_1_234
10
16.714762
20
-0.1943051
40
0.8622784
50
351.8069023
51
357.7959224
0
ARC
8
DEFAULT_255_1_234
10
16.3912176
20
-0.1775279
40
1.1862365
50
357.5871873
51
359.2677531
0
LINE
8
DEFAULT_255_1_234
10
18.2407788
20
-0.0938974
11
18.2407788
21
-0.2151766
0
LINE
8
DEFAULT_255_1_234
10
18.2407788
20
-0.2151766
11
17.8488299
21
-0.2151766
0
LINE
8
DEFAULT_255_1_234
10
17.8488299
20
-0.2151766
11
17.8488299
21
-0.0938974
0
LINE
8
DEFAULT_255_1_234
10
17.8488299
20
-0.0938974
11
18.2407788
21
-0.0938974
0
LINE
8
DEFAULT_255_1_234
10
19.1033875
20
0.0402327
11
19.1033875
21
-0.1525291
0
LINE
8
DEFAULT_255_1_234
10
18.3652707
20
-0.1726084
11
18.3652707
21
0.0257755
0
LINE
8
DEFAULT_255_1_234
10
18.9548003
20
-0.1926877
11
18.9548003
21
0.0506739
0
LINE
8
DEFAULT_255_1_234
10
18.5138579
20
0.0619184
11
18.5138579
21
-0.1758211
0
ARC
8
DEFAULT_255_1_234
10
17.8786764
20
-0.1574195
40
1.2247208
50
353.8441951
51
0.2287902
0
ARC
8
DEFAULT_255_1_234
10
18.3426268
20
-0.2092194
40
0.7578929
50
344.4934747
51
353.9765454
0
ARC
8
DEFAULT_255_1_234
10
18.6418858
20
-0.2943019
40
0.4467846
50
329.2803592
51
344.7472793
0
ARC
8
DEFAULT_255_1_234
10
18.7411683
20
-0.3487982
40
0.3336173
50
324.9352394
51
328.6160465
0
ARC
8
DEFAULT_255_1_234
10
18.7788792
20
-0.3751573
40
0.2876076
50
280.580143
51
324.9173126
0
ARC
8
DEFAULT_255_1_234
10
18.7387584
20
-0.2080901
40
0.4592847
50
269.5977311
51
281.6734359
0
ARC
8
DEFAULT_255_1_234
10
18.731549
20
-0.2200827
40
0.4472986
50
256.6228859
51
270.51044
0
ARC
8
DEFAULT_255_1_234
10
18.6913468
20
-0.3749123
40
0.2873874
50
215.8618325
51
257.2788573
0
ARC
8
DEFAULT_255_1_234
10
18.7934499
20
-0.3064023
40
0.4102928
50
197.9693508
51
215.2623606
0
ARC
8
DEFAULT_255_1_234
10
19.0419615
20
-0.2225291
40
0.6725652
50
187.8816417
51
198.2346507
0
ARC
8
DEFAULT_255_1_234
10
19.4377823
20
-0.1653921
40
1.0724845
50
180.8976217
51
188.0055519
0
ARC
8
DEFAULT_255_1_234
10
19.7178011
20
-0.1550223
40
1.3526448
50
180.7449369
51
181.1510016
0
ARC
8
DEFAULT_255_1_234
10
19.560074
20
0.0306042
40
1.1948131
50
173.7675579
51
180.231553
0
ARC
8
DEFAULT_255_1_234
10
19.1082887
20
0.0816666
40
0.7401564
50
164.3058563
51
173.9002247
0
ARC
8
DEFAULT_255_1_234
10
18.8170956
20
0.1655656
40
0.4371288
50
148.7922025
51
164.568378
0
ARC
8
DEFAULT_255_1_234
10
18.7219408
20
0.2186929
40
0.3282386
50
144.5883898
51
148.1176286
0
ARC
8
DEFAULT_255_1_234
10
18.6876306
20
0.2426315
40
0.2864044
50
101.6440918
51
144.514236
0
ARC
8
DEFAULT_255_1_234
10
18.7301373
20
0.0737069
40
0.4604934
50
89.5284041
51
102.5819763
0
ARC
8
DEFAULT_255_1_234
10
18.738046
20
0.0698018
40
0.464401
50
77.0437873
51
90.5081339
0
ARC
8
DEFAULT_255_1_234
10
18.7782462
20
0.2340615
40
0.2953195
50
48.2778575
51
77.4994676
0
ARC
8
DEFAULT_255_1_234
10
18.7855093
20
0.2469746
40
0.2808655
50
36.3142134
51
47.6305865
0
ARC
8
DEFAULT_255_1_234
10
18.69864
20
0.1884515
40
0.3855453
50
18.2931786
51
35.6769206
0
ARC
8
DEFAULT_255_1_234
10
18.4443159
20
0.1011593
40
0.654423
50
8.024666
51
18.5605216
0
ARC
8
DEFAULT_255_1_234
10
18.0280079
20
0.0396792
40
1.0752407
50
1.1274072
51
8.1718305
0
ARC
8
DEFAULT_255_1_234
10
17.704427
20
0.0269885
40
1.3990231
50
0.5424119
51
1.3863029
0
ARC
8
DEFAULT_255_1_234
10
17.8865648
20
0.0542342
40
1.0682415
50
359.8090433
51
4.9407866
0
ARC
8
DEFAULT_255_1_234
10
18.3075662
20
0.0918113
40
0.6455691
50
4.8362157
51
12.2904523
0
ARC
8
DEFAULT_255_1_234
10
18.5830776
20
0.1531965
40
0.3633074
50
12.0805627
51
23.8173984
0
ARC
8
DEFAULT_255_1_234
10
18.7004482
20
0.2028919
40
0.2358723
50
24.2871213
51
31.3935614
0
ARC
8
DEFAULT_255_1_234
10
18.7529179
20
0.2372233
40
0.1732111
50
30.7407893
51
82.4657128
0
ARC
8
DEFAULT_255_1_234
10
18.7349313
20
0.1488691
40
0.263235
50
81.1060089
51
90.2184952
0
ARC
8
DEFAULT_255_1_234
10
18.7313612
20
0.1746924
40
0.2374236
50
89.3806855
51
105.6762551
0
ARC
8
DEFAULT_255_1_234
10
18.7130243
20
0.2413567
40
0.1682847
50
105.7981136
51
149.7388061
0
ARC
8
DEFAULT_255_1_234
10
18.8194321
20
0.177395
40
0.2924306
50
149.4208916
51
163.6286378
0
ARC
8
DEFAULT_255_1_234
10
19.0285209
20
0.113625
40
0.5110213
50
163.3763315
51
172.1410975
0
ARC
8
DEFAULT_255_1_234
10
19.3585928
20
0.0663518
40
0.8444586
50
172.0259487
51
178.0703232
0
ARC
8
DEFAULT_255_1_234
10
19.6616018
20
0.0519906
40
1.1477868
50
177.8631668
51
179.5044149
0
ARC
8
DEFAULT_255_1_234
10
19.5543422
20
-0.1794611
40
1.0404907
50
179.7995573
51
185.2460446
0
ARC
8
DEFAULT_255_1_234
10
19.1500461
20
-0.2177487
40
0.6343885
50
185.1411642
51
193.0079639
0
ARC
8
DEFAULT_255_1_234
10
18.8856934
20
-0.2802359
40
0.3627568
50
192.7897626
51
205.2507664
0
ARC
8
DEFAULT_255_1_234
10
18.7810481
20
-0.3269585
40
0.2481908
50
205.8005384
51
211.2537509
0
ARC
8
DEFAULT_255_1_234
10
18.7286921
20
-0.362042
40
0.1852521
50
210.3789793
51
238.4008143
0
ARC
8
DEFAULT_255_1_234
10
18.7267443
20
-0.3573624
40
0.1882621
50
239.6520629
51
265.9793761
0
ARC
8
DEFAULT_255_1_234
10
18.7352643
20
-0.2901573
40
0.2559272
50
265.1315437
51
270.060332
0
ARC
8
DEFAULT_255_1_234
10
18.7381422
20
-0.3225466
40
0.2235528
50
269.3314664
51
287.2178029
0
ARC
8
DEFAULT_255_1_234
10
18.7519274
20
-0.3728721
40
0.1714108
50
287.7958004
51
329.080874
0
ARC
8
DEFAULT_255_1_234
10
18.6561731
20
-0.313107
40
0.2842745
50
328.6634704
51
343.3325132
0
ARC
8
DEFAULT_255_1_234
10
18.4388751
20
-0.2454137
40
0.5118644
50
343.0499468
51
351.9393422
0
ARC
8
DEFAULT_255_1_234
10
18.0922051
20
-0.1943051
40
0.8622784
50
351.8069023
51
357.7959224
0
ARC
8
DEFAULT_255_1_234
10
17.7686607
20
-0.1775279
40
1.1862365
50
357.5871873
51
359.2677531
0
LINE
8
DEFAULT_255_1_234
10
20.0896849
20
-0.6513
11
19.9780437
21
-0.3460939
0
LINE
8
DEFAULT_255_1_234
10
19.9780437
20
-0.3460939
11
19.4881077
21
-0.3460939
0
LINE
8
DEFAULT_255_1_234
10
19.4881077
20
-0.3460939
11
19.3780729
21
-0.6513
0
LINE
8
DEFAULT_255_1_234
10
19.3780729
20
-0.6513
11
19.2190445
21
-0.6513
0
LINE
8
DEFAULT_255_1_234
10
19.2190445
20
-0.6513
11
19.6656091
21
0.5181211
0
LINE
8
DEFAULT_255_1_234
10
19.6656091
20
0.5181211
11
19.8005423
21
0.5181211
0
LINE
8
DEFAULT_255_1_234
10
19.8005423
20
0.5181211
11
20.2479102
21
-0.6513
0
LINE
8
DEFAULT_255_1_234
10
20.2479102
20
-0.6513
11
20.0896849
21
-0.6513
0
LINE
8
DEFAULT_255_1_234
10
19.7330757
20
0.3277689
11
19.5346918
21
-0.2191925
0
LINE
8
DEFAULT_255_1_234
10
19.5346918
20
-0.2191925
11
19.9322628
21
-0.2191925
0
LINE
8
DEFAULT_255_1_234
10
19.9322628
20
-0.2191925
11
19.7330757
21
0.3277689
0
LINE
8
DEFAULT_255_1_234
10
20.810935
20
-0.6513
11
20.4053322
21
-0.6513
0
LINE
8
DEFAULT_255_1_234
10
20.4053322
20
-0.6513
11
20.4053322
21
0.5181211
0
LINE
8
DEFAULT_255_1_234
10
20.4053322
20
0.5181211
11
20.787643
21
0.5181211
0
LINE
8
DEFAULT_255_1_234
10
20.8165572
20
-0.1043386
11
20.5595416
21
-0.1043386
0
LINE
8
DEFAULT_255_1_234
10
20.5595416
20
-0.1043386
11
20.5595416
21
-0.5252017
0
LINE
8
DEFAULT_255_1_234
10
20.5595416
20
-0.5252017
11
20.8141477
21
-0.5252017
0
LINE
8
DEFAULT_255_1_234
10
20.5595416
20
0.3912196
11
20.5595416
21
0.0193501
0
LINE
8
DEFAULT_255_1_234
10
20.5595416
20
0.0193501
11
20.792462
21
0.0193501
0
LINE
8
DEFAULT_255_1_234
10
20.787643
20
0.3912196
11
20.5595416
21
0.3912196
0
ARC
8
DEFAULT_255_1_234
10
20.7914138
20
-0.2186099
40
0.7367406
50
82.1257326
51
90.2932599
0
ARC
8
DEFAULT_255_1_234
10
20.8303093
20
0.0532013
40
0.4621653
50
69.9044149
51
82.2857423
0
ARC
8
DEFAULT_255_1_234
10
20.8873771
20
0.2074637
40
0.2976871
50
51.1838526
51
70.0181538
0
ARC
8
DEFAULT_255_1_234
10
20.9128737
20
0.244524
40
0.2528517
50
12.1017251
51
50.4214761
0
ARC
8
DEFAULT_255_1_234
10
20.7744611
20
0.2097676
40
0.3955061
50
359.5251267
51
12.8211707
0
ARC
8
DEFAULT_255_1_234
10
20.9324538
20
0.2028344
40
0.2375281
50
323.4908128
51
0.8817314
0
ARC
8
DEFAULT_255_1_234
10
20.8906224
20
0.235155
40
0.2903817
50
298.6825083
51
323.2756573
0
ARC
8
DEFAULT_255_1_234
10
20.8544587
20
0.2952649
40
0.3604842
50
293.1999386
51
299.1396394
0
ARC
8
DEFAULT_255_1_234
10
20.921756
20
-0.3132874
40
0.2871098
50
54.0011765
51
74.9167975
0
ARC
8
DEFAULT_255_1_234
10
20.933392
20
-0.2935668
40
0.2643248
50
36.3580696
51
53.5291921
0
ARC
8
DEFAULT_255_1_234
10
20.9207162
20
-0.3026002
40
0.2798884
50
4.8189881
51
36.3089977
0
ARC
8
DEFAULT_255_1_234
10
20.8427997
20
-0.313573
40
0.358478
50
359.9370252
51
5.5204067
0
ARC
8
DEFAULT_255_1_234
10
20.8103518
20
-0.3176333
40
0.3909429
50
344.7478609
51
0.5373281
0
ARC
8
DEFAULT_255_1_234
10
20.909449
20
-0.3443456
40
0.2883093
50
311.1786488
51
344.6886812
0
ARC
8
DEFAULT_255_1_234
10
20.8802537
20
-0.3080013
40
0.3348923
50
286.0418249
51
310.8441291
0
ARC
8
DEFAULT_255_1_234
10
20.8295369
20
-0.1433193
40
0.5071869
50
274.1042341
51
286.4071509
0
ARC
8
DEFAULT_255_1_234
10
20.8118624
20
0.0450229
40
0.6963234
50
269.9236873
51
274.445647
0
ARC
8
DEFAULT_255_1_234
10
20.8164625
20
-0.1889463
40
0.3362634
50
269.6055768
51
281.3740047
0
ARC
8
DEFAULT_255_1_234
10
20.8395263
20
-0.2982647
40
0.224546
50
281.1055983
51
302.5132223
0
ARC
8
DEFAULT_255_1_234
10
20.8542163
20
-0.3246177
40
0.1944357
50
303.0368945
51
311.8811219
0
ARC
8
DEFAULT_255_1_234
10
20.8613569
20
-0.333111
40
0.1833454
50
311.9916004
51
351.7143462
0
ARC
8
DEFAULT_255_1_234
10
20.7796799
20
-0.316607
40
0.2665871
50
350.7339597
51
0.2221581
0
ARC
8
DEFAULT_255_1_234
10
20.7689245
20
-0.3109533
40
0.2773789
50
359.0456241
51
17.2296242
0
ARC
8
DEFAULT_255_1_234
10
20.8728362
20
-0.2800837
40
0.1689915
50
17.6685481
51
78.9940892
0
ARC
8
DEFAULT_255_1_234
10
20.8211526
20
-0.4655776
40
0.3612658
50
76.5635957
51
90.6980921
0
LINE
8
DEFAULT_255_1_234
10
20.8167511
20
-0.1043387
11
20.8165572
21
-0.1043386
0
ARC
8
DEFAULT_255_1_234
10
20.7947187
20
0.3479036
40
0.3285612
50
269.6064736
51
281.4533503
0
ARC
8
DEFAULT_255_1_234
10
20.8170006
20
0.2427688
40
0.2210975
50
281.2041486
51
302.5148063
0
ARC
8
DEFAULT_255_1_234
10
20.8306856
20
0.2181241
40
0.1929674
50
303.021671
51
309.8369575
0
ARC
8
DEFAULT_255_1_234
10
20.8490318
20
0.1975488
40
0.1654181
50
309.5228395
51
356.9509836
0
ARC
8
DEFAULT_255_1_234
10
20.78269
20
0.2070932
40
0.2322512
50
355.4701227
51
0.0492546
0
ARC
8
DEFAULT_255_1_234
10
20.7547991
20
0.2093094
40
0.2601498
50
359.5558597
51
11.2096359
0
ARC
8
DEFAULT_255_1_234
10
20.8505281
20
0.229123
40
0.1623975
50
10.9182341
51
31.3230275
0
ARC
8
DEFAULT_255_1_234
10
20.8791015
20
0.2450214
40
0.1297302
50
31.8852677
51
52.1412565
0
ARC
8
DEFAULT_255_1_234
10
20.8516747
20
0.206275
40
0.1771663
50
52.8285564
51
71.9850297
0
ARC
8
DEFAULT_255_1_234
10
20.8140924
20
0.0956664
40
0.2939794
50
71.6863486
51
82.8455995
0
ARC
8
DEFAULT_255_1_234
10
20.790146
20
-0.0852851
40
0.476506
50
82.6984714
51
90.1729175
0
ARC
8
DEFAULT_255_1_234
10
20.7879095
20
0.0370623
40
0.3541573
50
89.8708275
51
90.0431131
0
LINE
8
DEFAULT_255_1_234
10
22.1241242
20
0.0402327
11
22.1241242
21
-0.1525291
0
LINE
8
DEFAULT_255_1_234
10
21.3860075
20
-0.1726084
11
21.3860075
21
0.0257755
0
LINE
8
DEFAULT_255_1_234
10
21.9755371
20
-0.1926877
11
21.9755371
21
0.0506739
0
LINE
8
DEFAULT_255_1_234
10
21.5345946
20
0.0619184
11
21.5345946
21
-0.1758211
0
ARC
8
DEFAULT_255_1_234
10
20.8994132
20
-0.1574195
40
1.2247208
50
353.8441951
51
0.2287902
0
ARC
8
DEFAULT_255_1_234
10
21.3633635
20
-0.2092194
40
0.7578929
50
344.4934747
51
353.9765454
0
ARC
8
DEFAULT_255_1_234
10
21.6626226
20
-0.2943019
40
0.4467846
50
329.2803592
51
344.7472793
0
ARC
8
DEFAULT_255_1_234
10
21.761905
20
-0.3487982
40
0.3336173
50
324.9352394
51
328.6160465
0
ARC
8
DEFAULT_255_1_234
10
21.7996159
20
-0.3751573
40
0.2876076
50
280.580143
51
324.9173126
0
ARC
8
DEFAULT_255_1_234
10
21.7594952
20
-0.2080901
40
0.4592847
50
269.5977311
51
281.6734359
0
ARC
8
DEFAULT_255_1_234
10
21.7522857
20
-0.2200827
40
0.4472986
50
256.6228859
51
270.51044
0
ARC
8
DEFAULT_255_1_234
10
21.7120835
20
-0.3749123
40
0.2873874
50
215.8618325
51
257.2788573
0
ARC
8
DEFAULT_255_1_234
10
21.8141867
20
-0.3064023
40
0.4102928
50
197.9693508
51
215.2623606
0
ARC
8
DEFAULT_255_1_234
10
22.0626982
20
-0.2225291
40
0.6725652
50
187.8816417
51
198.2346507
0
ARC
8
DEFAULT_255_1_234
10
22.4585191
20
-0.1653921
40
1.0724845
50
180.8976217
51
188.0055519
0
ARC
8
DEFAULT_255_1_234
10
22.7385379
20
-0.1550223
40
1.3526448
50
180.7449369
51
181.1510016
0
ARC
8
DEFAULT_255_1_234
10
22.5808108
20
0.0306042
40
1.1948131
50
173.7675579
51
180.231553
0
ARC
8
DEFAULT_255_1_234
10
22.1290254
20
0.0816666
40
0.7401564
50
164.3058563
51
173.9002247
0
ARC
8
DEFAULT_255_1_234
10
21.8378323
20
0.1655656
40
0.4371288
50
148.7922025
51
164.568378
0
ARC
8
DEFAULT_255_1_234
10
21.7426776
20
0.2186929
40
0.3282386
50
144.5883898
51
148.1176286
0
ARC
8
DEFAULT_255_1_234
10
21.7083673
20
0.2426315
40
0.2864044
50
101.6440918
51
144.514236
0
ARC
8
DEFAULT_255_1_234
10
21.750874
20
0.0737069
40
0.4604934
50
89.5284041
51
102.5819763
0
ARC
8
DEFAULT_255_1_234
10
21.7587828
20
0.0698018
40
0.464401
50
77.0437873
51
90.5081339
0
ARC
8
DEFAULT_255_1_234
10
21.798983
20
0.2340615
40
0.2953195
50
48.2778575
51
77.4994676
0
ARC
8
DEFAULT_255_1_234
10
21.8062461
20
0.2469746
40
0.2808655
50
36.3142134
51
47.6305865
0
ARC
8
DEFAULT_255_1_234
10
21.7193768
20
0.1884515
40
0.3855453
50
18.2931786
51
35.6769206
0
ARC
8
DEFAULT_255_1_234
10
21.4650527
20
0.1011593
40
0.654423
50
8.024666
51
18.5605216
0
ARC
8
DEFAULT_255_1_234
10
21.0487447
20
0.0396792
40
1.0752407
50
1.1274072
51
8.1718305
0
ARC
8
DEFAULT_255_1_234
10
20.7251637
20
0.0269885
40
1.3990231
50
0.5424119
51
1.3863029
0
ARC
8
DEFAULT_255_1_234
10
20.9073015
20
0.0542342
40
1.0682415
50
359.8090433
51
4.9407866
0
ARC
8
DEFAULT_255_1_234
10
21.3283029
20
0.0918113
40
0.6455691
50
4.8362157
51
12.2904523
0
ARC
8
DEFAULT_255_1_234
10
21.6038144
20
0.1531965
40
0.3633074
50
12.0805627
51
23.8173984
0
ARC
8
DEFAULT_255_1_234
10
21.7211849
20
0.2028919
40
0.2358723
50
24.2871213
51
31.3935614
0
ARC
8
DEFAULT_255_1_234
10
21.7736547
20
0.2372233
40
0.1732111
50
30.7407893
51
82.4657128
0
ARC
8
DEFAULT_255_1_234
10
21.7556681
20
0.1488691
40
0.263235
50
81.1060089
51
90.2184952
0
ARC
8
DEFAULT_255_1_234
10
21.752098
20
0.1746924
40
0.2374236
50
89.3806855
51
105.6762551
0
ARC
8
DEFAULT_255_1_234
10
21.733761
20
0.2413567
40
0.1682847
50
105.7981136
51
149.7388061
0
ARC
8
DEFAULT_255_1_234
10
21.8401689
20
0.177395
40
0.2924306
50
149.4208916
51
163.6286378
0
ARC
8
DEFAULT_255_1_234
10
22.0492577
20
0.113625
40
0.5110213
50
163.3763315
51
172.1410975
0
ARC
8
DEFAULT_255_1_234
10
22.3793296
20
0.0663518
40
0.8444586
50
172.0259487
51
178.0703232
0
ARC
8
DEFAULT_255_1_234
10
22.6823385
20
0.0519906
40
1.1477868
50
177.8631668
51
179.5044149
0
ARC
8
DEFAULT_255_1_234
10
22.575079
20
-0.1794611
40
1.0404907
50
179.7995573
51
185.2460446
0
ARC
8
DEFAULT_255_1_234
10
22.1707829
20
-0.2177487
40
0.6343885
50
185.1411642
51
193.0079639
0
ARC
8
DEFAULT_255_1_234
10
21.9064301
20
-0.2802359
40
0.3627568
50
192.7897626
51
205.2507664
0
ARC
8
DEFAULT_255_1_234
10
21.8017849
20
-0.3269585
40
0.2481908
50
205.8005384
51
211.2537509
0
ARC
8
DEFAULT_255_1_234
10
21.7494289
20
-0.362042
40
0.1852521
50
210.3789793
51
238.4008143
0
ARC
8
DEFAULT_255_1_234
10
21.7474811
20
-0.3573624
40
0.1882621
50
239.6520629
51
265.9793761
0
ARC
8
DEFAULT_255_1_234
10
21.7560011
20
-0.2901573
40
0.2559272
50
265.1315437
51
270.060332
0
ARC
8
DEFAULT_255_1_234
10
21.758879
20
-0.3225466
40
0.2235528
50
269.3314664
51
287.2178029
0
ARC
8
DEFAULT_255_1_234
10
21.7726642
20
-0.3728721
40
0.1714108
50
287.7958004
51
329.080874
0
ARC
8
DEFAULT_255_1_234
10
21.6769099
20
-0.313107
40
0.2842745
50
328.6634704
51
343.3325132
0
ARC
8
DEFAULT_255_1_234
10
21.4596119
20
-0.2454137
40
0.5118644
50
343.0499468
51
351.9393422
0
ARC
8
DEFAULT_255_1_234
10
21.1129419
20
-0.1943051
40
0.8622784
50
351.8069023
51
357.7959224
0
ARC
8
DEFAULT_255_1_234
10
20.7893975
20
-0.1775279
40
1.1862365
50
357.5871873
51
359.2677531
0
LINE
8
DEFAULT_255_1_234
10
9.1330023
20
134.4559849
11
8.9779897
21
134.4559849
0
LINE
8
DEFAULT_255_1_234
10
8.2856539
20
133.9636394
11
8.4406665
21
133.9636394
0
ARC
8
DEFAULT_255_1_234
10
9.043871
20
135.3506768
40
1.252368
50
248.9199003
51
254.1439814
0
ARC
8
DEFAULT_255_1_234
10
8.8758205
20
134.9180234
40
0.788226
50
241.633709
51
249.0064503
0
ARC
8
DEFAULT_255_1_234
10
8.72296
20
134.6379317
40
0.4691427
50
230.498225
51
241.8087113
0
ARC
8
DEFAULT_255_1_234
10
8.6445174
20
134.5379906
40
0.3421437
50
227.4064532
51
229.9881192
0
ARC
8
DEFAULT_255_1_234
10
8.5957694
20
134.4904088
40
0.2741476
50
200.6781896
51
228.1763934
0
ARC
8
DEFAULT_255_1_234
10
8.6030005
20
134.4889077
40
0.2804109
50
179.5061581
51
199.8694617
0
ARC
8
DEFAULT_255_1_234
10
8.6020757
20
134.496321
40
0.2795204
50
132.4834203
51
181.0242172
0
ARC
8
DEFAULT_255_1_234
10
8.6616339
20
134.4400704
40
0.3612768
50
129.2532479
51
133.4242687
0
ARC
8
DEFAULT_255_1_234
10
8.6762789
20
134.4180965
40
0.3875675
50
101.98776
51
128.8742646
0
ARC
8
DEFAULT_255_1_234
10
8.7161399
20
134.2459741
40
0.5642249
50
89.5906553
51
102.3169264
0
ARC
8
DEFAULT_255_1_234
10
8.7231891
20
134.2778148
40
0.5323783
50
77.2360837
51
90.3248275
0
ARC
8
DEFAULT_255_1_234
10
8.7438971
20
134.37454
40
0.4334697
50
63.837784
51
77.0809408
0
ARC
8
DEFAULT_255_1_234
10
8.7716732
20
134.4262911
40
0.3747796
50
45.9864267
51
64.1607727
0
ARC
8
DEFAULT_255_1_234
10
8.7977614
20
134.4560866
40
0.3352302
50
32.2747395
51
45.6547121
0
ARC
8
DEFAULT_255_1_234
10
8.8044054
20
134.457988
40
0.328603
50
359.6507365
51
32.6130309
0
ARC
8
DEFAULT_255_1_234
10
8.710115
20
134.458466
40
0.2678863
50
359.469343
51
14.9832209
0
ARC
8
DEFAULT_255_1_234
10
8.7806212
20
134.4773539
40
0.1948938
50
14.9781179
51
48.2004265
0
ARC
8
DEFAULT_255_1_234
10
8.7641856
20
134.4566983
40
0.2212521
50
48.5927837
51
74.1241538
0
ARC
8
DEFAULT_255_1_234
10
8.7308346
20
134.3466248
40
0.3362561
50
73.7888341
51
86.6652678
0
ARC
8
DEFAULT_255_1_234
10
8.7205911
20
134.2258881
40
0.4573953
50
86.2640471
51
90.0526343
0
ARC
8
DEFAULT_255_1_234
10
8.7177624
20
134.2654192
40
0.4178709
50
89.6697524
51
99.2309573
0
ARC
8
DEFAULT_255_1_234
10
8.6935075
20
134.4098964
40
0.2713749
50
99.069534
51
113.7658566
0
ARC
8
DEFAULT_255_1_234
10
8.6661266
20
134.4744677
40
0.2012469
50
114.0401004
51
127.9850673
0
ARC
8
DEFAULT_255_1_234
10
8.642083
20
134.504073
40
0.1631167
50
127.7287463
51
176.7105154
0
ARC
8
DEFAULT_255_1_234
10
8.7099547
20
134.4939693
40
0.2315392
50
175.1779447
51
180.0581938
0
ARC
8
DEFAULT_255_1_234
10
8.6256394
20
134.4927428
40
0.1472271
50
179.6142195
51
228.1246017
0
ARC
8
DEFAULT_255_1_234
10
8.6698063
20
134.5336308
40
0.2072299
50
226.5779593
51
230.8800004
0
ARC
8
DEFAULT_255_1_234
10
8.7169141
20
134.5961636
40
0.2854818
50
231.4635071
51
241.9260842
0
ARC
8
DEFAULT_255_1_234
10
8.8366319
20
134.81648
40
0.53622
50
241.7178533
51
248.3259551
0
ARC
8
DEFAULT_255_1_234
10
8.9751691
20
135.1597064
40
0.9063478
50
248.2007737
51
252.4528373
0
ARC
8
DEFAULT_255_1_234
10
9.0955416
20
135.5318441
40
1.2974635
50
252.3391078
51
254.3469452
0
ARC
8
DEFAULT_255_1_234
10
8.3413119
20
132.8341148
40
1.5037162
50
71.0197183
51
74.4087047
0
ARC
8
DEFAULT_255_1_234
10
8.5107804
20
133.3233111
40
0.9859993
50
66.1847285
51
71.086374
0
ARC
8
DEFAULT_255_1_234
10
8.6664116
20
133.67372
40
0.6025855
50
59.3536294
51
66.2691831
0
ARC
8
DEFAULT_255_1_234
10
8.7552769
20
133.8240609
40
0.4279449
50
49.1020879
51
59.3293958
0
ARC
8
DEFAULT_255_1_234
10
8.8371509
20
133.9173834
40
0.3038015
50
32.7919921
51
49.2505539
0
ARC
8
DEFAULT_255_1_234
10
8.8692599
20
133.9402191
40
0.264448
50
31.1181161
51
32.4005348
0
ARC
8
DEFAULT_255_1_234
10
8.8604136
20
133.9366779
40
0.2738556
50
8.1116974
51
30.7958831
0
ARC
8
DEFAULT_255_1_234
10
8.7793804
20
133.9228753
40
0.3560327
50
359.8389159
51
8.4706516
0
ARC
8
DEFAULT_255_1_234
10
8.8419596
20
133.9180137
40
0.2934776
50
337.4731098
51
0.7537279
0
ARC
8
DEFAULT_255_1_234
10
8.8598291
20
133.9160387
40
0.2762607
50
307.5917067
51
336.4315538
0
ARC
8
DEFAULT_255_1_234
10
8.8138119
20
133.9673102
40
0.3449979
50
307.6551545
51
308.4529766
0
ARC
8
DEFAULT_255_1_234
10
8.7907838
20
134.002825
40
0.3871988
50
284.3734338
51
307.1424381
0
ARC
8
DEFAULT_255_1_234
10
8.7412668
20
134.1849932
40
0.5759636
50
272.4382747
51
284.646547
0
ARC
8
DEFAULT_255_1_234
10
8.7285876
20
134.3649893
40
0.7563528
50
269.9708387
51
272.8178037
0
ARC
8
DEFAULT_255_1_234
10
8.7242916
20
134.1611716
40
0.5525489
50
248.2707594
51
270.4055579
0
ARC
8
DEFAULT_255_1_234
10
8.7188657
20
134.1421192
40
0.5328452
50
246.1383403
51
248.0542782
0
ARC
8
DEFAULT_255_1_234
10
8.6770036
20
134.0541843
40
0.4355005
50
233.1670131
51
246.4950969
0
ARC
8
DEFAULT_255_1_234
10
8.6215941
20
133.9793812
40
0.3424126
50
215.3403242
51
233.0843104
0
ARC
8
DEFAULT_255_1_234
10
8.5943372
20
133.9595549
40
0.3087104
50
179.2419209
51
215.2648451
0
ARC
8
DEFAULT_255_1_234
10
8.6710966
20
133.9609666
40
0.2304457
50
179.335461
51
199.1045811
0
ARC
8
DEFAULT_255_1_234
10
8.6378643
20
133.9522766
40
0.1962176
50
199.8828939
51
232.7063202
0
ARC
8
DEFAULT_255_1_234
10
8.6850911
20
134.0116788
40
0.2720938
50
232.3738199
51
255.5136649
0
ARC
8
DEFAULT_255_1_234
10
8.7191778
20
134.1360835
40
0.4010747
50
255.2446292
51
267.5320849
0
ARC
8
DEFAULT_255_1_234
10
8.7279401
20
134.2593702
40
0.5246356
50
267.1557994
51
270.0286766
0
ARC
8
DEFAULT_255_1_234
10
8.7307173
20
134.214995
40
0.4802668
50
269.7000017
51
278.1660162
0
ARC
8
DEFAULT_255_1_234
10
8.7563178
20
134.0419515
40
0.3053425
50
278.0231263
51
290.625471
0
ARC
8
DEFAULT_255_1_234
10
8.7910865
20
133.9492025
40
0.206291
50
290.6619762
51
307.0370976
0
ARC
8
DEFAULT_255_1_234
10
8.8211254
20
133.9123504
40
0.1587906
50
306.3943566
51
355.3030547
0
ARC
8
DEFAULT_255_1_234
10
8.7699186
20
133.9200113
40
0.2104809
50
354.3660432
51
0.0698737
0
ARC
8
DEFAULT_255_1_234
10
8.7841531
20
133.9222617
40
0.1962563
50
359.417946
51
16.1971788
0
ARC
8
DEFAULT_255_1_234
10
8.8296841
20
133.9347418
40
0.149053
50
16.4723299
51
52.6262157
0
ARC
8
DEFAULT_255_1_234
10
8.7475895
20
133.8263433
40
0.2850296
50
52.7386432
51
62.4979148
0
ARC
8
DEFAULT_255_1_234
10
8.6090972
20
133.5657283
40
0.5801521
50
62.2515216
51
68.1220564
0
ARC
8
DEFAULT_255_1_234
10
8.4370883
20
133.1429872
40
1.0365451
50
68.0062803
51
71.8053402
0
ARC
8
DEFAULT_255_1_234
10
8.2575255
20
132.6044758
40
1.6042013
50
71.7183119
51
73.9258742
0
LINE
8
DEFAULT_255_1_234
10
9.4984464
20
134.7941211
11
9.4984464
21
133.6247
0
LINE
8
DEFAULT_255_1_234
10
9.4984464
20
133.6247
11
9.344237
21
133.6247
0
LINE
8
DEFAULT_255_1_234
10
9.344237
20
133.6247
11
9.344237
21
134.7941211
0
LINE
8
DEFAULT_255_1_234
10
9.344237
20
134.7941211
11
9.4984464
21
134.7941211
0
LINE
8
DEFAULT_255_1_234
10
9.7803604
20
134.7941211
11
9.9795475
21
134.7941211
0
LINE
8
DEFAULT_255_1_234
10
9.9795475
20
134.7941211
11
10.3618583
21
133.8399506
0
LINE
8
DEFAULT_255_1_234
10
10.3618583
20
133.8399506
11
10.744169
21
134.7941211
0
LINE
8
DEFAULT_255_1_234
10
10.744169
20
134.7941211
11
10.9441593
21
134.7941211
0
LINE
8
DEFAULT_255_1_234
10
10.9441593
20
134.7941211
11
10.9441593
21
133.6247
0
LINE
8
DEFAULT_255_1_234
10
10.9441593
20
133.6247
11
10.7899499
21
133.6247
0
LINE
8
DEFAULT_255_1_234
10
10.7899499
20
133.6247
11
10.7899499
21
134.0800996
0
LINE
8
DEFAULT_255_1_234
10
10.7899499
20
134.0800996
11
10.804407
21
134.5716419
0
LINE
8
DEFAULT_255_1_234
10
10.804407
20
134.5716419
11
10.4204899
21
133.6247
0
LINE
8
DEFAULT_255_1_234
10
10.4204899
20
133.6247
11
10.3024234
21
133.6247
0
LINE
8
DEFAULT_255_1_234
10
10.3024234
20
133.6247
11
9.9193095
21
134.5692324
0
LINE
8
DEFAULT_255_1_234
10
9.9193095
20
134.5692324
11
9.9345698
21
134.0800996
0
LINE
8
DEFAULT_255_1_234
10
9.9345698
20
134.0800996
11
9.9345698
21
133.6247
0
LINE
8
DEFAULT_255_1_234
10
9.9345698
20
133.6247
11
9.7803604
21
133.6247
0
LINE
8
DEFAULT_255_1_234
10
9.7803604
20
133.6247
11
9.7803604
21
134.7941211
0
LINE
8
DEFAULT_255_1_234
10
11.9882853
20
133.6247
11
11.8766441
21
133.9299061
0
LINE
8
DEFAULT_255_1_234
10
11.8766441
20
133.9299061
11
11.3867081
21
133.9299061
0
LINE
8
DEFAULT_255_1_234
10
11.3867081
20
133.9299061
11
11.2766732
21
133.6247
0
LINE
8
DEFAULT_255_1_234
10
11.2766732
20
133.6247
11
11.1176448
21
133.6247
0
LINE
8
DEFAULT_255_1_234
10
11.1176448
20
133.6247
11
11.5642095
21
134.7941211
0
LINE
8
DEFAULT_255_1_234
10
11.5642095
20
134.7941211
11
11.6991427
21
134.7941211
0
LINE
8
DEFAULT_255_1_234
10
11.6991427
20
134.7941211
11
12.1465105
21
133.6247
0
LINE
8
DEFAULT_255_1_234
10
12.1465105
20
133.6247
11
11.9882853
21
133.6247
0
LINE
8
DEFAULT_255_1_234
10
11.6316761
20
134.6037689
11
11.4332921
21
134.0568075
0
LINE
8
DEFAULT_255_1_234
10
11.4332921
20
134.0568075
11
11.8308632
21
134.0568075
0
LINE
8
DEFAULT_255_1_234
10
11.8308632
20
134.0568075
11
11.6316761
21
134.6037689
0
LINE
8
DEFAULT_255_1_234
10
13.008316
20
134.7941211
11
13.008316
21
134.6672196
0
LINE
8
DEFAULT_255_1_234
10
13.008316
20
134.6672196
11
12.6324307
21
134.6672196
0
LINE
8
DEFAULT_255_1_234
10
12.6324307
20
134.6672196
11
12.6324307
21
133.6247
0
LINE
8
DEFAULT_255_1_234
10
12.6324307
20
133.6247
11
12.4790245
21
133.6247
0
LINE
8
DEFAULT_255_1_234
10
12.4790245
20
133.6247
11
12.4790245
21
134.6672196
0
LINE
8
DEFAULT_255_1_234
10
12.4790245
20
134.6672196
11
12.1039423
21
134.6672196
0
LINE
8
DEFAULT_255_1_234
10
12.1039423
20
134.6672196
11
12.1039423
21
134.7941211
0
LINE
8
DEFAULT_255_1_234
10
12.1039423
20
134.7941211
11
13.008316
21
134.7941211
0
LINE
8
DEFAULT_255_1_234
10
13.3472554
20
134.7941211
11
13.3472554
21
133.6247
0
LINE
8
DEFAULT_255_1_234
10
13.3472554
20
133.6247
11
13.193046
21
133.6247
0
LINE
8
DEFAULT_255_1_234
10
13.193046
20
133.6247
11
13.193046
21
134.7941211
0
LINE
8
DEFAULT_255_1_234
10
13.193046
20
134.7941211
11
13.3472554
21
134.7941211
0
LINE
8
DEFAULT_255_1_234
10
14.334356
20
133.9957663
11
14.4893686
21
133.9957663
0
LINE
8
DEFAULT_255_1_234
10
13.5890107
20
134.1547947
11
13.5890107
21
134.2672391
0
LINE
8
DEFAULT_255_1_234
10
14.4893686
20
134.4182357
11
14.334356
21
134.4182357
0
LINE
8
DEFAULT_255_1_234
10
13.7440232
20
134.2632232
11
13.7440232
21
134.1499757
0
ARC
8
DEFAULT_255_1_234
10
13.9413072
20
134.0554846
40
0.5513052
50
340.1774281
51
353.7814284
0
ARC
8
DEFAULT_255_1_234
10
14.0984425
20
133.9969582
40
0.3836379
50
311.4558989
51
340.4421614
0
ARC
8
DEFAULT_255_1_234
10
14.0951093
20
134.0080528
40
0.3941894
50
282.4333181
51
310.7513653
0
ARC
8
DEFAULT_255_1_234
10
14.0511832
20
134.1895679
40
0.5809175
50
269.9358511
51
282.809604
0
ARC
8
DEFAULT_255_1_234
10
14.0459899
20
134.3353212
40
0.7266847
50
270.0021091
51
270.3581957
0
ARC
8
DEFAULT_255_1_234
10
14.0407315
20
134.0752585
40
0.4666519
50
250.7884749
51
270.6489167
0
ARC
8
DEFAULT_255_1_234
10
14.023915
20
134.0115319
40
0.4009729
50
219.3627325
51
250.0611886
0
ARC
8
DEFAULT_255_1_234
10
14.1068361
20
134.0820042
40
0.5097822
50
193.5479632
51
219.5756669
0
ARC
8
DEFAULT_255_1_234
10
14.3439982
20
134.1435919
40
0.7547848
50
181.1218675
51
193.87563
0
ARC
8
DEFAULT_255_1_234
10
14.5510163
20
134.154658
40
0.9620055
50
179.9918545
51
181.5394234
0
ARC
8
DEFAULT_255_1_234
10
14.3659265
20
134.2709788
40
0.7769248
50
169.5837241
51
180.2757934
0
ARC
8
DEFAULT_255_1_234
10
14.1822203
20
134.3049229
40
0.590109
50
155.0365899
51
169.6003176
0
ARC
8
DEFAULT_255_1_234
10
14.0686667
20
134.3596677
40
0.4640625
50
136.783148
51
155.2472683
0
ARC
8
DEFAULT_255_1_234
10
14.0297144
20
134.3927562
40
0.4130255
50
121.7633186
51
136.428115
0
ARC
8
DEFAULT_255_1_234
10
14.0432106
20
134.3678227
40
0.4413323
50
95.6459699
51
121.5490577
0
ARC
8
DEFAULT_255_1_234
10
14.0589388
20
134.2569949
40
0.55319
50
89.924208
51
96.1377933
0
ARC
8
DEFAULT_255_1_234
10
14.0639821
20
134.2688542
40
0.5413475
50
76.6779277
51
90.4563316
0
ARC
8
DEFAULT_255_1_234
10
14.1033444
20
134.4279114
40
0.3775041
50
47.485847
51
76.9287264
0
ARC
8
DEFAULT_255_1_234
10
14.0886417
20
134.4179159
40
0.3948286
50
16.5424086
51
46.8933463
0
ARC
8
DEFAULT_255_1_234
10
13.9278574
20
134.3650861
40
0.564021
50
5.4072051
51
17.0365086
0
ARC
8
DEFAULT_255_1_234
10
13.7839591
20
134.3419679
40
0.5556559
50
7.8891745
51
15.9239216
0
ARC
8
DEFAULT_255_1_234
10
13.9826605
20
134.3996631
40
0.3487515
50
15.7653144
51
27.9410532
0
ARC
8
DEFAULT_255_1_234
10
14.0930822
20
134.458779
40
0.2235026
50
27.8166557
51
46.4008329
0
ARC
8
DEFAULT_255_1_234
10
14.0980465
20
134.4582082
40
0.2205286
50
47.4371857
51
75.0698205
0
ARC
8
DEFAULT_255_1_234
10
14.067186
20
134.3507765
40
0.3322915
50
74.7008593
51
87.8124495
0
ARC
8
DEFAULT_255_1_234
10
14.0598547
20
134.2451844
40
0.4380987
50
87.3814673
51
90.0240855
0
ARC
8
DEFAULT_255_1_234
10
14.0560091
20
134.3629291
40
0.3203749
50
89.3451631
51
108.5745436
0
ARC
8
DEFAULT_255_1_234
10
14.0423196
20
134.4142908
40
0.2673494
50
109.2998449
51
143.3037509
0
ARC
8
DEFAULT_255_1_234
10
14.1185268
20
134.3556881
40
0.3634757
50
143.0753173
51
163.1916937
0
ARC
8
DEFAULT_255_1_234
10
14.3136996
20
134.2940967
40
0.5681262
50
162.9373603
51
174.6208611
0
ARC
8
DEFAULT_255_1_234
10
14.5763038
20
134.265301
40
0.8322832
50
174.3419979
51
180.1430411
0
ARC
8
DEFAULT_255_1_234
10
14.4832194
20
134.1458698
40
0.7392076
50
179.6817502
51
189.150529
0
ARC
8
DEFAULT_255_1_234
10
14.2331443
20
134.104219
40
0.4856932
50
188.9910863
51
203.5773039
0
ARC
8
DEFAULT_255_1_234
10
14.1251775
20
134.0594211
40
0.3688271
50
203.9077269
51
215.1312379
0
ARC
8
DEFAULT_255_1_234
10
14.0328869
20
133.9878941
40
0.2522457
50
213.9071664
51
263.8849284
0
ARC
8
DEFAULT_255_1_234
10
14.0454198
20
134.0663518
40
0.3316174
50
263.1758525
51
270.1031083
0
ARC
8
DEFAULT_255_1_234
10
14.048629
20
134.1910365
40
0.4563091
50
269.6719807
51
279.0609165
0
ARC
8
DEFAULT_255_1_234
10
14.0753058
20
134.0297907
40
0.2928759
50
278.8750225
51
293.6346586
0
ARC
8
DEFAULT_255_1_234
10
14.1073266
20
133.95459
40
0.2111472
50
293.8553404
51
310.0518804
0
ARC
8
DEFAULT_255_1_234
10
14.107812
20
133.9483516
40
0.2060917
50
311.0646779
51
332.0108348
0
ARC
8
DEFAULT_255_1_234
10
13.9885847
20
134.0140978
40
0.3422352
50
331.6588543
51
343.2878891
0
ARC
8
DEFAULT_255_1_234
10
13.7823362
20
134.0774798
40
0.5580003
50
343.1446044
51
351.010618
0
ARC
8
DEFAULT_255_1_234
10
13.6282008
20
134.1055871
40
0.7146438
50
350.7157277
51
351.1602153
0
LINE
8
DEFAULT_255_1_234
10
15.8828751
20
134.4559849
11
15.7278626
21
134.4559849
0
LINE
8
DEFAULT_255_1_234
10
15.0355268
20
133.9636394
11
15.1905393
21
133.9636394
0
ARC
8
DEFAULT_255_1_234
10
15.7937439
20
135.3506768
40
1.252368
50
248.9199003
51
254.1439814
0
ARC
8
DEFAULT_255_1_234
10
15.6256934
20
134.9180234
40
0.788226
50
241.633709
51
249.0064503
0
ARC
8
DEFAULT_255_1_234
10
15.4728328
20
134.6379317
40
0.4691427
50
230.498225
51
241.8087113
0
ARC
8
DEFAULT_255_1_234
10
15.3943902
20
134.5379906
40
0.3421437
50
227.4064532
51
229.9881192
0
ARC
8
DEFAULT_255_1_234
10
15.3456423
20
134.4904088
40
0.2741476
50
200.6781896
51
228.1763934
0
ARC
8
DEFAULT_255_1_234
10
15.3528734
20
134.4889077
40
0.2804109
50
179.5061581
51
199.8694617
0
ARC
8
DEFAULT_255_1_234
10
15.3519485
20
134.496321
40
0.2795204
50
132.4834203
51
181.0242172
0
ARC
8
DEFAULT_255_1_234
10
15.4115068
20
134.4400704
40
0.3612768
50
129.2532479
51
133.4242687
0
ARC
8
DEFAULT_255_1_234
10
15.4261517
20
134.4180965
40
0.3875675
50
101.98776
51
128.8742646
0
ARC
8
DEFAULT_255_1_234
10
15.4660128
20
134.2459741
40
0.5642249
50
89.5906553
51
102.3169264
0
ARC
8
DEFAULT_255_1_234
10
15.473062
20
134.2778148
40
0.5323783
50
77.2360837
51
90.3248275
0
ARC
8
DEFAULT_255_1_234
10
15.4937699
20
134.37454
40
0.4334697
50
63.837784
51
77.0809408
0
ARC
8
DEFAULT_255_1_234
10
15.5215461
20
134.4262911
40
0.3747796
50
45.9864267
51
64.1607727
0
ARC
8
DEFAULT_255_1_234
10
15.5476342
20
134.4560866
40
0.3352302
50
32.2747395
51
45.6547121
0
ARC
8
DEFAULT_255_1_234
10
15.5542783
20
134.457988
40
0.328603
50
359.6507365
51
32.6130309
0
ARC
8
DEFAULT_255_1_234
10
15.4599878
20
134.458466
40
0.2678863
50
359.469343
51
14.9832209
0
ARC
8
DEFAULT_255_1_234
10
15.5304941
20
134.4773539
40
0.1948938
50
14.9781179
51
48.2004265
0
ARC
8
DEFAULT_255_1_234
10
15.5140585
20
134.4566983
40
0.2212521
50
48.5927837
51
74.1241538
0
ARC
8
DEFAULT_255_1_234
10
15.4807074
20
134.3466248
40
0.3362561
50
73.7888341
51
86.6652678
0
ARC
8
DEFAULT_255_1_234
10
15.470464
20
134.2258881
40
0.4573953
50
86.2640471
51
90.0526343
0
ARC
8
DEFAULT_255_1_234
10
15.4676352
20
134.2654192
40
0.4178709
50
89.6697524
51
99.2309573
0
ARC
8
DEFAULT_255_1_234
10
15.4433803
20
134.4098964
40
0.2713749
50
99.069534
51
113.7658566
0
ARC
8
DEFAULT_255_1_234
10
15.4159994
20
134.4744677
40
0.2012469
50
114.0401004
51
127.9850673
0
ARC
8
DEFAULT_255_1_234
10
15.3919558
20
134.504073
40
0.1631167
50
127.7287463
51
176.7105154
0
ARC
8
DEFAULT_255_1_234
10
15.4598276
20
134.4939693
40
0.2315392
50
175.1779447
51
180.0581938
0
ARC
8
DEFAULT_255_1_234
10
15.3755123
20
134.4927428
40
0.1472271
50
179.6142195
51
228.1246017
0
ARC
8
DEFAULT_255_1_234
10
15.4196791
20
134.5336308
40
0.2072299
50
226.5779593
51
230.8800004
0
ARC
8
DEFAULT_255_1_234
10
15.466787
20
134.5961636
40
0.2854818
50
231.4635071
51
241.9260842
0
ARC
8
DEFAULT_255_1_234
10
15.5865048
20
134.81648
40
0.53622
50
241.7178533
51
248.3259551
0
ARC
8
DEFAULT_255_1_234
10
15.725042
20
135.1597064
40
0.9063478
50
248.2007737
51
252.4528373
0
ARC
8
DEFAULT_255_1_234
10
15.8454145
20
135.5318441
40
1.2974635
50
252.3391078
51
254.3469452
0
ARC
8
DEFAULT_255_1_234
10
15.0911847
20
132.8341148
40
1.5037162
50
71.0197183
51
74.4087047
0
ARC
8
DEFAULT_255_1_234
10
15.2606532
20
133.3233111
40
0.9859993
50
66.1847285
51
71.086374
0
ARC
8
DEFAULT_255_1_234
10
15.4162845
20
133.67372
40
0.6025855
50
59.3536294
51
66.2691831
0
ARC
8
DEFAULT_255_1_234
10
15.5051497
20
133.8240609
40
0.4279449
50
49.1020879
51
59.3293958
0
ARC
8
DEFAULT_255_1_234
10
15.5870237
20
133.9173834
40
0.3038015
50
32.7919921
51
49.2505539
0
ARC
8
DEFAULT_255_1_234
10
15.6191327
20
133.9402191
40
0.264448
50
31.1181161
51
32.4005348
0
ARC
8
DEFAULT_255_1_234
10
15.6102865
20
133.9366779
40
0.2738556
50
8.1116974
51
30.7958831
0
ARC
8
DEFAULT_255_1_234
10
15.5292533
20
133.9228753
40
0.3560327
50
359.8389159
51
8.4706516
0
ARC
8
DEFAULT_255_1_234
10
15.5918324
20
133.9180137
40
0.2934776
50
337.4731098
51
0.7537279
0
ARC
8
DEFAULT_255_1_234
10
15.6097019
20
133.9160387
40
0.2762607
50
307.5917067
51
336.4315538
0
ARC
8
DEFAULT_255_1_234
10
15.5636847
20
133.9673102
40
0.3449979
50
307.6551545
51
308.4529766
0
ARC
8
DEFAULT_255_1_234
10
15.5406566
20
134.002825
40
0.3871988
50
284.3734338
51
307.1424381
0
ARC
8
DEFAULT_255_1_234
10
15.4911396
20
134.1849932
40
0.5759636
50
272.4382747
51
284.646547
0
ARC
8
DEFAULT_255_1_234
10
15.4784605
20
134.3649893
40
0.7563528
50
269.9708387
51
272.8178037
0
ARC
8
DEFAULT_255_1_234
10
15.4741645
20
134.1611716
40
0.5525489
50
248.2707594
51
270.4055579
0
ARC
8
DEFAULT_255_1_234
10
15.4687386
20
134.1421192
40
0.5328452
50
246.1383403
51
248.0542782
0
ARC
8
DEFAULT_255_1_234
10
15.4268765
20
134.0541843
40
0.4355005
50
233.1670131
51
246.4950969
0
ARC
8
DEFAULT_255_1_234
10
15.371467
20
133.9793812
40
0.3424126
50
215.3403242
51
233.0843104
0
ARC
8
DEFAULT_255_1_234
10
15.3442101
20
133.9595549
40
0.3087104
50
179.2419209
51
215.2648451
0
ARC
8
DEFAULT_255_1_234
10
15.4209695
20
133.9609666
40
0.2304457
50
179.335461
51
199.1045811
0
ARC
8
DEFAULT_255_1_234
10
15.3877371
20
133.9522766
40
0.1962176
50
199.8828939
51
232.7063202
0
ARC
8
DEFAULT_255_1_234
10
15.434964
20
134.0116788
40
0.2720938
50
232.3738199
51
255.5136649
0
ARC
8
DEFAULT_255_1_234
10
15.4690506
20
134.1360835
40
0.4010747
50
255.2446292
51
267.5320849
0
ARC
8
DEFAULT_255_1_234
10
15.477813
20
134.2593702
40
0.5246356
50
267.1557994
51
270.0286766
0
ARC
8
DEFAULT_255_1_234
10
15.4805902
20
134.214995
40
0.4802668
50
269.7000017
51
278.1660162
0
ARC
8
DEFAULT_255_1_234
10
15.5061907
20
134.0419515
40
0.3053425
50
278.0231263
51
290.625471
0
ARC
8
DEFAULT_255_1_234
10
15.5409594
20
133.9492025
40
0.206291
50
290.6619762
51
307.0370976
0
ARC
8
DEFAULT_255_1_234
10
15.5709983
20
133.9123504
40
0.1587906
50
306.3943566
51
355.3030547
0
ARC
8
DEFAULT_255_1_234
10
15.5197914
20
133.9200113
40
0.2104809
50
354.3660432
51
0.0698737
0
ARC
8
DEFAULT_255_1_234
10
15.534026
20
133.9222617
40
0.1962563
50
359.417946
51
16.1971788
0
ARC
8
DEFAULT_255_1_234
10
15.579557
20
133.9347418
40
0.149053
50
16.4723299
51
52.6262157
0
ARC
8
DEFAULT_255_1_234
10
15.4974624
20
133.8263433
40
0.2850296
50
52.7386432
51
62.4979148
0
ARC
8
DEFAULT_255_1_234
10
15.3589701
20
133.5657283
40
0.5801521
50
62.2515216
51
68.1220564
0
ARC
8
DEFAULT_255_1_234
10
15.1869612
20
133.1429872
40
1.0365451
50
68.0062803
51
71.8053402
0
ARC
8
DEFAULT_255_1_234
10
15.0073983
20
132.6044758
40
1.6042013
50
71.7183119
51
73.9258742
0
LINE
8
DEFAULT_255_1_234
10
16.7992965
20
134.7941211
11
16.7992965
21
134.710591
0
LINE
8
DEFAULT_255_1_234
10
16.7992965
20
134.710591
11
16.3149827
21
133.6247
0
LINE
8
DEFAULT_255_1_234
10
16.3149827
20
133.6247
11
16.1591669
21
133.6247
0
LINE
8
DEFAULT_255_1_234
10
16.1591669
20
133.6247
11
16.6418744
21
134.6720387
0
LINE
8
DEFAULT_255_1_234
10
16.6418744
20
134.6720387
11
16.0089734
21
134.6720387
0
LINE
8
DEFAULT_255_1_234
10
16.0089734
20
134.6720387
11
16.0089734
21
134.7941211
0
LINE
8
DEFAULT_255_1_234
10
16.0089734
20
134.7941211
11
16.7992965
21
134.7941211
0
LINE
8
DEFAULT_255_1_234
10
17.2924452
20
134.1821026
11
17.2924452
21
134.0608234
0
LINE
8
DEFAULT_255_1_234
10
17.2924452
20
134.0608234
11
16.9004964
21
134.0608234
0
LINE
8
DEFAULT_255_1_234
10
16.9004964
20
134.0608234
11
16.9004964
21
134.1821026
0
LINE
8
DEFAULT_255_1_234
10
16.9004964
20
134.1821026
11
17.2924452
21
134.1821026
0
LINE
8
DEFAULT_255_1_234
10
17.63781
20
134.1604169
11
17.63781
21
134.2816962
0
LINE
8
DEFAULT_255_1_234
10
17.63781
20
134.2816962
11
17.7494511
21
134.2816962
0
LINE
8
DEFAULT_255_1_234
10
17.5590989
20
134.4873087
11
17.4105118
21
134.4873087
0
LINE
8
DEFAULT_255_1_234
10
17.4000705
20
133.9331188
11
17.5494608
21
133.9331188
0
LINE
8
DEFAULT_255_1_234
10
17.7494511
20
134.1604169
11
17.63781
21
134.1604169
0
ARC
8
DEFAULT_255_1_234
10
17.7465378
20
134.6209713
40
0.3392876
50
270.4919872
51
281.8951556
0
ARC
8
DEFAULT_255_1_234
10
17.7706639
20
134.5107702
40
0.2264817
50
281.6691735
51
301.2943132
0
ARC
8
DEFAULT_255_1_234
10
17.787685
20
134.4796304
40
0.1910381
50
301.7833094
51
311.7545298
0
ARC
8
DEFAULT_255_1_234
10
17.7968425
20
134.4694748
40
0.1773635
50
311.7323931
51
354.2802411
0
ARC
8
DEFAULT_255_1_234
10
17.7242051
20
134.4819722
40
0.2509385
50
353.0937916
51
0.1181479
0
ARC
8
DEFAULT_255_1_234
10
17.6780835
20
134.4867386
40
0.2970898
50
359.1805295
51
15.0453146
0
ARC
8
DEFAULT_255_1_234
10
17.8126672
20
134.5259992
40
0.1569564
50
13.9577229
51
77.6713066
0
ARC
8
DEFAULT_255_1_234
10
17.7740202
20
134.3874949
40
0.3006298
50
76.1116566
51
90.7026153
0
ARC
8
DEFAULT_255_1_234
10
17.768104
20
134.4148545
40
0.2732568
50
89.5324876
51
103.531937
0
ARC
8
DEFAULT_255_1_234
10
17.7480484
20
134.4947884
40
0.1908508
50
103.2931773
51
133.5619022
0
ARC
8
DEFAULT_255_1_234
10
17.7435972
20
134.5007375
40
0.1834746
50
133.8349307
51
173.5344437
0
ARC
8
DEFAULT_255_1_234
10
17.8159015
20
134.4879213
40
0.2568033
50
172.5096846
51
180.1366907
0
ARC
8
DEFAULT_255_1_234
10
17.7207909
20
134.4913622
40
0.3103056
50
155.3484492
51
180.7484736
0
ARC
8
DEFAULT_255_1_234
10
17.7158998
20
134.4884846
40
0.3070957
50
131.5744599
51
154.4798489
0
ARC
8
DEFAULT_255_1_234
10
17.7472146
20
134.456831
40
0.3515643
50
96.9875458
51
131.9690667
0
ARC
8
DEFAULT_255_1_234
10
17.7691626
20
134.3322636
40
0.4779224
50
89.8596053
51
97.7825159
0
ARC
8
DEFAULT_255_1_234
10
17.7739689
20
134.3060616
40
0.5041361
50
78.3655447
51
90.4131539
0
ARC
8
DEFAULT_255_1_234
10
17.8097607
20
134.4719887
40
0.3344039
50
56.6229102
51
78.638727
0
ARC
8
DEFAULT_255_1_234
10
17.831255
20
134.5095805
40
0.2912001
50
47.0253525
51
56.0854072
0
ARC
8
DEFAULT_255_1_234
10
17.833233
20
134.5135223
40
0.2869704
50
10.9208013
51
46.7778124
0
ARC
8
DEFAULT_255_1_234
10
17.6968397
20
134.4819857
40
0.426899
50
359.6364486
51
11.6087304
0
ARC
8
DEFAULT_255_1_234
10
17.8803241
20
134.4804752
40
0.243409
50
332.3549906
51
359.7179418
0
ARC
8
DEFAULT_255_1_234
10
17.8152842
20
134.5113142
40
0.3153459
50
325.2333722
51
332.8745602
0
ARC
8
DEFAULT_255_1_234
10
17.8305466
20
134.5006828
40
0.2967456
50
292.9802137
51
325.2392345
0
ARC
8
DEFAULT_255_1_234
10
17.803084
20
134.5540863
40
0.3566604
50
292.5402179
51
293.6924929
0
ARC
8
DEFAULT_255_1_234
10
17.8423436
20
133.9086091
40
0.3307468
50
57.6435486
51
72.8625112
0
ARC
8
DEFAULT_255_1_234
10
17.8777936
20
133.9660549
40
0.2632492
50
36.7248896
51
57.4697979
0
ARC
8
DEFAULT_255_1_234
10
17.8766568
20
133.967322
40
0.2634081
50
8.0545065
51
36.356114
0
ARC
8
DEFAULT_255_1_234
10
17.7903754
20
133.9518174
40
0.3510261
50
359.8320645
51
8.5869982
0
ARC
8
DEFAULT_255_1_234
10
17.752853
20
133.9470101
40
0.3885653
50
343.9829931
51
0.5571613
0
ARC
8
DEFAULT_255_1_234
10
17.8414727
20
133.9227438
40
0.2966924
50
311.6359546
51
343.7651759
0
ARC
8
DEFAULT_255_1_234
10
17.8036296
20
133.9654102
40
0.3537231
50
279.7829875
51
311.6255694
0
ARC
8
DEFAULT_255_1_234
10
17.7735072
20
134.109128
40
0.5004971
50
269.7286406
51
280.3856417
0
ARC
8
DEFAULT_255_1_234
10
17.7673145
20
134.1049996
40
0.4963778
50
256.6828919
51
270.4412052
0
ARC
8
DEFAULT_255_1_234
10
17.7334441
20
133.9665394
40
0.3538406
50
229.4223008
51
256.8556159
0
ARC
8
DEFAULT_255_1_234
10
17.6919834
20
133.9198736
40
0.2914296
50
181.818294
51
229.6455059
0
ARC
8
DEFAULT_255_1_234
10
17.795979
20
133.9329496
40
0.3959084
50
179.9755256
51
183.2323064
0
ARC
8
DEFAULT_255_1_234
10
17.7787536
20
133.9309037
40
0.2293034
50
179.4465117
51
196.2869258
0
ARC
8
DEFAULT_255_1_234
10
17.7299944
20
133.9175651
40
0.1787621
50
196.5661473
51
227.705904
0
ARC
8
DEFAULT_255_1_234
10
17.7464038
20
133.9359155
40
0.2033784
50
227.7652068
51
257.8762805
0
ARC
8
DEFAULT_255_1_234
10
17.7689009
20
134.0302156
40
0.3003081
50
257.4584385
51
270.426602
0
ARC
8
DEFAULT_255_1_234
10
17.7734575
20
134.0591996
40
0.329292
50
269.5962073
51
280.8789248
0
ARC
8
DEFAULT_255_1_234
10
17.7964104
20
133.9445685
40
0.2123908
50
280.6346389
51
299.8595945
0
ARC
8
DEFAULT_255_1_234
10
17.815501
20
133.9083212
40
0.171457
50
300.3576302
51
314.5517981
0
ARC
8
DEFAULT_255_1_234
10
17.807207
20
133.9143919
40
0.1816095
50
315.0728369
51
345.0431014
0
ARC
8
DEFAULT_255_1_234
10
17.7148885
20
133.9412841
40
0.2777492
50
344.5986631
51
357.9269593
0
ARC
8
DEFAULT_255_1_234
10
17.6253211
20
133.9474276
40
0.3674917
50
357.4748886
51
0.0231117
0
ARC
8
DEFAULT_255_1_234
10
17.727632
20
133.9498679
40
0.2651907
50
359.5047933
51
13.4239635
0
ARC
8
DEFAULT_255_1_234
10
17.8142964
20
133.9720478
40
0.1757509
50
12.9498199
51
48.7551375
0
ARC
8
DEFAULT_255_1_234
10
17.7960698
20
133.94714
40
0.2065134
50
49.5088623
51
72.1836453
0
ARC
8
DEFAULT_255_1_234
10
17.760285
20
133.8409291
40
0.3185836
50
71.9010081
51
84.3554254
0
ARC
8
DEFAULT_255_1_234
10
17.7441482
20
133.7048326
40
0.4556151
50
84.0193428
51
89.333121
0
LINE
8
DEFAULT_255_1_234
10
19.0787038
20
134.3162327
11
19.0787038
21
134.1234709
0
LINE
8
DEFAULT_255_1_234
10
18.3405871
20
134.1033916
11
18.3405871
21
134.3017755
0
LINE
8
DEFAULT_255_1_234
10
18.9301167
20
134.0833123
11
18.9301167
21
134.3266739
0
LINE
8
DEFAULT_255_1_234
10
18.4891742
20
134.3379184
11
18.4891742
21
134.1001789
0
ARC
8
DEFAULT_255_1_234
10
17.8539928
20
134.1185805
40
1.2247208
50
353.8441951
51
0.2287902
0
ARC
8
DEFAULT_255_1_234
10
18.3179431
20
134.0667806
40
0.7578929
50
344.4934747
51
353.9765454
0
ARC
8
DEFAULT_255_1_234
10
18.6172022
20
133.9816981
40
0.4467846
50
329.2803592
51
344.7472793
0
ARC
8
DEFAULT_255_1_234
10
18.7164846
20
133.9272018
40
0.3336173
50
324.9352394
51
328.6160465
0
ARC
8
DEFAULT_255_1_234
10
18.7541955
20
133.9008427
40
0.2876076
50
280.580143
51
324.9173126
0
ARC
8
DEFAULT_255_1_234
10
18.7140748
20
134.0679099
40
0.4592847
50
269.5977311
51
281.6734359
0
ARC
8
DEFAULT_255_1_234
10
18.7068653
20
134.0559173
40
0.4472986
50
256.6228859
51
270.51044
0
ARC
8
DEFAULT_255_1_234
10
18.6666631
20
133.9010877
40
0.2873874
50
215.8618325
51
257.2788573
0
ARC
8
DEFAULT_255_1_234
10
18.7687663
20
133.9695977
40
0.4102928
50
197.9693508
51
215.2623606
0
ARC
8
DEFAULT_255_1_234
10
19.0172778
20
134.0534709
40
0.6725652
50
187.8816417
51
198.2346507
0
ARC
8
DEFAULT_255_1_234
10
19.4130987
20
134.1106079
40
1.0724845
50
180.8976217
51
188.0055519
0
ARC
8
DEFAULT_255_1_234
10
19.6931175
20
134.1209777
40
1.3526448
50
180.7449369
51
181.1510016
0
ARC
8
DEFAULT_255_1_234
10
19.5353904
20
134.3066042
40
1.1948131
50
173.7675579
51
180.231553
0
ARC
8
DEFAULT_255_1_234
10
19.083605
20
134.3576666
40
0.7401564
50
164.3058563
51
173.9002247
0
ARC
8
DEFAULT_255_1_234
10
18.7924119
20
134.4415656
40
0.4371288
50
148.7922025
51
164.568378
0
ARC
8
DEFAULT_255_1_234
10
18.6972571
20
134.4946929
40
0.3282386
50
144.5883898
51
148.1176286
0
ARC
8
DEFAULT_255_1_234
10
18.6629469
20
134.5186315
40
0.2864044
50
101.6440918
51
144.514236
0
ARC
8
DEFAULT_255_1_234
10
18.7054536
20
134.3497069
40
0.4604934
50
89.5284041
51
102.5819763
0
ARC
8
DEFAULT_255_1_234
10
18.7133624
20
134.3458018
40
0.464401
50
77.0437873
51
90.5081339
0
ARC
8
DEFAULT_255_1_234
10
18.7535626
20
134.5100615
40
0.2953195
50
48.2778575
51
77.4994676
0
ARC
8
DEFAULT_255_1_234
10
18.7608257
20
134.5229746
40
0.2808655
50
36.3142134
51
47.6305865
0
ARC
8
DEFAULT_255_1_234
10
18.6739564
20
134.4644515
40
0.3855453
50
18.2931786
51
35.6769206
0
ARC
8
DEFAULT_255_1_234
10
18.4196323
20
134.3771593
40
0.654423
50
8.024666
51
18.5605216
0
ARC
8
DEFAULT_255_1_234
10
18.0033243
20
134.3156792
40
1.0752407
50
1.1274072
51
8.1718305
0
ARC
8
DEFAULT_255_1_234
10
17.6797433
20
134.3029885
40
1.3990231
50
0.5424119
51
1.3863029
0
ARC
8
DEFAULT_255_1_234
10
17.8618811
20
134.3302342
40
1.0682415
50
359.8090433
51
4.9407866
0
ARC
8
DEFAULT_255_1_234
10
18.2828825
20
134.3678113
40
0.6455691
50
4.8362157
51
12.2904523
0
ARC
8
DEFAULT_255_1_234
10
18.558394
20
134.4291965
40
0.3633074
50
12.0805627
51
23.8173984
0
ARC
8
DEFAULT_255_1_234
10
18.6757645
20
134.4788919
40
0.2358723
50
24.2871213
51
31.3935614
0
ARC
8
DEFAULT_255_1_234
10
18.7282342
20
134.5132233
40
0.1732111
50
30.7407893
51
82.4657128
0
ARC
8
DEFAULT_255_1_234
10
18.7102477
20
134.4248691
40
0.263235
50
81.1060089
51
90.2184952
0
ARC
8
DEFAULT_255_1_234
10
18.7066776
20
134.4506924
40
0.2374236
50
89.3806855
51
105.6762551
0
ARC
8
DEFAULT_255_1_234
10
18.6883406
20
134.5173567
40
0.1682847
50
105.7981136
51
149.7388061
0
ARC
8
DEFAULT_255_1_234
10
18.7947485
20
134.453395
40
0.2924306
50
149.4208916
51
163.6286378
0
ARC
8
DEFAULT_255_1_234
10
19.0038373
20
134.389625
40
0.5110213
50
163.3763315
51
172.1410975
0
ARC
8
DEFAULT_255_1_234
10
19.3339092
20
134.3423518
40
0.8444586
50
172.0259487
51
178.0703232
0
ARC
8
DEFAULT_255_1_234
10
19.6369181
20
134.3279906
40
1.1477868
50
177.8631668
51
179.5044149
0
ARC
8
DEFAULT_255_1_234
10
19.5296586
20
134.0965389
40
1.0404907
50
179.7995573
51
185.2460446
0
ARC
8
DEFAULT_255_1_234
10
19.1253625
20
134.0582513
40
0.6343885
50
185.1411642
51
193.0079639
0
ARC
8
DEFAULT_255_1_234
10
18.8610097
20
133.9957641
40
0.3627568
50
192.7897626
51
205.2507664
0
ARC
8
DEFAULT_255_1_234
10
18.7563644
20
133.9490415
40
0.2481908
50
205.8005384
51
211.2537509
0
ARC
8
DEFAULT_255_1_234
10
18.7040085
20
133.913958
40
0.1852521
50
210.3789793
51
238.4008143
0
ARC
8
DEFAULT_255_1_234
10
18.7020607
20
133.9186376
40
0.1882621
50
239.6520629
51
265.9793761
0
ARC
8
DEFAULT_255_1_234
10
18.7105807
20
133.9858427
40
0.2559272
50
265.1315437
51
270.060332
0
ARC
8
DEFAULT_255_1_234
10
18.7134586
20
133.9534534
40
0.2235528
50
269.3314664
51
287.2178029
0
ARC
8
DEFAULT_255_1_234
10
18.7272438
20
133.9031279
40
0.1714108
50
287.7958004
51
329.080874
0
ARC
8
DEFAULT_255_1_234
10
18.6314894
20
133.962893
40
0.2842745
50
328.6634704
51
343.3325132
0
ARC
8
DEFAULT_255_1_234
10
18.4141915
20
134.0305863
40
0.5118644
50
343.0499468
51
351.9393422
0
ARC
8
DEFAULT_255_1_234
10
18.0675215
20
134.0816949
40
0.8622784
50
351.8069023
51
357.7959224
0
ARC
8
DEFAULT_255_1_234
10
17.7439771
20
134.0984721
40
1.1862365
50
357.5871873
51
359.2677531
0
LINE
8
DEFAULT_255_1_234
10
20.0023537
20
134.3162327
11
20.0023537
21
134.1234709
0
LINE
8
DEFAULT_255_1_234
10
19.264237
20
134.1033916
11
19.264237
21
134.3017755
0
LINE
8
DEFAULT_255_1_234
10
19.8537666
20
134.0833123
11
19.8537666
21
134.3266739
0
LINE
8
DEFAULT_255_1_234
10
19.4128241
20
134.3379184
11
19.4128241
21
134.1001789
0
ARC
8
DEFAULT_255_1_234
10
18.7776427
20
134.1185805
40
1.2247208
50
353.8441951
51
0.2287902
0
ARC
8
DEFAULT_255_1_234
10
19.241593
20
134.0667806
40
0.7578929
50
344.4934747
51
353.9765454
0
ARC
8
DEFAULT_255_1_234
10
19.5408521
20
133.9816981
40
0.4467846
50
329.2803592
51
344.7472793
0
ARC
8
DEFAULT_255_1_234
10
19.6401345
20
133.9272018
40
0.3336173
50
324.9352394
51
328.6160465
0
ARC
8
DEFAULT_255_1_234
10
19.6778454
20
133.9008427
40
0.2876076
50
280.580143
51
324.9173126
0
ARC
8
DEFAULT_255_1_234
10
19.6377247
20
134.0679099
40
0.4592847
50
269.5977311
51
281.6734359
0
ARC
8
DEFAULT_255_1_234
10
19.6305152
20
134.0559173
40
0.4472986
50
256.6228859
51
270.51044
0
ARC
8
DEFAULT_255_1_234
10
19.590313
20
133.9010877
40
0.2873874
50
215.8618325
51
257.2788573
0
ARC
8
DEFAULT_255_1_234
10
19.6924162
20
133.9695977
40
0.4102928
50
197.9693508
51
215.2623606
0
ARC
8
DEFAULT_255_1_234
10
19.9409277
20
134.0534709
40
0.6725652
50
187.8816417
51
198.2346507
0
ARC
8
DEFAULT_255_1_234
10
20.3367486
20
134.1106079
40
1.0724845
50
180.8976217
51
188.0055519
0
ARC
8
DEFAULT_255_1_234
10
20.6167674
20
134.1209777
40
1.3526448
50
180.7449369
51
181.1510016
0
ARC
8
DEFAULT_255_1_234
10
20.4590403
20
134.3066042
40
1.1948131
50
173.7675579
51
180.231553
0
ARC
8
DEFAULT_255_1_234
10
20.0072549
20
134.3576666
40
0.7401564
50
164.3058563
51
173.9002247
0
ARC
8
DEFAULT_255_1_234
10
19.7160618
20
134.4415656
40
0.4371288
50
148.7922025
51
164.568378
0
ARC
8
DEFAULT_255_1_234
10
19.620907
20
134.4946929
40
0.3282386
50
144.5883898
51
148.1176286
0
ARC
8
DEFAULT_255_1_234
10
19.5865968
20
134.5186315
40
0.2864044
50
101.6440918
51
144.514236
0
ARC
8
DEFAULT_255_1_234
10
19.6291035
20
134.3497069
40
0.4604934
50
89.5284041
51
102.5819763
0
ARC
8
DEFAULT_255_1_234
10
19.6370123
20
134.3458018
40
0.464401
50
77.0437873
51
90.5081339
0
ARC
8
DEFAULT_255_1_234
10
19.6772125
20
134.5100615
40
0.2953195
50
48.2778575
51
77.4994676
0
ARC
8
DEFAULT_255_1_234
10
19.6844756
20
134.5229746
40
0.2808655
50
36.3142134
51
47.6305865
0
ARC
8
DEFAULT_255_1_234
10
19.5976063
20
134.4644515
40
0.3855453
50
18.2931786
51
35.6769206
0
ARC
8
DEFAULT_255_1_234
10
19.3432822
20
134.3771593
40
0.654423
50
8.024666
51
18.5605216
0
ARC
8
DEFAULT_255_1_234
10
18.9269742
20
134.3156792
40
1.0752407
50
1.1274072
51
8.1718305
0
ARC
8
DEFAULT_255_1_234
10
18.6033932
20
134.3029885
40
1.3990231
50
0.5424119
51
1.3863029
0
ARC
8
DEFAULT_255_1_234
10
18.785531
20
134.3302342
40
1.0682415
50
359.8090433
51
4.9407866
0
ARC
8
DEFAULT_255_1_234
10
19.2065324
20
134.3678113
40
0.6455691
50
4.8362157
51
12.2904523
0
ARC
8
DEFAULT_255_1_234
10
19.4820439
20
134.4291965
40
0.3633074
50
12.0805627
51
23.8173984
0
ARC
8
DEFAULT_255_1_234
10
19.5994144
20
134.4788919
40
0.2358723
50
24.2871213
51
31.3935614
0
ARC
8
DEFAULT_255_1_234
10
19.6518841
20
134.5132233
40
0.1732111
50
30.7407893
51
82.4657128
0
ARC
8
DEFAULT_255_1_234
10
19.6338976
20
134.4248691
40
0.263235
50
81.1060089
51
90.2184952
0
ARC
8
DEFAULT_255_1_234
10
19.6303275
20
134.4506924
40
0.2374236
50
89.3806855
51
105.6762551
0
ARC
8
DEFAULT_255_1_234
10
19.6119905
20
134.5173567
40
0.1682847
50
105.7981136
51
149.7388061
0
ARC
8
DEFAULT_255_1_234
10
19.7183984
20
134.453395
40
0.2924306
50
149.4208916
51
163.6286378
0
ARC
8
DEFAULT_255_1_234
10
19.9274872
20
134.389625
40
0.5110213
50
163.3763315
51
172.1410975
0
ARC
8
DEFAULT_255_1_234
10
20.2575591
20
134.3423518
40
0.8444586
50
172.0259487
51
178.0703232
0
ARC
8
DEFAULT_255_1_234
10
20.560568
20
134.3279906
40
1.1477868
50
177.8631668
51
179.5044149
0
ARC
8
DEFAULT_255_1_234
10
20.4533085
20
134.0965389
40
1.0404907
50
179.7995573
51
185.2460446
0
ARC
8
DEFAULT_255_1_234
10
20.0490124
20
134.0582513
40
0.6343885
50
185.1411642
51
193.0079639
0
ARC
8
DEFAULT_255_1_234
10
19.7846596
20
133.9957641
40
0.3627568
50
192.7897626
51
205.2507664
0
ARC
8
DEFAULT_255_1_234
10
19.6800143
20
133.9490415
40
0.2481908
50
205.8005384
51
211.2537509
0
ARC
8
DEFAULT_255_1_234
10
19.6276584
20
133.913958
40
0.1852521
50
210.3789793
51
238.4008143
0
ARC
8
DEFAULT_255_1_234
10
19.6257106
20
133.9186376
40
0.1882621
50
239.6520629
51
265.9793761
0
ARC
8
DEFAULT_255_1_234
10
19.6342306
20
133.9858427
40
0.2559272
50
265.1315437
51
270.060332
0
ARC
8
DEFAULT_255_1_234
10
19.6371085
20
133.9534534
40
0.2235528
50
269.3314664
51
287.2178029
0
ARC
8
DEFAULT_255_1_234
10
19.6508937
20
133.9031279
40
0.1714108
50
287.7958004
51
329.080874
0
ARC
8
DEFAULT_255_1_234
10
19.5551394
20
133.962893
40
0.2842745
50
328.6634704
51
343.3325132
0
ARC
8
DEFAULT_255_1_234
10
19.3378414
20
134.0305863
40
0.5118644
50
343.0499468
51
351.9393422
0
ARC
8
DEFAULT_255_1_234
10
18.9911714
20
134.0816949
40
0.8622784
50
351.8069023
51
357.7959224
0
ARC
8
DEFAULT_255_1_234
10
18.667627
20
134.0984721
40
1.1862365
50
357.5871873
51
359.2677531
0
ARC
8
DEFAULT_255_2_778
10
7.7537338
20
139.6512992
40
3.0484709
50
251.6854144
51
258.6071955
0
ARC
8
DEFAULT_255_2_778
10
7.539521
20
138.5696738
40
1.9458471
50
258.4992492
51
268.3986479
0
ARC
8
DEFAULT_255_2_778
10
7.5172314
20
138.1394206
40
1.5151737
50
268.7865272
51
269.9950384
0
ARC
8
DEFAULT_255_2_778
10
7.5277432
20
137.6882355
40
1.0640417
50
269.426895
51
279.6711067
0
ARC
8
DEFAULT_255_2_778
10
7.6417753
20
137.0586746
40
0.4243233
50
278.7731084
51
300.3324923
0
ARC
8
DEFAULT_255_2_778
10
7.760746
20
136.8560552
40
0.1893587
50
300.2240287
51
1.9041213
0
ARC
8
DEFAULT_255_2_778
10
7.7452705
20
136.8652089
40
0.2047497
50
359.1991369
51
359.99965
0
ARC
8
DEFAULT_255_2_778
10
7.7523233
20
136.8660378
40
0.1976988
50
359.7594145
51
47.1793976
0
ARC
8
DEFAULT_255_2_778
10
7.6187277
20
136.717431
40
0.3975169
50
47.6144502
51
60.8366176
0
ARC
8
DEFAULT_255_2_778
10
7.0190958
20
135.7014865
40
1.5771337
50
59.799464
51
64.8885807
0
ARC
8
DEFAULT_255_2_778
10
6.0948833
20
133.7724682
40
3.7160912
50
64.6076081
51
66.8386974
0
ARC
8
DEFAULT_255_2_778
10
9.6419609
20
142.1355052
40
5.368109
50
244.3032309
51
247.1393781
0
ARC
8
DEFAULT_255_2_778
10
8.5507088
20
139.875518
40
2.8584574
50
240.2323579
51
244.3709759
0
ARC
8
DEFAULT_255_2_778
10
7.7800475
20
138.5386591
40
1.315392
50
233.2209971
51
240.4606284
0
ARC
8
DEFAULT_255_2_778
10
7.3561477
20
137.9675187
40
0.6041399
50
225.6990744
51
232.9899679
0
ARC
8
DEFAULT_255_2_778
10
7.3965073
20
137.9919214
40
0.6499005
50
178.2783416
51
224.6550883
0
ARC
8
DEFAULT_255_2_778
10
7.5059624
20
138.0252974
40
0.7591885
50
157.033673
51
181.0453383
0
ARC
8
DEFAULT_255_2_778
10
7.378439
20
138.0661396
40
0.6259551
50
124.9113017
51
155.9211516
0
ARC
8
DEFAULT_255_2_778
10
7.5960466
20
137.7575681
40
1.0035357
50
100.4079723
51
125.0168617
0
ARC
8
DEFAULT_255_2_778
10
7.6991199
20
137.2635046
40
1.5081396
50
89.6483922
51
100.8684975
0
ARC
8
DEFAULT_255_2_778
10
7.7083242
20
136.9112988
40
1.8603169
50
89.5079487
51
89.9984402
0
ARC
8
DEFAULT_255_2_778
10
7.7099573
20
136.8460694
40
1.9255311
50
83.9170631
51
89.5732113
0
ARC
8
DEFAULT_255_2_778
10
7.5071517
20
134.8384957
40
3.9433074
50
80.7325723
51
84.0779772
0
ARC
8
DEFAULT_255_2_778
10
7.0208457
20
131.815582
40
7.0050837
50
78.5086351
51
80.7886813
0
ARC
8
DEFAULT_255_2_778
10
7.6620177
20
136.4150544
40
1.9415426
50
67.135818
51
78.0934208
0
ARC
8
DEFAULT_255_2_778
10
7.7851814
20
136.9854809
40
1.3579807
50
78.2126325
51
89.7333975
0
ARC
8
DEFAULT_255_2_778
10
7.7793853
20
137.4006211
40
0.9429038
50
89.2638155
51
100.5666868
0
ARC
8
DEFAULT_255_2_778
10
7.6660949
20
137.9704419
40
0.362036
50
99.4784875
51
124.329414
0
ARC
8
DEFAULT_255_2_778
10
7.5705593
20
138.118551
40
0.1859067
50
125.7571195
51
182.2824883
0
ARC
8
DEFAULT_255_2_778
10
7.5493239
20
138.1118629
40
0.1645253
50
180.2492993
51
239.8144161
0
ARC
8
DEFAULT_255_2_778
10
7.932718
20
138.7119128
40
0.876484
50
237.8725734
51
242.8068846
0
ARC
8
DEFAULT_255_2_778
10
9.4175857
20
141.5284958
40
4.0604642
50
242.3328458
51
244.031083
0
ARC
8
DEFAULT_255_2_778
10
12.3804066
20
147.5769314
40
10.7955807
50
243.950624
51
244.8024316
0
ARC
8
DEFAULT_255_2_778
10
15.4009918
20
153.9609175
40
17.8580926
50
244.7535425
51
244.9563234
0
ARC
8
DEFAULT_255_2_778
10
5.8652927
20
133.4593264
40
4.7527588
50
62.2505456
51
65.4301556
0
ARC
8
DEFAULT_255_2_778
10
6.9275435
20
135.4674172
40
2.4810291
50
57.2951304
51
62.3684211
0
ARC
8
DEFAULT_255_2_778
10
7.6807233
20
136.6307235
40
1.0952081
50
48.7345704
51
57.5685367
0
ARC
8
DEFAULT_255_2_778
10
8.0117486
20
137.0182722
40
0.5856147
50
44.3236031
51
48.0704418
0
ARC
8
DEFAULT_255_2_778
10
7.9783002
20
136.9982468
40
0.6236013
50
1.3523843
51
43.4925744
0
ARC
8
DEFAULT_255_2_778
10
7.7103531
20
136.9653151
40
0.8926473
50
359.9763756
51
3.0599076
0
ARC
8
DEFAULT_255_2_778
10
7.8645343
20
136.9502407
40
0.7386124
50
333.0361889
51
1.1408766
0
ARC
8
DEFAULT_255_2_778
10
7.8947908
20
136.9571919
40
0.7150741
50
300.8430083
51
331.4403095
0
ARC
8
DEFAULT_255_2_778
10
7.694568
20
137.2707162
40
1.0869673
50
281.4258583
51
301.4316118
0
ARC
8
DEFAULT_255_2_778
10
7.5632666
20
137.8789414
40
1.7091691
50
270.2273513
51
281.7010805
0
ARC
8
DEFAULT_255_2_778
10
7.5453797
20
138.3556043
40
2.1859577
50
269.9983113
51
270.6466065
0
LINE
8
DEFAULT_255_2_778
10
7.5453153
20
136.1696465
11
7.5438002
21
136.169647
0
ARC
8
DEFAULT_255_2_778
10
7.5509161
20
139.3525969
40
3.1829579
50
256.2431122
51
269.871909
0
ARC
8
DEFAULT_255_2_778
10
21.7538511
20
139.5771629
40
2.9720345
50
251.5709223
51
258.7508181
0
ARC
8
DEFAULT_255_2_778
10
21.5538128
20
138.5539385
40
1.9294488
50
258.6495077
51
268.8281511
0
ARC
8
DEFAULT_255_2_778
10
21.5355488
20
138.1591193
40
1.5343723
50
269.2085037
51
269.9981866
0
ARC
8
DEFAULT_255_2_778
10
21.5473849
20
137.6907184
40
1.0660376
50
269.3612297
51
279.5899087
0
ARC
8
DEFAULT_255_2_778
10
21.6608439
20
137.0592324
40
0.424527
50
278.6895227
51
300.2363944
0
ARC
8
DEFAULT_255_2_778
10
21.7799083
20
136.8557793
40
0.188796
50
300.1108484
51
1.9024905
0
ARC
8
DEFAULT_255_2_778
10
21.7439577
20
136.8664221
40
0.2246851
50
358.8842611
51
0.0019649
0
ARC
8
DEFAULT_255_2_778
10
21.7769791
20
136.8703385
40
0.1917038
50
358.831716
51
47.0900458
0
ARC
8
DEFAULT_255_2_778
10
21.6364654
20
136.710984
40
0.4041259
50
47.8812665
51
61.174665
0
ARC
8
DEFAULT_255_2_778
10
21.0418848
20
135.6910117
40
1.5846568
50
60.1210877
51
65.1917015
0
ARC
8
DEFAULT_255_2_778
10
20.1415278
20
133.7854122
40
3.6922188
50
64.9168629
51
67.1565628
0
ARC
8
DEFAULT_255_2_778
10
23.6275467
20
142.0569888
40
5.2839333
50
244.2656926
51
247.1407051
0
ARC
8
DEFAULT_255_2_778
10
22.5594997
20
139.848765
40
2.8309849
50
240.1545061
51
244.3326325
0
ARC
8
DEFAULT_255_2_778
10
21.7856548
20
138.5127346
40
1.2870531
50
232.697515
51
240.4357497
0
ARC
8
DEFAULT_255_2_778
10
21.3705506
20
137.9617218
40
0.5972006
50
225.5850892
51
232.3393736
0
ARC
8
DEFAULT_255_2_778
10
21.4133941
20
137.9912933
40
0.6483829
50
178.7795739
51
224.7095916
0
ARC
8
DEFAULT_255_2_778
10
21.6669319
20
138.0153135
40
0.9018316
50
179.997867
51
180.6487041
0
ARC
8
DEFAULT_255_2_778
10
21.5167738
20
138.0291249
40
0.7517998
50
156.9195758
51
181.050088
0
ARC
8
DEFAULT_255_2_778
10
21.3928482
20
138.0685712
40
0.6224513
50
124.7111133
51
155.7879672
0
ARC
8
DEFAULT_255_2_778
10
21.6055459
20
137.7766942
40
0.9835402
50
101.7934503
51
125.2143527
0
ARC
8
DEFAULT_255_2_778
10
21.729848
20
137.2241326
40
1.5498677
50
89.5248728
51
102.1166783
0
ARC
8
DEFAULT_255_2_778
10
21.7283109
20
136.6705834
40
2.1034129
50
83.2889725
51
89.6080411
0
ARC
8
DEFAULT_255_2_778
10
21.529975
20
134.9027668
40
3.8823067
50
79.4764054
51
83.4308492
0
ARC
8
DEFAULT_255_2_778
10
21.2186357
20
133.1495673
40
5.6628977
50
78.2224868
51
79.6190915
0
ARC
8
DEFAULT_255_2_778
10
21.6838473
20
136.4270715
40
1.9311543
50
67.1323814
51
78.3148813
0
ARC
8
DEFAULT_255_2_778
10
21.801359
20
136.9785614
40
1.3672981
50
78.4565774
51
89.7552271
0
ARC
8
DEFAULT_255_2_778
10
21.7951366
20
137.409447
40
0.9364778
50
89.2619009
51
100.5950934
0
ARC
8
DEFAULT_255_2_778
10
21.6824182
20
137.9749169
40
0.3599879
50
99.5087086
51
124.406715
0
ARC
8
DEFAULT_255_2_778
10
21.5878565
20
138.121343
40
0.1858061
50
125.8630185
51
182.2986975
0
ARC
8
DEFAULT_255_2_778
10
21.5497296
20
138.1138047
40
0.1475296
50
179.9666559
51
180.100057
0
ARC
8
DEFAULT_255_2_778
10
21.566185
20
138.113793
40
0.163985
50
180.0859454
51
239.8819968
0
ARC
8
DEFAULT_255_2_778
10
21.9379018
20
138.7005619
40
0.8584853
50
238.072871
51
243.0442008
0
ARC
8
DEFAULT_255_2_778
10
23.4872034
20
141.6655845
40
4.2038426
50
242.5409111
51
244.1884903
0
ARC
8
DEFAULT_255_2_778
10
26.6463384
20
148.160196
40
11.4260319
50
244.1076525
51
244.9219574
0
ARC
8
DEFAULT_255_2_778
10
29.9038827
20
155.083855
40
19.0777309
50
244.8743531
51
245.066969
0
ARC
8
DEFAULT_255_2_778
10
19.8865272
20
133.4916274
40
4.7250654
50
62.0340028
51
65.293009
0
ARC
8
DEFAULT_255_2_778
10
20.9507744
20
135.4865758
40
2.464003
50
57.1127289
51
62.13736
0
ARC
8
DEFAULT_255_2_778
10
21.7037139
20
136.6402906
40
1.0863604
50
48.3695509
51
57.4197129
0
ARC
8
DEFAULT_255_2_778
10
22.0286268
20
137.0170419
40
0.5889589
50
44.472493
51
47.6467012
0
ARC
8
DEFAULT_255_2_778
10
21.9979457
20
136.9999032
40
0.6229283
50
1.2061613
51
43.6203607
0
ARC
8
DEFAULT_255_2_778
10
21.7312413
20
136.9674903
40
0.890659
50
359.9779196
51
2.9299178
0
ARC
8
DEFAULT_255_2_778
10
21.8802547
20
136.9523837
40
0.7417924
50
333.172934
51
1.140392
0
ARC
8
DEFAULT_255_2_778
10
21.9146167
20
136.9570736
40
0.7135172
50
300.9808035
51
331.5913995
0
ARC
8
DEFAULT_255_2_778
10
21.7182603
20
137.2669862
40
1.0803281
50
281.9040909
51
301.4483918
0
ARC
8
DEFAULT_255_2_778
10
21.5848425
20
137.8655518
40
1.6935565
50
270.5796874
51
282.1436175
0
ARC
8
DEFAULT_255_2_778
10
21.5636722
20
138.3604735
40
2.1887267
50
269.9959074
51
271.0027751
0
LINE
8
DEFAULT_255_2_778
10
21.5635158
20
136.1717468
11
21.5625002
21
136.171747
0
ARC
8
DEFAULT_255_2_778
10
21.5700221
20
139.3605174
40
3.1887792
50
256.2556596
51
269.8648469
0
LINE
8
DEFAULT_255_2_778
10
6.7958002
20
136.262547
11
6.7958002
21
136.757247
0
LINE
8
DEFAULT_255_2_778
10
8.4164002
20
138.680247
11
8.4164002
21
138.204047
0
LINE
8
DEFAULT_255_2_778
10
6.7940002
20
136.260947
11
6.7958002
21
136.262547
0
LINE
8
DEFAULT_255_2_778
10
8.9866002
20
138.729747
11
9.6629002
21
138.729747
0
LINE
8
DEFAULT_255_2_778
10
9.6629002
20
138.729747
11
9.6629002
21
136.222347
0
LINE
8
DEFAULT_255_2_778
10
9.6629002
20
136.222347
11
8.9866002
21
136.222347
0
LINE
8
DEFAULT_255_2_778
10
8.9866002
20
136.222347
11
8.9866002
21
138.729747
0
LINE
8
DEFAULT_255_2_778
10
10.2809002
20
136.222347
11
10.2809002
21
138.729747
0
LINE
8
DEFAULT_255_2_778
10
10.2809002
20
138.729747
11
12.0132002
21
138.729747
0
LINE
8
DEFAULT_255_2_778
10
12.0132002
20
138.729747
11
12.0132002
21
138.276047
0
LINE
8
DEFAULT_255_2_778
10
12.0132002
20
138.276047
11
10.9321002
21
138.276047
0
LINE
8
DEFAULT_255_2_778
10
10.9321002
20
138.276047
11
10.9321002
21
137.709747
0
LINE
8
DEFAULT_255_2_778
10
10.9321002
20
137.709747
11
11.8735002
21
137.709747
0
LINE
8
DEFAULT_255_2_778
10
11.8735002
20
137.709747
11
11.8735002
21
137.296247
0
LINE
8
DEFAULT_255_2_778
10
11.8735002
20
137.296247
11
10.9321002
21
137.296247
0
LINE
8
DEFAULT_255_2_778
10
10.9321002
20
137.296247
11
10.9321002
21
136.700947
0
LINE
8
DEFAULT_255_2_778
10
10.9321002
20
136.700947
11
12.0412002
21
136.700947
0
LINE
8
DEFAULT_255_2_778
10
12.0412002
20
136.700947
11
12.0412002
21
136.220747
0
LINE
8
DEFAULT_255_2_778
10
12.0412002
20
136.220747
11
10.2809002
21
136.222347
0
LINE
8
DEFAULT_255_2_778
10
12.4817002
20
136.222347
11
12.4817002
21
138.729747
0
LINE
8
DEFAULT_255_2_778
10
12.4817002
20
138.729747
11
13.3575002
21
138.729747
0
LINE
8
DEFAULT_255_2_778
10
13.3575002
20
138.729747
11
13.9671002
21
137.127447
0
LINE
8
DEFAULT_255_2_778
10
13.9671002
20
137.127447
11
14.5897002
21
138.729747
0
LINE
8
DEFAULT_255_2_778
10
14.5897002
20
138.729747
11
15.4215002
21
138.729747
0
LINE
8
DEFAULT_255_2_778
10
15.4215002
20
138.729747
11
15.4215002
21
136.222347
0
LINE
8
DEFAULT_255_2_778
10
15.4215002
20
136.222347
11
14.7812002
21
136.222347
0
LINE
8
DEFAULT_255_2_778
10
14.7812002
20
136.222347
11
14.7812002
21
137.998147
0
LINE
8
DEFAULT_255_2_778
10
14.7812002
20
137.998147
11
14.0724002
21
136.197947
0
LINE
8
DEFAULT_255_2_778
10
14.0724002
20
136.197947
11
13.6515002
21
136.197947
0
LINE
8
DEFAULT_255_2_778
10
13.6515002
20
136.197947
11
12.9559002
21
137.998147
0
LINE
8
DEFAULT_255_2_778
10
12.9559002
20
137.998147
11
12.9559002
21
136.222047
0
LINE
8
DEFAULT_255_2_778
10
12.9559002
20
136.222047
11
12.4817002
21
136.222347
0
LINE
8
DEFAULT_255_2_778
10
16.0409002
20
136.222347
11
16.0409002
21
138.729747
0
LINE
8
DEFAULT_255_2_778
10
16.0409002
20
138.729747
11
17.7731002
21
138.729747
0
LINE
8
DEFAULT_255_2_778
10
17.7731002
20
138.729747
11
17.7731002
21
138.276047
0
LINE
8
DEFAULT_255_2_778
10
17.7731002
20
138.276047
11
16.6921002
21
138.276047
0
LINE
8
DEFAULT_255_2_778
10
16.6921002
20
138.276047
11
16.6921002
21
137.709747
0
LINE
8
DEFAULT_255_2_778
10
16.6921002
20
137.709747
11
17.6334002
21
137.709747
0
LINE
8
DEFAULT_255_2_778
10
17.6334002
20
137.709747
11
17.6334002
21
137.296247
0
LINE
8
DEFAULT_255_2_778
10
17.6334002
20
137.296247
11
16.6921002
21
137.296247
0
LINE
8
DEFAULT_255_2_778
10
16.6921002
20
137.296247
11
16.6921002
21
136.700947
0
LINE
8
DEFAULT_255_2_778
10
16.6921002
20
136.700947
11
17.8030002
21
136.700947
0
LINE
8
DEFAULT_255_2_778
10
17.8030002
20
136.700947
11
17.8030002
21
136.220747
0
LINE
8
DEFAULT_255_2_778
10
17.8030002
20
136.220747
11
16.0409002
21
136.222347
0
LINE
8
DEFAULT_255_2_778
10
18.2454002
20
136.222347
11
18.2454002
21
138.729747
0
LINE
8
DEFAULT_255_2_778
10
18.2454002
20
138.729747
11
19.0283002
21
138.729747
0
LINE
8
DEFAULT_255_2_778
10
19.0283002
20
138.729747
11
19.8586002
21
137.050947
0
LINE
8
DEFAULT_255_2_778
10
19.8586002
20
137.050947
11
19.8586002
21
138.729747
0
LINE
8
DEFAULT_255_2_778
10
19.8586002
20
138.729747
11
20.3343002
21
138.729747
0
LINE
8
DEFAULT_255_2_778
10
20.3343002
20
138.729747
11
20.3343002
21
136.222347
0
LINE
8
DEFAULT_255_2_778
10
20.3343002
20
136.222347
11
19.5739002
21
136.222347
0
LINE
8
DEFAULT_255_2_778
10
19.5739002
20
136.222347
11
18.7214002
21
137.923547
0
LINE
8
DEFAULT_255_2_778
10
18.7214002
20
137.923547
11
18.7214002
21
136.222347
0
LINE
8
DEFAULT_255_2_778
10
18.7214002
20
136.222347
11
18.2454002
21
136.222347
0
LINE
8
DEFAULT_255_2_778
10
20.8143002
20
136.262747
11
20.8143002
21
136.757547
0
LINE
8
DEFAULT_255_2_778
10
22.3745002
20
138.693247
11
22.4343002
21
138.682647
0
LINE
8
DEFAULT_255_2_778
10
22.4343002
20
138.682647
11
22.4343002
21
138.206447
0
LINE
8
DEFAULT_255_2_778
10
20.8124002
20
136.263047
11
20.8143002
21
136.262747
0
LINE
8
DEFAULT_255_2_778
10
19.9760417
20
124.2219075
11
18.6531417
21
124.2219075
0
LINE
8
DEFAULT_255_2_778
10
18.6531417
20
124.2219075
11
18.6531417
21
67.3365075
0
LINE
8
DEFAULT_255_2_778
10
17.3301834
20
67.3364333
11
19.9759834
21
67.3364333
0
LINE
8
DEFAULT_255_2_778
10
19.9759834
20
67.3364333
11
19.9759834
21
62.0447333
0
LINE
8
DEFAULT_255_2_778
10
19.9759834
20
62.0447333
11
17.3301834
21
62.0447333
0
LINE
8
DEFAULT_255_2_778
10
17.3301834
20
62.0447333
11
17.3301834
21
67.3364333
0
ARC
8
DEFAULT_255_2_778_1
10
21.1297591
20
62.147177
40
4.816461
50
120.9442904
51
122.351755
0
ARC
8
DEFAULT_255_2_778_1
10
20.6831523
20
62.8508039
40
3.9830657
50
122.3407904
51
124.1946752
0
ARC
8
DEFAULT_255_2_778_1
10
20.2432464
20
63.4973306
40
3.2010724
50
124.1855758
51
126.4338849
0
ARC
8
DEFAULT_255_2_778_1
10
19.8573129
20
64.0200611
40
2.5513094
50
126.4326926
51
128.8877368
0
ARC
8
DEFAULT_255_2_778_1
10
19.5224968
20
64.4344658
40
2.0185498
50
128.8749205
51
131.8726567
0
ARC
8
DEFAULT_255_2_778_1
10
19.2253677
20
64.7654854
40
1.5737356
50
131.8616166
51
135.4168838
0
ARC
8
DEFAULT_255_2_778_1
10
18.962568
20
65.0236765
40
1.2053256
50
135.3893975
51
139.9687014
0
ARC
8
DEFAULT_255_2_778_1
10
18.7296889
20
65.2185102
40
0.9016937
50
139.9301659
51
145.9260426
0
ARC
8
DEFAULT_255_2_778_1
10
18.533554
20
65.3505104
40
0.6652776
50
145.8787362
51
153.8146208
0
ARC
8
DEFAULT_255_2_778_1
10
18.3814553
20
65.4248797
40
0.4959714
50
153.770634
51
164.3484794
0
ARC
8
DEFAULT_255_2_778_1
10
18.2801387
20
65.4530786
40
0.3908039
50
164.3220276
51
179.8083066
0
ARC
8
DEFAULT_255_2_778_1
10
18.3011789
20
65.461215
40
0.4118985
50
180.9499449
51
213.8111542
0
ARC
8
DEFAULT_255_2_778_1
10
18.5770828
20
65.6307896
40
0.73561
50
212.8271214
51
224.258472
0
ARC
8
DEFAULT_255_2_778_1
10
18.9599335
20
66.0001236
40
1.267567
50
224.1376218
51
231.4508261
0
ARC
8
DEFAULT_255_2_778_1
10
19.6026195
20
66.8031168
40
2.2960809
50
231.3955893
51
236.1256478
0
ARC
8
DEFAULT_255_2_778_1
10
21.4349223
20
69.5496293
40
5.5976905
50
236.2233172
51
239.1314682
0
ARC
8
DEFAULT_255_2_778_1
10
33.384827
20
89.2773568
40
28.6623793
50
238.8606853
51
239.0711101
0
ARC
8
DEFAULT_255_2_778_1
10
14.2126281
20
57.1802653
40
8.7248518
50
57.2420924
51
59.4062964
0
ARC
8
DEFAULT_255_2_778_1
10
17.4403241
20
62.2112102
40
2.747542
50
52.8289294
51
57.079028
0
ARC
8
DEFAULT_255_2_778_1
10
18.2149783
20
63.2315488
40
1.466457
50
46.3041868
51
52.8596521
0
ARC
8
DEFAULT_255_2_778_1
10
18.6472073
20
63.6816842
40
0.8424061
50
36.2174211
51
46.4090895
0
ARC
8
DEFAULT_255_2_778_1
10
18.9317088
20
63.8865128
40
0.4918609
50
17.400375
51
36.5489745
0
ARC
8
DEFAULT_255_2_778_1
10
19.0457994
20
63.9263754
40
0.3710912
50
0.0676858
51
16.7951297
0
ARC
8
DEFAULT_255_2_778_1
10
19.0247613
20
63.9282428
40
0.3921317
50
343.8035191
51
359.7912046
0
ARC
8
DEFAULT_255_2_778_1
10
18.9184912
20
63.9587167
40
0.5026844
50
333.2506233
51
343.8465691
0
ARC
8
DEFAULT_255_2_778_1
10
18.7646757
20
64.0354313
40
0.6745679
50
325.6600948
51
333.3122657
0
ARC
8
DEFAULT_255_2_778_1
10
18.5692344
20
64.1682296
40
0.9108568
50
319.7560915
51
325.6976089
0
ARC
8
DEFAULT_255_2_778_1
10
18.341099
20
64.3600002
40
1.2088854
50
315.4577584
51
319.8037947
0
ARC
8
DEFAULT_255_2_778_1
10
18.0777127
20
64.6188507
40
1.5781764
50
311.7298824
51
315.4670864
0
ARC
8
DEFAULT_255_2_778_1
10
17.7686879
20
64.9644074
40
2.0417554
50
308.723055
51
311.7470879
0
ARC
8
DEFAULT_255_2_778_1
10
17.414489
20
65.4056492
40
2.6075745
50
306.1165163
51
308.7300151
0
ARC
8
DEFAULT_255_2_778_1
10
17.0115091
20
65.9569523
40
3.2904564
50
303.9559446
51
306.1266333
0
ARC
8
DEFAULT_255_2_778_1
10
16.5999432
20
66.566215
40
4.0257023
50
302.3733397
51
303.9712246
0
ARC
8
DEFAULT_255_2_778_1
10
16.1803347
20
67.2277058
40
4.8090549
50
300.9434827
51
302.3758078
0
LINE
8
DEFAULT_255_2_778
10
18.6531417
20
62.0448075
11
18.6531417
21
5.1594075
0
LINE
8
DEFAULT_255_2_778
10
18.6531417
20
5.1594075
11
19.9760417
21
5.1594075
0
LINE
8
DEFAULT_255_1_234
10
4.2454489
20
132.8098211
11
4.2454489
21
131.7664983
0
LINE
8
DEFAULT_255_1_234
10
4.2454489
20
131.7664983
11
4.7996389
21
131.7664983
0
LINE
8
DEFAULT_255_1_234
10
4.7996389
20
131.7664983
11
4.7996389
21
131.6404
0
LINE
8
DEFAULT_255_1_234
10
4.7996389
20
131.6404
11
4.0904364
21
131.6404
0
LINE
8
DEFAULT_255_1_234
10
4.0904364
20
131.6404
11
4.0904364
21
132.8098211
0
LINE
8
DEFAULT_255_1_234
10
4.0904364
20
132.8098211
11
4.2454489
21
132.8098211
0
LINE
8
DEFAULT_255_1_234
10
5.377924
20
132.6090276
11
5.377924
21
132.2676788
0
LINE
8
DEFAULT_255_1_234
10
5.377924
20
132.2676788
11
5.7040126
21
132.2676788
0
LINE
8
DEFAULT_255_1_234
10
5.7040126
20
132.2676788
11
5.7040126
21
132.1271233
0
LINE
8
DEFAULT_255_1_234
10
5.7040126
20
132.1271233
11
5.377924
21
132.1271233
0
LINE
8
DEFAULT_255_1_234
10
5.377924
20
132.1271233
11
5.377924
21
131.7576634
0
LINE
8
DEFAULT_255_1_234
10
5.377924
20
131.7576634
11
5.2285337
21
131.7576634
0
LINE
8
DEFAULT_255_1_234
10
5.2285337
20
131.7576634
11
5.2285337
21
132.1271233
0
LINE
8
DEFAULT_255_1_234
10
5.2285337
20
132.1271233
11
4.9024451
21
132.1271233
0
LINE
8
DEFAULT_255_1_234
10
4.9024451
20
132.1271233
11
4.9024451
21
132.2676788
0
LINE
8
DEFAULT_255_1_234
10
4.9024451
20
132.2676788
11
5.2285337
21
132.2676788
0
LINE
8
DEFAULT_255_1_234
10
5.2285337
20
132.2676788
11
5.2285337
21
132.6090276
0
LINE
8
DEFAULT_255_1_234
10
5.2285337
20
132.6090276
11
5.377924
21
132.6090276
0
LINE
8
DEFAULT_255_1_234
10
23.0434364
20
132.8098211
11
23.2426235
21
132.8098211
0
LINE
8
DEFAULT_255_1_234
10
23.2426235
20
132.8098211
11
23.6249342
21
131.8556506
0
LINE
8
DEFAULT_255_1_234
10
23.6249342
20
131.8556506
11
24.007245
21
132.8098211
0
LINE
8
DEFAULT_255_1_234
10
24.007245
20
132.8098211
11
24.2072353
21
132.8098211
0
LINE
8
DEFAULT_255_1_234
10
24.2072353
20
132.8098211
11
24.2072353
21
131.6404
0
LINE
8
DEFAULT_255_1_234
10
24.2072353
20
131.6404
11
24.0530259
21
131.6404
0
LINE
8
DEFAULT_255_1_234
10
24.0530259
20
131.6404
11
24.0530259
21
132.0957996
0
LINE
8
DEFAULT_255_1_234
10
24.0530259
20
132.0957996
11
24.067483
21
132.5873419
0
LINE
8
DEFAULT_255_1_234
10
24.067483
20
132.5873419
11
23.6835659
21
131.6404
0
LINE
8
DEFAULT_255_1_234
10
23.6835659
20
131.6404
11
23.5654994
21
131.6404
0
LINE
8
DEFAULT_255_1_234
10
23.5654994
20
131.6404
11
23.1823854
21
132.5849324
0
LINE
8
DEFAULT_255_1_234
10
23.1823854
20
132.5849324
11
23.1976458
21
132.0957996
0
LINE
8
DEFAULT_255_1_234
10
23.1976458
20
132.0957996
11
23.1976458
21
131.6404
0
LINE
8
DEFAULT_255_1_234
10
23.1976458
20
131.6404
11
23.0434364
21
131.6404
0
LINE
8
DEFAULT_255_1_234
10
23.0434364
20
131.6404
11
23.0434364
21
132.8098211
0
LINE
8
DEFAULT_255_1_234
10
23.0434364
20
5.8098211
11
23.2426235
21
5.8098211
0
LINE
8
DEFAULT_255_1_234
10
23.2426235
20
5.8098211
11
23.6249342
21
4.8556506
0
LINE
8
DEFAULT_255_1_234
10
23.6249342
20
4.8556506
11
24.007245
21
5.8098211
0
LINE
8
DEFAULT_255_1_234
10
24.007245
20
5.8098211
11
24.2072353
21
5.8098211
0
LINE
8
DEFAULT_255_1_234
10
24.2072353
20
5.8098211
11
24.2072353
21
4.6404
0
LINE
8
DEFAULT_255_1_234
10
24.2072353
20
4.6404
11
24.0530259
21
4.6404
0
LINE
8
DEFAULT_255_1_234
10
24.0530259
20
4.6404
11
24.0530259
21
5.0957996
0
LINE
8
DEFAULT_255_1_234
10
24.0530259
20
5.0957996
11
24.067483
21
5.5873419
0
LINE
8
DEFAULT_255_1_234
10
24.067483
20
5.5873419
11
23.6835659
21
4.6404
0
LINE
8
DEFAULT_255_1_234
10
23.6835659
20
4.6404
11
23.5654994
21
4.6404
0
LINE
8
DEFAULT_255_1_234
10
23.5654994
20
4.6404
11
23.1823854
21
5.5849324
0
LINE
8
DEFAULT_255_1_234
10
23.1823854
20
5.5849324
11
23.1976458
21
5.0957996
0
LINE
8
DEFAULT_255_1_234
10
23.1976458
20
5.0957996
11
23.1976458
21
4.6404
0
LINE
8
DEFAULT_255_1_234
10
23.1976458
20
4.6404
11
23.0434364
21
4.6404
0
LINE
8
DEFAULT_255_1_234
10
23.0434364
20
4.6404
11
23.0434364
21
5.8098211
0
LINE
8
DEFAULT_255_1_234
10
22.2272657
20
13.1995565
11
22.2272657
21
13.1248614
0
LINE
8
DEFAULT_255_1_234
10
22.0224563
20
12.6413507
11
22.2312815
21
12.4775033
0
LINE
8
DEFAULT_255_1_234
10
22.2312815
20
12.4775033
11
22.1260658
21
12.3803192
0
LINE
8
DEFAULT_255_1_234
10
22.1260658
20
12.3803192
11
21.8794914
21
12.5762937
0
LINE
8
DEFAULT_255_1_234
10
21.2859459
20
13.1144201
11
21.2859459
21
13.1987534
0
LINE
8
DEFAULT_255_1_234
10
22.0730563
20
13.1136169
11
22.0730563
21
13.2003597
0
LINE
8
DEFAULT_255_1_234
10
21.4401553
20
13.210801
11
21.4401553
21
13.1248614
0
ARC
8
DEFAULT_255_1_234
10
21.3318909
20
13.1209707
40
0.8953833
50
351.453011
51
0.2489685
0
ARC
8
DEFAULT_255_1_234
10
21.5903709
20
13.0809933
40
0.6338333
50
338.6861641
51
351.5540711
0
ARC
8
DEFAULT_255_1_234
10
21.6837593
20
13.0479828
40
0.5348431
50
336.2887631
51
338.3442418
0
ARC
8
DEFAULT_255_1_234
10
21.7177215
20
13.0293698
40
0.4962747
50
321.1170344
51
336.6795229
0
ARC
8
DEFAULT_255_1_234
10
21.7809044
20
12.9807206
40
0.4165565
50
305.4419708
51
320.8705636
0
ARC
8
DEFAULT_255_1_234
10
21.7612514
20
13.0554707
40
0.4935497
50
271.6373023
51
283.8611969
0
ARC
8
DEFAULT_255_1_234
10
21.7574767
20
13.1210572
40
0.5592206
50
269.9930596
51
271.8318864
0
ARC
8
DEFAULT_255_1_234
10
21.753721
20
13.0402681
40
0.4784458
50
252.5219675
51
270.4416499
0
ARC
8
DEFAULT_255_1_234
10
21.7393469
20
12.9863592
40
0.422716
50
237.5352116
51
252.1857531
0
ARC
8
DEFAULT_255_1_234
10
21.7482665
20
12.9977363
40
0.4371052
50
209.063312
51
237.3492538
0
ARC
8
DEFAULT_255_1_234
10
21.8352513
20
13.0523685
40
0.5397041
50
205.1183774
51
209.6470015
0
ARC
8
DEFAULT_255_1_234
10
21.914955
20
13.086183
40
0.6262326
50
188.7215458
51
204.8240747
0
ARC
8
DEFAULT_255_1_234
10
22.1147078
20
13.1198067
40
0.8287794
50
180.3723947
51
188.9252049
0
ARC
8
DEFAULT_255_1_234
10
22.111983
20
13.2027402
40
0.8260467
50
169.5253763
51
180.2765336
0
ARC
8
DEFAULT_255_1_234
10
21.9217279
20
13.2377309
40
0.6326007
50
155.8315255
51
169.5089989
0
ARC
8
DEFAULT_255_1_234
10
21.793678
20
13.2971348
40
0.4914567
50
139.6258461
51
156.0379525
0
ARC
8
DEFAULT_255_1_234
10
21.7347113
20
13.3445799
40
0.4158054
50
122.6416387
51
139.3430715
0
ARC
8
DEFAULT_255_1_234
10
21.7447733
20
13.3262451
40
0.4366739
50
93.0223692
51
122.455762
0
ARC
8
DEFAULT_255_1_234
10
21.755573
20
13.2297709
40
0.5336137
50
89.975342
51
93.6341897
0
ARC
8
DEFAULT_255_1_234
10
21.7594616
20
13.2677375
40
0.4956606
50
73.9665422
51
90.4229648
0
ARC
8
DEFAULT_255_1_234
10
21.7778263
20
13.3392451
40
0.4218674
50
57.5178019
51
73.6813337
0
ARC
8
DEFAULT_255_1_234
10
21.7734046
20
13.3356462
40
0.4272816
50
28.7261108
51
57.2767933
0
ARC
8
DEFAULT_255_1_234
10
21.6823378
20
13.2793688
40
0.534218
50
24.2448911
51
29.3248482
0
ARC
8
DEFAULT_255_1_234
10
21.5897479
20
13.2410819
40
0.6343711
50
9.064382
51
23.9639114
0
ARC
8
DEFAULT_255_1_234
10
21.3641807
20
13.2031925
40
0.8630926
50
359.7586264
51
9.1891435
0
ARC
8
DEFAULT_255_1_234
10
21.2387287
20
13.2045343
40
0.834338
50
359.7133237
51
7.96545
0
ARC
8
DEFAULT_255_1_234
10
21.5349504
20
13.2472681
40
0.5350538
50
7.8291991
51
20.0421623
0
ARC
8
DEFAULT_255_1_234
10
21.6974067
20
13.3063606
40
0.3621841
50
20.0677553
51
35.9161685
0
ARC
8
DEFAULT_255_1_234
10
21.7749105
20
13.363967
40
0.2656263
50
35.6594382
51
85.1578074
0
ARC
8
DEFAULT_255_1_234
10
21.7564361
20
13.2524378
40
0.3784238
50
83.7959068
51
90.095906
0
ARC
8
DEFAULT_255_1_234
10
21.7521295
20
13.3257601
40
0.3051229
50
89.3102392
51
109.9889877
0
ARC
8
DEFAULT_255_1_234
10
21.7438778
20
13.3613433
40
0.2688988
50
110.9285147
51
143.9411762
0
ARC
8
DEFAULT_255_1_234
10
21.8369724
20
13.2901236
40
0.3860887
50
143.5289163
51
163.2980757
0
ARC
8
DEFAULT_255_1_234
10
22.0277545
20
13.2301433
40
0.5860659
50
163.0418846
51
174.3140048
0
ARC
8
DEFAULT_255_1_234
10
22.2681657
20
13.2023854
40
0.8280531
50
174.0509143
51
179.4176892
0
ARC
8
DEFAULT_255_1_234
10
22.2167992
20
13.1205634
40
0.7766558
50
179.6829237
51
188.9631324
0
ARC
8
DEFAULT_255_1_234
10
21.9497553
20
13.0770752
40
0.5060992
50
188.8100743
51
202.9300012
0
ARC
8
DEFAULT_255_1_234
10
21.8281182
20
13.0275855
40
0.3747967
50
203.2069261
51
215.7876482
0
ARC
8
DEFAULT_255_1_234
10
21.7432579
20
12.9604671
40
0.2667526
50
214.7521006
51
264.2834488
0
ARC
8
DEFAULT_255_1_234
10
21.7568234
20
13.045978
40
0.3532247
50
263.4755397
51
270.0949833
0
ARC
8
DEFAULT_255_1_234
10
21.7610345
20
13.0198374
40
0.3271036
50
269.3649385
51
287.5152008
0
ARC
8
DEFAULT_255_1_234
10
21.7788503
20
12.9551238
40
0.2600406
50
288.0630309
51
323.8113348
0
ARC
8
DEFAULT_255_1_234
10
21.6917345
20
13.0201049
40
0.3687189
50
323.6547608
51
342.6590488
0
ARC
8
DEFAULT_255_1_234
10
21.488596
20
13.0861952
40
0.5823286
50
342.4091907
51
353.6451149
0
ARC
8
DEFAULT_255_1_234
10
21.2054471
20
13.121419
40
0.8676442
50
353.4029884
51
359.4847795
0
LINE
8
DEFAULT_255_1_234
10
22.4971321
20
13.7473211
11
22.829646
21
12.7827093
0
LINE
8
DEFAULT_255_1_234
10
22.829646
20
12.7827093
11
23.1637664
21
13.7473211
0
LINE
8
DEFAULT_255_1_234
10
23.1637664
20
13.7473211
11
23.3324329
21
13.7473211
0
LINE
8
DEFAULT_255_1_234
10
23.3324329
20
13.7473211
11
22.898719
21
12.5779
0
LINE
8
DEFAULT_255_1_234
10
22.898719
20
12.5779
11
22.7621794
21
12.5779
0
LINE
8
DEFAULT_255_1_234
10
22.7621794
20
12.5779
11
22.3292688
21
13.7473211
0
LINE
8
DEFAULT_255_1_234
10
22.3292688
20
13.7473211
11
22.4971321
21
13.7473211
0
LINE
8
DEFAULT_255_1_234
10
23.9388291
20
13.7529433
11
23.9388291
21
12.5779
0
LINE
8
DEFAULT_255_1_234
10
23.9388291
20
12.5779
11
23.7894388
21
12.5779
0
LINE
8
DEFAULT_255_1_234
10
23.7894388
20
12.5779
11
23.7894388
21
13.5682133
0
LINE
8
DEFAULT_255_1_234
10
23.7894388
20
13.5682133
11
23.4898549
21
13.4581785
0
LINE
8
DEFAULT_255_1_234
10
23.4898549
20
13.4581785
11
23.4898549
21
13.5931117
0
LINE
8
DEFAULT_255_1_234
10
23.4898549
20
13.5931117
11
23.9155371
21
13.7529433
0
LINE
8
DEFAULT_255_1_234
10
23.9155371
20
13.7529433
11
23.9388291
21
13.7529433
0
LINE
8
DEFAULT_255_1_234
10
23.0434364
20
21.6848211
11
23.2426235
21
21.6848211
0
LINE
8
DEFAULT_255_1_234
10
23.2426235
20
21.6848211
11
23.6249342
21
20.7306506
0
LINE
8
DEFAULT_255_1_234
10
23.6249342
20
20.7306506
11
24.007245
21
21.6848211
0
LINE
8
DEFAULT_255_1_234
10
24.007245
20
21.6848211
11
24.2072353
21
21.6848211
0
LINE
8
DEFAULT_255_1_234
10
24.2072353
20
21.6848211
11
24.2072353
21
20.5154
0
LINE
8
DEFAULT_255_1_234
10
24.2072353
20
20.5154
11
24.0530259
21
20.5154
0
LINE
8
DEFAULT_255_1_234
10
24.0530259
20
20.5154
11
24.0530259
21
20.9707996
0
LINE
8
DEFAULT_255_1_234
10
24.0530259
20
20.9707996
11
24.067483
21
21.4623419
0
LINE
8
DEFAULT_255_1_234
10
24.067483
20
21.4623419
11
23.6835659
21
20.5154
0
LINE
8
DEFAULT_255_1_234
10
23.6835659
20
20.5154
11
23.5654994
21
20.5154
0
LINE
8
DEFAULT_255_1_234
10
23.5654994
20
20.5154
11
23.1823854
21
21.4599324
0
LINE
8
DEFAULT_255_1_234
10
23.1823854
20
21.4599324
11
23.1976458
21
20.9707996
0
LINE
8
DEFAULT_255_1_234
10
23.1976458
20
20.9707996
11
23.1976458
21
20.5154
0
LINE
8
DEFAULT_255_1_234
10
23.1976458
20
20.5154
11
23.0434364
21
20.5154
0
LINE
8
DEFAULT_255_1_234
10
23.0434364
20
20.5154
11
23.0434364
21
21.6848211
0
LINE
8
DEFAULT_255_1_234
10
22.2195657
20
29.0745565
11
22.2195657
21
28.9998614
0
LINE
8
DEFAULT_255_1_234
10
22.0147563
20
28.5163507
11
22.2235815
21
28.3525033
0
LINE
8
DEFAULT_255_1_234
10
22.2235815
20
28.3525033
11
22.1183658
21
28.2553192
0
LINE
8
DEFAULT_255_1_234
10
22.1183658
20
28.2553192
11
21.8717914
21
28.4512937
0
LINE
8
DEFAULT_255_1_234
10
21.2782459
20
28.9894201
11
21.2782459
21
29.0737534
0
LINE
8
DEFAULT_255_1_234
10
22.0653563
20
28.9886169
11
22.0653563
21
29.0753597
0
LINE
8
DEFAULT_255_1_234
10
21.4324553
20
29.085801
11
21.4324553
21
28.9998614
0
ARC
8
DEFAULT_255_1_234
10
21.3241909
20
28.9959707
40
0.8953833
50
351.453011
51
0.2489685
0
ARC
8
DEFAULT_255_1_234
10
21.5826709
20
28.9559933
40
0.6338333
50
338.6861641
51
351.5540711
0
ARC
8
DEFAULT_255_1_234
10
21.6760593
20
28.9229828
40
0.5348431
50
336.2887631
51
338.3442418
0
ARC
8
DEFAULT_255_1_234
10
21.7100215
20
28.9043698
40
0.4962747
50
321.1170344
51
336.6795229
0
ARC
8
DEFAULT_255_1_234
10
21.7732044
20
28.8557206
40
0.4165565
50
305.4419708
51
320.8705636
0
ARC
8
DEFAULT_255_1_234
10
21.7535514
20
28.9304707
40
0.4935497
50
271.6373023
51
283.8611969
0
ARC
8
DEFAULT_255_1_234
10
21.7497767
20
28.9960572
40
0.5592206
50
269.9930596
51
271.8318864
0
ARC
8
DEFAULT_255_1_234
10
21.746021
20
28.9152681
40
0.4784458
50
252.5219675
51
270.4416499
0
ARC
8
DEFAULT_255_1_234
10
21.7316469
20
28.8613592
40
0.422716
50
237.5352116
51
252.1857531
0
ARC
8
DEFAULT_255_1_234
10
21.7405665
20
28.8727363
40
0.4371052
50
209.063312
51
237.3492538
0
ARC
8
DEFAULT_255_1_234
10
21.8275513
20
28.9273685
40
0.5397041
50
205.1183774
51
209.6470015
0
ARC
8
DEFAULT_255_1_234
10
21.907255
20
28.961183
40
0.6262326
50
188.7215458
51
204.8240747
0
ARC
8
DEFAULT_255_1_234
10
22.1070078
20
28.9948067
40
0.8287794
50
180.3723947
51
188.9252049
0
ARC
8
DEFAULT_255_1_234
10
22.104283
20
29.0777402
40
0.8260467
50
169.5253763
51
180.2765336
0
ARC
8
DEFAULT_255_1_234
10
21.9140279
20
29.1127309
40
0.6326007
50
155.8315255
51
169.5089989
0
ARC
8
DEFAULT_255_1_234
10
21.785978
20
29.1721348
40
0.4914567
50
139.6258461
51
156.0379525
0
ARC
8
DEFAULT_255_1_234
10
21.7270113
20
29.2195799
40
0.4158054
50
122.6416387
51
139.3430715
0
ARC
8
DEFAULT_255_1_234
10
21.7370733
20
29.2012451
40
0.4366739
50
93.0223692
51
122.455762
0
ARC
8
DEFAULT_255_1_234
10
21.747873
20
29.1047709
40
0.5336137
50
89.975342
51
93.6341897
0
ARC
8
DEFAULT_255_1_234
10
21.7517616
20
29.1427375
40
0.4956606
50
73.9665422
51
90.4229648
0
ARC
8
DEFAULT_255_1_234
10
21.7701263
20
29.2142451
40
0.4218674
50
57.5178019
51
73.6813337
0
ARC
8
DEFAULT_255_1_234
10
21.7657046
20
29.2106462
40
0.4272816
50
28.7261108
51
57.2767933
0
ARC
8
DEFAULT_255_1_234
10
21.6746378
20
29.1543688
40
0.534218
50
24.2448911
51
29.3248482
0
ARC
8
DEFAULT_255_1_234
10
21.5820479
20
29.1160819
40
0.6343711
50
9.064382
51
23.9639114
0
ARC
8
DEFAULT_255_1_234
10
21.3564807
20
29.0781925
40
0.8630926
50
359.7586264
51
9.1891435
0
ARC
8
DEFAULT_255_1_234
10
21.2310287
20
29.0795343
40
0.834338
50
359.7133237
51
7.96545
0
ARC
8
DEFAULT_255_1_234
10
21.5272504
20
29.1222681
40
0.5350538
50
7.8291991
51
20.0421623
0
ARC
8
DEFAULT_255_1_234
10
21.6897067
20
29.1813606
40
0.3621841
50
20.0677553
51
35.9161685
0
ARC
8
DEFAULT_255_1_234
10
21.7672105
20
29.238967
40
0.2656263
50
35.6594382
51
85.1578074
0
ARC
8
DEFAULT_255_1_234
10
21.7487361
20
29.1274378
40
0.3784238
50
83.7959068
51
90.095906
0
ARC
8
DEFAULT_255_1_234
10
21.7444295
20
29.2007601
40
0.3051229
50
89.3102392
51
109.9889877
0
ARC
8
DEFAULT_255_1_234
10
21.7361778
20
29.2363433
40
0.2688988
50
110.9285147
51
143.9411762
0
ARC
8
DEFAULT_255_1_234
10
21.8292724
20
29.1651236
40
0.3860887
50
143.5289163
51
163.2980757
0
ARC
8
DEFAULT_255_1_234
10
22.0200545
20
29.1051433
40
0.5860659
50
163.0418846
51
174.3140048
0
ARC
8
DEFAULT_255_1_234
10
22.2604657
20
29.0773854
40
0.8280531
50
174.0509143
51
179.4176892
0
ARC
8
DEFAULT_255_1_234
10
22.2090992
20
28.9955634
40
0.7766558
50
179.6829237
51
188.9631324
0
ARC
8
DEFAULT_255_1_234
10
21.9420553
20
28.9520752
40
0.5060992
50
188.8100743
51
202.9300012
0
ARC
8
DEFAULT_255_1_234
10
21.8204182
20
28.9025855
40
0.3747967
50
203.2069261
51
215.7876482
0
ARC
8
DEFAULT_255_1_234
10
21.7355579
20
28.8354671
40
0.2667526
50
214.7521006
51
264.2834488
0
ARC
8
DEFAULT_255_1_234
10
21.7491234
20
28.920978
40
0.3532247
50
263.4755397
51
270.0949833
0
ARC
8
DEFAULT_255_1_234
10
21.7533345
20
28.8948374
40
0.3271036
50
269.3649385
51
287.5152008
0
ARC
8
DEFAULT_255_1_234
10
21.7711503
20
28.8301238
40
0.2600406
50
288.0630309
51
323.8113348
0
ARC
8
DEFAULT_255_1_234
10
21.6840345
20
28.8951049
40
0.3687189
50
323.6547608
51
342.6590488
0
ARC
8
DEFAULT_255_1_234
10
21.480896
20
28.9611952
40
0.5823286
50
342.4091907
51
353.6451149
0
ARC
8
DEFAULT_255_1_234
10
21.1977471
20
28.996419
40
0.8676442
50
353.4029884
51
359.4847795
0
LINE
8
DEFAULT_255_1_234
10
22.4894321
20
29.6223211
11
22.821946
21
28.6577093
0
LINE
8
DEFAULT_255_1_234
10
22.821946
20
28.6577093
11
23.1560664
21
29.6223211
0
LINE
8
DEFAULT_255_1_234
10
23.1560664
20
29.6223211
11
23.3247329
21
29.6223211
0
LINE
8
DEFAULT_255_1_234
10
23.3247329
20
29.6223211
11
22.891019
21
28.4529
0
LINE
8
DEFAULT_255_1_234
10
22.891019
20
28.4529
11
22.7544794
21
28.4529
0
LINE
8
DEFAULT_255_1_234
10
22.7544794
20
28.4529
11
22.3215688
21
29.6223211
0
LINE
8
DEFAULT_255_1_234
10
22.3215688
20
29.6223211
11
22.4894321
21
29.6223211
0
LINE
8
DEFAULT_255_1_234
10
24.1760971
20
29.1444327
11
24.1760971
21
28.9516709
0
LINE
8
DEFAULT_255_1_234
10
23.4379804
20
28.9315916
11
23.4379804
21
29.1299755
0
LINE
8
DEFAULT_255_1_234
10
24.02751
20
28.9115123
11
24.02751
21
29.1548739
0
LINE
8
DEFAULT_255_1_234
10
23.5865675
20
29.1661184
11
23.5865675
21
28.9283789
0
ARC
8
DEFAULT_255_1_234
10
22.9513861
20
28.9467805
40
1.2247208
50
353.8441951
51
0.2287902
0
ARC
8
DEFAULT_255_1_234
10
23.4153364
20
28.8949806
40
0.7578929
50
344.4934747
51
353.9765454
0
ARC
8
DEFAULT_255_1_234
10
23.7145955
20
28.8098981
40
0.4467846
50
329.2803592
51
344.7472793
0
ARC
8
DEFAULT_255_1_234
10
23.8138779
20
28.7554018
40
0.3336173
50
324.9352394
51
328.6160465
0
ARC
8
DEFAULT_255_1_234
10
23.8515888
20
28.7290427
40
0.2876076
50
280.580143
51
324.9173126
0
ARC
8
DEFAULT_255_1_234
10
23.8114681
20
28.8961099
40
0.4592847
50
269.5977311
51
281.6734359
0
ARC
8
DEFAULT_255_1_234
10
23.8042586
20
28.8841173
40
0.4472986
50
256.6228859
51
270.51044
0
ARC
8
DEFAULT_255_1_234
10
23.7640564
20
28.7292877
40
0.2873874
50
215.8618325
51
257.2788573
0
ARC
8
DEFAULT_255_1_234
10
23.8661596
20
28.7977977
40
0.4102928
50
197.9693508
51
215.2623606
0
ARC
8
DEFAULT_255_1_234
10
24.1146711
20
28.8816709
40
0.6725652
50
187.8816417
51
198.2346507
0
ARC
8
DEFAULT_255_1_234
10
24.510492
20
28.9388079
40
1.0724845
50
180.8976217
51
188.0055519
0
ARC
8
DEFAULT_255_1_234
10
24.7905108
20
28.9491777
40
1.3526448
50
180.7449369
51
181.1510016
0
ARC
8
DEFAULT_255_1_234
10
24.6327837
20
29.1348042
40
1.1948131
50
173.7675579
51
180.231553
0
ARC
8
DEFAULT_255_1_234
10
24.1809983
20
29.1858666
40
0.7401564
50
164.3058563
51
173.9002247
0
ARC
8
DEFAULT_255_1_234
10
23.8898052
20
29.2697656
40
0.4371288
50
148.7922025
51
164.568378
0
ARC
8
DEFAULT_255_1_234
10
23.7946505
20
29.3228929
40
0.3282386
50
144.5883898
51
148.1176286
0
ARC
8
DEFAULT_255_1_234
10
23.7603402
20
29.3468315
40
0.2864044
50
101.6440918
51
144.514236
0
ARC
8
DEFAULT_255_1_234
10
23.8028469
20
29.1779069
40
0.4604934
50
89.5284041
51
102.5819763
0
ARC
8
DEFAULT_255_1_234
10
23.8107557
20
29.1740018
40
0.464401
50
77.0437873
51
90.5081339
0
ARC
8
DEFAULT_255_1_234
10
23.8509559
20
29.3382615
40
0.2953195
50
48.2778575
51
77.4994676
0
ARC
8
DEFAULT_255_1_234
10
23.858219
20
29.3511746
40
0.2808655
50
36.3142134
51
47.6305865
0
ARC
8
DEFAULT_255_1_234
10
23.7713497
20
29.2926515
40
0.3855453
50
18.2931786
51
35.6769206
0
ARC
8
DEFAULT_255_1_234
10
23.5170256
20
29.2053593
40
0.654423
50
8.024666
51
18.5605216
0
ARC
8
DEFAULT_255_1_234
10
23.1007176
20
29.1438792
40
1.0752407
50
1.1274072
51
8.1718305
0
ARC
8
DEFAULT_255_1_234
10
22.7771366
20
29.1311885
40
1.3990231
50
0.5424119
51
1.3863029
0
ARC
8
DEFAULT_255_1_234
10
22.9592744
20
29.1584342
40
1.0682415
50
359.8090433
51
4.9407866
0
ARC
8
DEFAULT_255_1_234
10
23.3802758
20
29.1960113
40
0.6455691
50
4.8362157
51
12.2904523
0
ARC
8
DEFAULT_255_1_234
10
23.6557873
20
29.2573965
40
0.3633074
50
12.0805627
51
23.8173984
0
ARC
8
DEFAULT_255_1_234
10
23.7731578
20
29.3070919
40
0.2358723
50
24.2871213
51
31.3935614
0
ARC
8
DEFAULT_255_1_234
10
23.8256276
20
29.3414233
40
0.1732111
50
30.7407893
51
82.4657128
0
ARC
8
DEFAULT_255_1_234
10
23.807641
20
29.2530691
40
0.263235
50
81.1060089
51
90.2184952
0
ARC
8
DEFAULT_255_1_234
10
23.8040709
20
29.2788924
40
0.2374236
50
89.3806855
51
105.6762551
0
ARC
8
DEFAULT_255_1_234
10
23.7857339
20
29.3455567
40
0.1682847
50
105.7981136
51
149.7388061
0
ARC
8
DEFAULT_255_1_234
10
23.8921418
20
29.281595
40
0.2924306
50
149.4208916
51
163.6286378
0
ARC
8
DEFAULT_255_1_234
10
24.1012306
20
29.217825
40
0.5110213
50
163.3763315
51
172.1410975
0
ARC
8
DEFAULT_255_1_234
10
24.4313025
20
29.1705518
40
0.8444586
50
172.0259487
51
178.0703232
0
ARC
8
DEFAULT_255_1_234
10
24.7343114
20
29.1561906
40
1.1477868
50
177.8631668
51
179.5044149
0
ARC
8
DEFAULT_255_1_234
10
24.6270519
20
28.9247389
40
1.0404907
50
179.7995573
51
185.2460446
0
ARC
8
DEFAULT_255_1_234
10
24.2227558
20
28.8864513
40
0.6343885
50
185.1411642
51
193.0079639
0
ARC
8
DEFAULT_255_1_234
10
23.958403
20
28.8239641
40
0.3627568
50
192.7897626
51
205.2507664
0
ARC
8
DEFAULT_255_1_234
10
23.8537578
20
28.7772415
40
0.2481908
50
205.8005384
51
211.2537509
0
ARC
8
DEFAULT_255_1_234
10
23.8014018
20
28.742158
40
0.1852521
50
210.3789793
51
238.4008143
0
ARC
8
DEFAULT_255_1_234
10
23.799454
20
28.7468376
40
0.1882621
50
239.6520629
51
265.9793761
0
ARC
8
DEFAULT_255_1_234
10
23.807974
20
28.8140427
40
0.2559272
50
265.1315437
51
270.060332
0
ARC
8
DEFAULT_255_1_234
10
23.8108519
20
28.7816534
40
0.2235528
50
269.3314664
51
287.2178029
0
ARC
8
DEFAULT_255_1_234
10
23.8246371
20
28.7313279
40
0.1714108
50
287.7958004
51
329.080874
0
ARC
8
DEFAULT_255_1_234
10
23.7288828
20
28.791093
40
0.2842745
50
328.6634704
51
343.3325132
0
ARC
8
DEFAULT_255_1_234
10
23.5115848
20
28.8587863
40
0.5118644
50
343.0499468
51
351.9393422
0
ARC
8
DEFAULT_255_1_234
10
23.1649148
20
28.9098949
40
0.8622784
50
351.8069023
51
357.7959224
0
ARC
8
DEFAULT_255_1_234
10
22.8413704
20
28.9266721
40
1.1862365
50
357.5871873
51
359.2677531
0
LINE
8
DEFAULT_255_1_234
10
21.1871902
20
37.5598211
11
21.1871902
21
36.3904
0
LINE
8
DEFAULT_255_1_234
10
21.1871902
20
36.3904
11
21.0329808
21
36.3904
0
LINE
8
DEFAULT_255_1_234
10
21.0329808
20
36.3904
11
21.0329808
21
37.5598211
0
LINE
8
DEFAULT_255_1_234
10
21.0329808
20
37.5598211
11
21.1871902
21
37.5598211
0
LINE
8
DEFAULT_255_1_234
10
22.1742908
20
36.7614663
11
22.3293034
21
36.7614663
0
LINE
8
DEFAULT_255_1_234
10
21.4289455
20
36.9204947
11
21.4289455
21
37.0329391
0
LINE
8
DEFAULT_255_1_234
10
22.3293034
20
37.1839357
11
22.1742908
21
37.1839357
0
LINE
8
DEFAULT_255_1_234
10
21.5839581
20
37.0289232
11
21.5839581
21
36.9156757
0
ARC
8
DEFAULT_255_1_234
10
21.7812421
20
36.8211846
40
0.5513052
50
340.1774281
51
353.7814284
0
ARC
8
DEFAULT_255_1_234
10
21.9383773
20
36.7626582
40
0.3836379
50
311.4558989
51
340.4421614
0
ARC
8
DEFAULT_255_1_234
10
21.9350441
20
36.7737528
40
0.3941894
50
282.4333181
51
310.7513653
0
ARC
8
DEFAULT_255_1_234
10
21.891118
20
36.9552679
40
0.5809175
50
269.9358511
51
282.809604
0
ARC
8
DEFAULT_255_1_234
10
21.8859247
20
37.1010212
40
0.7266847
50
270.0021091
51
270.3581957
0
ARC
8
DEFAULT_255_1_234
10
21.8806664
20
36.8409585
40
0.4666519
50
250.7884749
51
270.6489167
0
ARC
8
DEFAULT_255_1_234
10
21.8638498
20
36.7772319
40
0.4009729
50
219.3627325
51
250.0611886
0
ARC
8
DEFAULT_255_1_234
10
21.9467709
20
36.8477042
40
0.5097822
50
193.5479632
51
219.5756669
0
ARC
8
DEFAULT_255_1_234
10
22.183933
20
36.9092919
40
0.7547848
50
181.1218675
51
193.87563
0
ARC
8
DEFAULT_255_1_234
10
22.3909511
20
36.920358
40
0.9620055
50
179.9918545
51
181.5394234
0
ARC
8
DEFAULT_255_1_234
10
22.2058613
20
37.0366788
40
0.7769248
50
169.5837241
51
180.2757934
0
ARC
8
DEFAULT_255_1_234
10
22.0221551
20
37.0706229
40
0.590109
50
155.0365899
51
169.6003176
0
ARC
8
DEFAULT_255_1_234
10
21.9086015
20
37.1253677
40
0.4640625
50
136.783148
51
155.2472683
0
ARC
8
DEFAULT_255_1_234
10
21.8696492
20
37.1584562
40
0.4130255
50
121.7633186
51
136.428115
0
ARC
8
DEFAULT_255_1_234
10
21.8831454
20
37.1335227
40
0.4413323
50
95.6459699
51
121.5490577
0
ARC
8
DEFAULT_255_1_234
10
21.8988736
20
37.0226949
40
0.55319
50
89.924208
51
96.1377933
0
ARC
8
DEFAULT_255_1_234
10
21.9039169
20
37.0345542
40
0.5413475
50
76.6779277
51
90.4563316
0
ARC
8
DEFAULT_255_1_234
10
21.9432792
20
37.1936114
40
0.3775041
50
47.485847
51
76.9287264
0
ARC
8
DEFAULT_255_1_234
10
21.9285765
20
37.1836159
40
0.3948286
50
16.5424086
51
46.8933463
0
ARC
8
DEFAULT_255_1_234
10
21.7677922
20
37.1307861
40
0.564021
50
5.4072051
51
17.0365086
0
ARC
8
DEFAULT_255_1_234
10
21.6238939
20
37.1076679
40
0.5556559
50
7.8891745
51
15.9239216
0
ARC
8
DEFAULT_255_1_234
10
21.8225953
20
37.1653631
40
0.3487515
50
15.7653144
51
27.9410532
0
ARC
8
DEFAULT_255_1_234
10
21.9330171
20
37.224479
40
0.2235026
50
27.8166557
51
46.4008329
0
ARC
8
DEFAULT_255_1_234
10
21.9379813
20
37.2239082
40
0.2205286
50
47.4371857
51
75.0698205
0
ARC
8
DEFAULT_255_1_234
10
21.9071208
20
37.1164765
40
0.3322915
50
74.7008593
51
87.8124495
0
ARC
8
DEFAULT_255_1_234
10
21.8997895
20
37.0108844
40
0.4380987
50
87.3814673
51
90.0240855
0
ARC
8
DEFAULT_255_1_234
10
21.8959439
20
37.1286291
40
0.3203749
50
89.3451631
51
108.5745436
0
ARC
8
DEFAULT_255_1_234
10
21.8822544
20
37.1799908
40
0.2673494
50
109.2998449
51
143.3037509
0
ARC
8
DEFAULT_255_1_234
10
21.9584617
20
37.1213881
40
0.3634757
50
143.0753173
51
163.1916937
0
ARC
8
DEFAULT_255_1_234
10
22.1536344
20
37.0597967
40
0.5681262
50
162.9373603
51
174.6208611
0
ARC
8
DEFAULT_255_1_234
10
22.4162386
20
37.031001
40
0.8322832
50
174.3419979
51
180.1430411
0
ARC
8
DEFAULT_255_1_234
10
22.3231543
20
36.9115698
40
0.7392076
50
179.6817502
51
189.150529
0
ARC
8
DEFAULT_255_1_234
10
22.0730791
20
36.869919
40
0.4856932
50
188.9910863
51
203.5773039
0
ARC
8
DEFAULT_255_1_234
10
21.9651123
20
36.8251211
40
0.3688271
50
203.9077269
51
215.1312379
0
ARC
8
DEFAULT_255_1_234
10
21.8728217
20
36.7535941
40
0.2522457
50
213.9071664
51
263.8849284
0
ARC
8
DEFAULT_255_1_234
10
21.8853546
20
36.8320518
40
0.3316174
50
263.1758525
51
270.1031083
0
ARC
8
DEFAULT_255_1_234
10
21.8885638
20
36.9567365
40
0.4563091
50
269.6719807
51
279.0609165
0
ARC
8
DEFAULT_255_1_234
10
21.9152406
20
36.7954907
40
0.2928759
50
278.8750225
51
293.6346586
0
ARC
8
DEFAULT_255_1_234
10
21.9472614
20
36.72029
40
0.2111472
50
293.8553404
51
310.0518804
0
ARC
8
DEFAULT_255_1_234
10
21.9477468
20
36.7140516
40
0.2060917
50
311.0646779
51
332.0108348
0
ARC
8
DEFAULT_255_1_234
10
21.8285195
20
36.7797978
40
0.3422352
50
331.6588543
51
343.2878891
0
ARC
8
DEFAULT_255_1_234
10
21.622271
20
36.8431798
40
0.5580003
50
343.1446044
51
351.010618
0
ARC
8
DEFAULT_255_1_234
10
21.4681356
20
36.8712871
40
0.7146438
50
350.7157277
51
351.1602153
0
LINE
8
DEFAULT_255_1_234
10
23.2674104
20
36.5116792
11
23.2674104
21
36.3904
0
LINE
8
DEFAULT_255_1_234
10
23.2674104
20
36.3904
11
22.5011826
21
36.3904
0
LINE
8
DEFAULT_255_1_234
10
22.5011826
20
36.3904
11
22.5011826
21
36.4972221
0
LINE
8
DEFAULT_255_1_234
10
22.5011826
20
36.4972221
11
22.9059822
21
36.9469995
0
LINE
8
DEFAULT_255_1_234
10
22.6272809
20
37.2152595
11
22.4786937
21
37.2152595
0
LINE
8
DEFAULT_255_1_234
10
22.9935281
20
36.8514218
11
22.6802903
21
36.5116792
0
LINE
8
DEFAULT_255_1_234
10
22.6802903
20
36.5116792
11
23.2674104
21
36.5116792
0
ARC
8
DEFAULT_255_1_234
10
21.5569655
20
38.1399527
40
1.8008286
50
318.5132453
51
320.7828378
0
ARC
8
DEFAULT_255_1_234
10
22.085663
20
37.7096426
40
1.1191493
50
320.7372736
51
323.9737074
0
ARC
8
DEFAULT_255_1_234
10
22.4776486
20
37.4256361
40
0.6350923
50
323.8961724
51
328.6421089
0
ARC
8
DEFAULT_255_1_234
10
22.6823081
20
37.2994031
40
0.3946393
50
328.8299013
51
331.789948
0
ARC
8
DEFAULT_255_1_234
10
22.782026
20
37.2479509
40
0.2824501
50
331.4255242
51
352.9364833
0
ARC
8
DEFAULT_255_1_234
10
22.7956761
20
37.2448976
40
0.2685315
50
353.2248685
51
0.0169286
0
ARC
8
DEFAULT_255_1_234
10
22.8166637
20
37.247195
40
0.2475536
50
359.4866256
51
15.9339782
0
ARC
8
DEFAULT_255_1_234
10
22.8673623
20
37.2608286
40
0.1950618
50
16.1714718
51
43.5284424
0
ARC
8
DEFAULT_255_1_234
10
22.8750931
20
37.2685573
40
0.184134
50
43.4415429
51
83.1661404
0
ARC
8
DEFAULT_255_1_234
10
22.8616849
20
37.1948771
40
0.258926
50
82.160215
51
90.1505798
0
ARC
8
DEFAULT_255_1_234
10
22.8585277
20
37.1411865
40
0.3126255
50
89.5460705
51
102.5418777
0
ARC
8
DEFAULT_255_1_234
10
22.8342363
20
37.2442665
40
0.2067346
50
102.1739365
51
129.2061916
0
ARC
8
DEFAULT_255_1_234
10
22.8263435
20
37.2567094
40
0.1921118
50
129.7279328
51
135.7542026
0
ARC
8
DEFAULT_255_1_234
10
22.8384962
20
37.2470045
40
0.2075944
50
136.175737
51
166.3674722
0
ARC
8
DEFAULT_255_1_234
10
22.9391881
20
37.2200182
40
0.3118201
50
165.9092917
51
178.8683903
0
ARC
8
DEFAULT_255_1_234
10
23.0256743
20
37.2153179
40
0.3983935
50
178.438168
51
180.0083905
0
ARC
8
DEFAULT_255_1_234
10
22.8855345
20
37.2192231
40
0.4068601
50
163.2878735
51
180.5581814
0
ARC
8
DEFAULT_255_1_234
10
22.8053606
20
37.241284
40
0.3237344
50
133.454115
51
162.9470031
0
ARC
8
DEFAULT_255_1_234
10
22.8232148
20
37.2223
40
0.349795
50
100.7869394
51
133.4384016
0
ARC
8
DEFAULT_255_1_234
10
22.8579919
20
37.0674319
40
0.5084616
50
89.6605301
51
101.3704185
0
ARC
8
DEFAULT_255_1_234
10
22.8646258
20
37.0735496
40
0.502348
50
78.2171172
51
90.4130393
0
ARC
8
DEFAULT_255_1_234
10
22.9001336
20
37.2359637
40
0.3361092
50
55.9268222
51
78.4888551
0
ARC
8
DEFAULT_255_1_234
10
22.9197776
20
37.2698324
40
0.2970617
50
47.9292255
51
55.4054003
0
ARC
8
DEFAULT_255_1_234
10
22.9299337
20
37.2801502
40
0.2825983
50
4.3347696
51
48.0560701
0
ARC
8
DEFAULT_255_1_234
10
22.8203731
20
37.2631601
40
0.393225
50
359.925209
51
5.5967654
0
ARC
8
DEFAULT_255_1_234
10
22.8632622
20
37.2687816
40
0.3503892
50
337.8914096
51
358.9967724
0
ARC
8
DEFAULT_255_1_234
10
22.5919034
20
37.3734706
40
0.6412172
50
326.9135351
51
338.3505194
0
ARC
8
DEFAULT_255_1_234
10
22.1933338
20
37.6289284
40
1.1146189
50
319.6472867
51
327.095818
0
ARC
8
DEFAULT_255_1_234
10
21.8100341
20
37.9451
40
1.6114559
50
317.2586784
51
319.9046139
0
LINE
8
DEFAULT_255_1_234
10
23.6408862
20
36.9261169
11
23.6408862
21
37.0473962
0
LINE
8
DEFAULT_255_1_234
10
23.6408862
20
37.0473962
11
23.7525274
21
37.0473962
0
LINE
8
DEFAULT_255_1_234
10
23.5621752
20
37.2530087
11
23.413588
21
37.2530087
0
LINE
8
DEFAULT_255_1_234
10
23.4031468
20
36.6988188
11
23.5525371
21
36.6988188
0
LINE
8
DEFAULT_255_1_234
10
23.7525274
20
36.9261169
11
23.6408862
21
36.9261169
0
ARC
8
DEFAULT_255_1_234
10
23.749614
20
37.3866713
40
0.3392876
50
270.4919872
51
281.8951556
0
ARC
8
DEFAULT_255_1_234
10
23.7737402
20
37.2764702
40
0.2264817
50
281.6691735
51
301.2943132
0
ARC
8
DEFAULT_255_1_234
10
23.7907612
20
37.2453304
40
0.1910381
50
301.7833094
51
311.7545298
0
ARC
8
DEFAULT_255_1_234
10
23.7999188
20
37.2351748
40
0.1773635
50
311.7323931
51
354.2802411
0
ARC
8
DEFAULT_255_1_234
10
23.7272813
20
37.2476722
40
0.2509385
50
353.0937916
51
0.1181479
0
ARC
8
DEFAULT_255_1_234
10
23.6811598
20
37.2524386
40
0.2970898
50
359.1805295
51
15.0453146
0
ARC
8
DEFAULT_255_1_234
10
23.8157435
20
37.2916992
40
0.1569564
50
13.9577229
51
77.6713066
0
ARC
8
DEFAULT_255_1_234
10
23.7770964
20
37.1531949
40
0.3006298
50
76.1116566
51
90.7026153
0
ARC
8
DEFAULT_255_1_234
10
23.7711803
20
37.1805545
40
0.2732568
50
89.5324876
51
103.531937
0
ARC
8
DEFAULT_255_1_234
10
23.7511247
20
37.2604884
40
0.1908508
50
103.2931773
51
133.5619022
0
ARC
8
DEFAULT_255_1_234
10
23.7466735
20
37.2664375
40
0.1834746
50
133.8349307
51
173.5344437
0
ARC
8
DEFAULT_255_1_234
10
23.8189778
20
37.2536213
40
0.2568033
50
172.5096846
51
180.1366907
0
ARC
8
DEFAULT_255_1_234
10
23.7238672
20
37.2570622
40
0.3103056
50
155.3484492
51
180.7484736
0
ARC
8
DEFAULT_255_1_234
10
23.7189761
20
37.2541846
40
0.3070957
50
131.5744599
51
154.4798489
0
ARC
8
DEFAULT_255_1_234
10
23.7502909
20
37.222531
40
0.3515643
50
96.9875458
51
131.9690667
0
ARC
8
DEFAULT_255_1_234
10
23.7722388
20
37.0979636
40
0.4779224
50
89.8596053
51
97.7825159
0
ARC
8
DEFAULT_255_1_234
10
23.7770452
20
37.0717616
40
0.5041361
50
78.3655447
51
90.4131539
0
ARC
8
DEFAULT_255_1_234
10
23.8128369
20
37.2376887
40
0.3344039
50
56.6229102
51
78.638727
0
ARC
8
DEFAULT_255_1_234
10
23.8343313
20
37.2752805
40
0.2912001
50
47.0253525
51
56.0854072
0
ARC
8
DEFAULT_255_1_234
10
23.8363093
20
37.2792223
40
0.2869704
50
10.9208013
51
46.7778124
0
ARC
8
DEFAULT_255_1_234
10
23.699916
20
37.2476857
40
0.426899
50
359.6364486
51
11.6087304
0
ARC
8
DEFAULT_255_1_234
10
23.8834004
20
37.2461752
40
0.243409
50
332.3549906
51
359.7179418
0
ARC
8
DEFAULT_255_1_234
10
23.8183605
20
37.2770142
40
0.3153459
50
325.2333722
51
332.8745602
0
ARC
8
DEFAULT_255_1_234
10
23.8336229
20
37.2663828
40
0.2967456
50
292.9802137
51
325.2392345
0
ARC
8
DEFAULT_255_1_234
10
23.8061603
20
37.3197863
40
0.3566604
50
292.5402179
51
293.6924929
0
ARC
8
DEFAULT_255_1_234
10
23.8454199
20
36.6743091
40
0.3307468
50
57.6435486
51
72.8625112
0
ARC
8
DEFAULT_255_1_234
10
23.8808698
20
36.7317549
40
0.2632492
50
36.7248896
51
57.4697979
0
ARC
8
DEFAULT_255_1_234
10
23.8797331
20
36.733022
40
0.2634081
50
8.0545065
51
36.356114
0
ARC
8
DEFAULT_255_1_234
10
23.7934516
20
36.7175174
40
0.3510261
50
359.8320645
51
8.5869982
0
ARC
8
DEFAULT_255_1_234
10
23.7559293
20
36.7127101
40
0.3885653
50
343.9829931
51
0.5571613
0
ARC
8
DEFAULT_255_1_234
10
23.844549
20
36.6884438
40
0.2966924
50
311.6359546
51
343.7651759
0
ARC
8
DEFAULT_255_1_234
10
23.8067059
20
36.7311102
40
0.3537231
50
279.7829875
51
311.6255694
0
ARC
8
DEFAULT_255_1_234
10
23.7765835
20
36.874828
40
0.5004971
50
269.7286406
51
280.3856417
0
ARC
8
DEFAULT_255_1_234
10
23.7703908
20
36.8706996
40
0.4963778
50
256.6828919
51
270.4412052
0
ARC
8
DEFAULT_255_1_234
10
23.7365204
20
36.7322394
40
0.3538406
50
229.4223008
51
256.8556159
0
ARC
8
DEFAULT_255_1_234
10
23.6950596
20
36.6855736
40
0.2914296
50
181.818294
51
229.6455059
0
ARC
8
DEFAULT_255_1_234
10
23.7990553
20
36.6986496
40
0.3959084
50
179.9755256
51
183.2323064
0
ARC
8
DEFAULT_255_1_234
10
23.7818298
20
36.6966037
40
0.2293034
50
179.4465117
51
196.2869258
0
ARC
8
DEFAULT_255_1_234
10
23.7330706
20
36.6832651
40
0.1787621
50
196.5661473
51
227.705904
0
ARC
8
DEFAULT_255_1_234
10
23.7494801
20
36.7016155
40
0.2033784
50
227.7652068
51
257.8762805
0
ARC
8
DEFAULT_255_1_234
10
23.7719771
20
36.7959156
40
0.3003081
50
257.4584385
51
270.426602
0
ARC
8
DEFAULT_255_1_234
10
23.7765338
20
36.8248996
40
0.329292
50
269.5962073
51
280.8789248
0
ARC
8
DEFAULT_255_1_234
10
23.7994866
20
36.7102685
40
0.2123908
50
280.6346389
51
299.8595945
0
ARC
8
DEFAULT_255_1_234
10
23.8185773
20
36.6740212
40
0.171457
50
300.3576302
51
314.5517981
0
ARC
8
DEFAULT_255_1_234
10
23.8102833
20
36.6800919
40
0.1816095
50
315.0728369
51
345.0431014
0
ARC
8
DEFAULT_255_1_234
10
23.7179648
20
36.7069841
40
0.2777492
50
344.5986631
51
357.9269593
0
ARC
8
DEFAULT_255_1_234
10
23.6283974
20
36.7131276
40
0.3674917
50
357.4748886
51
0.0231117
0
ARC
8
DEFAULT_255_1_234
10
23.7307083
20
36.7155679
40
0.2651907
50
359.5047933
51
13.4239635
0
ARC
8
DEFAULT_255_1_234
10
23.8173727
20
36.7377478
40
0.1757509
50
12.9498199
51
48.7551375
0
ARC
8
DEFAULT_255_1_234
10
23.7991461
20
36.71284
40
0.2065134
50
49.5088623
51
72.1836453
0
ARC
8
DEFAULT_255_1_234
10
23.7633613
20
36.6066291
40
0.3185836
50
71.9010081
51
84.3554254
0
ARC
8
DEFAULT_255_1_234
10
23.7472245
20
36.4705326
40
0.4556151
50
84.0193428
51
89.333121
0
LINE
8
DEFAULT_255_1_234
10
21.5551364
20
45.4973211
11
21.7543235
21
45.4973211
0
LINE
8
DEFAULT_255_1_234
10
21.7543235
20
45.4973211
11
22.1366342
21
44.5431506
0
LINE
8
DEFAULT_255_1_234
10
22.1366342
20
44.5431506
11
22.518945
21
45.4973211
0
LINE
8
DEFAULT_255_1_234
10
22.518945
20
45.4973211
11
22.7189353
21
45.4973211
0
LINE
8
DEFAULT_255_1_234
10
22.7189353
20
45.4973211
11
22.7189353
21
44.3279
0
LINE
8
DEFAULT_255_1_234
10
22.7189353
20
44.3279
11
22.5647259
21
44.3279
0
LINE
8
DEFAULT_255_1_234
10
22.5647259
20
44.3279
11
22.5647259
21
44.7832996
0
LINE
8
DEFAULT_255_1_234
10
22.5647259
20
44.7832996
11
22.579183
21
45.2748419
0
LINE
8
DEFAULT_255_1_234
10
22.579183
20
45.2748419
11
22.1952659
21
44.3279
0
LINE
8
DEFAULT_255_1_234
10
22.1952659
20
44.3279
11
22.0771994
21
44.3279
0
LINE
8
DEFAULT_255_1_234
10
22.0771994
20
44.3279
11
21.6940854
21
45.2724324
0
LINE
8
DEFAULT_255_1_234
10
21.6940854
20
45.2724324
11
21.7093458
21
44.7832996
0
LINE
8
DEFAULT_255_1_234
10
21.7093458
20
44.7832996
11
21.7093458
21
44.3279
0
LINE
8
DEFAULT_255_1_234
10
21.7093458
20
44.3279
11
21.5551364
21
44.3279
0
LINE
8
DEFAULT_255_1_234
10
21.5551364
20
44.3279
11
21.5551364
21
45.4973211
0
LINE
8
DEFAULT_255_1_234
10
23.1687126
20
44.8636169
11
23.1687126
21
44.9848962
0
LINE
8
DEFAULT_255_1_234
10
23.1687126
20
44.9848962
11
23.2803538
21
44.9848962
0
LINE
8
DEFAULT_255_1_234
10
23.0900016
20
45.1905087
11
22.9414144
21
45.1905087
0
LINE
8
DEFAULT_255_1_234
10
22.9309731
20
44.6363188
11
23.0803635
21
44.6363188
0
LINE
8
DEFAULT_255_1_234
10
23.2803538
20
44.8636169
11
23.1687126
21
44.8636169
0
ARC
8
DEFAULT_255_1_234
10
23.2774404
20
45.3241713
40
0.3392876
50
270.4919872
51
281.8951556
0
ARC
8
DEFAULT_255_1_234
10
23.3015666
20
45.2139702
40
0.2264817
50
281.6691735
51
301.2943132
0
ARC
8
DEFAULT_255_1_234
10
23.3185876
20
45.1828304
40
0.1910381
50
301.7833094
51
311.7545298
0
ARC
8
DEFAULT_255_1_234
10
23.3277452
20
45.1726748
40
0.1773635
50
311.7323931
51
354.2802411
0
ARC
8
DEFAULT_255_1_234
10
23.2551077
20
45.1851722
40
0.2509385
50
353.0937916
51
0.1181479
0
ARC
8
DEFAULT_255_1_234
10
23.2089862
20
45.1899386
40
0.2970898
50
359.1805295
51
15.0453146
0
ARC
8
DEFAULT_255_1_234
10
23.3435699
20
45.2291992
40
0.1569564
50
13.9577229
51
77.6713066
0
ARC
8
DEFAULT_255_1_234
10
23.3049228
20
45.0906949
40
0.3006298
50
76.1116566
51
90.7026153
0
ARC
8
DEFAULT_255_1_234
10
23.2990066
20
45.1180545
40
0.2732568
50
89.5324876
51
103.531937
0
ARC
8
DEFAULT_255_1_234
10
23.278951
20
45.1979884
40
0.1908508
50
103.2931773
51
133.5619022
0
ARC
8
DEFAULT_255_1_234
10
23.2744999
20
45.2039375
40
0.1834746
50
133.8349307
51
173.5344437
0
ARC
8
DEFAULT_255_1_234
10
23.3468042
20
45.1911213
40
0.2568033
50
172.5096846
51
180.1366907
0
ARC
8
DEFAULT_255_1_234
10
23.2516936
20
45.1945622
40
0.3103056
50
155.3484492
51
180.7484736
0
ARC
8
DEFAULT_255_1_234
10
23.2468025
20
45.1916846
40
0.3070957
50
131.5744599
51
154.4798489
0
ARC
8
DEFAULT_255_1_234
10
23.2781172
20
45.160031
40
0.3515643
50
96.9875458
51
131.9690667
0
ARC
8
DEFAULT_255_1_234
10
23.3000652
20
45.0354636
40
0.4779224
50
89.8596053
51
97.7825159
0
ARC
8
DEFAULT_255_1_234
10
23.3048715
20
45.0092616
40
0.5041361
50
78.3655447
51
90.4131539
0
ARC
8
DEFAULT_255_1_234
10
23.3406633
20
45.1751887
40
0.3344039
50
56.6229102
51
78.638727
0
ARC
8
DEFAULT_255_1_234
10
23.3621577
20
45.2127805
40
0.2912001
50
47.0253525
51
56.0854072
0
ARC
8
DEFAULT_255_1_234
10
23.3641357
20
45.2167223
40
0.2869704
50
10.9208013
51
46.7778124
0
ARC
8
DEFAULT_255_1_234
10
23.2277423
20
45.1851857
40
0.426899
50
359.6364486
51
11.6087304
0
ARC
8
DEFAULT_255_1_234
10
23.4112267
20
45.1836752
40
0.243409
50
332.3549906
51
359.7179418
0
ARC
8
DEFAULT_255_1_234
10
23.3461869
20
45.2145142
40
0.3153459
50
325.2333722
51
332.8745602
0
ARC
8
DEFAULT_255_1_234
10
23.3614493
20
45.2038828
40
0.2967456
50
292.9802137
51
325.2392345
0
ARC
8
DEFAULT_255_1_234
10
23.3339866
20
45.2572863
40
0.3566604
50
292.5402179
51
293.6924929
0
ARC
8
DEFAULT_255_1_234
10
23.3732462
20
44.6118091
40
0.3307468
50
57.6435486
51
72.8625112
0
ARC
8
DEFAULT_255_1_234
10
23.4086962
20
44.6692549
40
0.2632492
50
36.7248896
51
57.4697979
0
ARC
8
DEFAULT_255_1_234
10
23.4075595
20
44.670522
40
0.2634081
50
8.0545065
51
36.356114
0
ARC
8
DEFAULT_255_1_234
10
23.321278
20
44.6550174
40
0.3510261
50
359.8320645
51
8.5869982
0
ARC
8
DEFAULT_255_1_234
10
23.2837556
20
44.6502101
40
0.3885653
50
343.9829931
51
0.5571613
0
ARC
8
DEFAULT_255_1_234
10
23.3723753
20
44.6259438
40
0.2966924
50
311.6359546
51
343.7651759
0
ARC
8
DEFAULT_255_1_234
10
23.3345323
20
44.6686102
40
0.3537231
50
279.7829875
51
311.6255694
0
ARC
8
DEFAULT_255_1_234
10
23.3044099
20
44.812328
40
0.5004971
50
269.7286406
51
280.3856417
0
ARC
8
DEFAULT_255_1_234
10
23.2982171
20
44.8081996
40
0.4963778
50
256.6828919
51
270.4412052
0
ARC
8
DEFAULT_255_1_234
10
23.2643467
20
44.6697394
40
0.3538406
50
229.4223008
51
256.8556159
0
ARC
8
DEFAULT_255_1_234
10
23.222886
20
44.6230736
40
0.2914296
50
181.818294
51
229.6455059
0
ARC
8
DEFAULT_255_1_234
10
23.3268816
20
44.6361496
40
0.3959084
50
179.9755256
51
183.2323064
0
ARC
8
DEFAULT_255_1_234
10
23.3096562
20
44.6341037
40
0.2293034
50
179.4465117
51
196.2869258
0
ARC
8
DEFAULT_255_1_234
10
23.260897
20
44.6207651
40
0.1787621
50
196.5661473
51
227.705904
0
ARC
8
DEFAULT_255_1_234
10
23.2773065
20
44.6391155
40
0.2033784
50
227.7652068
51
257.8762805
0
ARC
8
DEFAULT_255_1_234
10
23.2998035
20
44.7334156
40
0.3003081
50
257.4584385
51
270.426602
0
ARC
8
DEFAULT_255_1_234
10
23.3043601
20
44.7623996
40
0.329292
50
269.5962073
51
280.8789248
0
ARC
8
DEFAULT_255_1_234
10
23.327313
20
44.6477685
40
0.2123908
50
280.6346389
51
299.8595945
0
ARC
8
DEFAULT_255_1_234
10
23.3464037
20
44.6115212
40
0.171457
50
300.3576302
51
314.5517981
0
ARC
8
DEFAULT_255_1_234
10
23.3381097
20
44.6175919
40
0.1816095
50
315.0728369
51
345.0431014
0
ARC
8
DEFAULT_255_1_234
10
23.2457911
20
44.6444841
40
0.2777492
50
344.5986631
51
357.9269593
0
ARC
8
DEFAULT_255_1_234
10
23.1562238
20
44.6506276
40
0.3674917
50
357.4748886
51
0.0231117
0
ARC
8
DEFAULT_255_1_234
10
23.2585347
20
44.6530679
40
0.2651907
50
359.5047933
51
13.4239635
0
ARC
8
DEFAULT_255_1_234
10
23.345199
20
44.6752478
40
0.1757509
50
12.9498199
51
48.7551375
0
ARC
8
DEFAULT_255_1_234
10
23.3269724
20
44.65034
40
0.2065134
50
49.5088623
51
72.1836453
0
ARC
8
DEFAULT_255_1_234
10
23.2911877
20
44.5441291
40
0.3185836
50
71.9010081
51
84.3554254
0
ARC
8
DEFAULT_255_1_234
10
23.2750509
20
44.4080326
40
0.4556151
50
84.0193428
51
89.333121
0
LINE
8
DEFAULT_255_1_234
10
24.200791
20
44.8853026
11
24.200791
21
44.7640234
0
LINE
8
DEFAULT_255_1_234
10
24.200791
20
44.7640234
11
23.8088421
21
44.7640234
0
LINE
8
DEFAULT_255_1_234
10
23.8088421
20
44.7640234
11
23.8088421
21
44.8853026
0
LINE
8
DEFAULT_255_1_234
10
23.8088421
20
44.8853026
11
24.200791
21
44.8853026
0
LINE
8
DEFAULT_255_1_234
10
21.1064364
20
53.4348211
11
21.3056235
21
53.4348211
0
LINE
8
DEFAULT_255_1_234
10
21.3056235
20
53.4348211
11
21.6879342
21
52.4806506
0
LINE
8
DEFAULT_255_1_234
10
21.6879342
20
52.4806506
11
22.070245
21
53.4348211
0
LINE
8
DEFAULT_255_1_234
10
22.070245
20
53.4348211
11
22.2702353
21
53.4348211
0
LINE
8
DEFAULT_255_1_234
10
22.2702353
20
53.4348211
11
22.2702353
21
52.2654
0
LINE
8
DEFAULT_255_1_234
10
22.2702353
20
52.2654
11
22.1160259
21
52.2654
0
LINE
8
DEFAULT_255_1_234
10
22.1160259
20
52.2654
11
22.1160259
21
52.7207996
0
LINE
8
DEFAULT_255_1_234
10
22.1160259
20
52.7207996
11
22.130483
21
53.2123419
0
LINE
8
DEFAULT_255_1_234
10
22.130483
20
53.2123419
11
21.7465659
21
52.2654
0
LINE
8
DEFAULT_255_1_234
10
21.7465659
20
52.2654
11
21.6284994
21
52.2654
0
LINE
8
DEFAULT_255_1_234
10
21.6284994
20
52.2654
11
21.2453854
21
53.2099324
0
LINE
8
DEFAULT_255_1_234
10
21.2453854
20
53.2099324
11
21.2606458
21
52.7207996
0
LINE
8
DEFAULT_255_1_234
10
21.2606458
20
52.7207996
11
21.2606458
21
52.2654
0
LINE
8
DEFAULT_255_1_234
10
21.2606458
20
52.2654
11
21.1064364
21
52.2654
0
LINE
8
DEFAULT_255_1_234
10
21.1064364
20
52.2654
11
21.1064364
21
53.4348211
0
LINE
8
DEFAULT_255_1_234
10
22.7200126
20
52.8011169
11
22.7200126
21
52.9223962
0
LINE
8
DEFAULT_255_1_234
10
22.7200126
20
52.9223962
11
22.8316538
21
52.9223962
0
LINE
8
DEFAULT_255_1_234
10
22.6413016
20
53.1280087
11
22.4927144
21
53.1280087
0
LINE
8
DEFAULT_255_1_234
10
22.4822731
20
52.5738188
11
22.6316635
21
52.5738188
0
LINE
8
DEFAULT_255_1_234
10
22.8316538
20
52.8011169
11
22.7200126
21
52.8011169
0
ARC
8
DEFAULT_255_1_234
10
22.8287404
20
53.2616713
40
0.3392876
50
270.4919872
51
281.8951556
0
ARC
8
DEFAULT_255_1_234
10
22.8528666
20
53.1514702
40
0.2264817
50
281.6691735
51
301.2943132
0
ARC
8
DEFAULT_255_1_234
10
22.8698876
20
53.1203304
40
0.1910381
50
301.7833094
51
311.7545298
0
ARC
8
DEFAULT_255_1_234
10
22.8790452
20
53.1101748
40
0.1773635
50
311.7323931
51
354.2802411
0
ARC
8
DEFAULT_255_1_234
10
22.8064077
20
53.1226722
40
0.2509385
50
353.0937916
51
0.1181479
0
ARC
8
DEFAULT_255_1_234
10
22.7602862
20
53.1274386
40
0.2970898
50
359.1805295
51
15.0453146
0
ARC
8
DEFAULT_255_1_234
10
22.8948699
20
53.1666992
40
0.1569564
50
13.9577229
51
77.6713066
0
ARC
8
DEFAULT_255_1_234
10
22.8562228
20
53.0281949
40
0.3006298
50
76.1116566
51
90.7026153
0
ARC
8
DEFAULT_255_1_234
10
22.8503066
20
53.0555545
40
0.2732568
50
89.5324876
51
103.531937
0
ARC
8
DEFAULT_255_1_234
10
22.830251
20
53.1354884
40
0.1908508
50
103.2931773
51
133.5619022
0
ARC
8
DEFAULT_255_1_234
10
22.8257999
20
53.1414375
40
0.1834746
50
133.8349307
51
173.5344437
0
ARC
8
DEFAULT_255_1_234
10
22.8981042
20
53.1286213
40
0.2568033
50
172.5096846
51
180.1366907
0
ARC
8
DEFAULT_255_1_234
10
22.8029936
20
53.1320622
40
0.3103056
50
155.3484492
51
180.7484736
0
ARC
8
DEFAULT_255_1_234
10
22.7981025
20
53.1291846
40
0.3070957
50
131.5744599
51
154.4798489
0
ARC
8
DEFAULT_255_1_234
10
22.8294172
20
53.097531
40
0.3515643
50
96.9875458
51
131.9690667
0
ARC
8
DEFAULT_255_1_234
10
22.8513652
20
52.9729636
40
0.4779224
50
89.8596053
51
97.7825159
0
ARC
8
DEFAULT_255_1_234
10
22.8561715
20
52.9467616
40
0.5041361
50
78.3655447
51
90.4131539
0
ARC
8
DEFAULT_255_1_234
10
22.8919633
20
53.1126887
40
0.3344039
50
56.6229102
51
78.638727
0
ARC
8
DEFAULT_255_1_234
10
22.9134577
20
53.1502805
40
0.2912001
50
47.0253525
51
56.0854072
0
ARC
8
DEFAULT_255_1_234
10
22.9154357
20
53.1542223
40
0.2869704
50
10.9208013
51
46.7778124
0
ARC
8
DEFAULT_255_1_234
10
22.7790423
20
53.1226857
40
0.426899
50
359.6364486
51
11.6087304
0
ARC
8
DEFAULT_255_1_234
10
22.9625267
20
53.1211752
40
0.243409
50
332.3549906
51
359.7179418
0
ARC
8
DEFAULT_255_1_234
10
22.8974869
20
53.1520142
40
0.3153459
50
325.2333722
51
332.8745602
0
ARC
8
DEFAULT_255_1_234
10
22.9127493
20
53.1413828
40
0.2967456
50
292.9802137
51
325.2392345
0
ARC
8
DEFAULT_255_1_234
10
22.8852866
20
53.1947863
40
0.3566604
50
292.5402179
51
293.6924929
0
ARC
8
DEFAULT_255_1_234
10
22.9245462
20
52.5493091
40
0.3307468
50
57.6435486
51
72.8625112
0
ARC
8
DEFAULT_255_1_234
10
22.9599962
20
52.6067549
40
0.2632492
50
36.7248896
51
57.4697979
0
ARC
8
DEFAULT_255_1_234
10
22.9588595
20
52.608022
40
0.2634081
50
8.0545065
51
36.356114
0
ARC
8
DEFAULT_255_1_234
10
22.872578
20
52.5925174
40
0.3510261
50
359.8320645
51
8.5869982
0
ARC
8
DEFAULT_255_1_234
10
22.8350556
20
52.5877101
40
0.3885653
50
343.9829931
51
0.5571613
0
ARC
8
DEFAULT_255_1_234
10
22.9236753
20
52.5634438
40
0.2966924
50
311.6359546
51
343.7651759
0
ARC
8
DEFAULT_255_1_234
10
22.8858323
20
52.6061102
40
0.3537231
50
279.7829875
51
311.6255694
0
ARC
8
DEFAULT_255_1_234
10
22.8557099
20
52.749828
40
0.5004971
50
269.7286406
51
280.3856417
0
ARC
8
DEFAULT_255_1_234
10
22.8495171
20
52.7456996
40
0.4963778
50
256.6828919
51
270.4412052
0
ARC
8
DEFAULT_255_1_234
10
22.8156467
20
52.6072394
40
0.3538406
50
229.4223008
51
256.8556159
0
ARC
8
DEFAULT_255_1_234
10
22.774186
20
52.5605736
40
0.2914296
50
181.818294
51
229.6455059
0
ARC
8
DEFAULT_255_1_234
10
22.8781816
20
52.5736496
40
0.3959084
50
179.9755256
51
183.2323064
0
ARC
8
DEFAULT_255_1_234
10
22.8609562
20
52.5716037
40
0.2293034
50
179.4465117
51
196.2869258
0
ARC
8
DEFAULT_255_1_234
10
22.812197
20
52.5582651
40
0.1787621
50
196.5661473
51
227.705904
0
ARC
8
DEFAULT_255_1_234
10
22.8286065
20
52.5766155
40
0.2033784
50
227.7652068
51
257.8762805
0
ARC
8
DEFAULT_255_1_234
10
22.8511035
20
52.6709156
40
0.3003081
50
257.4584385
51
270.426602
0
ARC
8
DEFAULT_255_1_234
10
22.8556601
20
52.6998996
40
0.329292
50
269.5962073
51
280.8789248
0
ARC
8
DEFAULT_255_1_234
10
22.878613
20
52.5852685
40
0.2123908
50
280.6346389
51
299.8595945
0
ARC
8
DEFAULT_255_1_234
10
22.8977037
20
52.5490212
40
0.171457
50
300.3576302
51
314.5517981
0
ARC
8
DEFAULT_255_1_234
10
22.8894097
20
52.5550919
40
0.1816095
50
315.0728369
51
345.0431014
0
ARC
8
DEFAULT_255_1_234
10
22.7970911
20
52.5819841
40
0.2777492
50
344.5986631
51
357.9269593
0
ARC
8
DEFAULT_255_1_234
10
22.7075238
20
52.5881276
40
0.3674917
50
357.4748886
51
0.0231117
0
ARC
8
DEFAULT_255_1_234
10
22.8098347
20
52.5905679
40
0.2651907
50
359.5047933
51
13.4239635
0
ARC
8
DEFAULT_255_1_234
10
22.896499
20
52.6127478
40
0.1757509
50
12.9498199
51
48.7551375
0
ARC
8
DEFAULT_255_1_234
10
22.8782724
20
52.58784
40
0.2065134
50
49.5088623
51
72.1836453
0
ARC
8
DEFAULT_255_1_234
10
22.8424877
20
52.4816291
40
0.3185836
50
71.9010081
51
84.3554254
0
ARC
8
DEFAULT_255_1_234
10
22.8263509
20
52.3455326
40
0.4556151
50
84.0193428
51
89.333121
0
LINE
8
DEFAULT_255_1_234
10
23.8685512
20
53.2340276
11
23.8685512
21
52.8926788
0
LINE
8
DEFAULT_255_1_234
10
23.8685512
20
52.8926788
11
24.1946397
21
52.8926788
0
LINE
8
DEFAULT_255_1_234
10
24.1946397
20
52.8926788
11
24.1946397
21
52.7521233
0
LINE
8
DEFAULT_255_1_234
10
24.1946397
20
52.7521233
11
23.8685512
21
52.7521233
0
LINE
8
DEFAULT_255_1_234
10
23.8685512
20
52.7521233
11
23.8685512
21
52.3826634
0
LINE
8
DEFAULT_255_1_234
10
23.8685512
20
52.3826634
11
23.7191608
21
52.3826634
0
LINE
8
DEFAULT_255_1_234
10
23.7191608
20
52.3826634
11
23.7191608
21
52.7521233
0
LINE
8
DEFAULT_255_1_234
10
23.7191608
20
52.7521233
11
23.3930723
21
52.7521233
0
LINE
8
DEFAULT_255_1_234
10
23.3930723
20
52.7521233
11
23.3930723
21
52.8926788
0
LINE
8
DEFAULT_255_1_234
10
23.3930723
20
52.8926788
11
23.7191608
21
52.8926788
0
LINE
8
DEFAULT_255_1_234
10
23.7191608
20
52.8926788
11
23.7191608
21
53.2340276
0
LINE
8
DEFAULT_255_1_234
10
23.7191608
20
53.2340276
11
23.8685512
21
53.2340276
0
LINE
8
DEFAULT_255_1_234
10
21.5551364
20
61.3723211
11
21.7543235
21
61.3723211
0
LINE
8
DEFAULT_255_1_234
10
21.7543235
20
61.3723211
11
22.1366342
21
60.4181506
0
LINE
8
DEFAULT_255_1_234
10
22.1366342
20
60.4181506
11
22.518945
21
61.3723211
0
LINE
8
DEFAULT_255_1_234
10
22.518945
20
61.3723211
11
22.7189353
21
61.3723211
0
LINE
8
DEFAULT_255_1_234
10
22.7189353
20
61.3723211
11
22.7189353
21
60.2029
0
LINE
8
DEFAULT_255_1_234
10
22.7189353
20
60.2029
11
22.5647259
21
60.2029
0
LINE
8
DEFAULT_255_1_234
10
22.5647259
20
60.2029
11
22.5647259
21
60.6582996
0
LINE
8
DEFAULT_255_1_234
10
22.5647259
20
60.6582996
11
22.579183
21
61.1498419
0
LINE
8
DEFAULT_255_1_234
10
22.579183
20
61.1498419
11
22.1952659
21
60.2029
0
LINE
8
DEFAULT_255_1_234
10
22.1952659
20
60.2029
11
22.0771994
21
60.2029
0
LINE
8
DEFAULT_255_1_234
10
22.0771994
20
60.2029
11
21.6940854
21
61.1474324
0
LINE
8
DEFAULT_255_1_234
10
21.6940854
20
61.1474324
11
21.7093458
21
60.6582996
0
LINE
8
DEFAULT_255_1_234
10
21.7093458
20
60.6582996
11
21.7093458
21
60.2029
0
LINE
8
DEFAULT_255_1_234
10
21.7093458
20
60.2029
11
21.5551364
21
60.2029
0
LINE
8
DEFAULT_255_1_234
10
21.5551364
20
60.2029
11
21.5551364
21
61.3723211
0
LINE
8
DEFAULT_255_1_234
10
23.7188867
20
60.3241792
11
23.7188867
21
60.2029
0
LINE
8
DEFAULT_255_1_234
10
23.7188867
20
60.2029
11
22.9526588
21
60.2029
0
LINE
8
DEFAULT_255_1_234
10
22.9526588
20
60.2029
11
22.9526588
21
60.3097221
0
LINE
8
DEFAULT_255_1_234
10
22.9526588
20
60.3097221
11
23.3574584
21
60.7594995
0
LINE
8
DEFAULT_255_1_234
10
23.0787571
20
61.0277595
11
22.93017
21
61.0277595
0
LINE
8
DEFAULT_255_1_234
10
23.4450044
20
60.6639218
11
23.1317666
21
60.3241792
0
LINE
8
DEFAULT_255_1_234
10
23.1317666
20
60.3241792
11
23.7188867
21
60.3241792
0
ARC
8
DEFAULT_255_1_234
10
22.0084418
20
61.9524527
40
1.8008286
50
318.5132453
51
320.7828378
0
ARC
8
DEFAULT_255_1_234
10
22.5371392
20
61.5221426
40
1.1191493
50
320.7372736
51
323.9737074
0
ARC
8
DEFAULT_255_1_234
10
22.9291249
20
61.2381361
40
0.6350923
50
323.8961724
51
328.6421089
0
ARC
8
DEFAULT_255_1_234
10
23.1337844
20
61.1119031
40
0.3946393
50
328.8299013
51
331.789948
0
ARC
8
DEFAULT_255_1_234
10
23.2335023
20
61.0604509
40
0.2824501
50
331.4255242
51
352.9364833
0
ARC
8
DEFAULT_255_1_234
10
23.2471523
20
61.0573976
40
0.2685315
50
353.2248685
51
0.0169286
0
ARC
8
DEFAULT_255_1_234
10
23.26814
20
61.059695
40
0.2475536
50
359.4866256
51
15.9339782
0
ARC
8
DEFAULT_255_1_234
10
23.3188385
20
61.0733286
40
0.1950618
50
16.1714718
51
43.5284424
0
ARC
8
DEFAULT_255_1_234
10
23.3265694
20
61.0810573
40
0.184134
50
43.4415429
51
83.1661404
0
ARC
8
DEFAULT_255_1_234
10
23.3131612
20
61.0073771
40
0.258926
50
82.160215
51
90.1505798
0
ARC
8
DEFAULT_255_1_234
10
23.3100039
20
60.9536865
40
0.3126255
50
89.5460705
51
102.5418777
0
ARC
8
DEFAULT_255_1_234
10
23.2857126
20
61.0567665
40
0.2067346
50
102.1739365
51
129.2061916
0
ARC
8
DEFAULT_255_1_234
10
23.2778197
20
61.0692094
40
0.1921118
50
129.7279328
51
135.7542026
0
ARC
8
DEFAULT_255_1_234
10
23.2899725
20
61.0595045
40
0.2075944
50
136.175737
51
166.3674722
0
ARC
8
DEFAULT_255_1_234
10
23.3906644
20
61.0325182
40
0.3118201
50
165.9092917
51
178.8683903
0
ARC
8
DEFAULT_255_1_234
10
23.4771505
20
61.0278179
40
0.3983935
50
178.438168
51
180.0083905
0
ARC
8
DEFAULT_255_1_234
10
23.3370108
20
61.0317231
40
0.4068601
50
163.2878735
51
180.5581814
0
ARC
8
DEFAULT_255_1_234
10
23.2568369
20
61.053784
40
0.3237344
50
133.454115
51
162.9470031
0
ARC
8
DEFAULT_255_1_234
10
23.274691
20
61.0348
40
0.349795
50
100.7869394
51
133.4384016
0
ARC
8
DEFAULT_255_1_234
10
23.3094682
20
60.8799319
40
0.5084616
50
89.6605301
51
101.3704185
0
ARC
8
DEFAULT_255_1_234
10
23.3161021
20
60.8860496
40
0.502348
50
78.2171172
51
90.4130393
0
ARC
8
DEFAULT_255_1_234
10
23.3516099
20
61.0484637
40
0.3361092
50
55.9268222
51
78.4888551
0
ARC
8
DEFAULT_255_1_234
10
23.3712539
20
61.0823324
40
0.2970617
50
47.9292255
51
55.4054003
0
ARC
8
DEFAULT_255_1_234
10
23.38141
20
61.0926502
40
0.2825983
50
4.3347696
51
48.0560701
0
ARC
8
DEFAULT_255_1_234
10
23.2718493
20
61.0756601
40
0.393225
50
359.925209
51
5.5967654
0
ARC
8
DEFAULT_255_1_234
10
23.3147385
20
61.0812816
40
0.3503892
50
337.8914096
51
358.9967724
0
ARC
8
DEFAULT_255_1_234
10
23.0433797
20
61.1859706
40
0.6412172
50
326.9135351
51
338.3505194
0
ARC
8
DEFAULT_255_1_234
10
22.6448101
20
61.4414284
40
1.1146189
50
319.6472867
51
327.095818
0
ARC
8
DEFAULT_255_1_234
10
22.2615104
20
61.7576
40
1.6114559
50
317.2586784
51
319.9046139
0
LINE
8
DEFAULT_255_1_234
10
24.200791
20
60.7603026
11
24.200791
21
60.6390234
0
LINE
8
DEFAULT_255_1_234
10
24.200791
20
60.6390234
11
23.8088421
21
60.6390234
0
LINE
8
DEFAULT_255_1_234
10
23.8088421
20
60.6390234
11
23.8088421
21
60.7603026
0
LINE
8
DEFAULT_255_1_234
10
23.8088421
20
60.7603026
11
24.200791
21
60.7603026
0
LINE
8
DEFAULT_255_1_234
10
21.1064364
20
69.3098211
11
21.3056235
21
69.3098211
0
LINE
8
DEFAULT_255_1_234
10
21.3056235
20
69.3098211
11
21.6879342
21
68.3556506
0
LINE
8
DEFAULT_255_1_234
10
21.6879342
20
68.3556506
11
22.070245
21
69.3098211
0
LINE
8
DEFAULT_255_1_234
10
22.070245
20
69.3098211
11
22.2702353
21
69.3098211
0
LINE
8
DEFAULT_255_1_234
10
22.2702353
20
69.3098211
11
22.2702353
21
68.1404
0
LINE
8
DEFAULT_255_1_234
10
22.2702353
20
68.1404
11
22.1160259
21
68.1404
0
LINE
8
DEFAULT_255_1_234
10
22.1160259
20
68.1404
11
22.1160259
21
68.5957996
0
LINE
8
DEFAULT_255_1_234
10
22.1160259
20
68.5957996
11
22.130483
21
69.0873419
0
LINE
8
DEFAULT_255_1_234
10
22.130483
20
69.0873419
11
21.7465659
21
68.1404
0
LINE
8
DEFAULT_255_1_234
10
21.7465659
20
68.1404
11
21.6284994
21
68.1404
0
LINE
8
DEFAULT_255_1_234
10
21.6284994
20
68.1404
11
21.2453854
21
69.0849324
0
LINE
8
DEFAULT_255_1_234
10
21.2453854
20
69.0849324
11
21.2606458
21
68.5957996
0
LINE
8
DEFAULT_255_1_234
10
21.2606458
20
68.5957996
11
21.2606458
21
68.1404
0
LINE
8
DEFAULT_255_1_234
10
21.2606458
20
68.1404
11
21.1064364
21
68.1404
0
LINE
8
DEFAULT_255_1_234
10
21.1064364
20
68.1404
11
21.1064364
21
69.3098211
0
LINE
8
DEFAULT_255_1_234
10
23.2701867
20
68.2616792
11
23.2701867
21
68.1404
0
LINE
8
DEFAULT_255_1_234
10
23.2701867
20
68.1404
11
22.5039588
21
68.1404
0
LINE
8
DEFAULT_255_1_234
10
22.5039588
20
68.1404
11
22.5039588
21
68.2472221
0
LINE
8
DEFAULT_255_1_234
10
22.5039588
20
68.2472221
11
22.9087584
21
68.6969995
0
LINE
8
DEFAULT_255_1_234
10
22.6300571
20
68.9652595
11
22.48147
21
68.9652595
0
LINE
8
DEFAULT_255_1_234
10
22.9963044
20
68.6014218
11
22.6830666
21
68.2616792
0
LINE
8
DEFAULT_255_1_234
10
22.6830666
20
68.2616792
11
23.2701867
21
68.2616792
0
ARC
8
DEFAULT_255_1_234
10
21.5597418
20
69.8899527
40
1.8008286
50
318.5132453
51
320.7828378
0
ARC
8
DEFAULT_255_1_234
10
22.0884392
20
69.4596426
40
1.1191493
50
320.7372736
51
323.9737074
0
ARC
8
DEFAULT_255_1_234
10
22.4804249
20
69.1756361
40
0.6350923
50
323.8961724
51
328.6421089
0
ARC
8
DEFAULT_255_1_234
10
22.6850844
20
69.0494031
40
0.3946393
50
328.8299013
51
331.789948
0
ARC
8
DEFAULT_255_1_234
10
22.7848023
20
68.9979509
40
0.2824501
50
331.4255242
51
352.9364833
0
ARC
8
DEFAULT_255_1_234
10
22.7984523
20
68.9948976
40
0.2685315
50
353.2248685
51
0.0169286
0
ARC
8
DEFAULT_255_1_234
10
22.81944
20
68.997195
40
0.2475536
50
359.4866256
51
15.9339782
0
ARC
8
DEFAULT_255_1_234
10
22.8701385
20
69.0108286
40
0.1950618
50
16.1714718
51
43.5284424
0
ARC
8
DEFAULT_255_1_234
10
22.8778694
20
69.0185573
40
0.184134
50
43.4415429
51
83.1661404
0
ARC
8
DEFAULT_255_1_234
10
22.8644612
20
68.9448771
40
0.258926
50
82.160215
51
90.1505798
0
ARC
8
DEFAULT_255_1_234
10
22.8613039
20
68.8911865
40
0.3126255
50
89.5460705
51
102.5418777
0
ARC
8
DEFAULT_255_1_234
10
22.8370126
20
68.9942665
40
0.2067346
50
102.1739365
51
129.2061916
0
ARC
8
DEFAULT_255_1_234
10
22.8291197
20
69.0067094
40
0.1921118
50
129.7279328
51
135.7542026
0
ARC
8
DEFAULT_255_1_234
10
22.8412725
20
68.9970045
40
0.2075944
50
136.175737
51
166.3674722
0
ARC
8
DEFAULT_255_1_234
10
22.9419644
20
68.9700182
40
0.3118201
50
165.9092917
51
178.8683903
0
ARC
8
DEFAULT_255_1_234
10
23.0284505
20
68.9653179
40
0.3983935
50
178.438168
51
180.0083905
0
ARC
8
DEFAULT_255_1_234
10
22.8883108
20
68.9692231
40
0.4068601
50
163.2878735
51
180.5581814
0
ARC
8
DEFAULT_255_1_234
10
22.8081369
20
68.991284
40
0.3237344
50
133.454115
51
162.9470031
0
ARC
8
DEFAULT_255_1_234
10
22.825991
20
68.9723
40
0.349795
50
100.7869394
51
133.4384016
0
ARC
8
DEFAULT_255_1_234
10
22.8607682
20
68.8174319
40
0.5084616
50
89.6605301
51
101.3704185
0
ARC
8
DEFAULT_255_1_234
10
22.8674021
20
68.8235496
40
0.502348
50
78.2171172
51
90.4130393
0
ARC
8
DEFAULT_255_1_234
10
22.9029099
20
68.9859637
40
0.3361092
50
55.9268222
51
78.4888551
0
ARC
8
DEFAULT_255_1_234
10
22.9225539
20
69.0198324
40
0.2970617
50
47.9292255
51
55.4054003
0
ARC
8
DEFAULT_255_1_234
10
22.93271
20
69.0301502
40
0.2825983
50
4.3347696
51
48.0560701
0
ARC
8
DEFAULT_255_1_234
10
22.8231493
20
69.0131601
40
0.393225
50
359.925209
51
5.5967654
0
ARC
8
DEFAULT_255_1_234
10
22.8660385
20
69.0187816
40
0.3503892
50
337.8914096
51
358.9967724
0
ARC
8
DEFAULT_255_1_234
10
22.5946797
20
69.1234706
40
0.6412172
50
326.9135351
51
338.3505194
0
ARC
8
DEFAULT_255_1_234
10
22.1961101
20
69.3789284
40
1.1146189
50
319.6472867
51
327.095818
0
ARC
8
DEFAULT_255_1_234
10
21.8128104
20
69.6951
40
1.6114559
50
317.2586784
51
319.9046139
0
LINE
8
DEFAULT_255_1_234
10
23.8685512
20
69.1090276
11
23.8685512
21
68.7676788
0
LINE
8
DEFAULT_255_1_234
10
23.8685512
20
68.7676788
11
24.1946397
21
68.7676788
0
LINE
8
DEFAULT_255_1_234
10
24.1946397
20
68.7676788
11
24.1946397
21
68.6271233
0
LINE
8
DEFAULT_255_1_234
10
24.1946397
20
68.6271233
11
23.8685512
21
68.6271233
0
LINE
8
DEFAULT_255_1_234
10
23.8685512
20
68.6271233
11
23.8685512
21
68.2576634
0
LINE
8
DEFAULT_255_1_234
10
23.8685512
20
68.2576634
11
23.7191608
21
68.2576634
0
LINE
8
DEFAULT_255_1_234
10
23.7191608
20
68.2576634
11
23.7191608
21
68.6271233
0
LINE
8
DEFAULT_255_1_234
10
23.7191608
20
68.6271233
11
23.3930723
21
68.6271233
0
LINE
8
DEFAULT_255_1_234
10
23.3930723
20
68.6271233
11
23.3930723
21
68.7676788
0
LINE
8
DEFAULT_255_1_234
10
23.3930723
20
68.7676788
11
23.7191608
21
68.7676788
0
LINE
8
DEFAULT_255_1_234
10
23.7191608
20
68.7676788
11
23.7191608
21
69.1090276
0
LINE
8
DEFAULT_255_1_234
10
23.7191608
20
69.1090276
11
23.8685512
21
69.1090276
0
LINE
8
DEFAULT_255_1_234
10
21.1871902
20
77.2473211
11
21.1871902
21
76.0779
0
LINE
8
DEFAULT_255_1_234
10
21.1871902
20
76.0779
11
21.0329808
21
76.0779
0
LINE
8
DEFAULT_255_1_234
10
21.0329808
20
76.0779
11
21.0329808
21
77.2473211
0
LINE
8
DEFAULT_255_1_234
10
21.0329808
20
77.2473211
11
21.1871902
21
77.2473211
0
LINE
8
DEFAULT_255_1_234
10
22.1742908
20
76.4489663
11
22.3293034
21
76.4489663
0
LINE
8
DEFAULT_255_1_234
10
21.4289455
20
76.6079947
11
21.4289455
21
76.7204391
0
LINE
8
DEFAULT_255_1_234
10
22.3293034
20
76.8714357
11
22.1742908
21
76.8714357
0
LINE
8
DEFAULT_255_1_234
10
21.5839581
20
76.7164232
11
21.5839581
21
76.6031757
0
ARC
8
DEFAULT_255_1_234
10
21.7812421
20
76.5086846
40
0.5513052
50
340.1774281
51
353.7814284
0
ARC
8
DEFAULT_255_1_234
10
21.9383773
20
76.4501582
40
0.3836379
50
311.4558989
51
340.4421614
0
ARC
8
DEFAULT_255_1_234
10
21.9350441
20
76.4612528
40
0.3941894
50
282.4333181
51
310.7513653
0
ARC
8
DEFAULT_255_1_234
10
21.891118
20
76.6427679
40
0.5809175
50
269.9358511
51
282.809604
0
ARC
8
DEFAULT_255_1_234
10
21.8859247
20
76.7885212
40
0.7266847
50
270.0021091
51
270.3581957
0
ARC
8
DEFAULT_255_1_234
10
21.8806664
20
76.5284585
40
0.4666519
50
250.7884749
51
270.6489167
0
ARC
8
DEFAULT_255_1_234
10
21.8638498
20
76.4647319
40
0.4009729
50
219.3627325
51
250.0611886
0
ARC
8
DEFAULT_255_1_234
10
21.9467709
20
76.5352042
40
0.5097822
50
193.5479632
51
219.5756669
0
ARC
8
DEFAULT_255_1_234
10
22.183933
20
76.5967919
40
0.7547848
50
181.1218675
51
193.87563
0
ARC
8
DEFAULT_255_1_234
10
22.3909511
20
76.607858
40
0.9620055
50
179.9918545
51
181.5394234
0
ARC
8
DEFAULT_255_1_234
10
22.2058613
20
76.7241788
40
0.7769248
50
169.5837241
51
180.2757934
0
ARC
8
DEFAULT_255_1_234
10
22.0221551
20
76.7581229
40
0.590109
50
155.0365899
51
169.6003176
0
ARC
8
DEFAULT_255_1_234
10
21.9086015
20
76.8128677
40
0.4640625
50
136.783148
51
155.2472683
0
ARC
8
DEFAULT_255_1_234
10
21.8696492
20
76.8459562
40
0.4130255
50
121.7633186
51
136.428115
0
ARC
8
DEFAULT_255_1_234
10
21.8831454
20
76.8210227
40
0.4413323
50
95.6459699
51
121.5490577
0
ARC
8
DEFAULT_255_1_234
10
21.8988736
20
76.7101949
40
0.55319
50
89.924208
51
96.1377933
0
ARC
8
DEFAULT_255_1_234
10
21.9039169
20
76.7220542
40
0.5413475
50
76.6779277
51
90.4563316
0
ARC
8
DEFAULT_255_1_234
10
21.9432792
20
76.8811114
40
0.3775041
50
47.485847
51
76.9287264
0
ARC
8
DEFAULT_255_1_234
10
21.9285765
20
76.8711159
40
0.3948286
50
16.5424086
51
46.8933463
0
ARC
8
DEFAULT_255_1_234
10
21.7677922
20
76.8182861
40
0.564021
50
5.4072051
51
17.0365086
0
ARC
8
DEFAULT_255_1_234
10
21.6238939
20
76.7951679
40
0.5556559
50
7.8891745
51
15.9239216
0
ARC
8
DEFAULT_255_1_234
10
21.8225953
20
76.8528631
40
0.3487515
50
15.7653144
51
27.9410532
0
ARC
8
DEFAULT_255_1_234
10
21.9330171
20
76.911979
40
0.2235026
50
27.8166557
51
46.4008329
0
ARC
8
DEFAULT_255_1_234
10
21.9379813
20
76.9114082
40
0.2205286
50
47.4371857
51
75.0698205
0
ARC
8
DEFAULT_255_1_234
10
21.9071208
20
76.8039765
40
0.3322915
50
74.7008593
51
87.8124495
0
ARC
8
DEFAULT_255_1_234
10
21.8997895
20
76.6983844
40
0.4380987
50
87.3814673
51
90.0240855
0
ARC
8
DEFAULT_255_1_234
10
21.8959439
20
76.8161291
40
0.3203749
50
89.3451631
51
108.5745436
0
ARC
8
DEFAULT_255_1_234
10
21.8822544
20
76.8674908
40
0.2673494
50
109.2998449
51
143.3037509
0
ARC
8
DEFAULT_255_1_234
10
21.9584617
20
76.8088881
40
0.3634757
50
143.0753173
51
163.1916937
0
ARC
8
DEFAULT_255_1_234
10
22.1536344
20
76.7472967
40
0.5681262
50
162.9373603
51
174.6208611
0
ARC
8
DEFAULT_255_1_234
10
22.4162386
20
76.718501
40
0.8322832
50
174.3419979
51
180.1430411
0
ARC
8
DEFAULT_255_1_234
10
22.3231543
20
76.5990698
40
0.7392076
50
179.6817502
51
189.150529
0
ARC
8
DEFAULT_255_1_234
10
22.0730791
20
76.557419
40
0.4856932
50
188.9910863
51
203.5773039
0
ARC
8
DEFAULT_255_1_234
10
21.9651123
20
76.5126211
40
0.3688271
50
203.9077269
51
215.1312379
0
ARC
8
DEFAULT_255_1_234
10
21.8728217
20
76.4410941
40
0.2522457
50
213.9071664
51
263.8849284
0
ARC
8
DEFAULT_255_1_234
10
21.8853546
20
76.5195518
40
0.3316174
50
263.1758525
51
270.1031083
0
ARC
8
DEFAULT_255_1_234
10
21.8885638
20
76.6442365
40
0.4563091
50
269.6719807
51
279.0609165
0
ARC
8
DEFAULT_255_1_234
10
21.9152406
20
76.4829907
40
0.2928759
50
278.8750225
51
293.6346586
0
ARC
8
DEFAULT_255_1_234
10
21.9472614
20
76.40779
40
0.2111472
50
293.8553404
51
310.0518804
0
ARC
8
DEFAULT_255_1_234
10
21.9477468
20
76.4015516
40
0.2060917
50
311.0646779
51
332.0108348
0
ARC
8
DEFAULT_255_1_234
10
21.8285195
20
76.4672978
40
0.3422352
50
331.6588543
51
343.2878891
0
ARC
8
DEFAULT_255_1_234
10
21.622271
20
76.5306798
40
0.5580003
50
343.1446044
51
351.010618
0
ARC
8
DEFAULT_255_1_234
10
21.4681356
20
76.5587871
40
0.7146438
50
350.7157277
51
351.1602153
0
LINE
8
DEFAULT_255_1_234
10
23.2674104
20
76.1991792
11
23.2674104
21
76.0779
0
LINE
8
DEFAULT_255_1_234
10
23.2674104
20
76.0779
11
22.5011826
21
76.0779
0
LINE
8
DEFAULT_255_1_234
10
22.5011826
20
76.0779
11
22.5011826
21
76.1847221
0
LINE
8
DEFAULT_255_1_234
10
22.5011826
20
76.1847221
11
22.9059822
21
76.6344995
0
LINE
8
DEFAULT_255_1_234
10
22.6272809
20
76.9027595
11
22.4786937
21
76.9027595
0
LINE
8
DEFAULT_255_1_234
10
22.9935281
20
76.5389218
11
22.6802903
21
76.1991792
0
LINE
8
DEFAULT_255_1_234
10
22.6802903
20
76.1991792
11
23.2674104
21
76.1991792
0
ARC
8
DEFAULT_255_1_234
10
21.5569655
20
77.8274527
40
1.8008286
50
318.5132453
51
320.7828378
0
ARC
8
DEFAULT_255_1_234
10
22.085663
20
77.3971426
40
1.1191493
50
320.7372736
51
323.9737074
0
ARC
8
DEFAULT_255_1_234
10
22.4776486
20
77.1131361
40
0.6350923
50
323.8961724
51
328.6421089
0
ARC
8
DEFAULT_255_1_234
10
22.6823081
20
76.9869031
40
0.3946393
50
328.8299013
51
331.789948
0
ARC
8
DEFAULT_255_1_234
10
22.782026
20
76.9354509
40
0.2824501
50
331.4255242
51
352.9364833
0
ARC
8
DEFAULT_255_1_234
10
22.7956761
20
76.9323976
40
0.2685315
50
353.2248685
51
0.0169286
0
ARC
8
DEFAULT_255_1_234
10
22.8166637
20
76.934695
40
0.2475536
50
359.4866256
51
15.9339782
0
ARC
8
DEFAULT_255_1_234
10
22.8673623
20
76.9483286
40
0.1950618
50
16.1714718
51
43.5284424
0
ARC
8
DEFAULT_255_1_234
10
22.8750931
20
76.9560573
40
0.184134
50
43.4415429
51
83.1661404
0
ARC
8
DEFAULT_255_1_234
10
22.8616849
20
76.8823771
40
0.258926
50
82.160215
51
90.1505798
0
ARC
8
DEFAULT_255_1_234
10
22.8585277
20
76.8286865
40
0.3126255
50
89.5460705
51
102.5418777
0
ARC
8
DEFAULT_255_1_234
10
22.8342363
20
76.9317665
40
0.2067346
50
102.1739365
51
129.2061916
0
ARC
8
DEFAULT_255_1_234
10
22.8263435
20
76.9442094
40
0.1921118
50
129.7279328
51
135.7542026
0
ARC
8
DEFAULT_255_1_234
10
22.8384962
20
76.9345045
40
0.2075944
50
136.175737
51
166.3674722
0
ARC
8
DEFAULT_255_1_234
10
22.9391881
20
76.9075182
40
0.3118201
50
165.9092917
51
178.8683903
0
ARC
8
DEFAULT_255_1_234
10
23.0256743
20
76.9028179
40
0.3983935
50
178.438168
51
180.0083905
0
ARC
8
DEFAULT_255_1_234
10
22.8855345
20
76.9067231
40
0.4068601
50
163.2878735
51
180.5581814
0
ARC
8
DEFAULT_255_1_234
10
22.8053606
20
76.928784
40
0.3237344
50
133.454115
51
162.9470031
0
ARC
8
DEFAULT_255_1_234
10
22.8232148
20
76.9098
40
0.349795
50
100.7869394
51
133.4384016
0
ARC
8
DEFAULT_255_1_234
10
22.8579919
20
76.7549319
40
0.5084616
50
89.6605301
51
101.3704185
0
ARC
8
DEFAULT_255_1_234
10
22.8646258
20
76.7610496
40
0.502348
50
78.2171172
51
90.4130393
0
ARC
8
DEFAULT_255_1_234
10
22.9001336
20
76.9234637
40
0.3361092
50
55.9268222
51
78.4888551
0
ARC
8
DEFAULT_255_1_234
10
22.9197776
20
76.9573324
40
0.2970617
50
47.9292255
51
55.4054003
0
ARC
8
DEFAULT_255_1_234
10
22.9299337
20
76.9676502
40
0.2825983
50
4.3347696
51
48.0560701
0
ARC
8
DEFAULT_255_1_234
10
22.8203731
20
76.9506601
40
0.393225
50
359.925209
51
5.5967654
0
ARC
8
DEFAULT_255_1_234
10
22.8632622
20
76.9562816
40
0.3503892
50
337.8914096
51
358.9967724
0
ARC
8
DEFAULT_255_1_234
10
22.5919034
20
77.0609706
40
0.6412172
50
326.9135351
51
338.3505194
0
ARC
8
DEFAULT_255_1_234
10
22.1933338
20
77.3164284
40
1.1146189
50
319.6472867
51
327.095818
0
ARC
8
DEFAULT_255_1_234
10
21.8100341
20
77.6326
40
1.6114559
50
317.2586784
51
319.9046139
0
LINE
8
DEFAULT_255_1_234
10
23.6408862
20
76.6136169
11
23.6408862
21
76.7348962
0
LINE
8
DEFAULT_255_1_234
10
23.6408862
20
76.7348962
11
23.7525274
21
76.7348962
0
LINE
8
DEFAULT_255_1_234
10
23.5621752
20
76.9405087
11
23.413588
21
76.9405087
0
LINE
8
DEFAULT_255_1_234
10
23.4031468
20
76.3863188
11
23.5525371
21
76.3863188
0
LINE
8
DEFAULT_255_1_234
10
23.7525274
20
76.6136169
11
23.6408862
21
76.6136169
0
ARC
8
DEFAULT_255_1_234
10
23.749614
20
77.0741713
40
0.3392876
50
270.4919872
51
281.8951556
0
ARC
8
DEFAULT_255_1_234
10
23.7737402
20
76.9639702
40
0.2264817
50
281.6691735
51
301.2943132
0
ARC
8
DEFAULT_255_1_234
10
23.7907612
20
76.9328304
40
0.1910381
50
301.7833094
51
311.7545298
0
ARC
8
DEFAULT_255_1_234
10
23.7999188
20
76.9226748
40
0.1773635
50
311.7323931
51
354.2802411
0
ARC
8
DEFAULT_255_1_234
10
23.7272813
20
76.9351722
40
0.2509385
50
353.0937916
51
0.1181479
0
ARC
8
DEFAULT_255_1_234
10
23.6811598
20
76.9399386
40
0.2970898
50
359.1805295
51
15.0453146
0
ARC
8
DEFAULT_255_1_234
10
23.8157435
20
76.9791992
40
0.1569564
50
13.9577229
51
77.6713066
0
ARC
8
DEFAULT_255_1_234
10
23.7770964
20
76.8406949
40
0.3006298
50
76.1116566
51
90.7026153
0
ARC
8
DEFAULT_255_1_234
10
23.7711803
20
76.8680545
40
0.2732568
50
89.5324876
51
103.531937
0
ARC
8
DEFAULT_255_1_234
10
23.7511247
20
76.9479884
40
0.1908508
50
103.2931773
51
133.5619022
0
ARC
8
DEFAULT_255_1_234
10
23.7466735
20
76.9539375
40
0.1834746
50
133.8349307
51
173.5344437
0
ARC
8
DEFAULT_255_1_234
10
23.8189778
20
76.9411213
40
0.2568033
50
172.5096846
51
180.1366907
0
ARC
8
DEFAULT_255_1_234
10
23.7238672
20
76.9445622
40
0.3103056
50
155.3484492
51
180.7484736
0
ARC
8
DEFAULT_255_1_234
10
23.7189761
20
76.9416846
40
0.3070957
50
131.5744599
51
154.4798489
0
ARC
8
DEFAULT_255_1_234
10
23.7502909
20
76.910031
40
0.3515643
50
96.9875458
51
131.9690667
0
ARC
8
DEFAULT_255_1_234
10
23.7722388
20
76.7854636
40
0.4779224
50
89.8596053
51
97.7825159
0
ARC
8
DEFAULT_255_1_234
10
23.7770452
20
76.7592616
40
0.5041361
50
78.3655447
51
90.4131539
0
ARC
8
DEFAULT_255_1_234
10
23.8128369
20
76.9251887
40
0.3344039
50
56.6229102
51
78.638727
0
ARC
8
DEFAULT_255_1_234
10
23.8343313
20
76.9627805
40
0.2912001
50
47.0253525
51
56.0854072
0
ARC
8
DEFAULT_255_1_234
10
23.8363093
20
76.9667223
40
0.2869704
50
10.9208013
51
46.7778124
0
ARC
8
DEFAULT_255_1_234
10
23.699916
20
76.9351857
40
0.426899
50
359.6364486
51
11.6087304
0
ARC
8
DEFAULT_255_1_234
10
23.8834004
20
76.9336752
40
0.243409
50
332.3549906
51
359.7179418
0
ARC
8
DEFAULT_255_1_234
10
23.8183605
20
76.9645142
40
0.3153459
50
325.2333722
51
332.8745602
0
ARC
8
DEFAULT_255_1_234
10
23.8336229
20
76.9538828
40
0.2967456
50
292.9802137
51
325.2392345
0
ARC
8
DEFAULT_255_1_234
10
23.8061603
20
77.0072863
40
0.3566604
50
292.5402179
51
293.6924929
0
ARC
8
DEFAULT_255_1_234
10
23.8454199
20
76.3618091
40
0.3307468
50
57.6435486
51
72.8625112
0
ARC
8
DEFAULT_255_1_234
10
23.8808698
20
76.4192549
40
0.2632492
50
36.7248896
51
57.4697979
0
ARC
8
DEFAULT_255_1_234
10
23.8797331
20
76.420522
40
0.2634081
50
8.0545065
51
36.356114
0
ARC
8
DEFAULT_255_1_234
10
23.7934516
20
76.4050174
40
0.3510261
50
359.8320645
51
8.5869982
0
ARC
8
DEFAULT_255_1_234
10
23.7559293
20
76.4002101
40
0.3885653
50
343.9829931
51
0.5571613
0
ARC
8
DEFAULT_255_1_234
10
23.844549
20
76.3759438
40
0.2966924
50
311.6359546
51
343.7651759
0
ARC
8
DEFAULT_255_1_234
10
23.8067059
20
76.4186102
40
0.3537231
50
279.7829875
51
311.6255694
0
ARC
8
DEFAULT_255_1_234
10
23.7765835
20
76.562328
40
0.5004971
50
269.7286406
51
280.3856417
0
ARC
8
DEFAULT_255_1_234
10
23.7703908
20
76.5581996
40
0.4963778
50
256.6828919
51
270.4412052
0
ARC
8
DEFAULT_255_1_234
10
23.7365204
20
76.4197394
40
0.3538406
50
229.4223008
51
256.8556159
0
ARC
8
DEFAULT_255_1_234
10
23.6950596
20
76.3730736
40
0.2914296
50
181.818294
51
229.6455059
0
ARC
8
DEFAULT_255_1_234
10
23.7990553
20
76.3861496
40
0.3959084
50
179.9755256
51
183.2323064
0
ARC
8
DEFAULT_255_1_234
10
23.7818298
20
76.3841037
40
0.2293034
50
179.4465117
51
196.2869258
0
ARC
8
DEFAULT_255_1_234
10
23.7330706
20
76.3707651
40
0.1787621
50
196.5661473
51
227.705904
0
ARC
8
DEFAULT_255_1_234
10
23.7494801
20
76.3891155
40
0.2033784
50
227.7652068
51
257.8762805
0
ARC
8
DEFAULT_255_1_234
10
23.7719771
20
76.4834156
40
0.3003081
50
257.4584385
51
270.426602
0
ARC
8
DEFAULT_255_1_234
10
23.7765338
20
76.5123996
40
0.329292
50
269.5962073
51
280.8789248
0
ARC
8
DEFAULT_255_1_234
10
23.7994866
20
76.3977685
40
0.2123908
50
280.6346389
51
299.8595945
0
ARC
8
DEFAULT_255_1_234
10
23.8185773
20
76.3615212
40
0.171457
50
300.3576302
51
314.5517981
0
ARC
8
DEFAULT_255_1_234
10
23.8102833
20
76.3675919
40
0.1816095
50
315.0728369
51
345.0431014
0
ARC
8
DEFAULT_255_1_234
10
23.7179648
20
76.3944841
40
0.2777492
50
344.5986631
51
357.9269593
0
ARC
8
DEFAULT_255_1_234
10
23.6283974
20
76.4006276
40
0.3674917
50
357.4748886
51
0.0231117
0
ARC
8
DEFAULT_255_1_234
10
23.7307083
20
76.4030679
40
0.2651907
50
359.5047933
51
13.4239635
0
ARC
8
DEFAULT_255_1_234
10
23.8173727
20
76.4252478
40
0.1757509
50
12.9498199
51
48.7551375
0
ARC
8
DEFAULT_255_1_234
10
23.7991461
20
76.40034
40
0.2065134
50
49.5088623
51
72.1836453
0
ARC
8
DEFAULT_255_1_234
10
23.7633613
20
76.2941291
40
0.3185836
50
71.9010081
51
84.3554254
0
ARC
8
DEFAULT_255_1_234
10
23.7472245
20
76.1580326
40
0.4556151
50
84.0193428
51
89.333121
0
LINE
8
DEFAULT_255_1_234
10
20.6528902
20
85.1848211
11
20.6528902
21
84.0154
0
LINE
8
DEFAULT_255_1_234
10
20.6528902
20
84.0154
11
20.4986808
21
84.0154
0
LINE
8
DEFAULT_255_1_234
10
20.4986808
20
84.0154
11
20.4986808
21
85.1848211
0
LINE
8
DEFAULT_255_1_234
10
20.4986808
20
85.1848211
11
20.6528902
21
85.1848211
0
LINE
8
DEFAULT_255_1_234
10
21.6399908
20
84.3864663
11
21.7950034
21
84.3864663
0
LINE
8
DEFAULT_255_1_234
10
20.8946455
20
84.5454947
11
20.8946455
21
84.6579391
0
LINE
8
DEFAULT_255_1_234
10
21.7950034
20
84.8089357
11
21.6399908
21
84.8089357
0
LINE
8
DEFAULT_255_1_234
10
21.0496581
20
84.6539232
11
21.0496581
21
84.5406757
0
ARC
8
DEFAULT_255_1_234
10
21.2469421
20
84.4461846
40
0.5513052
50
340.1774281
51
353.7814284
0
ARC
8
DEFAULT_255_1_234
10
21.4040773
20
84.3876582
40
0.3836379
50
311.4558989
51
340.4421614
0
ARC
8
DEFAULT_255_1_234
10
21.4007441
20
84.3987528
40
0.3941894
50
282.4333181
51
310.7513653
0
ARC
8
DEFAULT_255_1_234
10
21.356818
20
84.5802679
40
0.5809175
50
269.9358511
51
282.809604
0
ARC
8
DEFAULT_255_1_234
10
21.3516247
20
84.7260212
40
0.7266847
50
270.0021091
51
270.3581957
0
ARC
8
DEFAULT_255_1_234
10
21.3463664
20
84.4659585
40
0.4666519
50
250.7884749
51
270.6489167
0
ARC
8
DEFAULT_255_1_234
10
21.3295498
20
84.4022319
40
0.4009729
50
219.3627325
51
250.0611886
0
ARC
8
DEFAULT_255_1_234
10
21.4124709
20
84.4727042
40
0.5097822
50
193.5479632
51
219.5756669
0
ARC
8
DEFAULT_255_1_234
10
21.649633
20
84.5342919
40
0.7547848
50
181.1218675
51
193.87563
0
ARC
8
DEFAULT_255_1_234
10
21.8566511
20
84.545358
40
0.9620055
50
179.9918545
51
181.5394234
0
ARC
8
DEFAULT_255_1_234
10
21.6715613
20
84.6616788
40
0.7769248
50
169.5837241
51
180.2757934
0
ARC
8
DEFAULT_255_1_234
10
21.4878551
20
84.6956229
40
0.590109
50
155.0365899
51
169.6003176
0
ARC
8
DEFAULT_255_1_234
10
21.3743015
20
84.7503677
40
0.4640625
50
136.783148
51
155.2472683
0
ARC
8
DEFAULT_255_1_234
10
21.3353492
20
84.7834562
40
0.4130255
50
121.7633186
51
136.428115
0
ARC
8
DEFAULT_255_1_234
10
21.3488454
20
84.7585227
40
0.4413323
50
95.6459699
51
121.5490577
0
ARC
8
DEFAULT_255_1_234
10
21.3645736
20
84.6476949
40
0.55319
50
89.924208
51
96.1377933
0
ARC
8
DEFAULT_255_1_234
10
21.3696169
20
84.6595542
40
0.5413475
50
76.6779277
51
90.4563316
0
ARC
8
DEFAULT_255_1_234
10
21.4089792
20
84.8186114
40
0.3775041
50
47.485847
51
76.9287264
0
ARC
8
DEFAULT_255_1_234
10
21.3942765
20
84.8086159
40
0.3948286
50
16.5424086
51
46.8933463
0
ARC
8
DEFAULT_255_1_234
10
21.2334922
20
84.7557861
40
0.564021
50
5.4072051
51
17.0365086
0
ARC
8
DEFAULT_255_1_234
10
21.0895939
20
84.7326679
40
0.5556559
50
7.8891745
51
15.9239216
0
ARC
8
DEFAULT_255_1_234
10
21.2882953
20
84.7903631
40
0.3487515
50
15.7653144
51
27.9410532
0
ARC
8
DEFAULT_255_1_234
10
21.3987171
20
84.849479
40
0.2235026
50
27.8166557
51
46.4008329
0
ARC
8
DEFAULT_255_1_234
10
21.4036813
20
84.8489082
40
0.2205286
50
47.4371857
51
75.0698205
0
ARC
8
DEFAULT_255_1_234
10
21.3728208
20
84.7414765
40
0.3322915
50
74.7008593
51
87.8124495
0
ARC
8
DEFAULT_255_1_234
10
21.3654895
20
84.6358844
40
0.4380987
50
87.3814673
51
90.0240855
0
ARC
8
DEFAULT_255_1_234
10
21.3616439
20
84.7536291
40
0.3203749
50
89.3451631
51
108.5745436
0
ARC
8
DEFAULT_255_1_234
10
21.3479544
20
84.8049908
40
0.2673494
50
109.2998449
51
143.3037509
0
ARC
8
DEFAULT_255_1_234
10
21.4241617
20
84.7463881
40
0.3634757
50
143.0753173
51
163.1916937
0
ARC
8
DEFAULT_255_1_234
10
21.6193344
20
84.6847967
40
0.5681262
50
162.9373603
51
174.6208611
0
ARC
8
DEFAULT_255_1_234
10
21.8819386
20
84.656001
40
0.8322832
50
174.3419979
51
180.1430411
0
ARC
8
DEFAULT_255_1_234
10
21.7888543
20
84.5365698
40
0.7392076
50
179.6817502
51
189.150529
0
ARC
8
DEFAULT_255_1_234
10
21.5387791
20
84.494919
40
0.4856932
50
188.9910863
51
203.5773039
0
ARC
8
DEFAULT_255_1_234
10
21.4308123
20
84.4501211
40
0.3688271
50
203.9077269
51
215.1312379
0
ARC
8
DEFAULT_255_1_234
10
21.3385217
20
84.3785941
40
0.2522457
50
213.9071664
51
263.8849284
0
ARC
8
DEFAULT_255_1_234
10
21.3510546
20
84.4570518
40
0.3316174
50
263.1758525
51
270.1031083
0
ARC
8
DEFAULT_255_1_234
10
21.3542638
20
84.5817365
40
0.4563091
50
269.6719807
51
279.0609165
0
ARC
8
DEFAULT_255_1_234
10
21.3809406
20
84.4204907
40
0.2928759
50
278.8750225
51
293.6346586
0
ARC
8
DEFAULT_255_1_234
10
21.4129614
20
84.34529
40
0.2111472
50
293.8553404
51
310.0518804
0
ARC
8
DEFAULT_255_1_234
10
21.4134468
20
84.3390516
40
0.2060917
50
311.0646779
51
332.0108348
0
ARC
8
DEFAULT_255_1_234
10
21.2942195
20
84.4047978
40
0.3422352
50
331.6588543
51
343.2878891
0
ARC
8
DEFAULT_255_1_234
10
21.087971
20
84.4681798
40
0.5580003
50
343.1446044
51
351.010618
0
ARC
8
DEFAULT_255_1_234
10
20.9338356
20
84.4962871
40
0.7146438
50
350.7157277
51
351.1602153
0
LINE
8
DEFAULT_255_1_234
10
22.7001803
20
84.7069327
11
22.7001803
21
84.5141709
0
LINE
8
DEFAULT_255_1_234
10
21.9620635
20
84.4940916
11
21.9620635
21
84.6924755
0
LINE
8
DEFAULT_255_1_234
10
22.5515931
20
84.4740123
11
22.5515931
21
84.7173739
0
LINE
8
DEFAULT_255_1_234
10
22.1106507
20
84.7286184
11
22.1106507
21
84.4908789
0
ARC
8
DEFAULT_255_1_234
10
21.4754692
20
84.5092805
40
1.2247208
50
353.8441951
51
0.2287902
0
ARC
8
DEFAULT_255_1_234
10
21.9394196
20
84.4574806
40
0.7578929
50
344.4934747
51
353.9765454
0
ARC
8
DEFAULT_255_1_234
10
22.2386786
20
84.3723981
40
0.4467846
50
329.2803592
51
344.7472793
0
ARC
8
DEFAULT_255_1_234
10
22.3379611
20
84.3179018
40
0.3336173
50
324.9352394
51
328.6160465
0
ARC
8
DEFAULT_255_1_234
10
22.375672
20
84.2915427
40
0.2876076
50
280.580143
51
324.9173126
0
ARC
8
DEFAULT_255_1_234
10
22.3355512
20
84.4586099
40
0.4592847
50
269.5977311
51
281.6734359
0
ARC
8
DEFAULT_255_1_234
10
22.3283418
20
84.4466173
40
0.4472986
50
256.6228859
51
270.51044
0
ARC
8
DEFAULT_255_1_234
10
22.2881396
20
84.2917877
40
0.2873874
50
215.8618325
51
257.2788573
0
ARC
8
DEFAULT_255_1_234
10
22.3902427
20
84.3602977
40
0.4102928
50
197.9693508
51
215.2623606
0
ARC
8
DEFAULT_255_1_234
10
22.6387543
20
84.4441709
40
0.6725652
50
187.8816417
51
198.2346507
0
ARC
8
DEFAULT_255_1_234
10
23.0345751
20
84.5013079
40
1.0724845
50
180.8976217
51
188.0055519
0
ARC
8
DEFAULT_255_1_234
10
23.3145939
20
84.5116777
40
1.3526448
50
180.7449369
51
181.1510016
0
ARC
8
DEFAULT_255_1_234
10
23.1568668
20
84.6973042
40
1.1948131
50
173.7675579
51
180.231553
0
ARC
8
DEFAULT_255_1_234
10
22.7050815
20
84.7483666
40
0.7401564
50
164.3058563
51
173.9002247
0
ARC
8
DEFAULT_255_1_234
10
22.4138884
20
84.8322656
40
0.4371288
50
148.7922025
51
164.568378
0
ARC
8
DEFAULT_255_1_234
10
22.3187336
20
84.8853929
40
0.3282386
50
144.5883898
51
148.1176286
0
ARC
8
DEFAULT_255_1_234
10
22.2844234
20
84.9093315
40
0.2864044
50
101.6440918
51
144.514236
0
ARC
8
DEFAULT_255_1_234
10
22.3269301
20
84.7404069
40
0.4604934
50
89.5284041
51
102.5819763
0
ARC
8
DEFAULT_255_1_234
10
22.3348388
20
84.7365018
40
0.464401
50
77.0437873
51
90.5081339
0
ARC
8
DEFAULT_255_1_234
10
22.375039
20
84.9007615
40
0.2953195
50
48.2778575
51
77.4994676
0
ARC
8
DEFAULT_255_1_234
10
22.3823022
20
84.9136746
40
0.2808655
50
36.3142134
51
47.6305865
0
ARC
8
DEFAULT_255_1_234
10
22.2954329
20
84.8551515
40
0.3855453
50
18.2931786
51
35.6769206
0
ARC
8
DEFAULT_255_1_234
10
22.0411087
20
84.7678593
40
0.654423
50
8.024666
51
18.5605216
0
ARC
8
DEFAULT_255_1_234
10
21.6248007
20
84.7063792
40
1.0752407
50
1.1274072
51
8.1718305
0
ARC
8
DEFAULT_255_1_234
10
21.3012198
20
84.6936885
40
1.3990231
50
0.5424119
51
1.3863029
0
ARC
8
DEFAULT_255_1_234
10
21.4833576
20
84.7209342
40
1.0682415
50
359.8090433
51
4.9407866
0
ARC
8
DEFAULT_255_1_234
10
21.904359
20
84.7585113
40
0.6455691
50
4.8362157
51
12.2904523
0
ARC
8
DEFAULT_255_1_234
10
22.1798705
20
84.8198965
40
0.3633074
50
12.0805627
51
23.8173984
0
ARC
8
DEFAULT_255_1_234
10
22.297241
20
84.8695919
40
0.2358723
50
24.2871213
51
31.3935614
0
ARC
8
DEFAULT_255_1_234
10
22.3497107
20
84.9039233
40
0.1732111
50
30.7407893
51
82.4657128
0
ARC
8
DEFAULT_255_1_234
10
22.3317241
20
84.8155691
40
0.263235
50
81.1060089
51
90.2184952
0
ARC
8
DEFAULT_255_1_234
10
22.328154
20
84.8413924
40
0.2374236
50
89.3806855
51
105.6762551
0
ARC
8
DEFAULT_255_1_234
10
22.3098171
20
84.9080567
40
0.1682847
50
105.7981136
51
149.7388061
0
ARC
8
DEFAULT_255_1_234
10
22.4162249
20
84.844095
40
0.2924306
50
149.4208916
51
163.6286378
0
ARC
8
DEFAULT_255_1_234
10
22.6253137
20
84.780325
40
0.5110213
50
163.3763315
51
172.1410975
0
ARC
8
DEFAULT_255_1_234
10
22.9553856
20
84.7330518
40
0.8444586
50
172.0259487
51
178.0703232
0
ARC
8
DEFAULT_255_1_234
10
23.2583946
20
84.7186906
40
1.1477868
50
177.8631668
51
179.5044149
0
ARC
8
DEFAULT_255_1_234
10
23.151135
20
84.4872389
40
1.0404907
50
179.7995573
51
185.2460446
0
ARC
8
DEFAULT_255_1_234
10
22.746839
20
84.4489513
40
0.6343885
50
185.1411642
51
193.0079639
0
ARC
8
DEFAULT_255_1_234
10
22.4824862
20
84.3864641
40
0.3627568
50
192.7897626
51
205.2507664
0
ARC
8
DEFAULT_255_1_234
10
22.3778409
20
84.3397415
40
0.2481908
50
205.8005384
51
211.2537509
0
ARC
8
DEFAULT_255_1_234
10
22.325485
20
84.304658
40
0.1852521
50
210.3789793
51
238.4008143
0
ARC
8
DEFAULT_255_1_234
10
22.3235371
20
84.3093376
40
0.1882621
50
239.6520629
51
265.9793761
0
ARC
8
DEFAULT_255_1_234
10
22.3320572
20
84.3765427
40
0.2559272
50
265.1315437
51
270.060332
0
ARC
8
DEFAULT_255_1_234
10
22.334935
20
84.3441534
40
0.2235528
50
269.3314664
51
287.2178029
0
ARC
8
DEFAULT_255_1_234
10
22.3487202
20
84.2938279
40
0.1714108
50
287.7958004
51
329.080874
0
ARC
8
DEFAULT_255_1_234
10
22.2529659
20
84.353593
40
0.2842745
50
328.6634704
51
343.3325132
0
ARC
8
DEFAULT_255_1_234
10
22.0356679
20
84.4212863
40
0.5118644
50
343.0499468
51
351.9393422
0
ARC
8
DEFAULT_255_1_234
10
21.6889979
20
84.4723949
40
0.8622784
50
351.8069023
51
357.7959224
0
ARC
8
DEFAULT_255_1_234
10
21.3654535
20
84.4891721
40
1.1862365
50
357.5871873
51
359.2677531
0
LINE
8
DEFAULT_255_1_234
10
23.3788622
20
85.1904433
11
23.3788622
21
84.0154
0
LINE
8
DEFAULT_255_1_234
10
23.3788622
20
84.0154
11
23.2294718
21
84.0154
0
LINE
8
DEFAULT_255_1_234
10
23.2294718
20
84.0154
11
23.2294718
21
85.0057133
0
LINE
8
DEFAULT_255_1_234
10
23.2294718
20
85.0057133
11
22.929888
21
84.8956785
0
LINE
8
DEFAULT_255_1_234
10
22.929888
20
84.8956785
11
22.929888
21
85.0306117
0
LINE
8
DEFAULT_255_1_234
10
22.929888
20
85.0306117
11
23.3555701
21
85.1904433
0
LINE
8
DEFAULT_255_1_234
10
23.3555701
20
85.1904433
11
23.3788622
21
85.1904433
0
LINE
8
DEFAULT_255_1_234
10
24.1386646
20
84.5728026
11
24.1386646
21
84.4515234
0
LINE
8
DEFAULT_255_1_234
10
24.1386646
20
84.4515234
11
23.7467158
21
84.4515234
0
LINE
8
DEFAULT_255_1_234
10
23.7467158
20
84.4515234
11
23.7467158
21
84.5728026
0
LINE
8
DEFAULT_255_1_234
10
23.7467158
20
84.5728026
11
24.1386646
21
84.5728026
0
LINE
8
DEFAULT_255_1_234
10
21.5551364
20
93.1223211
11
21.7543235
21
93.1223211
0
LINE
8
DEFAULT_255_1_234
10
21.7543235
20
93.1223211
11
22.1366342
21
92.1681506
0
LINE
8
DEFAULT_255_1_234
10
22.1366342
20
92.1681506
11
22.518945
21
93.1223211
0
LINE
8
DEFAULT_255_1_234
10
22.518945
20
93.1223211
11
22.7189353
21
93.1223211
0
LINE
8
DEFAULT_255_1_234
10
22.7189353
20
93.1223211
11
22.7189353
21
91.9529
0
LINE
8
DEFAULT_255_1_234
10
22.7189353
20
91.9529
11
22.5647259
21
91.9529
0
LINE
8
DEFAULT_255_1_234
10
22.5647259
20
91.9529
11
22.5647259
21
92.4082996
0
LINE
8
DEFAULT_255_1_234
10
22.5647259
20
92.4082996
11
22.579183
21
92.8998419
0
LINE
8
DEFAULT_255_1_234
10
22.579183
20
92.8998419
11
22.1952659
21
91.9529
0
LINE
8
DEFAULT_255_1_234
10
22.1952659
20
91.9529
11
22.0771994
21
91.9529
0
LINE
8
DEFAULT_255_1_234
10
22.0771994
20
91.9529
11
21.6940854
21
92.8974324
0
LINE
8
DEFAULT_255_1_234
10
21.6940854
20
92.8974324
11
21.7093458
21
92.4082996
0
LINE
8
DEFAULT_255_1_234
10
21.7093458
20
92.4082996
11
21.7093458
21
91.9529
0
LINE
8
DEFAULT_255_1_234
10
21.7093458
20
91.9529
11
21.5551364
21
91.9529
0
LINE
8
DEFAULT_255_1_234
10
21.5551364
20
91.9529
11
21.5551364
21
93.1223211
0
LINE
8
DEFAULT_255_1_234
10
23.4409885
20
93.1279433
11
23.4409885
21
91.9529
0
LINE
8
DEFAULT_255_1_234
10
23.4409885
20
91.9529
11
23.2915982
21
91.9529
0
LINE
8
DEFAULT_255_1_234
10
23.2915982
20
91.9529
11
23.2915982
21
92.9432133
0
LINE
8
DEFAULT_255_1_234
10
23.2915982
20
92.9432133
11
22.9920144
21
92.8331785
0
LINE
8
DEFAULT_255_1_234
10
22.9920144
20
92.8331785
11
22.9920144
21
92.9681117
0
LINE
8
DEFAULT_255_1_234
10
22.9920144
20
92.9681117
11
23.4176965
21
93.1279433
0
LINE
8
DEFAULT_255_1_234
10
23.4176965
20
93.1279433
11
23.4409885
21
93.1279433
0
LINE
8
DEFAULT_255_1_234
10
24.200791
20
92.5103026
11
24.200791
21
92.3890234
0
LINE
8
DEFAULT_255_1_234
10
24.200791
20
92.3890234
11
23.8088421
21
92.3890234
0
LINE
8
DEFAULT_255_1_234
10
23.8088421
20
92.3890234
11
23.8088421
21
92.5103026
0
LINE
8
DEFAULT_255_1_234
10
23.8088421
20
92.5103026
11
24.200791
21
92.5103026
0
LINE
8
DEFAULT_255_1_234
10
21.1064364
20
101.0598211
11
21.3056235
21
101.0598211
0
LINE
8
DEFAULT_255_1_234
10
21.3056235
20
101.0598211
11
21.6879342
21
100.1056506
0
LINE
8
DEFAULT_255_1_234
10
21.6879342
20
100.1056506
11
22.070245
21
101.0598211
0
LINE
8
DEFAULT_255_1_234
10
22.070245
20
101.0598211
11
22.2702353
21
101.0598211
0
LINE
8
DEFAULT_255_1_234
10
22.2702353
20
101.0598211
11
22.2702353
21
99.8904
0
LINE
8
DEFAULT_255_1_234
10
22.2702353
20
99.8904
11
22.1160259
21
99.8904
0
LINE
8
DEFAULT_255_1_234
10
22.1160259
20
99.8904
11
22.1160259
21
100.3457996
0
LINE
8
DEFAULT_255_1_234
10
22.1160259
20
100.3457996
11
22.130483
21
100.8373419
0
LINE
8
DEFAULT_255_1_234
10
22.130483
20
100.8373419
11
21.7465659
21
99.8904
0
LINE
8
DEFAULT_255_1_234
10
21.7465659
20
99.8904
11
21.6284994
21
99.8904
0
LINE
8
DEFAULT_255_1_234
10
21.6284994
20
99.8904
11
21.2453854
21
100.8349324
0
LINE
8
DEFAULT_255_1_234
10
21.2453854
20
100.8349324
11
21.2606458
21
100.3457996
0
LINE
8
DEFAULT_255_1_234
10
21.2606458
20
100.3457996
11
21.2606458
21
99.8904
0
LINE
8
DEFAULT_255_1_234
10
21.2606458
20
99.8904
11
21.1064364
21
99.8904
0
LINE
8
DEFAULT_255_1_234
10
21.1064364
20
99.8904
11
21.1064364
21
101.0598211
0
LINE
8
DEFAULT_255_1_234
10
22.9922885
20
101.0654433
11
22.9922885
21
99.8904
0
LINE
8
DEFAULT_255_1_234
10
22.9922885
20
99.8904
11
22.8428982
21
99.8904
0
LINE
8
DEFAULT_255_1_234
10
22.8428982
20
99.8904
11
22.8428982
21
100.8807133
0
LINE
8
DEFAULT_255_1_234
10
22.8428982
20
100.8807133
11
22.5433144
21
100.7706785
0
LINE
8
DEFAULT_255_1_234
10
22.5433144
20
100.7706785
11
22.5433144
21
100.9056117
0
LINE
8
DEFAULT_255_1_234
10
22.5433144
20
100.9056117
11
22.9689965
21
101.0654433
0
LINE
8
DEFAULT_255_1_234
10
22.9689965
20
101.0654433
11
22.9922885
21
101.0654433
0
LINE
8
DEFAULT_255_1_234
10
23.8685512
20
100.8590276
11
23.8685512
21
100.5176788
0
LINE
8
DEFAULT_255_1_234
10
23.8685512
20
100.5176788
11
24.1946397
21
100.5176788
0
LINE
8
DEFAULT_255_1_234
10
24.1946397
20
100.5176788
11
24.1946397
21
100.3771233
0
LINE
8
DEFAULT_255_1_234
10
24.1946397
20
100.3771233
11
23.8685512
21
100.3771233
0
LINE
8
DEFAULT_255_1_234
10
23.8685512
20
100.3771233
11
23.8685512
21
100.0076634
0
LINE
8
DEFAULT_255_1_234
10
23.8685512
20
100.0076634
11
23.7191608
21
100.0076634
0
LINE
8
DEFAULT_255_1_234
10
23.7191608
20
100.0076634
11
23.7191608
21
100.3771233
0
LINE
8
DEFAULT_255_1_234
10
23.7191608
20
100.3771233
11
23.3930723
21
100.3771233
0
LINE
8
DEFAULT_255_1_234
10
23.3930723
20
100.3771233
11
23.3930723
21
100.5176788
0
LINE
8
DEFAULT_255_1_234
10
23.3930723
20
100.5176788
11
23.7191608
21
100.5176788
0
LINE
8
DEFAULT_255_1_234
10
23.7191608
20
100.5176788
11
23.7191608
21
100.8590276
0
LINE
8
DEFAULT_255_1_234
10
23.7191608
20
100.8590276
11
23.8685512
21
100.8590276
0
LINE
8
DEFAULT_255_1_234
10
21.5551364
20
108.9973211
11
21.7543235
21
108.9973211
0
LINE
8
DEFAULT_255_1_234
10
21.7543235
20
108.9973211
11
22.1366342
21
108.0431506
0
LINE
8
DEFAULT_255_1_234
10
22.1366342
20
108.0431506
11
22.518945
21
108.9973211
0
LINE
8
DEFAULT_255_1_234
10
22.518945
20
108.9973211
11
22.7189353
21
108.9973211
0
LINE
8
DEFAULT_255_1_234
10
22.7189353
20
108.9973211
11
22.7189353
21
107.8279
0
LINE
8
DEFAULT_255_1_234
10
22.7189353
20
107.8279
11
22.5647259
21
107.8279
0
LINE
8
DEFAULT_255_1_234
10
22.5647259
20
107.8279
11
22.5647259
21
108.2832996
0
LINE
8
DEFAULT_255_1_234
10
22.5647259
20
108.2832996
11
22.579183
21
108.7748419
0
LINE
8
DEFAULT_255_1_234
10
22.579183
20
108.7748419
11
22.1952659
21
107.8279
0
LINE
8
DEFAULT_255_1_234
10
22.1952659
20
107.8279
11
22.0771994
21
107.8279
0
LINE
8
DEFAULT_255_1_234
10
22.0771994
20
107.8279
11
21.6940854
21
108.7724324
0
LINE
8
DEFAULT_255_1_234
10
21.6940854
20
108.7724324
11
21.7093458
21
108.2832996
0
LINE
8
DEFAULT_255_1_234
10
21.7093458
20
108.2832996
11
21.7093458
21
107.8279
0
LINE
8
DEFAULT_255_1_234
10
21.7093458
20
107.8279
11
21.5551364
21
107.8279
0
LINE
8
DEFAULT_255_1_234
10
21.5551364
20
107.8279
11
21.5551364
21
108.9973211
0
LINE
8
DEFAULT_255_1_234
10
23.6859565
20
108.5194327
11
23.6859565
21
108.3266709
0
LINE
8
DEFAULT_255_1_234
10
22.9478398
20
108.3065916
11
22.9478398
21
108.5049755
0
LINE
8
DEFAULT_255_1_234
10
23.5373694
20
108.2865123
11
23.5373694
21
108.5298739
0
LINE
8
DEFAULT_255_1_234
10
23.096427
20
108.5411184
11
23.096427
21
108.3033789
0
ARC
8
DEFAULT_255_1_234
10
22.4612455
20
108.3217805
40
1.2247208
50
353.8441951
51
0.2287902
0
ARC
8
DEFAULT_255_1_234
10
22.9251959
20
108.2699806
40
0.7578929
50
344.4934747
51
353.9765454
0
ARC
8
DEFAULT_255_1_234
10
23.2244549
20
108.1848981
40
0.4467846
50
329.2803592
51
344.7472793
0
ARC
8
DEFAULT_255_1_234
10
23.3237374
20
108.1304018
40
0.3336173
50
324.9352394
51
328.6160465
0
ARC
8
DEFAULT_255_1_234
10
23.3614482
20
108.1040427
40
0.2876076
50
280.580143
51
324.9173126
0
ARC
8
DEFAULT_255_1_234
10
23.3213275
20
108.2711099
40
0.4592847
50
269.5977311
51
281.6734359
0
ARC
8
DEFAULT_255_1_234
10
23.3141181
20
108.2591173
40
0.4472986
50
256.6228859
51
270.51044
0
ARC
8
DEFAULT_255_1_234
10
23.2739159
20
108.1042877
40
0.2873874
50
215.8618325
51
257.2788573
0
ARC
8
DEFAULT_255_1_234
10
23.376019
20
108.1727977
40
0.4102928
50
197.9693508
51
215.2623606
0
ARC
8
DEFAULT_255_1_234
10
23.6245306
20
108.2566709
40
0.6725652
50
187.8816417
51
198.2346507
0
ARC
8
DEFAULT_255_1_234
10
24.0203514
20
108.3138079
40
1.0724845
50
180.8976217
51
188.0055519
0
ARC
8
DEFAULT_255_1_234
10
24.3003702
20
108.3241777
40
1.3526448
50
180.7449369
51
181.1510016
0
ARC
8
DEFAULT_255_1_234
10
24.1426431
20
108.5098042
40
1.1948131
50
173.7675579
51
180.231553
0
ARC
8
DEFAULT_255_1_234
10
23.6908578
20
108.5608666
40
0.7401564
50
164.3058563
51
173.9002247
0
ARC
8
DEFAULT_255_1_234
10
23.3996647
20
108.6447656
40
0.4371288
50
148.7922025
51
164.568378
0
ARC
8
DEFAULT_255_1_234
10
23.3045099
20
108.6978929
40
0.3282386
50
144.5883898
51
148.1176286
0
ARC
8
DEFAULT_255_1_234
10
23.2701997
20
108.7218315
40
0.2864044
50
101.6440918
51
144.514236
0
ARC
8
DEFAULT_255_1_234
10
23.3127064
20
108.5529069
40
0.4604934
50
89.5284041
51
102.5819763
0
ARC
8
DEFAULT_255_1_234
10
23.3206151
20
108.5490018
40
0.464401
50
77.0437873
51
90.5081339
0
ARC
8
DEFAULT_255_1_234
10
23.3608153
20
108.7132615
40
0.2953195
50
48.2778575
51
77.4994676
0
ARC
8
DEFAULT_255_1_234
10
23.3680784
20
108.7261746
40
0.2808655
50
36.3142134
51
47.6305865
0
ARC
8
DEFAULT_255_1_234
10
23.2812091
20
108.6676515
40
0.3855453
50
18.2931786
51
35.6769206
0
ARC
8
DEFAULT_255_1_234
10
23.026885
20
108.5803593
40
0.654423
50
8.024666
51
18.5605216
0
ARC
8
DEFAULT_255_1_234
10
22.610577
20
108.5188792
40
1.0752407
50
1.1274072
51
8.1718305
0
ARC
8
DEFAULT_255_1_234
10
22.2869961
20
108.5061885
40
1.3990231
50
0.5424119
51
1.3863029
0
ARC
8
DEFAULT_255_1_234
10
22.4691338
20
108.5334342
40
1.0682415
50
359.8090433
51
4.9407866
0
ARC
8
DEFAULT_255_1_234
10
22.8901352
20
108.5710113
40
0.6455691
50
4.8362157
51
12.2904523
0
ARC
8
DEFAULT_255_1_234
10
23.1656467
20
108.6323965
40
0.3633074
50
12.0805627
51
23.8173984
0
ARC
8
DEFAULT_255_1_234
10
23.2830173
20
108.6820919
40
0.2358723
50
24.2871213
51
31.3935614
0
ARC
8
DEFAULT_255_1_234
10
23.335487
20
108.7164233
40
0.1732111
50
30.7407893
51
82.4657128
0
ARC
8
DEFAULT_255_1_234
10
23.3175004
20
108.6280691
40
0.263235
50
81.1060089
51
90.2184952
0
ARC
8
DEFAULT_255_1_234
10
23.3139303
20
108.6538924
40
0.2374236
50
89.3806855
51
105.6762551
0
ARC
8
DEFAULT_255_1_234
10
23.2955934
20
108.7205567
40
0.1682847
50
105.7981136
51
149.7388061
0
ARC
8
DEFAULT_255_1_234
10
23.4020012
20
108.656595
40
0.2924306
50
149.4208916
51
163.6286378
0
ARC
8
DEFAULT_255_1_234
10
23.61109
20
108.592825
40
0.5110213
50
163.3763315
51
172.1410975
0
ARC
8
DEFAULT_255_1_234
10
23.9411619
20
108.5455518
40
0.8444586
50
172.0259487
51
178.0703232
0
ARC
8
DEFAULT_255_1_234
10
24.2441709
20
108.5311906
40
1.1477868
50
177.8631668
51
179.5044149
0
ARC
8
DEFAULT_255_1_234
10
24.1369113
20
108.2997389
40
1.0404907
50
179.7995573
51
185.2460446
0
ARC
8
DEFAULT_255_1_234
10
23.7326152
20
108.2614513
40
0.6343885
50
185.1411642
51
193.0079639
0
ARC
8
DEFAULT_255_1_234
10
23.4682625
20
108.1989641
40
0.3627568
50
192.7897626
51
205.2507664
0
ARC
8
DEFAULT_255_1_234
10
23.3636172
20
108.1522415
40
0.2481908
50
205.8005384
51
211.2537509
0
ARC
8
DEFAULT_255_1_234
10
23.3112612
20
108.117158
40
0.1852521
50
210.3789793
51
238.4008143
0
ARC
8
DEFAULT_255_1_234
10
23.3093134
20
108.1218376
40
0.1882621
50
239.6520629
51
265.9793761
0
ARC
8
DEFAULT_255_1_234
10
23.3178334
20
108.1890427
40
0.2559272
50
265.1315437
51
270.060332
0
ARC
8
DEFAULT_255_1_234
10
23.3207113
20
108.1566534
40
0.2235528
50
269.3314664
51
287.2178029
0
ARC
8
DEFAULT_255_1_234
10
23.3344965
20
108.1063279
40
0.1714108
50
287.7958004
51
329.080874
0
ARC
8
DEFAULT_255_1_234
10
23.2387422
20
108.166093
40
0.2842745
50
328.6634704
51
343.3325132
0
ARC
8
DEFAULT_255_1_234
10
23.0214442
20
108.2337863
40
0.5118644
50
343.0499468
51
351.9393422
0
ARC
8
DEFAULT_255_1_234
10
22.6747742
20
108.2848949
40
0.8622784
50
351.8069023
51
357.7959224
0
ARC
8
DEFAULT_255_1_234
10
22.3512298
20
108.3016721
40
1.1862365
50
357.5871873
51
359.2677531
0
LINE
8
DEFAULT_255_1_234
10
24.200791
20
108.3853026
11
24.200791
21
108.2640234
0
LINE
8
DEFAULT_255_1_234
10
24.200791
20
108.2640234
11
23.8088421
21
108.2640234
0
LINE
8
DEFAULT_255_1_234
10
23.8088421
20
108.2640234
11
23.8088421
21
108.3853026
0
LINE
8
DEFAULT_255_1_234
10
23.8088421
20
108.3853026
11
24.200791
21
108.3853026
0
LINE
8
DEFAULT_255_1_234
10
21.1064364
20
116.9348211
11
21.3056235
21
116.9348211
0
LINE
8
DEFAULT_255_1_234
10
21.3056235
20
116.9348211
11
21.6879342
21
115.9806506
0
LINE
8
DEFAULT_255_1_234
10
21.6879342
20
115.9806506
11
22.070245
21
116.9348211
0
LINE
8
DEFAULT_255_1_234
10
22.070245
20
116.9348211
11
22.2702353
21
116.9348211
0
LINE
8
DEFAULT_255_1_234
10
22.2702353
20
116.9348211
11
22.2702353
21
115.7654
0
LINE
8
DEFAULT_255_1_234
10
22.2702353
20
115.7654
11
22.1160259
21
115.7654
0
LINE
8
DEFAULT_255_1_234
10
22.1160259
20
115.7654
11
22.1160259
21
116.2207996
0
LINE
8
DEFAULT_255_1_234
10
22.1160259
20
116.2207996
11
22.130483
21
116.7123419
0
LINE
8
DEFAULT_255_1_234
10
22.130483
20
116.7123419
11
21.7465659
21
115.7654
0
LINE
8
DEFAULT_255_1_234
10
21.7465659
20
115.7654
11
21.6284994
21
115.7654
0
LINE
8
DEFAULT_255_1_234
10
21.6284994
20
115.7654
11
21.2453854
21
116.7099324
0
LINE
8
DEFAULT_255_1_234
10
21.2453854
20
116.7099324
11
21.2606458
21
116.2207996
0
LINE
8
DEFAULT_255_1_234
10
21.2606458
20
116.2207996
11
21.2606458
21
115.7654
0
LINE
8
DEFAULT_255_1_234
10
21.2606458
20
115.7654
11
21.1064364
21
115.7654
0
LINE
8
DEFAULT_255_1_234
10
21.1064364
20
115.7654
11
21.1064364
21
116.9348211
0
LINE
8
DEFAULT_255_1_234
10
23.2372565
20
116.4569327
11
23.2372565
21
116.2641709
0
LINE
8
DEFAULT_255_1_234
10
22.4991398
20
116.2440916
11
22.4991398
21
116.4424755
0
LINE
8
DEFAULT_255_1_234
10
23.0886694
20
116.2240123
11
23.0886694
21
116.4673739
0
LINE
8
DEFAULT_255_1_234
10
22.647727
20
116.4786184
11
22.647727
21
116.2408789
0
ARC
8
DEFAULT_255_1_234
10
22.0125455
20
116.2592805
40
1.2247208
50
353.8441951
51
0.2287902
0
ARC
8
DEFAULT_255_1_234
10
22.4764959
20
116.2074806
40
0.7578929
50
344.4934747
51
353.9765454
0
ARC
8
DEFAULT_255_1_234
10
22.7757549
20
116.1223981
40
0.4467846
50
329.2803592
51
344.7472793
0
ARC
8
DEFAULT_255_1_234
10
22.8750374
20
116.0679018
40
0.3336173
50
324.9352394
51
328.6160465
0
ARC
8
DEFAULT_255_1_234
10
22.9127482
20
116.0415427
40
0.2876076
50
280.580143
51
324.9173126
0
ARC
8
DEFAULT_255_1_234
10
22.8726275
20
116.2086099
40
0.4592847
50
269.5977311
51
281.6734359
0
ARC
8
DEFAULT_255_1_234
10
22.8654181
20
116.1966173
40
0.4472986
50
256.6228859
51
270.51044
0
ARC
8
DEFAULT_255_1_234
10
22.8252159
20
116.0417877
40
0.2873874
50
215.8618325
51
257.2788573
0
ARC
8
DEFAULT_255_1_234
10
22.927319
20
116.1102977
40
0.4102928
50
197.9693508
51
215.2623606
0
ARC
8
DEFAULT_255_1_234
10
23.1758306
20
116.1941709
40
0.6725652
50
187.8816417
51
198.2346507
0
ARC
8
DEFAULT_255_1_234
10
23.5716514
20
116.2513079
40
1.0724845
50
180.8976217
51
188.0055519
0
ARC
8
DEFAULT_255_1_234
10
23.8516702
20
116.2616777
40
1.3526448
50
180.7449369
51
181.1510016
0
ARC
8
DEFAULT_255_1_234
10
23.6939431
20
116.4473042
40
1.1948131
50
173.7675579
51
180.231553
0
ARC
8
DEFAULT_255_1_234
10
23.2421578
20
116.4983666
40
0.7401564
50
164.3058563
51
173.9002247
0
ARC
8
DEFAULT_255_1_234
10
22.9509647
20
116.5822656
40
0.4371288
50
148.7922025
51
164.568378
0
ARC
8
DEFAULT_255_1_234
10
22.8558099
20
116.6353929
40
0.3282386
50
144.5883898
51
148.1176286
0
ARC
8
DEFAULT_255_1_234
10
22.8214997
20
116.6593315
40
0.2864044
50
101.6440918
51
144.514236
0
ARC
8
DEFAULT_255_1_234
10
22.8640064
20
116.4904069
40
0.4604934
50
89.5284041
51
102.5819763
0
ARC
8
DEFAULT_255_1_234
10
22.8719151
20
116.4865018
40
0.464401
50
77.0437873
51
90.5081339
0
ARC
8
DEFAULT_255_1_234
10
22.9121153
20
116.6507615
40
0.2953195
50
48.2778575
51
77.4994676
0
ARC
8
DEFAULT_255_1_234
10
22.9193784
20
116.6636746
40
0.2808655
50
36.3142134
51
47.6305865
0
ARC
8
DEFAULT_255_1_234
10
22.8325091
20
116.6051515
40
0.3855453
50
18.2931786
51
35.6769206
0
ARC
8
DEFAULT_255_1_234
10
22.578185
20
116.5178593
40
0.654423
50
8.024666
51
18.5605216
0
ARC
8
DEFAULT_255_1_234
10
22.161877
20
116.4563792
40
1.0752407
50
1.1274072
51
8.1718305
0
ARC
8
DEFAULT_255_1_234
10
21.8382961
20
116.4436885
40
1.3990231
50
0.5424119
51
1.3863029
0
ARC
8
DEFAULT_255_1_234
10
22.0204338
20
116.4709342
40
1.0682415
50
359.8090433
51
4.9407866
0
ARC
8
DEFAULT_255_1_234
10
22.4414352
20
116.5085113
40
0.6455691
50
4.8362157
51
12.2904523
0
ARC
8
DEFAULT_255_1_234
10
22.7169467
20
116.5698965
40
0.3633074
50
12.0805627
51
23.8173984
0
ARC
8
DEFAULT_255_1_234
10
22.8343173
20
116.6195919
40
0.2358723
50
24.2871213
51
31.3935614
0
ARC
8
DEFAULT_255_1_234
10
22.886787
20
116.6539233
40
0.1732111
50
30.7407893
51
82.4657128
0
ARC
8
DEFAULT_255_1_234
10
22.8688004
20
116.5655691
40
0.263235
50
81.1060089
51
90.2184952
0
ARC
8
DEFAULT_255_1_234
10
22.8652303
20
116.5913924
40
0.2374236
50
89.3806855
51
105.6762551
0
ARC
8
DEFAULT_255_1_234
10
22.8468934
20
116.6580567
40
0.1682847
50
105.7981136
51
149.7388061
0
ARC
8
DEFAULT_255_1_234
10
22.9533012
20
116.594095
40
0.2924306
50
149.4208916
51
163.6286378
0
ARC
8
DEFAULT_255_1_234
10
23.16239
20
116.530325
40
0.5110213
50
163.3763315
51
172.1410975
0
ARC
8
DEFAULT_255_1_234
10
23.4924619
20
116.4830518
40
0.8444586
50
172.0259487
51
178.0703232
0
ARC
8
DEFAULT_255_1_234
10
23.7954709
20
116.4686906
40
1.1477868
50
177.8631668
51
179.5044149
0
ARC
8
DEFAULT_255_1_234
10
23.6882113
20
116.2372389
40
1.0404907
50
179.7995573
51
185.2460446
0
ARC
8
DEFAULT_255_1_234
10
23.2839152
20
116.1989513
40
0.6343885
50
185.1411642
51
193.0079639
0
ARC
8
DEFAULT_255_1_234
10
23.0195625
20
116.1364641
40
0.3627568
50
192.7897626
51
205.2507664
0
ARC
8
DEFAULT_255_1_234
10
22.9149172
20
116.0897415
40
0.2481908
50
205.8005384
51
211.2537509
0
ARC
8
DEFAULT_255_1_234
10
22.8625612
20
116.054658
40
0.1852521
50
210.3789793
51
238.4008143
0
ARC
8
DEFAULT_255_1_234
10
22.8606134
20
116.0593376
40
0.1882621
50
239.6520629
51
265.9793761
0
ARC
8
DEFAULT_255_1_234
10
22.8691334
20
116.1265427
40
0.2559272
50
265.1315437
51
270.060332
0
ARC
8
DEFAULT_255_1_234
10
22.8720113
20
116.0941534
40
0.2235528
50
269.3314664
51
287.2178029
0
ARC
8
DEFAULT_255_1_234
10
22.8857965
20
116.0438279
40
0.1714108
50
287.7958004
51
329.080874
0
ARC
8
DEFAULT_255_1_234
10
22.7900422
20
116.103593
40
0.2842745
50
328.6634704
51
343.3325132
0
ARC
8
DEFAULT_255_1_234
10
22.5727442
20
116.1712863
40
0.5118644
50
343.0499468
51
351.9393422
0
ARC
8
DEFAULT_255_1_234
10
22.2260742
20
116.2223949
40
0.8622784
50
351.8069023
51
357.7959224
0
ARC
8
DEFAULT_255_1_234
10
21.9025298
20
116.2391721
40
1.1862365
50
357.5871873
51
359.2677531
0
LINE
8
DEFAULT_255_1_234
10
23.8685512
20
116.7340276
11
23.8685512
21
116.3926788
0
LINE
8
DEFAULT_255_1_234
10
23.8685512
20
116.3926788
11
24.1946397
21
116.3926788
0
LINE
8
DEFAULT_255_1_234
10
24.1946397
20
116.3926788
11
24.1946397
21
116.2521233
0
LINE
8
DEFAULT_255_1_234
10
24.1946397
20
116.2521233
11
23.8685512
21
116.2521233
0
LINE
8
DEFAULT_255_1_234
10
23.8685512
20
116.2521233
11
23.8685512
21
115.8826634
0
LINE
8
DEFAULT_255_1_234
10
23.8685512
20
115.8826634
11
23.7191608
21
115.8826634
0
LINE
8
DEFAULT_255_1_234
10
23.7191608
20
115.8826634
11
23.7191608
21
116.2521233
0
LINE
8
DEFAULT_255_1_234
10
23.7191608
20
116.2521233
11
23.3930723
21
116.2521233
0
LINE
8
DEFAULT_255_1_234
10
23.3930723
20
116.2521233
11
23.3930723
21
116.3926788
0
LINE
8
DEFAULT_255_1_234
10
23.3930723
20
116.3926788
11
23.7191608
21
116.3926788
0
LINE
8
DEFAULT_255_1_234
10
23.7191608
20
116.3926788
11
23.7191608
21
116.7340276
0
LINE
8
DEFAULT_255_1_234
10
23.7191608
20
116.7340276
11
23.8685512
21
116.7340276
0
LINE
8
DEFAULT_255_1_234
10
21.1843902
20
124.8723211
11
21.1843902
21
123.7029
0
LINE
8
DEFAULT_255_1_234
10
21.1843902
20
123.7029
11
21.0301808
21
123.7029
0
LINE
8
DEFAULT_255_1_234
10
21.0301808
20
123.7029
11
21.0301808
21
124.8723211
0
LINE
8
DEFAULT_255_1_234
10
21.0301808
20
124.8723211
11
21.1843902
21
124.8723211
0
LINE
8
DEFAULT_255_1_234
10
22.1714908
20
124.0739663
11
22.3265034
21
124.0739663
0
LINE
8
DEFAULT_255_1_234
10
21.4261455
20
124.2329947
11
21.4261455
21
124.3454391
0
LINE
8
DEFAULT_255_1_234
10
22.3265034
20
124.4964357
11
22.1714908
21
124.4964357
0
LINE
8
DEFAULT_255_1_234
10
21.5811581
20
124.3414232
11
21.5811581
21
124.2281757
0
ARC
8
DEFAULT_255_1_234
10
21.7784421
20
124.1336846
40
0.5513052
50
340.1774281
51
353.7814284
0
ARC
8
DEFAULT_255_1_234
10
21.9355773
20
124.0751582
40
0.3836379
50
311.4558989
51
340.4421614
0
ARC
8
DEFAULT_255_1_234
10
21.9322441
20
124.0862528
40
0.3941894
50
282.4333181
51
310.7513653
0
ARC
8
DEFAULT_255_1_234
10
21.888318
20
124.2677679
40
0.5809175
50
269.9358511
51
282.809604
0
ARC
8
DEFAULT_255_1_234
10
21.8831247
20
124.4135212
40
0.7266847
50
270.0021091
51
270.3581957
0
ARC
8
DEFAULT_255_1_234
10
21.8778664
20
124.1534585
40
0.4666519
50
250.7884749
51
270.6489167
0
ARC
8
DEFAULT_255_1_234
10
21.8610498
20
124.0897319
40
0.4009729
50
219.3627325
51
250.0611886
0
ARC
8
DEFAULT_255_1_234
10
21.9439709
20
124.1602042
40
0.5097822
50
193.5479632
51
219.5756669
0
ARC
8
DEFAULT_255_1_234
10
22.181133
20
124.2217919
40
0.7547848
50
181.1218675
51
193.87563
0
ARC
8
DEFAULT_255_1_234
10
22.3881511
20
124.232858
40
0.9620055
50
179.9918545
51
181.5394234
0
ARC
8
DEFAULT_255_1_234
10
22.2030613
20
124.3491788
40
0.7769248
50
169.5837241
51
180.2757934
0
ARC
8
DEFAULT_255_1_234
10
22.0193551
20
124.3831229
40
0.590109
50
155.0365899
51
169.6003176
0
ARC
8
DEFAULT_255_1_234
10
21.9058015
20
124.4378677
40
0.4640625
50
136.783148
51
155.2472683
0
ARC
8
DEFAULT_255_1_234
10
21.8668492
20
124.4709562
40
0.4130255
50
121.7633186
51
136.428115
0
ARC
8
DEFAULT_255_1_234
10
21.8803454
20
124.4460227
40
0.4413323
50
95.6459699
51
121.5490577
0
ARC
8
DEFAULT_255_1_234
10
21.8960736
20
124.3351949
40
0.55319
50
89.924208
51
96.1377933
0
ARC
8
DEFAULT_255_1_234
10
21.9011169
20
124.3470542
40
0.5413475
50
76.6779277
51
90.4563316
0
ARC
8
DEFAULT_255_1_234
10
21.9404792
20
124.5061114
40
0.3775041
50
47.485847
51
76.9287264
0
ARC
8
DEFAULT_255_1_234
10
21.9257765
20
124.4961159
40
0.3948286
50
16.5424086
51
46.8933463
0
ARC
8
DEFAULT_255_1_234
10
21.7649922
20
124.4432861
40
0.564021
50
5.4072051
51
17.0365086
0
ARC
8
DEFAULT_255_1_234
10
21.6210939
20
124.4201679
40
0.5556559
50
7.8891745
51
15.9239216
0
ARC
8
DEFAULT_255_1_234
10
21.8197953
20
124.4778631
40
0.3487515
50
15.7653144
51
27.9410532
0
ARC
8
DEFAULT_255_1_234
10
21.9302171
20
124.536979
40
0.2235026
50
27.8166557
51
46.4008329
0
ARC
8
DEFAULT_255_1_234
10
21.9351813
20
124.5364082
40
0.2205286
50
47.4371857
51
75.0698205
0
ARC
8
DEFAULT_255_1_234
10
21.9043208
20
124.4289765
40
0.3322915
50
74.7008593
51
87.8124495
0
ARC
8
DEFAULT_255_1_234
10
21.8969895
20
124.3233844
40
0.4380987
50
87.3814673
51
90.0240855
0
ARC
8
DEFAULT_255_1_234
10
21.8931439
20
124.4411291
40
0.3203749
50
89.3451631
51
108.5745436
0
ARC
8
DEFAULT_255_1_234
10
21.8794544
20
124.4924908
40
0.2673494
50
109.2998449
51
143.3037509
0
ARC
8
DEFAULT_255_1_234
10
21.9556617
20
124.4338881
40
0.3634757
50
143.0753173
51
163.1916937
0
ARC
8
DEFAULT_255_1_234
10
22.1508344
20
124.3722967
40
0.5681262
50
162.9373603
51
174.6208611
0
ARC
8
DEFAULT_255_1_234
10
22.4134386
20
124.343501
40
0.8322832
50
174.3419979
51
180.1430411
0
ARC
8
DEFAULT_255_1_234
10
22.3203543
20
124.2240698
40
0.7392076
50
179.6817502
51
189.150529
0
ARC
8
DEFAULT_255_1_234
10
22.0702791
20
124.182419
40
0.4856932
50
188.9910863
51
203.5773039
0
ARC
8
DEFAULT_255_1_234
10
21.9623123
20
124.1376211
40
0.3688271
50
203.9077269
51
215.1312379
0
ARC
8
DEFAULT_255_1_234
10
21.8700217
20
124.0660941
40
0.2522457
50
213.9071664
51
263.8849284
0
ARC
8
DEFAULT_255_1_234
10
21.8825546
20
124.1445518
40
0.3316174
50
263.1758525
51
270.1031083
0
ARC
8
DEFAULT_255_1_234
10
21.8857638
20
124.2692365
40
0.4563091
50
269.6719807
51
279.0609165
0
ARC
8
DEFAULT_255_1_234
10
21.9124406
20
124.1079907
40
0.2928759
50
278.8750225
51
293.6346586
0
ARC
8
DEFAULT_255_1_234
10
21.9444614
20
124.03279
40
0.2111472
50
293.8553404
51
310.0518804
0
ARC
8
DEFAULT_255_1_234
10
21.9449468
20
124.0265516
40
0.2060917
50
311.0646779
51
332.0108348
0
ARC
8
DEFAULT_255_1_234
10
21.8257195
20
124.0922978
40
0.3422352
50
331.6588543
51
343.2878891
0
ARC
8
DEFAULT_255_1_234
10
21.619471
20
124.1556798
40
0.5580003
50
343.1446044
51
351.010618
0
ARC
8
DEFAULT_255_1_234
10
21.4653356
20
124.1837871
40
0.7146438
50
350.7157277
51
351.1602153
0
LINE
8
DEFAULT_255_1_234
10
22.9867123
20
124.8779433
11
22.9867123
21
123.7029
0
LINE
8
DEFAULT_255_1_234
10
22.9867123
20
123.7029
11
22.8373219
21
123.7029
0
LINE
8
DEFAULT_255_1_234
10
22.8373219
20
123.7029
11
22.8373219
21
124.6932133
0
LINE
8
DEFAULT_255_1_234
10
22.8373219
20
124.6932133
11
22.5377381
21
124.5831785
0
LINE
8
DEFAULT_255_1_234
10
22.5377381
20
124.5831785
11
22.5377381
21
124.7181117
0
LINE
8
DEFAULT_255_1_234
10
22.5377381
20
124.7181117
11
22.9634202
21
124.8779433
0
LINE
8
DEFAULT_255_1_234
10
22.9634202
20
124.8779433
11
22.9867123
21
124.8779433
0
LINE
8
DEFAULT_255_1_234
10
23.8629749
20
124.6715276
11
23.8629749
21
124.3301788
0
LINE
8
DEFAULT_255_1_234
10
23.8629749
20
124.3301788
11
24.1890635
21
124.3301788
0
LINE
8
DEFAULT_255_1_234
10
24.1890635
20
124.3301788
11
24.1890635
21
124.1896233
0
LINE
8
DEFAULT_255_1_234
10
24.1890635
20
124.1896233
11
23.8629749
21
124.1896233
0
LINE
8
DEFAULT_255_1_234
10
23.8629749
20
124.1896233
11
23.8629749
21
123.8201634
0
LINE
8
DEFAULT_255_1_234
10
23.8629749
20
123.8201634
11
23.7135846
21
123.8201634
0
LINE
8
DEFAULT_255_1_234
10
23.7135846
20
123.8201634
11
23.7135846
21
124.1896233
0
LINE
8
DEFAULT_255_1_234
10
23.7135846
20
124.1896233
11
23.387496
21
124.1896233
0
LINE
8
DEFAULT_255_1_234
10
23.387496
20
124.1896233
11
23.387496
21
124.3301788
0
LINE
8
DEFAULT_255_1_234
10
23.387496
20
124.3301788
11
23.7135846
21
124.3301788
0
LINE
8
DEFAULT_255_1_234
10
23.7135846
20
124.3301788
11
23.7135846
21
124.6715276
0
LINE
8
DEFAULT_255_1_234
10
23.7135846
20
124.6715276
11
23.8629749
21
124.6715276
0
ENDSEC
0
EOF