0
SECTION
2
HEADER
9
$MEASUREMENT
70
1
0
ENDSEC
0
SECTION
2
TABLES
0
TABLE
2
LTYPE
0
LTYPE
72
65
70
64
2
CONTINUOUS
3
______
73
0
40
0
0
ENDTAB
0
TABLE
2
LAYER
0
LAYER
2
DEFAULT_255_2_778
70
0
62
255
6
CONTINUOUS
0
LAYER
2
DEFAULT_255_1_234
70
0
62
255
6
CONTINUOUS
0
LAYER
2
DEFAULT_255_2_778_1
70
0
62
255
6
CONTINUOUS
0
ENDTAB
0
ENDSEC
0
SECTION
2
ENTITIES
0
ARC
8
DEFAULT_255_2_778
10
3.5695693
20
139.3052021
40
0.7914215
50
129.1312896
51
180.1450914
0
ARC
8
DEFAULT_255_2_778
10
3.5698345
20
139.3056893
40
0.7912112
50
89.854026
51
129.1684493
0
ARC
8
DEFAULT_255_2_778
10
25.7988937
20
139.3053758
40
0.7915249
50
39.4792447
51
90.147911
0
ARC
8
DEFAULT_255_2_778
10
25.7994935
20
139.3052224
40
0.7911595
50
359.8533901
51
39.5154338
0
ARC
8
DEFAULT_255_2_778
10
25.7991693
20
-1.9863501
40
0.7914836
50
309.4761667
51
0.1482649
0
ARC
8
DEFAULT_255_2_778
10
25.798898
20
-1.9867812
40
0.7913235
50
269.8517415
51
309.511178
0
ARC
8
DEFAULT_255_2_778
10
3.569842
20
-1.986723
40
0.7913815
50
219.1282118
51
270.1454017
0
ARC
8
DEFAULT_255_2_778
10
3.5695247
20
-1.9863406
40
0.7913769
50
179.8524075
51
219.1641908
0
LINE
8
DEFAULT_255_2_778
10
3.5718503
20
140.096898
11
25.7968503
21
140.096898
0
LINE
8
DEFAULT_255_2_778
10
26.5906503
20
139.303198
11
26.5906503
21
-1.984302
0
LINE
8
DEFAULT_255_2_778
10
25.7968503
20
-2.778102
11
3.5718503
21
-2.778102
0
LINE
8
DEFAULT_255_2_778
10
2.7781503
20
-1.984302
11
2.7781503
21
139.303198
0
LINE
8
DEFAULT_255_1_234
10
6.7639835
20
0.5189243
11
6.7904882
21
0.5189243
0
LINE
8
DEFAULT_255_1_234
10
6.7904882
20
0.5189243
11
6.7904882
21
0.392826
0
LINE
8
DEFAULT_255_1_234
10
6.7904882
20
0.392826
11
6.7631803
21
0.392826
0
LINE
8
DEFAULT_255_1_234
10
6.2162189
20
-0.2063417
11
6.2162189
21
-0.1493164
0
LINE
8
DEFAULT_255_1_234
10
6.3656093
20
-0.1685925
11
6.3656093
21
-0.2232083
0
ARC
8
DEFAULT_255_1_234
10
6.7684151
20
-0.1069545
40
0.4998079
50
90.6001036
51
104.514704
0
ARC
8
DEFAULT_255_1_234
10
6.7295667
20
0.0375131
40
0.3502176
50
104.2855254
51
133.862935
0
ARC
8
DEFAULT_255_1_234
10
6.7459424
20
0.026683
40
0.3693984
50
134.5302688
51
161.6210873
0
ARC
8
DEFAULT_255_1_234
10
6.9112613
20
-0.0316105
40
0.5446739
50
161.2849839
51
174.2076652
0
ARC
8
DEFAULT_255_1_234
10
7.051955
20
-0.0510213
40
0.6866274
50
173.7810589
51
174.9254635
0
ARC
8
DEFAULT_255_1_234
10
6.5969382
20
-0.1893161
40
0.3033419
50
95.8330959
51
138.9954921
0
ARC
8
DEFAULT_255_1_234
10
6.6192738
20
-0.3171625
40
0.4328947
50
89.8753725
51
97.0544009
0
ARC
8
DEFAULT_255_1_234
10
6.6240204
20
-0.2336252
40
0.3493769
50
71.6407809
51
90.6240094
0
ARC
8
DEFAULT_255_1_234
10
6.6390777
20
-0.1781918
40
0.2920396
50
39.6367836
51
71.019018
0
ARC
8
DEFAULT_255_1_234
10
6.575425
20
-0.2332002
40
0.3761538
50
10.658731
51
39.9043955
0
ARC
8
DEFAULT_255_1_234
10
6.4206333
20
-0.2668314
40
0.5345136
50
359.682601
51
11.132623
0
ARC
8
DEFAULT_255_1_234
10
6.4166464
20
-0.273899
40
0.5385081
50
347.2486944
51
0.4369317
0
ARC
8
DEFAULT_255_1_234
10
6.5833941
20
-0.3140193
40
0.3670249
50
318.1409698
51
347.6118597
0
ARC
8
DEFAULT_255_1_234
10
6.6158934
20
-0.3407298
40
0.3250007
50
275.6342139
51
317.8248465
0
ARC
8
DEFAULT_255_1_234
10
6.5938045
20
-0.2107781
40
0.4565864
50
269.8874292
51
276.7917694
0
ARC
8
DEFAULT_255_1_234
10
6.5883116
20
-0.3133257
40
0.3540676
50
246.9140195
51
270.7437342
0
ARC
8
DEFAULT_255_1_234
10
6.5889506
20
-0.3275616
40
0.3412781
50
218.1665114
51
245.878116
0
ARC
8
DEFAULT_255_1_234
10
6.6768967
20
-0.2539721
40
0.455911
50
191.4115814
51
218.6077802
0
ARC
8
DEFAULT_255_1_234
10
6.8707056
20
-0.2105167
40
0.6545001
50
179.6345085
51
191.7836486
0
ARC
8
DEFAULT_255_1_234
10
7.4289393
20
-0.1426303
40
1.2127388
50
171.4525249
51
180.3158839
0
ARC
8
DEFAULT_255_1_234
10
6.9894269
20
-0.0742392
40
0.7679464
50
157.9802646
51
171.6246686
0
ARC
8
DEFAULT_255_1_234
10
6.768029
20
0.0140421
40
0.5296008
50
141.4298019
51
157.854097
0
ARC
8
DEFAULT_255_1_234
10
6.703861
20
0.0594381
40
0.4511509
50
102.8715806
51
140.8564722
0
ARC
8
DEFAULT_255_1_234
10
6.7686226
20
-0.1845448
40
0.7034845
50
90.3778349
51
103.5869322
0
ARC
8
DEFAULT_255_1_234
10
6.5948002
20
-0.245027
40
0.2370698
50
89.8751008
51
126.2071704
0
ARC
8
DEFAULT_255_1_234
10
6.5993792
20
-0.2604697
40
0.2522934
50
124.9745049
51
144.895901
0
ARC
8
DEFAULT_255_1_234
10
6.5817982
20
-0.246144
40
0.2296779
50
145.2974905
51
160.2660252
0
ARC
8
DEFAULT_255_1_234
10
6.8890521
20
-0.2263929
40
0.5234525
50
179.6514266
51
190.2855912
0
ARC
8
DEFAULT_255_1_234
10
6.7196658
20
-0.2583214
40
0.3510893
50
190.0945431
51
207.5098196
0
ARC
8
DEFAULT_255_1_234
10
6.6630928
20
-0.2852377
40
0.288489
50
207.9583163
51
216.3251085
0
ARC
8
DEFAULT_255_1_234
10
6.6291036
20
-0.3131895
40
0.2445587
50
215.7661442
51
232.5456785
0
ARC
8
DEFAULT_255_1_234
10
6.5908019
20
-0.3618518
40
0.1826382
50
232.8005391
51
270.6605633
0
ARC
8
DEFAULT_255_1_234
10
6.595372
20
-0.3254388
40
0.2190529
50
269.35537
51
288.4744281
0
ARC
8
DEFAULT_255_1_234
10
6.6046617
20
-0.3603882
40
0.1829749
50
289.1833337
51
322.9683818
0
ARC
8
DEFAULT_255_1_234
10
6.5435139
20
-0.3121609
40
0.2608399
50
322.6007884
51
346.5182367
0
ARC
8
DEFAULT_255_1_234
10
6.4277735
20
-0.2826384
40
0.3802777
50
346.2582162
51
358.7741648
0
ARC
8
DEFAULT_255_1_234
10
6.3259404
20
-0.2771035
40
0.4822176
50
358.3755224
51
0.0098023
0
ARC
8
DEFAULT_255_1_234
10
6.4015591
20
-0.2743343
40
0.4066078
50
359.6214041
51
11.2839074
0
ARC
8
DEFAULT_255_1_234
10
6.5292738
20
-0.2476934
40
0.2761514
50
11.0482309
51
31.8146458
0
ARC
8
DEFAULT_255_1_234
10
6.5601781
20
-0.2309416
40
0.2410679
50
32.3035391
51
38.082671
0
ARC
8
DEFAULT_255_1_234
10
6.6022441
20
-0.1928338
40
0.1844966
50
36.825067
51
85.7415724
0
ARC
8
DEFAULT_255_1_234
10
6.5955274
20
-0.2428699
40
0.2349122
50
85.0140713
51
90.0513278
0
LINE
8
DEFAULT_255_1_234
10
7.8305983
20
0.0153343
11
7.8305983
21
-0.110764
0
LINE
8
DEFAULT_255_1_234
10
7.8305983
20
-0.110764
11
7.3237957
21
-0.110764
0
LINE
8
DEFAULT_255_1_234
10
7.3237957
20
-0.110764
11
7.3237957
21
-0.5252017
0
LINE
8
DEFAULT_255_1_234
10
7.3237957
20
-0.5252017
11
7.9125221
21
-0.5252017
0
LINE
8
DEFAULT_255_1_234
10
7.9125221
20
-0.5252017
11
7.9125221
21
-0.6513
0
LINE
8
DEFAULT_255_1_234
10
7.9125221
20
-0.6513
11
7.1695863
21
-0.6513
0
LINE
8
DEFAULT_255_1_234
10
7.1695863
20
-0.6513
11
7.1695863
21
0.5181211
0
LINE
8
DEFAULT_255_1_234
10
7.1695863
20
0.5181211
11
7.9044903
21
0.5181211
0
LINE
8
DEFAULT_255_1_234
10
7.9044903
20
0.5181211
11
7.9044903
21
0.3912196
0
LINE
8
DEFAULT_255_1_234
10
7.9044903
20
0.3912196
11
7.3237957
21
0.3912196
0
LINE
8
DEFAULT_255_1_234
10
7.3237957
20
0.3912196
11
7.3237957
21
0.0153343
0
LINE
8
DEFAULT_255_1_234
10
7.3237957
20
0.0153343
11
7.8305983
21
0.0153343
0
LINE
8
DEFAULT_255_1_234
10
8.8803465
20
0.1799849
11
8.725334
21
0.1799849
0
LINE
8
DEFAULT_255_1_234
10
8.0329981
20
-0.3123606
11
8.1880107
21
-0.3123606
0
ARC
8
DEFAULT_255_1_234
10
8.7912153
20
1.0746768
40
1.252368
50
248.9199003
51
254.1439814
0
ARC
8
DEFAULT_255_1_234
10
8.6231648
20
0.6420234
40
0.788226
50
241.633709
51
249.0064503
0
ARC
8
DEFAULT_255_1_234
10
8.4703042
20
0.3619317
40
0.4691427
50
230.498225
51
241.8087113
0
ARC
8
DEFAULT_255_1_234
10
8.3918616
20
0.2619906
40
0.3421437
50
227.4064532
51
229.9881192
0
ARC
8
DEFAULT_255_1_234
10
8.3431137
20
0.2144088
40
0.2741476
50
200.6781896
51
228.1763934
0
ARC
8
DEFAULT_255_1_234
10
8.3503447
20
0.2129077
40
0.2804109
50
179.5061581
51
199.8694617
0
ARC
8
DEFAULT_255_1_234
10
8.3494199
20
0.220321
40
0.2795204
50
132.4834203
51
181.0242172
0
ARC
8
DEFAULT_255_1_234
10
8.4089782
20
0.1640704
40
0.3612768
50
129.2532479
51
133.4242687
0
ARC
8
DEFAULT_255_1_234
10
8.4236231
20
0.1420965
40
0.3875675
50
101.98776
51
128.8742646
0
ARC
8
DEFAULT_255_1_234
10
8.4634842
20
-0.0300259
40
0.5642249
50
89.5906553
51
102.3169264
0
ARC
8
DEFAULT_255_1_234
10
8.4705334
20
0.0018148
40
0.5323783
50
77.2360837
51
90.3248275
0
ARC
8
DEFAULT_255_1_234
10
8.4912413
20
0.09854
40
0.4334697
50
63.837784
51
77.0809408
0
ARC
8
DEFAULT_255_1_234
10
8.5190175
20
0.1502911
40
0.3747796
50
45.9864267
51
64.1607727
0
ARC
8
DEFAULT_255_1_234
10
8.5451056
20
0.1800866
40
0.3352302
50
32.2747395
51
45.6547121
0
ARC
8
DEFAULT_255_1_234
10
8.5517497
20
0.181988
40
0.328603
50
359.6507365
51
32.6130309
0
ARC
8
DEFAULT_255_1_234
10
8.4574592
20
0.182466
40
0.2678863
50
359.469343
51
14.9832209
0
ARC
8
DEFAULT_255_1_234
10
8.5279654
20
0.2013539
40
0.1948938
50
14.9781179
51
48.2004265
0
ARC
8
DEFAULT_255_1_234
10
8.5115299
20
0.1806983
40
0.2212521
50
48.5927837
51
74.1241538
0
ARC
8
DEFAULT_255_1_234
10
8.4781788
20
0.0706248
40
0.3362561
50
73.7888341
51
86.6652678
0
ARC
8
DEFAULT_255_1_234
10
8.4679354
20
-0.0501119
40
0.4573953
50
86.2640471
51
90.0526343
0
ARC
8
DEFAULT_255_1_234
10
8.4651066
20
-0.0105808
40
0.4178709
50
89.6697524
51
99.2309573
0
ARC
8
DEFAULT_255_1_234
10
8.4408517
20
0.1338964
40
0.2713749
50
99.069534
51
113.7658566
0
ARC
8
DEFAULT_255_1_234
10
8.4134708
20
0.1984677
40
0.2012469
50
114.0401004
51
127.9850673
0
ARC
8
DEFAULT_255_1_234
10
8.3894272
20
0.228073
40
0.1631167
50
127.7287463
51
176.7105154
0
ARC
8
DEFAULT_255_1_234
10
8.457299
20
0.2179693
40
0.2315392
50
175.1779447
51
180.0581938
0
ARC
8
DEFAULT_255_1_234
10
8.3729836
20
0.2167428
40
0.1472271
50
179.6142195
51
228.1246017
0
ARC
8
DEFAULT_255_1_234
10
8.4171505
20
0.2576308
40
0.2072299
50
226.5779593
51
230.8800004
0
ARC
8
DEFAULT_255_1_234
10
8.4642584
20
0.3201636
40
0.2854818
50
231.4635071
51
241.9260842
0
ARC
8
DEFAULT_255_1_234
10
8.5839762
20
0.54048
40
0.53622
50
241.7178533
51
248.3259551
0
ARC
8
DEFAULT_255_1_234
10
8.7225134
20
0.8837064
40
0.9063478
50
248.2007737
51
252.4528373
0
ARC
8
DEFAULT_255_1_234
10
8.8428858
20
1.2558441
40
1.2974635
50
252.3391078
51
254.3469452
0
ARC
8
DEFAULT_255_1_234
10
8.0886561
20
-1.4418852
40
1.5037162
50
71.0197183
51
74.4087047
0
ARC
8
DEFAULT_255_1_234
10
8.2581246
20
-0.9526889
40
0.9859993
50
66.1847285
51
71.086374
0
ARC
8
DEFAULT_255_1_234
10
8.4137559
20
-0.60228
40
0.6025855
50
59.3536294
51
66.2691831
0
ARC
8
DEFAULT_255_1_234
10
8.5026211
20
-0.4519391
40
0.4279449
50
49.1020879
51
59.3293958
0
ARC
8
DEFAULT_255_1_234
10
8.5844951
20
-0.3586166
40
0.3038015
50
32.7919921
51
49.2505539
0
ARC
8
DEFAULT_255_1_234
10
8.6166041
20
-0.3357809
40
0.264448
50
31.1181161
51
32.4005348
0
ARC
8
DEFAULT_255_1_234
10
8.6077579
20
-0.3393221
40
0.2738556
50
8.1116974
51
30.7958831
0
ARC
8
DEFAULT_255_1_234
10
8.5267247
20
-0.3531247
40
0.3560327
50
359.8389159
51
8.4706516
0
ARC
8
DEFAULT_255_1_234
10
8.5893038
20
-0.3579863
40
0.2934776
50
337.4731098
51
0.7537279
0
ARC
8
DEFAULT_255_1_234
10
8.6071733
20
-0.3599613
40
0.2762607
50
307.5917067
51
336.4315538
0
ARC
8
DEFAULT_255_1_234
10
8.5611561
20
-0.3086898
40
0.3449979
50
307.6551545
51
308.4529766
0
ARC
8
DEFAULT_255_1_234
10
8.538128
20
-0.273175
40
0.3871988
50
284.3734338
51
307.1424381
0
ARC
8
DEFAULT_255_1_234
10
8.488611
20
-0.0910068
40
0.5759636
50
272.4382747
51
284.646547
0
ARC
8
DEFAULT_255_1_234
10
8.4759319
20
0.0889893
40
0.7563528
50
269.9708387
51
272.8178037
0
ARC
8
DEFAULT_255_1_234
10
8.4716358
20
-0.1148284
40
0.5525489
50
248.2707594
51
270.4055579
0
ARC
8
DEFAULT_255_1_234
10
8.46621
20
-0.1338808
40
0.5328452
50
246.1383403
51
248.0542782
0
ARC
8
DEFAULT_255_1_234
10
8.4243478
20
-0.2218157
40
0.4355005
50
233.1670131
51
246.4950969
0
ARC
8
DEFAULT_255_1_234
10
8.3689383
20
-0.2966188
40
0.3424126
50
215.3403242
51
233.0843104
0
ARC
8
DEFAULT_255_1_234
10
8.3416815
20
-0.3164451
40
0.3087104
50
179.2419209
51
215.2648451
0
ARC
8
DEFAULT_255_1_234
10
8.4184409
20
-0.3150334
40
0.2304457
50
179.335461
51
199.1045811
0
ARC
8
DEFAULT_255_1_234
10
8.3852085
20
-0.3237234
40
0.1962176
50
199.8828939
51
232.7063202
0
ARC
8
DEFAULT_255_1_234
10
8.4324353
20
-0.2643212
40
0.2720938
50
232.3738199
51
255.5136649
0
ARC
8
DEFAULT_255_1_234
10
8.466522
20
-0.1399165
40
0.4010747
50
255.2446292
51
267.5320849
0
ARC
8
DEFAULT_255_1_234
10
8.4752843
20
-0.0166298
40
0.5246356
50
267.1557994
51
270.0286766
0
ARC
8
DEFAULT_255_1_234
10
8.4780616
20
-0.061005
40
0.4802668
50
269.7000017
51
278.1660162
0
ARC
8
DEFAULT_255_1_234
10
8.503662
20
-0.2340485
40
0.3053425
50
278.0231263
51
290.625471
0
ARC
8
DEFAULT_255_1_234
10
8.5384308
20
-0.3267975
40
0.206291
50
290.6619762
51
307.0370976
0
ARC
8
DEFAULT_255_1_234
10
8.5684697
20
-0.3636496
40
0.1587906
50
306.3943566
51
355.3030547
0
ARC
8
DEFAULT_255_1_234
10
8.5172628
20
-0.3559887
40
0.2104809
50
354.3660432
51
0.0698737
0
ARC
8
DEFAULT_255_1_234
10
8.5314973
20
-0.3537383
40
0.1962563
50
359.417946
51
16.1971788
0
ARC
8
DEFAULT_255_1_234
10
8.5770284
20
-0.3412582
40
0.149053
50
16.4723299
51
52.6262157
0
ARC
8
DEFAULT_255_1_234
10
8.4949338
20
-0.4496567
40
0.2850296
50
52.7386432
51
62.4979148
0
ARC
8
DEFAULT_255_1_234
10
8.3564415
20
-0.7102717
40
0.5801521
50
62.2515216
51
68.1220564
0
ARC
8
DEFAULT_255_1_234
10
8.1844325
20
-1.1330128
40
1.0365451
50
68.0062803
51
71.8053402
0
ARC
8
DEFAULT_255_1_234
10
8.0048697
20
-1.6715242
40
1.6042013
50
71.7183119
51
73.9258742
0
LINE
8
DEFAULT_255_1_234
10
9.7967679
20
0.5181211
11
9.7967679
21
0.434591
0
LINE
8
DEFAULT_255_1_234
10
9.7967679
20
0.434591
11
9.3124541
21
-0.6513
0
LINE
8
DEFAULT_255_1_234
10
9.3124541
20
-0.6513
11
9.1566383
21
-0.6513
0
LINE
8
DEFAULT_255_1_234
10
9.1566383
20
-0.6513
11
9.6393458
21
0.3960387
0
LINE
8
DEFAULT_255_1_234
10
9.6393458
20
0.3960387
11
9.0064448
21
0.3960387
0
LINE
8
DEFAULT_255_1_234
10
9.0064448
20
0.3960387
11
9.0064448
21
0.5181211
0
LINE
8
DEFAULT_255_1_234
10
9.0064448
20
0.5181211
11
9.7967679
21
0.5181211
0
LINE
8
DEFAULT_255_1_234
10
10.1814881
20
-0.1155831
11
10.1814881
21
0.0056962
0
LINE
8
DEFAULT_255_1_234
10
10.1814881
20
0.0056962
11
10.2931293
21
0.0056962
0
LINE
8
DEFAULT_255_1_234
10
10.1027771
20
0.2113087
11
9.9541899
21
0.2113087
0
LINE
8
DEFAULT_255_1_234
10
9.9437487
20
-0.3428812
11
10.093139
21
-0.3428812
0
LINE
8
DEFAULT_255_1_234
10
10.2931293
20
-0.1155831
11
10.1814881
21
-0.1155831
0
ARC
8
DEFAULT_255_1_234
10
10.2902159
20
0.3449713
40
0.3392876
50
270.4919872
51
281.8951556
0
ARC
8
DEFAULT_255_1_234
10
10.3143421
20
0.2347702
40
0.2264817
50
281.6691735
51
301.2943132
0
ARC
8
DEFAULT_255_1_234
10
10.3313631
20
0.2036304
40
0.1910381
50
301.7833094
51
311.7545298
0
ARC
8
DEFAULT_255_1_234
10
10.3405207
20
0.1934748
40
0.1773635
50
311.7323931
51
354.2802411
0
ARC
8
DEFAULT_255_1_234
10
10.2678832
20
0.2059722
40
0.2509385
50
353.0937916
51
0.1181479
0
ARC
8
DEFAULT_255_1_234
10
10.2217617
20
0.2107386
40
0.2970898
50
359.1805295
51
15.0453146
0
ARC
8
DEFAULT_255_1_234
10
10.3563454
20
0.2499992
40
0.1569564
50
13.9577229
51
77.6713066
0
ARC
8
DEFAULT_255_1_234
10
10.3176983
20
0.1114949
40
0.3006298
50
76.1116566
51
90.7026153
0
ARC
8
DEFAULT_255_1_234
10
10.3117822
20
0.1388545
40
0.2732568
50
89.5324876
51
103.531937
0
ARC
8
DEFAULT_255_1_234
10
10.2917266
20
0.2187884
40
0.1908508
50
103.2931773
51
133.5619022
0
ARC
8
DEFAULT_255_1_234
10
10.2872754
20
0.2247375
40
0.1834746
50
133.8349307
51
173.5344437
0
ARC
8
DEFAULT_255_1_234
10
10.3595797
20
0.2119213
40
0.2568033
50
172.5096846
51
180.1366907
0
ARC
8
DEFAULT_255_1_234
10
10.2644691
20
0.2153622
40
0.3103056
50
155.3484492
51
180.7484736
0
ARC
8
DEFAULT_255_1_234
10
10.259578
20
0.2124846
40
0.3070957
50
131.5744599
51
154.4798489
0
ARC
8
DEFAULT_255_1_234
10
10.2908928
20
0.180831
40
0.3515643
50
96.9875458
51
131.9690667
0
ARC
8
DEFAULT_255_1_234
10
10.3128407
20
0.0562636
40
0.4779224
50
89.8596053
51
97.7825159
0
ARC
8
DEFAULT_255_1_234
10
10.3176471
20
0.0300616
40
0.5041361
50
78.3655447
51
90.4131539
0
ARC
8
DEFAULT_255_1_234
10
10.3534388
20
0.1959887
40
0.3344039
50
56.6229102
51
78.638727
0
ARC
8
DEFAULT_255_1_234
10
10.3749332
20
0.2335805
40
0.2912001
50
47.0253525
51
56.0854072
0
ARC
8
DEFAULT_255_1_234
10
10.3769112
20
0.2375223
40
0.2869704
50
10.9208013
51
46.7778124
0
ARC
8
DEFAULT_255_1_234
10
10.2405179
20
0.2059857
40
0.426899
50
359.6364486
51
11.6087304
0
ARC
8
DEFAULT_255_1_234
10
10.4240023
20
0.2044752
40
0.243409
50
332.3549906
51
359.7179418
0
ARC
8
DEFAULT_255_1_234
10
10.3589624
20
0.2353142
40
0.3153459
50
325.2333722
51
332.8745602
0
ARC
8
DEFAULT_255_1_234
10
10.3742248
20
0.2246828
40
0.2967456
50
292.9802137
51
325.2392345
0
ARC
8
DEFAULT_255_1_234
10
10.3467622
20
0.2780863
40
0.3566604
50
292.5402179
51
293.6924929
0
ARC
8
DEFAULT_255_1_234
10
10.3860218
20
-0.3673909
40
0.3307468
50
57.6435486
51
72.8625112
0
ARC
8
DEFAULT_255_1_234
10
10.4214717
20
-0.3099451
40
0.2632492
50
36.7248896
51
57.4697979
0
ARC
8
DEFAULT_255_1_234
10
10.420335
20
-0.308678
40
0.2634081
50
8.0545065
51
36.356114
0
ARC
8
DEFAULT_255_1_234
10
10.3340535
20
-0.3241826
40
0.3510261
50
359.8320645
51
8.5869982
0
ARC
8
DEFAULT_255_1_234
10
10.2965312
20
-0.3289899
40
0.3885653
50
343.9829931
51
0.5571613
0
ARC
8
DEFAULT_255_1_234
10
10.3851509
20
-0.3532562
40
0.2966924
50
311.6359546
51
343.7651759
0
ARC
8
DEFAULT_255_1_234
10
10.3473078
20
-0.3105898
40
0.3537231
50
279.7829875
51
311.6255694
0
ARC
8
DEFAULT_255_1_234
10
10.3171854
20
-0.166872
40
0.5004971
50
269.7286406
51
280.3856417
0
ARC
8
DEFAULT_255_1_234
10
10.3109927
20
-0.1710004
40
0.4963778
50
256.6828919
51
270.4412052
0
ARC
8
DEFAULT_255_1_234
10
10.2771223
20
-0.3094606
40
0.3538406
50
229.4223008
51
256.8556159
0
ARC
8
DEFAULT_255_1_234
10
10.2356615
20
-0.3561264
40
0.2914296
50
181.818294
51
229.6455059
0
ARC
8
DEFAULT_255_1_234
10
10.3396572
20
-0.3430504
40
0.3959084
50
179.9755256
51
183.2323064
0
ARC
8
DEFAULT_255_1_234
10
10.3224317
20
-0.3450963
40
0.2293034
50
179.4465117
51
196.2869258
0
ARC
8
DEFAULT_255_1_234
10
10.2736725
20
-0.3584349
40
0.1787621
50
196.5661473
51
227.705904
0
ARC
8
DEFAULT_255_1_234
10
10.290082
20
-0.3400845
40
0.2033784
50
227.7652068
51
257.8762805
0
ARC
8
DEFAULT_255_1_234
10
10.312579
20
-0.2457844
40
0.3003081
50
257.4584385
51
270.426602
0
ARC
8
DEFAULT_255_1_234
10
10.3171357
20
-0.2168004
40
0.329292
50
269.5962073
51
280.8789248
0
ARC
8
DEFAULT_255_1_234
10
10.3400885
20
-0.3314315
40
0.2123908
50
280.6346389
51
299.8595945
0
ARC
8
DEFAULT_255_1_234
10
10.3591792
20
-0.3676788
40
0.171457
50
300.3576302
51
314.5517981
0
ARC
8
DEFAULT_255_1_234
10
10.3508852
20
-0.3616081
40
0.1816095
50
315.0728369
51
345.0431014
0
ARC
8
DEFAULT_255_1_234
10
10.2585667
20
-0.3347159
40
0.2777492
50
344.5986631
51
357.9269593
0
ARC
8
DEFAULT_255_1_234
10
10.1689993
20
-0.3285724
40
0.3674917
50
357.4748886
51
0.0231117
0
ARC
8
DEFAULT_255_1_234
10
10.2713102
20
-0.3261321
40
0.2651907
50
359.5047933
51
13.4239635
0
ARC
8
DEFAULT_255_1_234
10
10.3579746
20
-0.3039522
40
0.1757509
50
12.9498199
51
48.7551375
0
ARC
8
DEFAULT_255_1_234
10
10.339748
20
-0.32886
40
0.2065134
50
49.5088623
51
72.1836453
0
ARC
8
DEFAULT_255_1_234
10
10.3039632
20
-0.4350709
40
0.3185836
50
71.9010081
51
84.3554254
0
ARC
8
DEFAULT_255_1_234
10
10.2878264
20
-0.5711674
40
0.4556151
50
84.0193428
51
89.333121
0
LINE
8
DEFAULT_255_1_234
10
11.105138
20
-0.1155831
11
11.105138
21
0.0056962
0
LINE
8
DEFAULT_255_1_234
10
11.105138
20
0.0056962
11
11.2167792
21
0.0056962
0
LINE
8
DEFAULT_255_1_234
10
11.026427
20
0.2113087
11
10.8778398
21
0.2113087
0
LINE
8
DEFAULT_255_1_234
10
10.8673986
20
-0.3428812
11
11.0167889
21
-0.3428812
0
LINE
8
DEFAULT_255_1_234
10
11.2167792
20
-0.1155831
11
11.105138
21
-0.1155831
0
ARC
8
DEFAULT_255_1_234
10
11.2138658
20
0.3449713
40
0.3392876
50
270.4919872
51
281.8951556
0
ARC
8
DEFAULT_255_1_234
10
11.237992
20
0.2347702
40
0.2264817
50
281.6691735
51
301.2943132
0
ARC
8
DEFAULT_255_1_234
10
11.255013
20
0.2036304
40
0.1910381
50
301.7833094
51
311.7545298
0
ARC
8
DEFAULT_255_1_234
10
11.2641706
20
0.1934748
40
0.1773635
50
311.7323931
51
354.2802411
0
ARC
8
DEFAULT_255_1_234
10
11.1915331
20
0.2059722
40
0.2509385
50
353.0937916
51
0.1181479
0
ARC
8
DEFAULT_255_1_234
10
11.1454116
20
0.2107386
40
0.2970898
50
359.1805295
51
15.0453146
0
ARC
8
DEFAULT_255_1_234
10
11.2799953
20
0.2499992
40
0.1569564
50
13.9577229
51
77.6713066
0
ARC
8
DEFAULT_255_1_234
10
11.2413482
20
0.1114949
40
0.3006298
50
76.1116566
51
90.7026153
0
ARC
8
DEFAULT_255_1_234
10
11.2354321
20
0.1388545
40
0.2732568
50
89.5324876
51
103.531937
0
ARC
8
DEFAULT_255_1_234
10
11.2153765
20
0.2187884
40
0.1908508
50
103.2931773
51
133.5619022
0
ARC
8
DEFAULT_255_1_234
10
11.2109253
20
0.2247375
40
0.1834746
50
133.8349307
51
173.5344437
0
ARC
8
DEFAULT_255_1_234
10
11.2832296
20
0.2119213
40
0.2568033
50
172.5096846
51
180.1366907
0
ARC
8
DEFAULT_255_1_234
10
11.188119
20
0.2153622
40
0.3103056
50
155.3484492
51
180.7484736
0
ARC
8
DEFAULT_255_1_234
10
11.1832279
20
0.2124846
40
0.3070957
50
131.5744599
51
154.4798489
0
ARC
8
DEFAULT_255_1_234
10
11.2145427
20
0.180831
40
0.3515643
50
96.9875458
51
131.9690667
0
ARC
8
DEFAULT_255_1_234
10
11.2364906
20
0.0562636
40
0.4779224
50
89.8596053
51
97.7825159
0
ARC
8
DEFAULT_255_1_234
10
11.241297
20
0.0300616
40
0.5041361
50
78.3655447
51
90.4131539
0
ARC
8
DEFAULT_255_1_234
10
11.2770887
20
0.1959887
40
0.3344039
50
56.6229102
51
78.638727
0
ARC
8
DEFAULT_255_1_234
10
11.2985831
20
0.2335805
40
0.2912001
50
47.0253525
51
56.0854072
0
ARC
8
DEFAULT_255_1_234
10
11.3005611
20
0.2375223
40
0.2869704
50
10.9208013
51
46.7778124
0
ARC
8
DEFAULT_255_1_234
10
11.1641678
20
0.2059857
40
0.426899
50
359.6364486
51
11.6087304
0
ARC
8
DEFAULT_255_1_234
10
11.3476522
20
0.2044752
40
0.243409
50
332.3549906
51
359.7179418
0
ARC
8
DEFAULT_255_1_234
10
11.2826123
20
0.2353142
40
0.3153459
50
325.2333722
51
332.8745602
0
ARC
8
DEFAULT_255_1_234
10
11.2978747
20
0.2246828
40
0.2967456
50
292.9802137
51
325.2392345
0
ARC
8
DEFAULT_255_1_234
10
11.2704121
20
0.2780863
40
0.3566604
50
292.5402179
51
293.6924929
0
ARC
8
DEFAULT_255_1_234
10
11.3096717
20
-0.3673909
40
0.3307468
50
57.6435486
51
72.8625112
0
ARC
8
DEFAULT_255_1_234
10
11.3451216
20
-0.3099451
40
0.2632492
50
36.7248896
51
57.4697979
0
ARC
8
DEFAULT_255_1_234
10
11.3439849
20
-0.308678
40
0.2634081
50
8.0545065
51
36.356114
0
ARC
8
DEFAULT_255_1_234
10
11.2577034
20
-0.3241826
40
0.3510261
50
359.8320645
51
8.5869982
0
ARC
8
DEFAULT_255_1_234
10
11.2201811
20
-0.3289899
40
0.3885653
50
343.9829931
51
0.5571613
0
ARC
8
DEFAULT_255_1_234
10
11.3088008
20
-0.3532562
40
0.2966924
50
311.6359546
51
343.7651759
0
ARC
8
DEFAULT_255_1_234
10
11.2709577
20
-0.3105898
40
0.3537231
50
279.7829875
51
311.6255694
0
ARC
8
DEFAULT_255_1_234
10
11.2408353
20
-0.166872
40
0.5004971
50
269.7286406
51
280.3856417
0
ARC
8
DEFAULT_255_1_234
10
11.2346426
20
-0.1710004
40
0.4963778
50
256.6828919
51
270.4412052
0
ARC
8
DEFAULT_255_1_234
10
11.2007722
20
-0.3094606
40
0.3538406
50
229.4223008
51
256.8556159
0
ARC
8
DEFAULT_255_1_234
10
11.1593114
20
-0.3561264
40
0.2914296
50
181.818294
51
229.6455059
0
ARC
8
DEFAULT_255_1_234
10
11.2633071
20
-0.3430504
40
0.3959084
50
179.9755256
51
183.2323064
0
ARC
8
DEFAULT_255_1_234
10
11.2460816
20
-0.3450963
40
0.2293034
50
179.4465117
51
196.2869258
0
ARC
8
DEFAULT_255_1_234
10
11.1973224
20
-0.3584349
40
0.1787621
50
196.5661473
51
227.705904
0
ARC
8
DEFAULT_255_1_234
10
11.2137319
20
-0.3400845
40
0.2033784
50
227.7652068
51
257.8762805
0
ARC
8
DEFAULT_255_1_234
10
11.2362289
20
-0.2457844
40
0.3003081
50
257.4584385
51
270.426602
0
ARC
8
DEFAULT_255_1_234
10
11.2407856
20
-0.2168004
40
0.329292
50
269.5962073
51
280.8789248
0
ARC
8
DEFAULT_255_1_234
10
11.2637384
20
-0.3314315
40
0.2123908
50
280.6346389
51
299.8595945
0
ARC
8
DEFAULT_255_1_234
10
11.2828291
20
-0.3676788
40
0.171457
50
300.3576302
51
314.5517981
0
ARC
8
DEFAULT_255_1_234
10
11.2745351
20
-0.3616081
40
0.1816095
50
315.0728369
51
345.0431014
0
ARC
8
DEFAULT_255_1_234
10
11.1822166
20
-0.3347159
40
0.2777492
50
344.5986631
51
357.9269593
0
ARC
8
DEFAULT_255_1_234
10
11.0926492
20
-0.3285724
40
0.3674917
50
357.4748886
51
0.0231117
0
ARC
8
DEFAULT_255_1_234
10
11.1949601
20
-0.3261321
40
0.2651907
50
359.5047933
51
13.4239635
0
ARC
8
DEFAULT_255_1_234
10
11.2816245
20
-0.3039522
40
0.1757509
50
12.9498199
51
48.7551375
0
ARC
8
DEFAULT_255_1_234
10
11.2633979
20
-0.32886
40
0.2065134
50
49.5088623
51
72.1836453
0
ARC
8
DEFAULT_255_1_234
10
11.2276131
20
-0.4350709
40
0.3185836
50
71.9010081
51
84.3554254
0
ARC
8
DEFAULT_255_1_234
10
11.2114763
20
-0.5711674
40
0.4556151
50
84.0193428
51
89.333121
0
LINE
8
DEFAULT_255_1_234
10
12.3010639
20
0.5237433
11
12.3010639
21
-0.6513
0
LINE
8
DEFAULT_255_1_234
10
12.3010639
20
-0.6513
11
12.1516735
21
-0.6513
0
LINE
8
DEFAULT_255_1_234
10
12.1516735
20
-0.6513
11
12.1516735
21
0.3390133
0
LINE
8
DEFAULT_255_1_234
10
12.1516735
20
0.3390133
11
11.8520897
21
0.2289785
0
LINE
8
DEFAULT_255_1_234
10
11.8520897
20
0.2289785
11
11.8520897
21
0.3639117
0
LINE
8
DEFAULT_255_1_234
10
11.8520897
20
0.3639117
11
12.2777718
21
0.5237433
0
LINE
8
DEFAULT_255_1_234
10
12.2777718
20
0.5237433
11
12.3010639
21
0.5237433
0
LINE
8
DEFAULT_255_1_234
10
13.0608663
20
-0.0938974
11
13.0608663
21
-0.2151766
0
LINE
8
DEFAULT_255_1_234
10
13.0608663
20
-0.2151766
11
12.6689175
21
-0.2151766
0
LINE
8
DEFAULT_255_1_234
10
12.6689175
20
-0.2151766
11
12.6689175
21
-0.0938974
0
LINE
8
DEFAULT_255_1_234
10
12.6689175
20
-0.0938974
11
13.0608663
21
-0.0938974
0
LINE
8
DEFAULT_255_1_234
10
13.9451607
20
0.5181211
11
13.9451607
21
0.434591
0
LINE
8
DEFAULT_255_1_234
10
13.9451607
20
0.434591
11
13.4608469
21
-0.6513
0
LINE
8
DEFAULT_255_1_234
10
13.4608469
20
-0.6513
11
13.3050312
21
-0.6513
0
LINE
8
DEFAULT_255_1_234
10
13.3050312
20
-0.6513
11
13.7877386
21
0.3960387
0
LINE
8
DEFAULT_255_1_234
10
13.7877386
20
0.3960387
11
13.1548376
21
0.3960387
0
LINE
8
DEFAULT_255_1_234
10
13.1548376
20
0.3960387
11
13.1548376
21
0.5181211
0
LINE
8
DEFAULT_255_1_234
10
13.1548376
20
0.5181211
11
13.9451607
21
0.5181211
0
LINE
8
DEFAULT_255_1_234
10
14.5820775
20
-0.1934909
11
14.3065889
21
-0.1934909
0
LINE
8
DEFAULT_255_1_234
10
14.3065889
20
-0.1934909
11
14.3065889
21
-0.6513
0
LINE
8
DEFAULT_255_1_234
10
14.3065889
20
-0.6513
11
14.1523795
21
-0.6513
0
LINE
8
DEFAULT_255_1_234
10
14.1523795
20
-0.6513
11
14.1523795
21
0.5181211
0
LINE
8
DEFAULT_255_1_234
10
14.1523795
20
0.5181211
11
14.5836839
21
0.5181211
0
LINE
8
DEFAULT_255_1_234
10
14.3065889
20
0.3912196
11
14.3065889
21
-0.0673926
0
LINE
8
DEFAULT_255_1_234
10
14.3065889
20
-0.0673926
11
14.5836839
21
-0.0673926
0
LINE
8
DEFAULT_255_1_234
10
14.5925188
20
0.3912196
11
14.3065889
21
0.3912196
0
ARC
8
DEFAULT_255_1_234
10
14.5878966
20
-0.0877805
40
0.6059162
50
78.8378113
51
90.3983573
0
ARC
8
DEFAULT_255_1_234
10
14.6294979
20
0.1142879
40
0.3996205
50
58.9632738
51
79.0810598
0
ARC
8
DEFAULT_255_1_234
10
14.6596522
20
0.1702721
40
0.3361177
50
48.0197965
51
58.447194
0
ARC
8
DEFAULT_255_1_234
10
14.6685382
20
0.1788225
40
0.3238191
50
3.3375044
51
48.1766626
0
ARC
8
DEFAULT_255_1_234
10
14.5455222
20
0.1611171
40
0.4477806
50
359.9477528
51
4.6829065
0
ARC
8
DEFAULT_255_1_234
10
14.5578539
20
0.1568628
40
0.4354656
50
346.1877825
51
0.5060252
0
ARC
8
DEFAULT_255_1_234
10
14.6937406
20
0.1215731
40
0.295089
50
310.8831995
51
346.5426355
0
ARC
8
DEFAULT_255_1_234
10
14.6628827
20
0.1632695
40
0.3468331
50
286.6925341
51
310.2288297
0
ARC
8
DEFAULT_255_1_234
10
14.6059657
20
0.3422882
40
0.5346654
50
274.6850312
51
287.0245141
0
ARC
8
DEFAULT_255_1_234
10
14.583438
20
0.5631932
40
0.7566852
50
269.8969846
51
275.018904
0
ARC
8
DEFAULT_255_1_234
10
14.5861972
20
0.3552707
40
0.4226708
50
269.6593078
51
279.4153575
0
ARC
8
DEFAULT_255_1_234
10
14.6119247
20
0.2062133
40
0.2714146
50
279.2049762
51
294.9900808
0
ARC
8
DEFAULT_255_1_234
10
14.6409573
20
0.1414508
40
0.2004525
50
295.2888114
51
311.2911209
0
ARC
8
DEFAULT_255_1_234
10
14.6480467
20
0.130922
40
0.1878703
50
311.7854996
51
347.2861051
0
ARC
8
DEFAULT_255_1_234
10
14.5496625
20
0.1562092
40
0.2894234
50
346.6893224
51
0.1059443
0
ARC
8
DEFAULT_255_1_234
10
14.474152
20
0.1590685
40
0.3649409
50
359.6350983
51
0.0053152
0
ARC
8
DEFAULT_255_1_234
10
14.5711849
20
0.1615937
40
0.2679199
50
359.4672059
51
15.5933957
0
ARC
8
DEFAULT_255_1_234
10
14.6336737
20
0.1784779
40
0.2031932
50
15.7442113
51
46.6203375
0
ARC
8
DEFAULT_255_1_234
10
14.6188958
20
0.1614484
40
0.2257226
50
46.8628658
51
75.6676503
0
ARC
8
DEFAULT_255_1_234
10
14.5894779
20
0.0555718
40
0.3355939
50
75.276167
51
88.2915297
0
ARC
8
DEFAULT_255_1_234
10
14.5836485
20
-0.0322476
40
0.4235602
50
87.8575022
51
88.8000139
0
LINE
8
DEFAULT_255_1_234
10
15.8350287
20
-0.0087609
11
15.8350287
21
-0.1348592
0
LINE
8
DEFAULT_255_1_234
10
15.8350287
20
-0.1348592
11
15.3442895
21
-0.1348592
0
LINE
8
DEFAULT_255_1_234
10
15.3442895
20
-0.1348592
11
15.3442895
21
-0.6513
0
LINE
8
DEFAULT_255_1_234
10
15.3442895
20
-0.6513
11
15.1900801
21
-0.6513
0
LINE
8
DEFAULT_255_1_234
10
15.1900801
20
-0.6513
11
15.1900801
21
0.5181211
0
LINE
8
DEFAULT_255_1_234
10
15.1900801
20
0.5181211
11
15.9145429
21
0.5181211
0
LINE
8
DEFAULT_255_1_234
10
15.9145429
20
0.5181211
11
15.9145429
21
0.3912196
0
LINE
8
DEFAULT_255_1_234
10
15.9145429
20
0.3912196
11
15.3442895
21
0.3912196
0
LINE
8
DEFAULT_255_1_234
10
15.3442895
20
0.3912196
11
15.3442895
21
-0.0087609
0
LINE
8
DEFAULT_255_1_234
10
15.3442895
20
-0.0087609
11
15.8350287
21
-0.0087609
0
LINE
8
DEFAULT_255_1_234
10
16.5490502
20
0.5237433
11
16.5490502
21
-0.6513
0
LINE
8
DEFAULT_255_1_234
10
16.5490502
20
-0.6513
11
16.3996599
21
-0.6513
0
LINE
8
DEFAULT_255_1_234
10
16.3996599
20
-0.6513
11
16.3996599
21
0.3390133
0
LINE
8
DEFAULT_255_1_234
10
16.3996599
20
0.3390133
11
16.1000761
21
0.2289785
0
LINE
8
DEFAULT_255_1_234
10
16.1000761
20
0.2289785
11
16.1000761
21
0.3639117
0
LINE
8
DEFAULT_255_1_234
10
16.1000761
20
0.3639117
11
16.5257582
21
0.5237433
0
LINE
8
DEFAULT_255_1_234
10
16.5257582
20
0.5237433
11
16.5490502
21
0.5237433
0
LINE
8
DEFAULT_255_1_234
10
17.4727001
20
0.5237433
11
17.4727001
21
-0.6513
0
LINE
8
DEFAULT_255_1_234
10
17.4727001
20
-0.6513
11
17.3233098
21
-0.6513
0
LINE
8
DEFAULT_255_1_234
10
17.3233098
20
-0.6513
11
17.3233098
21
0.3390133
0
LINE
8
DEFAULT_255_1_234
10
17.3233098
20
0.3390133
11
17.023726
21
0.2289785
0
LINE
8
DEFAULT_255_1_234
10
17.023726
20
0.2289785
11
17.023726
21
0.3639117
0
LINE
8
DEFAULT_255_1_234
10
17.023726
20
0.3639117
11
17.4494081
21
0.5237433
0
LINE
8
DEFAULT_255_1_234
10
17.4494081
20
0.5237433
11
17.4727001
21
0.5237433
0
LINE
8
DEFAULT_255_1_234
10
18.2325026
20
-0.0938974
11
18.2325026
21
-0.2151766
0
LINE
8
DEFAULT_255_1_234
10
18.2325026
20
-0.2151766
11
17.8405538
21
-0.2151766
0
LINE
8
DEFAULT_255_1_234
10
17.8405538
20
-0.2151766
11
17.8405538
21
-0.0938974
0
LINE
8
DEFAULT_255_1_234
10
17.8405538
20
-0.0938974
11
18.2325026
21
-0.0938974
0
LINE
8
DEFAULT_255_1_234
10
19.0951113
20
0.0402327
11
19.0951113
21
-0.1525291
0
LINE
8
DEFAULT_255_1_234
10
18.3569945
20
-0.1726084
11
18.3569945
21
0.0257755
0
LINE
8
DEFAULT_255_1_234
10
18.9465241
20
-0.1926877
11
18.9465241
21
0.0506739
0
LINE
8
DEFAULT_255_1_234
10
18.5055817
20
0.0619184
11
18.5055817
21
-0.1758211
0
ARC
8
DEFAULT_255_1_234
10
17.8704002
20
-0.1574195
40
1.2247208
50
353.8441951
51
0.2287902
0
ARC
8
DEFAULT_255_1_234
10
18.3343506
20
-0.2092194
40
0.7578929
50
344.4934747
51
353.9765454
0
ARC
8
DEFAULT_255_1_234
10
18.6336096
20
-0.2943019
40
0.4467846
50
329.2803592
51
344.7472793
0
ARC
8
DEFAULT_255_1_234
10
18.7328921
20
-0.3487982
40
0.3336173
50
324.9352394
51
328.6160465
0
ARC
8
DEFAULT_255_1_234
10
18.770603
20
-0.3751573
40
0.2876076
50
280.580143
51
324.9173126
0
ARC
8
DEFAULT_255_1_234
10
18.7304822
20
-0.2080901
40
0.4592847
50
269.5977311
51
281.6734359
0
ARC
8
DEFAULT_255_1_234
10
18.7232728
20
-0.2200827
40
0.4472986
50
256.6228859
51
270.51044
0
ARC
8
DEFAULT_255_1_234
10
18.6830706
20
-0.3749123
40
0.2873874
50
215.8618325
51
257.2788573
0
ARC
8
DEFAULT_255_1_234
10
18.7851737
20
-0.3064023
40
0.4102928
50
197.9693508
51
215.2623606
0
ARC
8
DEFAULT_255_1_234
10
19.0336853
20
-0.2225291
40
0.6725652
50
187.8816417
51
198.2346507
0
ARC
8
DEFAULT_255_1_234
10
19.4295061
20
-0.1653921
40
1.0724845
50
180.8976217
51
188.0055519
0
ARC
8
DEFAULT_255_1_234
10
19.7095249
20
-0.1550223
40
1.3526448
50
180.7449369
51
181.1510016
0
ARC
8
DEFAULT_255_1_234
10
19.5517979
20
0.0306042
40
1.1948131
50
173.7675579
51
180.231553
0
ARC
8
DEFAULT_255_1_234
10
19.1000125
20
0.0816666
40
0.7401564
50
164.3058563
51
173.9002247
0
ARC
8
DEFAULT_255_1_234
10
18.8088194
20
0.1655656
40
0.4371288
50
148.7922025
51
164.568378
0
ARC
8
DEFAULT_255_1_234
10
18.7136646
20
0.2186929
40
0.3282386
50
144.5883898
51
148.1176286
0
ARC
8
DEFAULT_255_1_234
10
18.6793544
20
0.2426315
40
0.2864044
50
101.6440918
51
144.514236
0
ARC
8
DEFAULT_255_1_234
10
18.7218611
20
0.0737069
40
0.4604934
50
89.5284041
51
102.5819763
0
ARC
8
DEFAULT_255_1_234
10
18.7297699
20
0.0698018
40
0.464401
50
77.0437873
51
90.5081339
0
ARC
8
DEFAULT_255_1_234
10
18.76997
20
0.2340615
40
0.2953195
50
48.2778575
51
77.4994676
0
ARC
8
DEFAULT_255_1_234
10
18.7772332
20
0.2469746
40
0.2808655
50
36.3142134
51
47.6305865
0
ARC
8
DEFAULT_255_1_234
10
18.6903639
20
0.1884515
40
0.3855453
50
18.2931786
51
35.6769206
0
ARC
8
DEFAULT_255_1_234
10
18.4360397
20
0.1011593
40
0.654423
50
8.024666
51
18.5605216
0
ARC
8
DEFAULT_255_1_234
10
18.0197317
20
0.0396792
40
1.0752407
50
1.1274072
51
8.1718305
0
ARC
8
DEFAULT_255_1_234
10
17.6961508
20
0.0269885
40
1.3990231
50
0.5424119
51
1.3863029
0
ARC
8
DEFAULT_255_1_234
10
17.8782886
20
0.0542342
40
1.0682415
50
359.8090433
51
4.9407866
0
ARC
8
DEFAULT_255_1_234
10
18.29929
20
0.0918113
40
0.6455691
50
4.8362157
51
12.2904523
0
ARC
8
DEFAULT_255_1_234
10
18.5748015
20
0.1531965
40
0.3633074
50
12.0805627
51
23.8173984
0
ARC
8
DEFAULT_255_1_234
10
18.692172
20
0.2028919
40
0.2358723
50
24.2871213
51
31.3935614
0
ARC
8
DEFAULT_255_1_234
10
18.7446417
20
0.2372233
40
0.1732111
50
30.7407893
51
82.4657128
0
ARC
8
DEFAULT_255_1_234
10
18.7266552
20
0.1488691
40
0.263235
50
81.1060089
51
90.2184952
0
ARC
8
DEFAULT_255_1_234
10
18.723085
20
0.1746924
40
0.2374236
50
89.3806855
51
105.6762551
0
ARC
8
DEFAULT_255_1_234
10
18.7047481
20
0.2413567
40
0.1682847
50
105.7981136
51
149.7388061
0
ARC
8
DEFAULT_255_1_234
10
18.8111559
20
0.177395
40
0.2924306
50
149.4208916
51
163.6286378
0
ARC
8
DEFAULT_255_1_234
10
19.0202447
20
0.113625
40
0.5110213
50
163.3763315
51
172.1410975
0
ARC
8
DEFAULT_255_1_234
10
19.3503166
20
0.0663518
40
0.8444586
50
172.0259487
51
178.0703232
0
ARC
8
DEFAULT_255_1_234
10
19.6533256
20
0.0519906
40
1.1477868
50
177.8631668
51
179.5044149
0
ARC
8
DEFAULT_255_1_234
10
19.546066
20
-0.1794611
40
1.0404907
50
179.7995573
51
185.2460446
0
ARC
8
DEFAULT_255_1_234
10
19.14177
20
-0.2177487
40
0.6343885
50
185.1411642
51
193.0079639
0
ARC
8
DEFAULT_255_1_234
10
18.8774172
20
-0.2802359
40
0.3627568
50
192.7897626
51
205.2507664
0
ARC
8
DEFAULT_255_1_234
10
18.7727719
20
-0.3269585
40
0.2481908
50
205.8005384
51
211.2537509
0
ARC
8
DEFAULT_255_1_234
10
18.720416
20
-0.362042
40
0.1852521
50
210.3789793
51
238.4008143
0
ARC
8
DEFAULT_255_1_234
10
18.7184681
20
-0.3573624
40
0.1882621
50
239.6520629
51
265.9793761
0
ARC
8
DEFAULT_255_1_234
10
18.7269882
20
-0.2901573
40
0.2559272
50
265.1315437
51
270.060332
0
ARC
8
DEFAULT_255_1_234
10
18.729866
20
-0.3225466
40
0.2235528
50
269.3314664
51
287.2178029
0
ARC
8
DEFAULT_255_1_234
10
18.7436512
20
-0.3728721
40
0.1714108
50
287.7958004
51
329.080874
0
ARC
8
DEFAULT_255_1_234
10
18.6478969
20
-0.313107
40
0.2842745
50
328.6634704
51
343.3325132
0
ARC
8
DEFAULT_255_1_234
10
18.4305989
20
-0.2454137
40
0.5118644
50
343.0499468
51
351.9393422
0
ARC
8
DEFAULT_255_1_234
10
18.0839289
20
-0.1943051
40
0.8622784
50
351.8069023
51
357.7959224
0
ARC
8
DEFAULT_255_1_234
10
17.7603845
20
-0.1775279
40
1.1862365
50
357.5871873
51
359.2677531
0
LINE
8
DEFAULT_255_1_234
10
20.0814087
20
-0.6513
11
19.9697676
21
-0.3460939
0
LINE
8
DEFAULT_255_1_234
10
19.9697676
20
-0.3460939
11
19.4798315
21
-0.3460939
0
LINE
8
DEFAULT_255_1_234
10
19.4798315
20
-0.3460939
11
19.3697967
21
-0.6513
0
LINE
8
DEFAULT_255_1_234
10
19.3697967
20
-0.6513
11
19.2107683
21
-0.6513
0
LINE
8
DEFAULT_255_1_234
10
19.2107683
20
-0.6513
11
19.657333
21
0.5181211
0
LINE
8
DEFAULT_255_1_234
10
19.657333
20
0.5181211
11
19.7922662
21
0.5181211
0
LINE
8
DEFAULT_255_1_234
10
19.7922662
20
0.5181211
11
20.239634
21
-0.6513
0
LINE
8
DEFAULT_255_1_234
10
20.239634
20
-0.6513
11
20.0814087
21
-0.6513
0
LINE
8
DEFAULT_255_1_234
10
19.7247996
20
0.3277689
11
19.5264156
21
-0.2191925
0
LINE
8
DEFAULT_255_1_234
10
19.5264156
20
-0.2191925
11
19.9239867
21
-0.2191925
0
LINE
8
DEFAULT_255_1_234
10
19.9239867
20
-0.2191925
11
19.7247996
21
0.3277689
0
LINE
8
DEFAULT_255_1_234
10
20.8026588
20
-0.6513
11
20.3970561
21
-0.6513
0
LINE
8
DEFAULT_255_1_234
10
20.3970561
20
-0.6513
11
20.3970561
21
0.5181211
0
LINE
8
DEFAULT_255_1_234
10
20.3970561
20
0.5181211
11
20.7793668
21
0.5181211
0
LINE
8
DEFAULT_255_1_234
10
20.8082811
20
-0.1043386
11
20.5512654
21
-0.1043386
0
LINE
8
DEFAULT_255_1_234
10
20.5512654
20
-0.1043386
11
20.5512654
21
-0.5252017
0
LINE
8
DEFAULT_255_1_234
10
20.5512654
20
-0.5252017
11
20.8058715
21
-0.5252017
0
LINE
8
DEFAULT_255_1_234
10
20.5512654
20
0.3912196
11
20.5512654
21
0.0193501
0
LINE
8
DEFAULT_255_1_234
10
20.5512654
20
0.0193501
11
20.7841858
21
0.0193501
0
LINE
8
DEFAULT_255_1_234
10
20.7793668
20
0.3912196
11
20.5512654
21
0.3912196
0
ARC
8
DEFAULT_255_1_234
10
20.7831377
20
-0.2186099
40
0.7367406
50
82.1257326
51
90.2932599
0
ARC
8
DEFAULT_255_1_234
10
20.8220331
20
0.0532013
40
0.4621653
50
69.9044149
51
82.2857423
0
ARC
8
DEFAULT_255_1_234
10
20.8791009
20
0.2074637
40
0.2976871
50
51.1838526
51
70.0181538
0
ARC
8
DEFAULT_255_1_234
10
20.9045975
20
0.244524
40
0.2528517
50
12.1017251
51
50.4214761
0
ARC
8
DEFAULT_255_1_234
10
20.7661849
20
0.2097676
40
0.3955061
50
359.5251267
51
12.8211707
0
ARC
8
DEFAULT_255_1_234
10
20.9241776
20
0.2028344
40
0.2375281
50
323.4908128
51
0.8817314
0
ARC
8
DEFAULT_255_1_234
10
20.8823463
20
0.235155
40
0.2903817
50
298.6825083
51
323.2756573
0
ARC
8
DEFAULT_255_1_234
10
20.8461826
20
0.2952649
40
0.3604842
50
293.1999386
51
299.1396394
0
ARC
8
DEFAULT_255_1_234
10
20.9134799
20
-0.3132874
40
0.2871098
50
54.0011765
51
74.9167975
0
ARC
8
DEFAULT_255_1_234
10
20.9251158
20
-0.2935668
40
0.2643248
50
36.3580696
51
53.5291921
0
ARC
8
DEFAULT_255_1_234
10
20.91244
20
-0.3026002
40
0.2798884
50
4.8189881
51
36.3089977
0
ARC
8
DEFAULT_255_1_234
10
20.8345235
20
-0.313573
40
0.358478
50
359.9370252
51
5.5204067
0
ARC
8
DEFAULT_255_1_234
10
20.8020757
20
-0.3176333
40
0.3909429
50
344.7478609
51
0.5373281
0
ARC
8
DEFAULT_255_1_234
10
20.9011728
20
-0.3443456
40
0.2883093
50
311.1786488
51
344.6886812
0
ARC
8
DEFAULT_255_1_234
10
20.8719775
20
-0.3080013
40
0.3348923
50
286.0418249
51
310.8441291
0
ARC
8
DEFAULT_255_1_234
10
20.8212607
20
-0.1433193
40
0.5071869
50
274.1042341
51
286.4071509
0
ARC
8
DEFAULT_255_1_234
10
20.8035863
20
0.0450229
40
0.6963234
50
269.9236873
51
274.445647
0
ARC
8
DEFAULT_255_1_234
10
20.8081863
20
-0.1889463
40
0.3362634
50
269.6055768
51
281.3740047
0
ARC
8
DEFAULT_255_1_234
10
20.8312502
20
-0.2982647
40
0.224546
50
281.1055983
51
302.5132223
0
ARC
8
DEFAULT_255_1_234
10
20.8459401
20
-0.3246177
40
0.1944357
50
303.0368945
51
311.8811219
0
ARC
8
DEFAULT_255_1_234
10
20.8530808
20
-0.333111
40
0.1833454
50
311.9916004
51
351.7143462
0
ARC
8
DEFAULT_255_1_234
10
20.7714038
20
-0.316607
40
0.2665871
50
350.7339597
51
0.2221581
0
ARC
8
DEFAULT_255_1_234
10
20.7606484
20
-0.3109533
40
0.2773789
50
359.0456241
51
17.2296242
0
ARC
8
DEFAULT_255_1_234
10
20.8645601
20
-0.2800837
40
0.1689915
50
17.6685481
51
78.9940892
0
ARC
8
DEFAULT_255_1_234
10
20.8128764
20
-0.4655776
40
0.3612658
50
76.5635957
51
90.6980921
0
LINE
8
DEFAULT_255_1_234
10
20.8084749
20
-0.1043387
11
20.8082811
21
-0.1043386
0
ARC
8
DEFAULT_255_1_234
10
20.7864425
20
0.3479036
40
0.3285612
50
269.6064736
51
281.4533503
0
ARC
8
DEFAULT_255_1_234
10
20.8087245
20
0.2427688
40
0.2210975
50
281.2041486
51
302.5148063
0
ARC
8
DEFAULT_255_1_234
10
20.8224094
20
0.2181241
40
0.1929674
50
303.021671
51
309.8369575
0
ARC
8
DEFAULT_255_1_234
10
20.8407556
20
0.1975488
40
0.1654181
50
309.5228395
51
356.9509836
0
ARC
8
DEFAULT_255_1_234
10
20.7744138
20
0.2070932
40
0.2322512
50
355.4701227
51
0.0492546
0
ARC
8
DEFAULT_255_1_234
10
20.746523
20
0.2093094
40
0.2601498
50
359.5558597
51
11.2096359
0
ARC
8
DEFAULT_255_1_234
10
20.842252
20
0.229123
40
0.1623975
50
10.9182341
51
31.3230275
0
ARC
8
DEFAULT_255_1_234
10
20.8708253
20
0.2450214
40
0.1297302
50
31.8852677
51
52.1412565
0
ARC
8
DEFAULT_255_1_234
10
20.8433986
20
0.206275
40
0.1771663
50
52.8285564
51
71.9850297
0
ARC
8
DEFAULT_255_1_234
10
20.8058162
20
0.0956664
40
0.2939794
50
71.6863486
51
82.8455995
0
ARC
8
DEFAULT_255_1_234
10
20.7818698
20
-0.0852851
40
0.476506
50
82.6984714
51
90.1729175
0
ARC
8
DEFAULT_255_1_234
10
20.7796333
20
0.0370623
40
0.3541573
50
89.8708275
51
90.0431131
0
LINE
8
DEFAULT_255_1_234
10
22.115848
20
0.0402327
11
22.115848
21
-0.1525291
0
LINE
8
DEFAULT_255_1_234
10
21.3777313
20
-0.1726084
11
21.3777313
21
0.0257755
0
LINE
8
DEFAULT_255_1_234
10
21.9672609
20
-0.1926877
11
21.9672609
21
0.0506739
0
LINE
8
DEFAULT_255_1_234
10
21.5263185
20
0.0619184
11
21.5263185
21
-0.1758211
0
ARC
8
DEFAULT_255_1_234
10
20.891137
20
-0.1574195
40
1.2247208
50
353.8441951
51
0.2287902
0
ARC
8
DEFAULT_255_1_234
10
21.3550874
20
-0.2092194
40
0.7578929
50
344.4934747
51
353.9765454
0
ARC
8
DEFAULT_255_1_234
10
21.6543464
20
-0.2943019
40
0.4467846
50
329.2803592
51
344.7472793
0
ARC
8
DEFAULT_255_1_234
10
21.7536289
20
-0.3487982
40
0.3336173
50
324.9352394
51
328.6160465
0
ARC
8
DEFAULT_255_1_234
10
21.7913398
20
-0.3751573
40
0.2876076
50
280.580143
51
324.9173126
0
ARC
8
DEFAULT_255_1_234
10
21.751219
20
-0.2080901
40
0.4592847
50
269.5977311
51
281.6734359
0
ARC
8
DEFAULT_255_1_234
10
21.7440096
20
-0.2200827
40
0.4472986
50
256.6228859
51
270.51044
0
ARC
8
DEFAULT_255_1_234
10
21.7038074
20
-0.3749123
40
0.2873874
50
215.8618325
51
257.2788573
0
ARC
8
DEFAULT_255_1_234
10
21.8059105
20
-0.3064023
40
0.4102928
50
197.9693508
51
215.2623606
0
ARC
8
DEFAULT_255_1_234
10
22.0544221
20
-0.2225291
40
0.6725652
50
187.8816417
51
198.2346507
0
ARC
8
DEFAULT_255_1_234
10
22.4502429
20
-0.1653921
40
1.0724845
50
180.8976217
51
188.0055519
0
ARC
8
DEFAULT_255_1_234
10
22.7302617
20
-0.1550223
40
1.3526448
50
180.7449369
51
181.1510016
0
ARC
8
DEFAULT_255_1_234
10
22.5725346
20
0.0306042
40
1.1948131
50
173.7675579
51
180.231553
0
ARC
8
DEFAULT_255_1_234
10
22.1207493
20
0.0816666
40
0.7401564
50
164.3058563
51
173.9002247
0
ARC
8
DEFAULT_255_1_234
10
21.8295562
20
0.1655656
40
0.4371288
50
148.7922025
51
164.568378
0
ARC
8
DEFAULT_255_1_234
10
21.7344014
20
0.2186929
40
0.3282386
50
144.5883898
51
148.1176286
0
ARC
8
DEFAULT_255_1_234
10
21.7000912
20
0.2426315
40
0.2864044
50
101.6440918
51
144.514236
0
ARC
8
DEFAULT_255_1_234
10
21.7425979
20
0.0737069
40
0.4604934
50
89.5284041
51
102.5819763
0
ARC
8
DEFAULT_255_1_234
10
21.7505066
20
0.0698018
40
0.464401
50
77.0437873
51
90.5081339
0
ARC
8
DEFAULT_255_1_234
10
21.7907068
20
0.2340615
40
0.2953195
50
48.2778575
51
77.4994676
0
ARC
8
DEFAULT_255_1_234
10
21.7979699
20
0.2469746
40
0.2808655
50
36.3142134
51
47.6305865
0
ARC
8
DEFAULT_255_1_234
10
21.7111006
20
0.1884515
40
0.3855453
50
18.2931786
51
35.6769206
0
ARC
8
DEFAULT_255_1_234
10
21.4567765
20
0.1011593
40
0.654423
50
8.024666
51
18.5605216
0
ARC
8
DEFAULT_255_1_234
10
21.0404685
20
0.0396792
40
1.0752407
50
1.1274072
51
8.1718305
0
ARC
8
DEFAULT_255_1_234
10
20.7168876
20
0.0269885
40
1.3990231
50
0.5424119
51
1.3863029
0
ARC
8
DEFAULT_255_1_234
10
20.8990254
20
0.0542342
40
1.0682415
50
359.8090433
51
4.9407866
0
ARC
8
DEFAULT_255_1_234
10
21.3200268
20
0.0918113
40
0.6455691
50
4.8362157
51
12.2904523
0
ARC
8
DEFAULT_255_1_234
10
21.5955382
20
0.1531965
40
0.3633074
50
12.0805627
51
23.8173984
0
ARC
8
DEFAULT_255_1_234
10
21.7129088
20
0.2028919
40
0.2358723
50
24.2871213
51
31.3935614
0
ARC
8
DEFAULT_255_1_234
10
21.7653785
20
0.2372233
40
0.1732111
50
30.7407893
51
82.4657128
0
ARC
8
DEFAULT_255_1_234
10
21.7473919
20
0.1488691
40
0.263235
50
81.1060089
51
90.2184952
0
ARC
8
DEFAULT_255_1_234
10
21.7438218
20
0.1746924
40
0.2374236
50
89.3806855
51
105.6762551
0
ARC
8
DEFAULT_255_1_234
10
21.7254849
20
0.2413567
40
0.1682847
50
105.7981136
51
149.7388061
0
ARC
8
DEFAULT_255_1_234
10
21.8318927
20
0.177395
40
0.2924306
50
149.4208916
51
163.6286378
0
ARC
8
DEFAULT_255_1_234
10
22.0409815
20
0.113625
40
0.5110213
50
163.3763315
51
172.1410975
0
ARC
8
DEFAULT_255_1_234
10
22.3710534
20
0.0663518
40
0.8444586
50
172.0259487
51
178.0703232
0
ARC
8
DEFAULT_255_1_234
10
22.6740624
20
0.0519906
40
1.1477868
50
177.8631668
51
179.5044149
0
ARC
8
DEFAULT_255_1_234
10
22.5668028
20
-0.1794611
40
1.0404907
50
179.7995573
51
185.2460446
0
ARC
8
DEFAULT_255_1_234
10
22.1625067
20
-0.2177487
40
0.6343885
50
185.1411642
51
193.0079639
0
ARC
8
DEFAULT_255_1_234
10
21.898154
20
-0.2802359
40
0.3627568
50
192.7897626
51
205.2507664
0
ARC
8
DEFAULT_255_1_234
10
21.7935087
20
-0.3269585
40
0.2481908
50
205.8005384
51
211.2537509
0
ARC
8
DEFAULT_255_1_234
10
21.7411527
20
-0.362042
40
0.1852521
50
210.3789793
51
238.4008143
0
ARC
8
DEFAULT_255_1_234
10
21.7392049
20
-0.3573624
40
0.1882621
50
239.6520629
51
265.9793761
0
ARC
8
DEFAULT_255_1_234
10
21.7477249
20
-0.2901573
40
0.2559272
50
265.1315437
51
270.060332
0
ARC
8
DEFAULT_255_1_234
10
21.7506028
20
-0.3225466
40
0.2235528
50
269.3314664
51
287.2178029
0
ARC
8
DEFAULT_255_1_234
10
21.764388
20
-0.3728721
40
0.1714108
50
287.7958004
51
329.080874
0
ARC
8
DEFAULT_255_1_234
10
21.6686337
20
-0.313107
40
0.2842745
50
328.6634704
51
343.3325132
0
ARC
8
DEFAULT_255_1_234
10
21.4513357
20
-0.2454137
40
0.5118644
50
343.0499468
51
351.9393422
0
ARC
8
DEFAULT_255_1_234
10
21.1046657
20
-0.1943051
40
0.8622784
50
351.8069023
51
357.7959224
0
ARC
8
DEFAULT_255_1_234
10
20.7811213
20
-0.1775279
40
1.1862365
50
357.5871873
51
359.2677531
0
LINE
8
DEFAULT_255_1_234
10
9.1330023
20
134.4559849
11
8.9779897
21
134.4559849
0
LINE
8
DEFAULT_255_1_234
10
8.2856539
20
133.9636394
11
8.4406665
21
133.9636394
0
ARC
8
DEFAULT_255_1_234
10
9.043871
20
135.3506768
40
1.252368
50
248.9199003
51
254.1439814
0
ARC
8
DEFAULT_255_1_234
10
8.8758205
20
134.9180234
40
0.788226
50
241.633709
51
249.0064503
0
ARC
8
DEFAULT_255_1_234
10
8.72296
20
134.6379317
40
0.4691427
50
230.498225
51
241.8087113
0
ARC
8
DEFAULT_255_1_234
10
8.6445174
20
134.5379906
40
0.3421437
50
227.4064532
51
229.9881192
0
ARC
8
DEFAULT_255_1_234
10
8.5957694
20
134.4904088
40
0.2741476
50
200.6781896
51
228.1763934
0
ARC
8
DEFAULT_255_1_234
10
8.6030005
20
134.4889077
40
0.2804109
50
179.5061581
51
199.8694617
0
ARC
8
DEFAULT_255_1_234
10
8.6020757
20
134.496321
40
0.2795204
50
132.4834203
51
181.0242172
0
ARC
8
DEFAULT_255_1_234
10
8.6616339
20
134.4400704
40
0.3612768
50
129.2532479
51
133.4242687
0
ARC
8
DEFAULT_255_1_234
10
8.6762789
20
134.4180965
40
0.3875675
50
101.98776
51
128.8742646
0
ARC
8
DEFAULT_255_1_234
10
8.7161399
20
134.2459741
40
0.5642249
50
89.5906553
51
102.3169264
0
ARC
8
DEFAULT_255_1_234
10
8.7231891
20
134.2778148
40
0.5323783
50
77.2360837
51
90.3248275
0
ARC
8
DEFAULT_255_1_234
10
8.7438971
20
134.37454
40
0.4334697
50
63.837784
51
77.0809408
0
ARC
8
DEFAULT_255_1_234
10
8.7716732
20
134.4262911
40
0.3747796
50
45.9864267
51
64.1607727
0
ARC
8
DEFAULT_255_1_234
10
8.7977614
20
134.4560866
40
0.3352302
50
32.2747395
51
45.6547121
0
ARC
8
DEFAULT_255_1_234
10
8.8044054
20
134.457988
40
0.328603
50
359.6507365
51
32.6130309
0
ARC
8
DEFAULT_255_1_234
10
8.710115
20
134.458466
40
0.2678863
50
359.469343
51
14.9832209
0
ARC
8
DEFAULT_255_1_234
10
8.7806212
20
134.4773539
40
0.1948938
50
14.9781179
51
48.2004265
0
ARC
8
DEFAULT_255_1_234
10
8.7641856
20
134.4566983
40
0.2212521
50
48.5927837
51
74.1241538
0
ARC
8
DEFAULT_255_1_234
10
8.7308346
20
134.3466248
40
0.3362561
50
73.7888341
51
86.6652678
0
ARC
8
DEFAULT_255_1_234
10
8.7205911
20
134.2258881
40
0.4573953
50
86.2640471
51
90.0526343
0
ARC
8
DEFAULT_255_1_234
10
8.7177624
20
134.2654192
40
0.4178709
50
89.6697524
51
99.2309573
0
ARC
8
DEFAULT_255_1_234
10
8.6935075
20
134.4098964
40
0.2713749
50
99.069534
51
113.7658566
0
ARC
8
DEFAULT_255_1_234
10
8.6661266
20
134.4744677
40
0.2012469
50
114.0401004
51
127.9850673
0
ARC
8
DEFAULT_255_1_234
10
8.642083
20
134.504073
40
0.1631167
50
127.7287463
51
176.7105154
0
ARC
8
DEFAULT_255_1_234
10
8.7099547
20
134.4939693
40
0.2315392
50
175.1779447
51
180.0581938
0
ARC
8
DEFAULT_255_1_234
10
8.6256394
20
134.4927428
40
0.1472271
50
179.6142195
51
228.1246017
0
ARC
8
DEFAULT_255_1_234
10
8.6698063
20
134.5336308
40
0.2072299
50
226.5779593
51
230.8800004
0
ARC
8
DEFAULT_255_1_234
10
8.7169141
20
134.5961636
40
0.2854818
50
231.4635071
51
241.9260842
0
ARC
8
DEFAULT_255_1_234
10
8.8366319
20
134.81648
40
0.53622
50
241.7178533
51
248.3259551
0
ARC
8
DEFAULT_255_1_234
10
8.9751691
20
135.1597064
40
0.9063478
50
248.2007737
51
252.4528373
0
ARC
8
DEFAULT_255_1_234
10
9.0955416
20
135.5318441
40
1.2974635
50
252.3391078
51
254.3469452
0
ARC
8
DEFAULT_255_1_234
10
8.3413119
20
132.8341148
40
1.5037162
50
71.0197183
51
74.4087047
0
ARC
8
DEFAULT_255_1_234
10
8.5107804
20
133.3233111
40
0.9859993
50
66.1847285
51
71.086374
0
ARC
8
DEFAULT_255_1_234
10
8.6664116
20
133.67372
40
0.6025855
50
59.3536294
51
66.2691831
0
ARC
8
DEFAULT_255_1_234
10
8.7552769
20
133.8240609
40
0.4279449
50
49.1020879
51
59.3293958
0
ARC
8
DEFAULT_255_1_234
10
8.8371509
20
133.9173834
40
0.3038015
50
32.7919921
51
49.2505539
0
ARC
8
DEFAULT_255_1_234
10
8.8692599
20
133.9402191
40
0.264448
50
31.1181161
51
32.4005348
0
ARC
8
DEFAULT_255_1_234
10
8.8604136
20
133.9366779
40
0.2738556
50
8.1116974
51
30.7958831
0
ARC
8
DEFAULT_255_1_234
10
8.7793804
20
133.9228753
40
0.3560327
50
359.8389159
51
8.4706516
0
ARC
8
DEFAULT_255_1_234
10
8.8419596
20
133.9180137
40
0.2934776
50
337.4731098
51
0.7537279
0
ARC
8
DEFAULT_255_1_234
10
8.8598291
20
133.9160387
40
0.2762607
50
307.5917067
51
336.4315538
0
ARC
8
DEFAULT_255_1_234
10
8.8138119
20
133.9673102
40
0.3449979
50
307.6551545
51
308.4529766
0
ARC
8
DEFAULT_255_1_234
10
8.7907838
20
134.002825
40
0.3871988
50
284.3734338
51
307.1424381
0
ARC
8
DEFAULT_255_1_234
10
8.7412668
20
134.1849932
40
0.5759636
50
272.4382747
51
284.646547
0
ARC
8
DEFAULT_255_1_234
10
8.7285876
20
134.3649893
40
0.7563528
50
269.9708387
51
272.8178037
0
ARC
8
DEFAULT_255_1_234
10
8.7242916
20
134.1611716
40
0.5525489
50
248.2707594
51
270.4055579
0
ARC
8
DEFAULT_255_1_234
10
8.7188657
20
134.1421192
40
0.5328452
50
246.1383403
51
248.0542782
0
ARC
8
DEFAULT_255_1_234
10
8.6770036
20
134.0541843
40
0.4355005
50
233.1670131
51
246.4950969
0
ARC
8
DEFAULT_255_1_234
10
8.6215941
20
133.9793812
40
0.3424126
50
215.3403242
51
233.0843104
0
ARC
8
DEFAULT_255_1_234
10
8.5943372
20
133.9595549
40
0.3087104
50
179.2419209
51
215.2648451
0
ARC
8
DEFAULT_255_1_234
10
8.6710966
20
133.9609666
40
0.2304457
50
179.335461
51
199.1045811
0
ARC
8
DEFAULT_255_1_234
10
8.6378643
20
133.9522766
40
0.1962176
50
199.8828939
51
232.7063202
0
ARC
8
DEFAULT_255_1_234
10
8.6850911
20
134.0116788
40
0.2720938
50
232.3738199
51
255.5136649
0
ARC
8
DEFAULT_255_1_234
10
8.7191778
20
134.1360835
40
0.4010747
50
255.2446292
51
267.5320849
0
ARC
8
DEFAULT_255_1_234
10
8.7279401
20
134.2593702
40
0.5246356
50
267.1557994
51
270.0286766
0
ARC
8
DEFAULT_255_1_234
10
8.7307173
20
134.214995
40
0.4802668
50
269.7000017
51
278.1660162
0
ARC
8
DEFAULT_255_1_234
10
8.7563178
20
134.0419515
40
0.3053425
50
278.0231263
51
290.625471
0
ARC
8
DEFAULT_255_1_234
10
8.7910865
20
133.9492025
40
0.206291
50
290.6619762
51
307.0370976
0
ARC
8
DEFAULT_255_1_234
10
8.8211254
20
133.9123504
40
0.1587906
50
306.3943566
51
355.3030547
0
ARC
8
DEFAULT_255_1_234
10
8.7699186
20
133.9200113
40
0.2104809
50
354.3660432
51
0.0698737
0
ARC
8
DEFAULT_255_1_234
10
8.7841531
20
133.9222617
40
0.1962563
50
359.417946
51
16.1971788
0
ARC
8
DEFAULT_255_1_234
10
8.8296841
20
133.9347418
40
0.149053
50
16.4723299
51
52.6262157
0
ARC
8
DEFAULT_255_1_234
10
8.7475895
20
133.8263433
40
0.2850296
50
52.7386432
51
62.4979148
0
ARC
8
DEFAULT_255_1_234
10
8.6090972
20
133.5657283
40
0.5801521
50
62.2515216
51
68.1220564
0
ARC
8
DEFAULT_255_1_234
10
8.4370883
20
133.1429872
40
1.0365451
50
68.0062803
51
71.8053402
0
ARC
8
DEFAULT_255_1_234
10
8.2575255
20
132.6044758
40
1.6042013
50
71.7183119
51
73.9258742
0
LINE
8
DEFAULT_255_1_234
10
9.4984464
20
134.7941211
11
9.4984464
21
133.6247
0
LINE
8
DEFAULT_255_1_234
10
9.4984464
20
133.6247
11
9.344237
21
133.6247
0
LINE
8
DEFAULT_255_1_234
10
9.344237
20
133.6247
11
9.344237
21
134.7941211
0
LINE
8
DEFAULT_255_1_234
10
9.344237
20
134.7941211
11
9.4984464
21
134.7941211
0
LINE
8
DEFAULT_255_1_234
10
9.7803604
20
134.7941211
11
9.9795475
21
134.7941211
0
LINE
8
DEFAULT_255_1_234
10
9.9795475
20
134.7941211
11
10.3618583
21
133.8399506
0
LINE
8
DEFAULT_255_1_234
10
10.3618583
20
133.8399506
11
10.744169
21
134.7941211
0
LINE
8
DEFAULT_255_1_234
10
10.744169
20
134.7941211
11
10.9441593
21
134.7941211
0
LINE
8
DEFAULT_255_1_234
10
10.9441593
20
134.7941211
11
10.9441593
21
133.6247
0
LINE
8
DEFAULT_255_1_234
10
10.9441593
20
133.6247
11
10.7899499
21
133.6247
0
LINE
8
DEFAULT_255_1_234
10
10.7899499
20
133.6247
11
10.7899499
21
134.0800996
0
LINE
8
DEFAULT_255_1_234
10
10.7899499
20
134.0800996
11
10.804407
21
134.5716419
0
LINE
8
DEFAULT_255_1_234
10
10.804407
20
134.5716419
11
10.4204899
21
133.6247
0
LINE
8
DEFAULT_255_1_234
10
10.4204899
20
133.6247
11
10.3024234
21
133.6247
0
LINE
8
DEFAULT_255_1_234
10
10.3024234
20
133.6247
11
9.9193095
21
134.5692324
0
LINE
8
DEFAULT_255_1_234
10
9.9193095
20
134.5692324
11
9.9345698
21
134.0800996
0
LINE
8
DEFAULT_255_1_234
10
9.9345698
20
134.0800996
11
9.9345698
21
133.6247
0
LINE
8
DEFAULT_255_1_234
10
9.9345698
20
133.6247
11
9.7803604
21
133.6247
0
LINE
8
DEFAULT_255_1_234
10
9.7803604
20
133.6247
11
9.7803604
21
134.7941211
0
LINE
8
DEFAULT_255_1_234
10
11.9882853
20
133.6247
11
11.8766441
21
133.9299061
0
LINE
8
DEFAULT_255_1_234
10
11.8766441
20
133.9299061
11
11.3867081
21
133.9299061
0
LINE
8
DEFAULT_255_1_234
10
11.3867081
20
133.9299061
11
11.2766732
21
133.6247
0
LINE
8
DEFAULT_255_1_234
10
11.2766732
20
133.6247
11
11.1176448
21
133.6247
0
LINE
8
DEFAULT_255_1_234
10
11.1176448
20
133.6247
11
11.5642095
21
134.7941211
0
LINE
8
DEFAULT_255_1_234
10
11.5642095
20
134.7941211
11
11.6991427
21
134.7941211
0
LINE
8
DEFAULT_255_1_234
10
11.6991427
20
134.7941211
11
12.1465105
21
133.6247
0
LINE
8
DEFAULT_255_1_234
10
12.1465105
20
133.6247
11
11.9882853
21
133.6247
0
LINE
8
DEFAULT_255_1_234
10
11.6316761
20
134.6037689
11
11.4332921
21
134.0568075
0
LINE
8
DEFAULT_255_1_234
10
11.4332921
20
134.0568075
11
11.8308632
21
134.0568075
0
LINE
8
DEFAULT_255_1_234
10
11.8308632
20
134.0568075
11
11.6316761
21
134.6037689
0
LINE
8
DEFAULT_255_1_234
10
13.008316
20
134.7941211
11
13.008316
21
134.6672196
0
LINE
8
DEFAULT_255_1_234
10
13.008316
20
134.6672196
11
12.6324307
21
134.6672196
0
LINE
8
DEFAULT_255_1_234
10
12.6324307
20
134.6672196
11
12.6324307
21
133.6247
0
LINE
8
DEFAULT_255_1_234
10
12.6324307
20
133.6247
11
12.4790245
21
133.6247
0
LINE
8
DEFAULT_255_1_234
10
12.4790245
20
133.6247
11
12.4790245
21
134.6672196
0
LINE
8
DEFAULT_255_1_234
10
12.4790245
20
134.6672196
11
12.1039423
21
134.6672196
0
LINE
8
DEFAULT_255_1_234
10
12.1039423
20
134.6672196
11
12.1039423
21
134.7941211
0
LINE
8
DEFAULT_255_1_234
10
12.1039423
20
134.7941211
11
13.008316
21
134.7941211
0
LINE
8
DEFAULT_255_1_234
10
13.3472554
20
134.7941211
11
13.3472554
21
133.6247
0
LINE
8
DEFAULT_255_1_234
10
13.3472554
20
133.6247
11
13.193046
21
133.6247
0
LINE
8
DEFAULT_255_1_234
10
13.193046
20
133.6247
11
13.193046
21
134.7941211
0
LINE
8
DEFAULT_255_1_234
10
13.193046
20
134.7941211
11
13.3472554
21
134.7941211
0
LINE
8
DEFAULT_255_1_234
10
14.334356
20
133.9957663
11
14.4893686
21
133.9957663
0
LINE
8
DEFAULT_255_1_234
10
13.5890107
20
134.1547947
11
13.5890107
21
134.2672391
0
LINE
8
DEFAULT_255_1_234
10
14.4893686
20
134.4182357
11
14.334356
21
134.4182357
0
LINE
8
DEFAULT_255_1_234
10
13.7440232
20
134.2632232
11
13.7440232
21
134.1499757
0
ARC
8
DEFAULT_255_1_234
10
13.9413072
20
134.0554846
40
0.5513052
50
340.1774281
51
353.7814284
0
ARC
8
DEFAULT_255_1_234
10
14.0984425
20
133.9969582
40
0.3836379
50
311.4558989
51
340.4421614
0
ARC
8
DEFAULT_255_1_234
10
14.0951093
20
134.0080528
40
0.3941894
50
282.4333181
51
310.7513653
0
ARC
8
DEFAULT_255_1_234
10
14.0511832
20
134.1895679
40
0.5809175
50
269.9358511
51
282.809604
0
ARC
8
DEFAULT_255_1_234
10
14.0459899
20
134.3353212
40
0.7266847
50
270.0021091
51
270.3581957
0
ARC
8
DEFAULT_255_1_234
10
14.0407315
20
134.0752585
40
0.4666519
50
250.7884749
51
270.6489167
0
ARC
8
DEFAULT_255_1_234
10
14.023915
20
134.0115319
40
0.4009729
50
219.3627325
51
250.0611886
0
ARC
8
DEFAULT_255_1_234
10
14.1068361
20
134.0820042
40
0.5097822
50
193.5479632
51
219.5756669
0
ARC
8
DEFAULT_255_1_234
10
14.3439982
20
134.1435919
40
0.7547848
50
181.1218675
51
193.87563
0
ARC
8
DEFAULT_255_1_234
10
14.5510163
20
134.154658
40
0.9620055
50
179.9918545
51
181.5394234
0
ARC
8
DEFAULT_255_1_234
10
14.3659265
20
134.2709788
40
0.7769248
50
169.5837241
51
180.2757934
0
ARC
8
DEFAULT_255_1_234
10
14.1822203
20
134.3049229
40
0.590109
50
155.0365899
51
169.6003176
0
ARC
8
DEFAULT_255_1_234
10
14.0686667
20
134.3596677
40
0.4640625
50
136.783148
51
155.2472683
0
ARC
8
DEFAULT_255_1_234
10
14.0297144
20
134.3927562
40
0.4130255
50
121.7633186
51
136.428115
0
ARC
8
DEFAULT_255_1_234
10
14.0432106
20
134.3678227
40
0.4413323
50
95.6459699
51
121.5490577
0
ARC
8
DEFAULT_255_1_234
10
14.0589388
20
134.2569949
40
0.55319
50
89.924208
51
96.1377933
0
ARC
8
DEFAULT_255_1_234
10
14.0639821
20
134.2688542
40
0.5413475
50
76.6779277
51
90.4563316
0
ARC
8
DEFAULT_255_1_234
10
14.1033444
20
134.4279114
40
0.3775041
50
47.485847
51
76.9287264
0
ARC
8
DEFAULT_255_1_234
10
14.0886417
20
134.4179159
40
0.3948286
50
16.5424086
51
46.8933463
0
ARC
8
DEFAULT_255_1_234
10
13.9278574
20
134.3650861
40
0.564021
50
5.4072051
51
17.0365086
0
ARC
8
DEFAULT_255_1_234
10
13.7839591
20
134.3419679
40
0.5556559
50
7.8891745
51
15.9239216
0
ARC
8
DEFAULT_255_1_234
10
13.9826605
20
134.3996631
40
0.3487515
50
15.7653144
51
27.9410532
0
ARC
8
DEFAULT_255_1_234
10
14.0930822
20
134.458779
40
0.2235026
50
27.8166557
51
46.4008329
0
ARC
8
DEFAULT_255_1_234
10
14.0980465
20
134.4582082
40
0.2205286
50
47.4371857
51
75.0698205
0
ARC
8
DEFAULT_255_1_234
10
14.067186
20
134.3507765
40
0.3322915
50
74.7008593
51
87.8124495
0
ARC
8
DEFAULT_255_1_234
10
14.0598547
20
134.2451844
40
0.4380987
50
87.3814673
51
90.0240855
0
ARC
8
DEFAULT_255_1_234
10
14.0560091
20
134.3629291
40
0.3203749
50
89.3451631
51
108.5745436
0
ARC
8
DEFAULT_255_1_234
10
14.0423196
20
134.4142908
40
0.2673494
50
109.2998449
51
143.3037509
0
ARC
8
DEFAULT_255_1_234
10
14.1185268
20
134.3556881
40
0.3634757
50
143.0753173
51
163.1916937
0
ARC
8
DEFAULT_255_1_234
10
14.3136996
20
134.2940967
40
0.5681262
50
162.9373603
51
174.6208611
0
ARC
8
DEFAULT_255_1_234
10
14.5763038
20
134.265301
40
0.8322832
50
174.3419979
51
180.1430411
0
ARC
8
DEFAULT_255_1_234
10
14.4832194
20
134.1458698
40
0.7392076
50
179.6817502
51
189.150529
0
ARC
8
DEFAULT_255_1_234
10
14.2331443
20
134.104219
40
0.4856932
50
188.9910863
51
203.5773039
0
ARC
8
DEFAULT_255_1_234
10
14.1251775
20
134.0594211
40
0.3688271
50
203.9077269
51
215.1312379
0
ARC
8
DEFAULT_255_1_234
10
14.0328869
20
133.9878941
40
0.2522457
50
213.9071664
51
263.8849284
0
ARC
8
DEFAULT_255_1_234
10
14.0454198
20
134.0663518
40
0.3316174
50
263.1758525
51
270.1031083
0
ARC
8
DEFAULT_255_1_234
10
14.048629
20
134.1910365
40
0.4563091
50
269.6719807
51
279.0609165
0
ARC
8
DEFAULT_255_1_234
10
14.0753058
20
134.0297907
40
0.2928759
50
278.8750225
51
293.6346586
0
ARC
8
DEFAULT_255_1_234
10
14.1073266
20
133.95459
40
0.2111472
50
293.8553404
51
310.0518804
0
ARC
8
DEFAULT_255_1_234
10
14.107812
20
133.9483516
40
0.2060917
50
311.0646779
51
332.0108348
0
ARC
8
DEFAULT_255_1_234
10
13.9885847
20
134.0140978
40
0.3422352
50
331.6588543
51
343.2878891
0
ARC
8
DEFAULT_255_1_234
10
13.7823362
20
134.0774798
40
0.5580003
50
343.1446044
51
351.010618
0
ARC
8
DEFAULT_255_1_234
10
13.6282008
20
134.1055871
40
0.7146438
50
350.7157277
51
351.1602153
0
LINE
8
DEFAULT_255_1_234
10
15.8828751
20
134.4559849
11
15.7278626
21
134.4559849
0
LINE
8
DEFAULT_255_1_234
10
15.0355268
20
133.9636394
11
15.1905393
21
133.9636394
0
ARC
8
DEFAULT_255_1_234
10
15.7937439
20
135.3506768
40
1.252368
50
248.9199003
51
254.1439814
0
ARC
8
DEFAULT_255_1_234
10
15.6256934
20
134.9180234
40
0.788226
50
241.633709
51
249.0064503
0
ARC
8
DEFAULT_255_1_234
10
15.4728328
20
134.6379317
40
0.4691427
50
230.498225
51
241.8087113
0
ARC
8
DEFAULT_255_1_234
10
15.3943902
20
134.5379906
40
0.3421437
50
227.4064532
51
229.9881192
0
ARC
8
DEFAULT_255_1_234
10
15.3456423
20
134.4904088
40
0.2741476
50
200.6781896
51
228.1763934
0
ARC
8
DEFAULT_255_1_234
10
15.3528734
20
134.4889077
40
0.2804109
50
179.5061581
51
199.8694617
0
ARC
8
DEFAULT_255_1_234
10
15.3519485
20
134.496321
40
0.2795204
50
132.4834203
51
181.0242172
0
ARC
8
DEFAULT_255_1_234
10
15.4115068
20
134.4400704
40
0.3612768
50
129.2532479
51
133.4242687
0
ARC
8
DEFAULT_255_1_234
10
15.4261517
20
134.4180965
40
0.3875675
50
101.98776
51
128.8742646
0
ARC
8
DEFAULT_255_1_234
10
15.4660128
20
134.2459741
40
0.5642249
50
89.5906553
51
102.3169264
0
ARC
8
DEFAULT_255_1_234
10
15.473062
20
134.2778148
40
0.5323783
50
77.2360837
51
90.3248275
0
ARC
8
DEFAULT_255_1_234
10
15.4937699
20
134.37454
40
0.4334697
50
63.837784
51
77.0809408
0
ARC
8
DEFAULT_255_1_234
10
15.5215461
20
134.4262911
40
0.3747796
50
45.9864267
51
64.1607727
0
ARC
8
DEFAULT_255_1_234
10
15.5476342
20
134.4560866
40
0.3352302
50
32.2747395
51
45.6547121
0
ARC
8
DEFAULT_255_1_234
10
15.5542783
20
134.457988
40
0.328603
50
359.6507365
51
32.6130309
0
ARC
8
DEFAULT_255_1_234
10
15.4599878
20
134.458466
40
0.2678863
50
359.469343
51
14.9832209
0
ARC
8
DEFAULT_255_1_234
10
15.5304941
20
134.4773539
40
0.1948938
50
14.9781179
51
48.2004265
0
ARC
8
DEFAULT_255_1_234
10
15.5140585
20
134.4566983
40
0.2212521
50
48.5927837
51
74.1241538
0
ARC
8
DEFAULT_255_1_234
10
15.4807074
20
134.3466248
40
0.3362561
50
73.7888341
51
86.6652678
0
ARC
8
DEFAULT_255_1_234
10
15.470464
20
134.2258881
40
0.4573953
50
86.2640471
51
90.0526343
0
ARC
8
DEFAULT_255_1_234
10
15.4676352
20
134.2654192
40
0.4178709
50
89.6697524
51
99.2309573
0
ARC
8
DEFAULT_255_1_234
10
15.4433803
20
134.4098964
40
0.2713749
50
99.069534
51
113.7658566
0
ARC
8
DEFAULT_255_1_234
10
15.4159994
20
134.4744677
40
0.2012469
50
114.0401004
51
127.9850673
0
ARC
8
DEFAULT_255_1_234
10
15.3919558
20
134.504073
40
0.1631167
50
127.7287463
51
176.7105154
0
ARC
8
DEFAULT_255_1_234
10
15.4598276
20
134.4939693
40
0.2315392
50
175.1779447
51
180.0581938
0
ARC
8
DEFAULT_255_1_234
10
15.3755123
20
134.4927428
40
0.1472271
50
179.6142195
51
228.1246017
0
ARC
8
DEFAULT_255_1_234
10
15.4196791
20
134.5336308
40
0.2072299
50
226.5779593
51
230.8800004
0
ARC
8
DEFAULT_255_1_234
10
15.466787
20
134.5961636
40
0.2854818
50
231.4635071
51
241.9260842
0
ARC
8
DEFAULT_255_1_234
10
15.5865048
20
134.81648
40
0.53622
50
241.7178533
51
248.3259551
0
ARC
8
DEFAULT_255_1_234
10
15.725042
20
135.1597064
40
0.9063478
50
248.2007737
51
252.4528373
0
ARC
8
DEFAULT_255_1_234
10
15.8454145
20
135.5318441
40
1.2974635
50
252.3391078
51
254.3469452
0
ARC
8
DEFAULT_255_1_234
10
15.0911847
20
132.8341148
40
1.5037162
50
71.0197183
51
74.4087047
0
ARC
8
DEFAULT_255_1_234
10
15.2606532
20
133.3233111
40
0.9859993
50
66.1847285
51
71.086374
0
ARC
8
DEFAULT_255_1_234
10
15.4162845
20
133.67372
40
0.6025855
50
59.3536294
51
66.2691831
0
ARC
8
DEFAULT_255_1_234
10
15.5051497
20
133.8240609
40
0.4279449
50
49.1020879
51
59.3293958
0
ARC
8
DEFAULT_255_1_234
10
15.5870237
20
133.9173834
40
0.3038015
50
32.7919921
51
49.2505539
0
ARC
8
DEFAULT_255_1_234
10
15.6191327
20
133.9402191
40
0.264448
50
31.1181161
51
32.4005348
0
ARC
8
DEFAULT_255_1_234
10
15.6102865
20
133.9366779
40
0.2738556
50
8.1116974
51
30.7958831
0
ARC
8
DEFAULT_255_1_234
10
15.5292533
20
133.9228753
40
0.3560327
50
359.8389159
51
8.4706516
0
ARC
8
DEFAULT_255_1_234
10
15.5918324
20
133.9180137
40
0.2934776
50
337.4731098
51
0.7537279
0
ARC
8
DEFAULT_255_1_234
10
15.6097019
20
133.9160387
40
0.2762607
50
307.5917067
51
336.4315538
0
ARC
8
DEFAULT_255_1_234
10
15.5636847
20
133.9673102
40
0.3449979
50
307.6551545
51
308.4529766
0
ARC
8
DEFAULT_255_1_234
10
15.5406566
20
134.002825
40
0.3871988
50
284.3734338
51
307.1424381
0
ARC
8
DEFAULT_255_1_234
10
15.4911396
20
134.1849932
40
0.5759636
50
272.4382747
51
284.646547
0
ARC
8
DEFAULT_255_1_234
10
15.4784605
20
134.3649893
40
0.7563528
50
269.9708387
51
272.8178037
0
ARC
8
DEFAULT_255_1_234
10
15.4741645
20
134.1611716
40
0.5525489
50
248.2707594
51
270.4055579
0
ARC
8
DEFAULT_255_1_234
10
15.4687386
20
134.1421192
40
0.5328452
50
246.1383403
51
248.0542782
0
ARC
8
DEFAULT_255_1_234
10
15.4268765
20
134.0541843
40
0.4355005
50
233.1670131
51
246.4950969
0
ARC
8
DEFAULT_255_1_234
10
15.371467
20
133.9793812
40
0.3424126
50
215.3403242
51
233.0843104
0
ARC
8
DEFAULT_255_1_234
10
15.3442101
20
133.9595549
40
0.3087104
50
179.2419209
51
215.2648451
0
ARC
8
DEFAULT_255_1_234
10
15.4209695
20
133.9609666
40
0.2304457
50
179.335461
51
199.1045811
0
ARC
8
DEFAULT_255_1_234
10
15.3877371
20
133.9522766
40
0.1962176
50
199.8828939
51
232.7063202
0
ARC
8
DEFAULT_255_1_234
10
15.434964
20
134.0116788
40
0.2720938
50
232.3738199
51
255.5136649
0
ARC
8
DEFAULT_255_1_234
10
15.4690506
20
134.1360835
40
0.4010747
50
255.2446292
51
267.5320849
0
ARC
8
DEFAULT_255_1_234
10
15.477813
20
134.2593702
40
0.5246356
50
267.1557994
51
270.0286766
0
ARC
8
DEFAULT_255_1_234
10
15.4805902
20
134.214995
40
0.4802668
50
269.7000017
51
278.1660162
0
ARC
8
DEFAULT_255_1_234
10
15.5061907
20
134.0419515
40
0.3053425
50
278.0231263
51
290.625471
0
ARC
8
DEFAULT_255_1_234
10
15.5409594
20
133.9492025
40
0.206291
50
290.6619762
51
307.0370976
0
ARC
8
DEFAULT_255_1_234
10
15.5709983
20
133.9123504
40
0.1587906
50
306.3943566
51
355.3030547
0
ARC
8
DEFAULT_255_1_234
10
15.5197914
20
133.9200113
40
0.2104809
50
354.3660432
51
0.0698737
0
ARC
8
DEFAULT_255_1_234
10
15.534026
20
133.9222617
40
0.1962563
50
359.417946
51
16.1971788
0
ARC
8
DEFAULT_255_1_234
10
15.579557
20
133.9347418
40
0.149053
50
16.4723299
51
52.6262157
0
ARC
8
DEFAULT_255_1_234
10
15.4974624
20
133.8263433
40
0.2850296
50
52.7386432
51
62.4979148
0
ARC
8
DEFAULT_255_1_234
10
15.3589701
20
133.5657283
40
0.5801521
50
62.2515216
51
68.1220564
0
ARC
8
DEFAULT_255_1_234
10
15.1869612
20
133.1429872
40
1.0365451
50
68.0062803
51
71.8053402
0
ARC
8
DEFAULT_255_1_234
10
15.0073983
20
132.6044758
40
1.6042013
50
71.7183119
51
73.9258742
0
LINE
8
DEFAULT_255_1_234
10
16.7992965
20
134.7941211
11
16.7992965
21
134.710591
0
LINE
8
DEFAULT_255_1_234
10
16.7992965
20
134.710591
11
16.3149827
21
133.6247
0
LINE
8
DEFAULT_255_1_234
10
16.3149827
20
133.6247
11
16.1591669
21
133.6247
0
LINE
8
DEFAULT_255_1_234
10
16.1591669
20
133.6247
11
16.6418744
21
134.6720387
0
LINE
8
DEFAULT_255_1_234
10
16.6418744
20
134.6720387
11
16.0089734
21
134.6720387
0
LINE
8
DEFAULT_255_1_234
10
16.0089734
20
134.6720387
11
16.0089734
21
134.7941211
0
LINE
8
DEFAULT_255_1_234
10
16.0089734
20
134.7941211
11
16.7992965
21
134.7941211
0
LINE
8
DEFAULT_255_1_234
10
17.2924452
20
134.1821026
11
17.2924452
21
134.0608234
0
LINE
8
DEFAULT_255_1_234
10
17.2924452
20
134.0608234
11
16.9004964
21
134.0608234
0
LINE
8
DEFAULT_255_1_234
10
16.9004964
20
134.0608234
11
16.9004964
21
134.1821026
0
LINE
8
DEFAULT_255_1_234
10
16.9004964
20
134.1821026
11
17.2924452
21
134.1821026
0
LINE
8
DEFAULT_255_1_234
10
17.63781
20
134.1604169
11
17.63781
21
134.2816962
0
LINE
8
DEFAULT_255_1_234
10
17.63781
20
134.2816962
11
17.7494511
21
134.2816962
0
LINE
8
DEFAULT_255_1_234
10
17.5590989
20
134.4873087
11
17.4105118
21
134.4873087
0
LINE
8
DEFAULT_255_1_234
10
17.4000705
20
133.9331188
11
17.5494608
21
133.9331188
0
LINE
8
DEFAULT_255_1_234
10
17.7494511
20
134.1604169
11
17.63781
21
134.1604169
0
ARC
8
DEFAULT_255_1_234
10
17.7465378
20
134.6209713
40
0.3392876
50
270.4919872
51
281.8951556
0
ARC
8
DEFAULT_255_1_234
10
17.7706639
20
134.5107702
40
0.2264817
50
281.6691735
51
301.2943132
0
ARC
8
DEFAULT_255_1_234
10
17.787685
20
134.4796304
40
0.1910381
50
301.7833094
51
311.7545298
0
ARC
8
DEFAULT_255_1_234
10
17.7968425
20
134.4694748
40
0.1773635
50
311.7323931
51
354.2802411
0
ARC
8
DEFAULT_255_1_234
10
17.7242051
20
134.4819722
40
0.2509385
50
353.0937916
51
0.1181479
0
ARC
8
DEFAULT_255_1_234
10
17.6780835
20
134.4867386
40
0.2970898
50
359.1805295
51
15.0453146
0
ARC
8
DEFAULT_255_1_234
10
17.8126672
20
134.5259992
40
0.1569564
50
13.9577229
51
77.6713066
0
ARC
8
DEFAULT_255_1_234
10
17.7740202
20
134.3874949
40
0.3006298
50
76.1116566
51
90.7026153
0
ARC
8
DEFAULT_255_1_234
10
17.768104
20
134.4148545
40
0.2732568
50
89.5324876
51
103.531937
0
ARC
8
DEFAULT_255_1_234
10
17.7480484
20
134.4947884
40
0.1908508
50
103.2931773
51
133.5619022
0
ARC
8
DEFAULT_255_1_234
10
17.7435972
20
134.5007375
40
0.1834746
50
133.8349307
51
173.5344437
0
ARC
8
DEFAULT_255_1_234
10
17.8159015
20
134.4879213
40
0.2568033
50
172.5096846
51
180.1366907
0
ARC
8
DEFAULT_255_1_234
10
17.7207909
20
134.4913622
40
0.3103056
50
155.3484492
51
180.7484736
0
ARC
8
DEFAULT_255_1_234
10
17.7158998
20
134.4884846
40
0.3070957
50
131.5744599
51
154.4798489
0
ARC
8
DEFAULT_255_1_234
10
17.7472146
20
134.456831
40
0.3515643
50
96.9875458
51
131.9690667
0
ARC
8
DEFAULT_255_1_234
10
17.7691626
20
134.3322636
40
0.4779224
50
89.8596053
51
97.7825159
0
ARC
8
DEFAULT_255_1_234
10
17.7739689
20
134.3060616
40
0.5041361
50
78.3655447
51
90.4131539
0
ARC
8
DEFAULT_255_1_234
10
17.8097607
20
134.4719887
40
0.3344039
50
56.6229102
51
78.638727
0
ARC
8
DEFAULT_255_1_234
10
17.831255
20
134.5095805
40
0.2912001
50
47.0253525
51
56.0854072
0
ARC
8
DEFAULT_255_1_234
10
17.833233
20
134.5135223
40
0.2869704
50
10.9208013
51
46.7778124
0
ARC
8
DEFAULT_255_1_234
10
17.6968397
20
134.4819857
40
0.426899
50
359.6364486
51
11.6087304
0
ARC
8
DEFAULT_255_1_234
10
17.8803241
20
134.4804752
40
0.243409
50
332.3549906
51
359.7179418
0
ARC
8
DEFAULT_255_1_234
10
17.8152842
20
134.5113142
40
0.3153459
50
325.2333722
51
332.8745602
0
ARC
8
DEFAULT_255_1_234
10
17.8305466
20
134.5006828
40
0.2967456
50
292.9802137
51
325.2392345
0
ARC
8
DEFAULT_255_1_234
10
17.803084
20
134.5540863
40
0.3566604
50
292.5402179
51
293.6924929
0
ARC
8
DEFAULT_255_1_234
10
17.8423436
20
133.9086091
40
0.3307468
50
57.6435486
51
72.8625112
0
ARC
8
DEFAULT_255_1_234
10
17.8777936
20
133.9660549
40
0.2632492
50
36.7248896
51
57.4697979
0
ARC
8
DEFAULT_255_1_234
10
17.8766568
20
133.967322
40
0.2634081
50
8.0545065
51
36.356114
0
ARC
8
DEFAULT_255_1_234
10
17.7903754
20
133.9518174
40
0.3510261
50
359.8320645
51
8.5869982
0
ARC
8
DEFAULT_255_1_234
10
17.752853
20
133.9470101
40
0.3885653
50
343.9829931
51
0.5571613
0
ARC
8
DEFAULT_255_1_234
10
17.8414727
20
133.9227438
40
0.2966924
50
311.6359546
51
343.7651759
0
ARC
8
DEFAULT_255_1_234
10
17.8036296
20
133.9654102
40
0.3537231
50
279.7829875
51
311.6255694
0
ARC
8
DEFAULT_255_1_234
10
17.7735072
20
134.109128
40
0.5004971
50
269.7286406
51
280.3856417
0
ARC
8
DEFAULT_255_1_234
10
17.7673145
20
134.1049996
40
0.4963778
50
256.6828919
51
270.4412052
0
ARC
8
DEFAULT_255_1_234
10
17.7334441
20
133.9665394
40
0.3538406
50
229.4223008
51
256.8556159
0
ARC
8
DEFAULT_255_1_234
10
17.6919834
20
133.9198736
40
0.2914296
50
181.818294
51
229.6455059
0
ARC
8
DEFAULT_255_1_234
10
17.795979
20
133.9329496
40
0.3959084
50
179.9755256
51
183.2323064
0
ARC
8
DEFAULT_255_1_234
10
17.7787536
20
133.9309037
40
0.2293034
50
179.4465117
51
196.2869258
0
ARC
8
DEFAULT_255_1_234
10
17.7299944
20
133.9175651
40
0.1787621
50
196.5661473
51
227.705904
0
ARC
8
DEFAULT_255_1_234
10
17.7464038
20
133.9359155
40
0.2033784
50
227.7652068
51
257.8762805
0
ARC
8
DEFAULT_255_1_234
10
17.7689009
20
134.0302156
40
0.3003081
50
257.4584385
51
270.426602
0
ARC
8
DEFAULT_255_1_234
10
17.7734575
20
134.0591996
40
0.329292
50
269.5962073
51
280.8789248
0
ARC
8
DEFAULT_255_1_234
10
17.7964104
20
133.9445685
40
0.2123908
50
280.6346389
51
299.8595945
0
ARC
8
DEFAULT_255_1_234
10
17.815501
20
133.9083212
40
0.171457
50
300.3576302
51
314.5517981
0
ARC
8
DEFAULT_255_1_234
10
17.807207
20
133.9143919
40
0.1816095
50
315.0728369
51
345.0431014
0
ARC
8
DEFAULT_255_1_234
10
17.7148885
20
133.9412841
40
0.2777492
50
344.5986631
51
357.9269593
0
ARC
8
DEFAULT_255_1_234
10
17.6253211
20
133.9474276
40
0.3674917
50
357.4748886
51
0.0231117
0
ARC
8
DEFAULT_255_1_234
10
17.727632
20
133.9498679
40
0.2651907
50
359.5047933
51
13.4239635
0
ARC
8
DEFAULT_255_1_234
10
17.8142964
20
133.9720478
40
0.1757509
50
12.9498199
51
48.7551375
0
ARC
8
DEFAULT_255_1_234
10
17.7960698
20
133.94714
40
0.2065134
50
49.5088623
51
72.1836453
0
ARC
8
DEFAULT_255_1_234
10
17.760285
20
133.8409291
40
0.3185836
50
71.9010081
51
84.3554254
0
ARC
8
DEFAULT_255_1_234
10
17.7441482
20
133.7048326
40
0.4556151
50
84.0193428
51
89.333121
0
LINE
8
DEFAULT_255_1_234
10
19.0787038
20
134.3162327
11
19.0787038
21
134.1234709
0
LINE
8
DEFAULT_255_1_234
10
18.3405871
20
134.1033916
11
18.3405871
21
134.3017755
0
LINE
8
DEFAULT_255_1_234
10
18.9301167
20
134.0833123
11
18.9301167
21
134.3266739
0
LINE
8
DEFAULT_255_1_234
10
18.4891742
20
134.3379184
11
18.4891742
21
134.1001789
0
ARC
8
DEFAULT_255_1_234
10
17.8539928
20
134.1185805
40
1.2247208
50
353.8441951
51
0.2287902
0
ARC
8
DEFAULT_255_1_234
10
18.3179431
20
134.0667806
40
0.7578929
50
344.4934747
51
353.9765454
0
ARC
8
DEFAULT_255_1_234
10
18.6172022
20
133.9816981
40
0.4467846
50
329.2803592
51
344.7472793
0
ARC
8
DEFAULT_255_1_234
10
18.7164846
20
133.9272018
40
0.3336173
50
324.9352394
51
328.6160465
0
ARC
8
DEFAULT_255_1_234
10
18.7541955
20
133.9008427
40
0.2876076
50
280.580143
51
324.9173126
0
ARC
8
DEFAULT_255_1_234
10
18.7140748
20
134.0679099
40
0.4592847
50
269.5977311
51
281.6734359
0
ARC
8
DEFAULT_255_1_234
10
18.7068653
20
134.0559173
40
0.4472986
50
256.6228859
51
270.51044
0
ARC
8
DEFAULT_255_1_234
10
18.6666631
20
133.9010877
40
0.2873874
50
215.8618325
51
257.2788573
0
ARC
8
DEFAULT_255_1_234
10
18.7687663
20
133.9695977
40
0.4102928
50
197.9693508
51
215.2623606
0
ARC
8
DEFAULT_255_1_234
10
19.0172778
20
134.0534709
40
0.6725652
50
187.8816417
51
198.2346507
0
ARC
8
DEFAULT_255_1_234
10
19.4130987
20
134.1106079
40
1.0724845
50
180.8976217
51
188.0055519
0
ARC
8
DEFAULT_255_1_234
10
19.6931175
20
134.1209777
40
1.3526448
50
180.7449369
51
181.1510016
0
ARC
8
DEFAULT_255_1_234
10
19.5353904
20
134.3066042
40
1.1948131
50
173.7675579
51
180.231553
0
ARC
8
DEFAULT_255_1_234
10
19.083605
20
134.3576666
40
0.7401564
50
164.3058563
51
173.9002247
0
ARC
8
DEFAULT_255_1_234
10
18.7924119
20
134.4415656
40
0.4371288
50
148.7922025
51
164.568378
0
ARC
8
DEFAULT_255_1_234
10
18.6972571
20
134.4946929
40
0.3282386
50
144.5883898
51
148.1176286
0
ARC
8
DEFAULT_255_1_234
10
18.6629469
20
134.5186315
40
0.2864044
50
101.6440918
51
144.514236
0
ARC
8
DEFAULT_255_1_234
10
18.7054536
20
134.3497069
40
0.4604934
50
89.5284041
51
102.5819763
0
ARC
8
DEFAULT_255_1_234
10
18.7133624
20
134.3458018
40
0.464401
50
77.0437873
51
90.5081339
0
ARC
8
DEFAULT_255_1_234
10
18.7535626
20
134.5100615
40
0.2953195
50
48.2778575
51
77.4994676
0
ARC
8
DEFAULT_255_1_234
10
18.7608257
20
134.5229746
40
0.2808655
50
36.3142134
51
47.6305865
0
ARC
8
DEFAULT_255_1_234
10
18.6739564
20
134.4644515
40
0.3855453
50
18.2931786
51
35.6769206
0
ARC
8
DEFAULT_255_1_234
10
18.4196323
20
134.3771593
40
0.654423
50
8.024666
51
18.5605216
0
ARC
8
DEFAULT_255_1_234
10
18.0033243
20
134.3156792
40
1.0752407
50
1.1274072
51
8.1718305
0
ARC
8
DEFAULT_255_1_234
10
17.6797433
20
134.3029885
40
1.3990231
50
0.5424119
51
1.3863029
0
ARC
8
DEFAULT_255_1_234
10
17.8618811
20
134.3302342
40
1.0682415
50
359.8090433
51
4.9407866
0
ARC
8
DEFAULT_255_1_234
10
18.2828825
20
134.3678113
40
0.6455691
50
4.8362157
51
12.2904523
0
ARC
8
DEFAULT_255_1_234
10
18.558394
20
134.4291965
40
0.3633074
50
12.0805627
51
23.8173984
0
ARC
8
DEFAULT_255_1_234
10
18.6757645
20
134.4788919
40
0.2358723
50
24.2871213
51
31.3935614
0
ARC
8
DEFAULT_255_1_234
10
18.7282342
20
134.5132233
40
0.1732111
50
30.7407893
51
82.4657128
0
ARC
8
DEFAULT_255_1_234
10
18.7102477
20
134.4248691
40
0.263235
50
81.1060089
51
90.2184952
0
ARC
8
DEFAULT_255_1_234
10
18.7066776
20
134.4506924
40
0.2374236
50
89.3806855
51
105.6762551
0
ARC
8
DEFAULT_255_1_234
10
18.6883406
20
134.5173567
40
0.1682847
50
105.7981136
51
149.7388061
0
ARC
8
DEFAULT_255_1_234
10
18.7947485
20
134.453395
40
0.2924306
50
149.4208916
51
163.6286378
0
ARC
8
DEFAULT_255_1_234
10
19.0038373
20
134.389625
40
0.5110213
50
163.3763315
51
172.1410975
0
ARC
8
DEFAULT_255_1_234
10
19.3339092
20
134.3423518
40
0.8444586
50
172.0259487
51
178.0703232
0
ARC
8
DEFAULT_255_1_234
10
19.6369181
20
134.3279906
40
1.1477868
50
177.8631668
51
179.5044149
0
ARC
8
DEFAULT_255_1_234
10
19.5296586
20
134.0965389
40
1.0404907
50
179.7995573
51
185.2460446
0
ARC
8
DEFAULT_255_1_234
10
19.1253625
20
134.0582513
40
0.6343885
50
185.1411642
51
193.0079639
0
ARC
8
DEFAULT_255_1_234
10
18.8610097
20
133.9957641
40
0.3627568
50
192.7897626
51
205.2507664
0
ARC
8
DEFAULT_255_1_234
10
18.7563644
20
133.9490415
40
0.2481908
50
205.8005384
51
211.2537509
0
ARC
8
DEFAULT_255_1_234
10
18.7040085
20
133.913958
40
0.1852521
50
210.3789793
51
238.4008143
0
ARC
8
DEFAULT_255_1_234
10
18.7020607
20
133.9186376
40
0.1882621
50
239.6520629
51
265.9793761
0
ARC
8
DEFAULT_255_1_234
10
18.7105807
20
133.9858427
40
0.2559272
50
265.1315437
51
270.060332
0
ARC
8
DEFAULT_255_1_234
10
18.7134586
20
133.9534534
40
0.2235528
50
269.3314664
51
287.2178029
0
ARC
8
DEFAULT_255_1_234
10
18.7272438
20
133.9031279
40
0.1714108
50
287.7958004
51
329.080874
0
ARC
8
DEFAULT_255_1_234
10
18.6314894
20
133.962893
40
0.2842745
50
328.6634704
51
343.3325132
0
ARC
8
DEFAULT_255_1_234
10
18.4141915
20
134.0305863
40
0.5118644
50
343.0499468
51
351.9393422
0
ARC
8
DEFAULT_255_1_234
10
18.0675215
20
134.0816949
40
0.8622784
50
351.8069023
51
357.7959224
0
ARC
8
DEFAULT_255_1_234
10
17.7439771
20
134.0984721
40
1.1862365
50
357.5871873
51
359.2677531
0
LINE
8
DEFAULT_255_1_234
10
20.0023537
20
134.3162327
11
20.0023537
21
134.1234709
0
LINE
8
DEFAULT_255_1_234
10
19.264237
20
134.1033916
11
19.264237
21
134.3017755
0
LINE
8
DEFAULT_255_1_234
10
19.8537666
20
134.0833123
11
19.8537666
21
134.3266739
0
LINE
8
DEFAULT_255_1_234
10
19.4128241
20
134.3379184
11
19.4128241
21
134.1001789
0
ARC
8
DEFAULT_255_1_234
10
18.7776427
20
134.1185805
40
1.2247208
50
353.8441951
51
0.2287902
0
ARC
8
DEFAULT_255_1_234
10
19.241593
20
134.0667806
40
0.7578929
50
344.4934747
51
353.9765454
0
ARC
8
DEFAULT_255_1_234
10
19.5408521
20
133.9816981
40
0.4467846
50
329.2803592
51
344.7472793
0
ARC
8
DEFAULT_255_1_234
10
19.6401345
20
133.9272018
40
0.3336173
50
324.9352394
51
328.6160465
0
ARC
8
DEFAULT_255_1_234
10
19.6778454
20
133.9008427
40
0.2876076
50
280.580143
51
324.9173126
0
ARC
8
DEFAULT_255_1_234
10
19.6377247
20
134.0679099
40
0.4592847
50
269.5977311
51
281.6734359
0
ARC
8
DEFAULT_255_1_234
10
19.6305152
20
134.0559173
40
0.4472986
50
256.6228859
51
270.51044
0
ARC
8
DEFAULT_255_1_234
10
19.590313
20
133.9010877
40
0.2873874
50
215.8618325
51
257.2788573
0
ARC
8
DEFAULT_255_1_234
10
19.6924162
20
133.9695977
40
0.4102928
50
197.9693508
51
215.2623606
0
ARC
8
DEFAULT_255_1_234
10
19.9409277
20
134.0534709
40
0.6725652
50
187.8816417
51
198.2346507
0
ARC
8
DEFAULT_255_1_234
10
20.3367486
20
134.1106079
40
1.0724845
50
180.8976217
51
188.0055519
0
ARC
8
DEFAULT_255_1_234
10
20.6167674
20
134.1209777
40
1.3526448
50
180.7449369
51
181.1510016
0
ARC
8
DEFAULT_255_1_234
10
20.4590403
20
134.3066042
40
1.1948131
50
173.7675579
51
180.231553
0
ARC
8
DEFAULT_255_1_234
10
20.0072549
20
134.3576666
40
0.7401564
50
164.3058563
51
173.9002247
0
ARC
8
DEFAULT_255_1_234
10
19.7160618
20
134.4415656
40
0.4371288
50
148.7922025
51
164.568378
0
ARC
8
DEFAULT_255_1_234
10
19.620907
20
134.4946929
40
0.3282386
50
144.5883898
51
148.1176286
0
ARC
8
DEFAULT_255_1_234
10
19.5865968
20
134.5186315
40
0.2864044
50
101.6440918
51
144.514236
0
ARC
8
DEFAULT_255_1_234
10
19.6291035
20
134.3497069
40
0.4604934
50
89.5284041
51
102.5819763
0
ARC
8
DEFAULT_255_1_234
10
19.6370123
20
134.3458018
40
0.464401
50
77.0437873
51
90.5081339
0
ARC
8
DEFAULT_255_1_234
10
19.6772125
20
134.5100615
40
0.2953195
50
48.2778575
51
77.4994676
0
ARC
8
DEFAULT_255_1_234
10
19.6844756
20
134.5229746
40
0.2808655
50
36.3142134
51
47.6305865
0
ARC
8
DEFAULT_255_1_234
10
19.5976063
20
134.4644515
40
0.3855453
50
18.2931786
51
35.6769206
0
ARC
8
DEFAULT_255_1_234
10
19.3432822
20
134.3771593
40
0.654423
50
8.024666
51
18.5605216
0
ARC
8
DEFAULT_255_1_234
10
18.9269742
20
134.3156792
40
1.0752407
50
1.1274072
51
8.1718305
0
ARC
8
DEFAULT_255_1_234
10
18.6033932
20
134.3029885
40
1.3990231
50
0.5424119
51
1.3863029
0
ARC
8
DEFAULT_255_1_234
10
18.785531
20
134.3302342
40
1.0682415
50
359.8090433
51
4.9407866
0
ARC
8
DEFAULT_255_1_234
10
19.2065324
20
134.3678113
40
0.6455691
50
4.8362157
51
12.2904523
0
ARC
8
DEFAULT_255_1_234
10
19.4820439
20
134.4291965
40
0.3633074
50
12.0805627
51
23.8173984
0
ARC
8
DEFAULT_255_1_234
10
19.5994144
20
134.4788919
40
0.2358723
50
24.2871213
51
31.3935614
0
ARC
8
DEFAULT_255_1_234
10
19.6518841
20
134.5132233
40
0.1732111
50
30.7407893
51
82.4657128
0
ARC
8
DEFAULT_255_1_234
10
19.6338976
20
134.4248691
40
0.263235
50
81.1060089
51
90.2184952
0
ARC
8
DEFAULT_255_1_234
10
19.6303275
20
134.4506924
40
0.2374236
50
89.3806855
51
105.6762551
0
ARC
8
DEFAULT_255_1_234
10
19.6119905
20
134.5173567
40
0.1682847
50
105.7981136
51
149.7388061
0
ARC
8
DEFAULT_255_1_234
10
19.7183984
20
134.453395
40
0.2924306
50
149.4208916
51
163.6286378
0
ARC
8
DEFAULT_255_1_234
10
19.9274872
20
134.389625
40
0.5110213
50
163.3763315
51
172.1410975
0
ARC
8
DEFAULT_255_1_234
10
20.2575591
20
134.3423518
40
0.8444586
50
172.0259487
51
178.0703232
0
ARC
8
DEFAULT_255_1_234
10
20.560568
20
134.3279906
40
1.1477868
50
177.8631668
51
179.5044149
0
ARC
8
DEFAULT_255_1_234
10
20.4533085
20
134.0965389
40
1.0404907
50
179.7995573
51
185.2460446
0
ARC
8
DEFAULT_255_1_234
10
20.0490124
20
134.0582513
40
0.6343885
50
185.1411642
51
193.0079639
0
ARC
8
DEFAULT_255_1_234
10
19.7846596
20
133.9957641
40
0.3627568
50
192.7897626
51
205.2507664
0
ARC
8
DEFAULT_255_1_234
10
19.6800143
20
133.9490415
40
0.2481908
50
205.8005384
51
211.2537509
0
ARC
8
DEFAULT_255_1_234
10
19.6276584
20
133.913958
40
0.1852521
50
210.3789793
51
238.4008143
0
ARC
8
DEFAULT_255_1_234
10
19.6257106
20
133.9186376
40
0.1882621
50
239.6520629
51
265.9793761
0
ARC
8
DEFAULT_255_1_234
10
19.6342306
20
133.9858427
40
0.2559272
50
265.1315437
51
270.060332
0
ARC
8
DEFAULT_255_1_234
10
19.6371085
20
133.9534534
40
0.2235528
50
269.3314664
51
287.2178029
0
ARC
8
DEFAULT_255_1_234
10
19.6508937
20
133.9031279
40
0.1714108
50
287.7958004
51
329.080874
0
ARC
8
DEFAULT_255_1_234
10
19.5551394
20
133.962893
40
0.2842745
50
328.6634704
51
343.3325132
0
ARC
8
DEFAULT_255_1_234
10
19.3378414
20
134.0305863
40
0.5118644
50
343.0499468
51
351.9393422
0
ARC
8
DEFAULT_255_1_234
10
18.9911714
20
134.0816949
40
0.8622784
50
351.8069023
51
357.7959224
0
ARC
8
DEFAULT_255_1_234
10
18.667627
20
134.0984721
40
1.1862365
50
357.5871873
51
359.2677531
0
ARC
8
DEFAULT_255_2_778
10
7.7537338
20
139.6512992
40
3.0484709
50
251.6854144
51
258.6071955
0
ARC
8
DEFAULT_255_2_778
10
7.539521
20
138.5696738
40
1.9458471
50
258.4992492
51
268.3986479
0
ARC
8
DEFAULT_255_2_778
10
7.5172314
20
138.1394206
40
1.5151737
50
268.7865272
51
269.9950384
0
ARC
8
DEFAULT_255_2_778
10
7.5277432
20
137.6882355
40
1.0640417
50
269.426895
51
279.6711067
0
ARC
8
DEFAULT_255_2_778
10
7.6417753
20
137.0586746
40
0.4243233
50
278.7731084
51
300.3324923
0
ARC
8
DEFAULT_255_2_778
10
7.760746
20
136.8560552
40
0.1893587
50
300.2240287
51
1.9041213
0
ARC
8
DEFAULT_255_2_778
10
7.7452705
20
136.8652089
40
0.2047497
50
359.1991369
51
359.99965
0
ARC
8
DEFAULT_255_2_778
10
7.7523233
20
136.8660378
40
0.1976988
50
359.7594145
51
47.1793976
0
ARC
8
DEFAULT_255_2_778
10
7.6187277
20
136.717431
40
0.3975169
50
47.6144502
51
60.8366176
0
ARC
8
DEFAULT_255_2_778
10
7.0190958
20
135.7014865
40
1.5771337
50
59.799464
51
64.8885807
0
ARC
8
DEFAULT_255_2_778
10
6.0948833
20
133.7724682
40
3.7160912
50
64.6076081
51
66.8386974
0
ARC
8
DEFAULT_255_2_778
10
9.6419609
20
142.1355052
40
5.368109
50
244.3032309
51
247.1393781
0
ARC
8
DEFAULT_255_2_778
10
8.5507088
20
139.875518
40
2.8584574
50
240.2323579
51
244.3709759
0
ARC
8
DEFAULT_255_2_778
10
7.7800475
20
138.5386591
40
1.315392
50
233.2209971
51
240.4606284
0
ARC
8
DEFAULT_255_2_778
10
7.3561477
20
137.9675187
40
0.6041399
50
225.6990744
51
232.9899679
0
ARC
8
DEFAULT_255_2_778
10
7.3965073
20
137.9919214
40
0.6499005
50
178.2783416
51
224.6550883
0
ARC
8
DEFAULT_255_2_778
10
7.5059624
20
138.0252974
40
0.7591885
50
157.033673
51
181.0453383
0
ARC
8
DEFAULT_255_2_778
10
7.378439
20
138.0661396
40
0.6259551
50
124.9113017
51
155.9211516
0
ARC
8
DEFAULT_255_2_778
10
7.5960466
20
137.7575681
40
1.0035357
50
100.4079723
51
125.0168617
0
ARC
8
DEFAULT_255_2_778
10
7.6991199
20
137.2635046
40
1.5081396
50
89.6483922
51
100.8684975
0
ARC
8
DEFAULT_255_2_778
10
7.7083242
20
136.9112988
40
1.8603169
50
89.5079487
51
89.9984402
0
ARC
8
DEFAULT_255_2_778
10
7.7099573
20
136.8460694
40
1.9255311
50
83.9170631
51
89.5732113
0
ARC
8
DEFAULT_255_2_778
10
7.5071517
20
134.8384957
40
3.9433074
50
80.7325723
51
84.0779772
0
ARC
8
DEFAULT_255_2_778
10
7.0208457
20
131.815582
40
7.0050837
50
78.5086351
51
80.7886813
0
ARC
8
DEFAULT_255_2_778
10
7.6620177
20
136.4150544
40
1.9415426
50
67.135818
51
78.0934208
0
ARC
8
DEFAULT_255_2_778
10
7.7851814
20
136.9854809
40
1.3579807
50
78.2126325
51
89.7333975
0
ARC
8
DEFAULT_255_2_778
10
7.7793853
20
137.4006211
40
0.9429038
50
89.2638155
51
100.5666868
0
ARC
8
DEFAULT_255_2_778
10
7.6660949
20
137.9704419
40
0.362036
50
99.4784875
51
124.329414
0
ARC
8
DEFAULT_255_2_778
10
7.5705593
20
138.118551
40
0.1859067
50
125.7571195
51
182.2824883
0
ARC
8
DEFAULT_255_2_778
10
7.5493239
20
138.1118629
40
0.1645253
50
180.2492993
51
239.8144161
0
ARC
8
DEFAULT_255_2_778
10
7.932718
20
138.7119128
40
0.876484
50
237.8725734
51
242.8068846
0
ARC
8
DEFAULT_255_2_778
10
9.4175857
20
141.5284958
40
4.0604642
50
242.3328458
51
244.031083
0
ARC
8
DEFAULT_255_2_778
10
12.3804066
20
147.5769314
40
10.7955807
50
243.950624
51
244.8024316
0
ARC
8
DEFAULT_255_2_778
10
15.4009918
20
153.9609175
40
17.8580926
50
244.7535425
51
244.9563234
0
ARC
8
DEFAULT_255_2_778
10
5.8652927
20
133.4593264
40
4.7527588
50
62.2505456
51
65.4301556
0
ARC
8
DEFAULT_255_2_778
10
6.9275435
20
135.4674172
40
2.4810291
50
57.2951304
51
62.3684211
0
ARC
8
DEFAULT_255_2_778
10
7.6807233
20
136.6307235
40
1.0952081
50
48.7345704
51
57.5685367
0
ARC
8
DEFAULT_255_2_778
10
8.0117486
20
137.0182722
40
0.5856147
50
44.3236031
51
48.0704418
0
ARC
8
DEFAULT_255_2_778
10
7.9783002
20
136.9982468
40
0.6236013
50
1.3523843
51
43.4925744
0
ARC
8
DEFAULT_255_2_778
10
7.7103531
20
136.9653151
40
0.8926473
50
359.9763756
51
3.0599076
0
ARC
8
DEFAULT_255_2_778
10
7.8645343
20
136.9502407
40
0.7386124
50
333.0361889
51
1.1408766
0
ARC
8
DEFAULT_255_2_778
10
7.8947908
20
136.9571919
40
0.7150741
50
300.8430083
51
331.4403095
0
ARC
8
DEFAULT_255_2_778
10
7.694568
20
137.2707162
40
1.0869673
50
281.4258583
51
301.4316118
0
ARC
8
DEFAULT_255_2_778
10
7.5632666
20
137.8789414
40
1.7091691
50
270.2273513
51
281.7010805
0
ARC
8
DEFAULT_255_2_778
10
7.5453797
20
138.3556043
40
2.1859577
50
269.9983113
51
270.6466065
0
LINE
8
DEFAULT_255_2_778
10
7.5453153
20
136.1696465
11
7.5438002
21
136.169647
0
ARC
8
DEFAULT_255_2_778
10
7.5509161
20
139.3525969
40
3.1829579
50
256.2431122
51
269.871909
0
ARC
8
DEFAULT_255_2_778
10
21.7538511
20
139.5771629
40
2.9720345
50
251.5709223
51
258.7508181
0
ARC
8
DEFAULT_255_2_778
10
21.5538128
20
138.5539385
40
1.9294488
50
258.6495077
51
268.8281511
0
ARC
8
DEFAULT_255_2_778
10
21.5355488
20
138.1591193
40
1.5343723
50
269.2085037
51
269.9981866
0
ARC
8
DEFAULT_255_2_778
10
21.5473849
20
137.6907184
40
1.0660376
50
269.3612297
51
279.5899087
0
ARC
8
DEFAULT_255_2_778
10
21.6608439
20
137.0592324
40
0.424527
50
278.6895227
51
300.2363944
0
ARC
8
DEFAULT_255_2_778
10
21.7799083
20
136.8557793
40
0.188796
50
300.1108484
51
1.9024905
0
ARC
8
DEFAULT_255_2_778
10
21.7439577
20
136.8664221
40
0.2246851
50
358.8842611
51
0.0019649
0
ARC
8
DEFAULT_255_2_778
10
21.7769791
20
136.8703385
40
0.1917038
50
358.831716
51
47.0900458
0
ARC
8
DEFAULT_255_2_778
10
21.6364654
20
136.710984
40
0.4041259
50
47.8812665
51
61.174665
0
ARC
8
DEFAULT_255_2_778
10
21.0418848
20
135.6910117
40
1.5846568
50
60.1210877
51
65.1917015
0
ARC
8
DEFAULT_255_2_778
10
20.1415278
20
133.7854122
40
3.6922188
50
64.9168629
51
67.1565628
0
ARC
8
DEFAULT_255_2_778
10
23.6275467
20
142.0569888
40
5.2839333
50
244.2656926
51
247.1407051
0
ARC
8
DEFAULT_255_2_778
10
22.5594997
20
139.848765
40
2.8309849
50
240.1545061
51
244.3326325
0
ARC
8
DEFAULT_255_2_778
10
21.7856548
20
138.5127346
40
1.2870531
50
232.697515
51
240.4357497
0
ARC
8
DEFAULT_255_2_778
10
21.3705506
20
137.9617218
40
0.5972006
50
225.5850892
51
232.3393736
0
ARC
8
DEFAULT_255_2_778
10
21.4133941
20
137.9912933
40
0.6483829
50
178.7795739
51
224.7095916
0
ARC
8
DEFAULT_255_2_778
10
21.6669319
20
138.0153135
40
0.9018316
50
179.997867
51
180.6487041
0
ARC
8
DEFAULT_255_2_778
10
21.5167738
20
138.0291249
40
0.7517998
50
156.9195758
51
181.050088
0
ARC
8
DEFAULT_255_2_778
10
21.3928482
20
138.0685712
40
0.6224513
50
124.7111133
51
155.7879672
0
ARC
8
DEFAULT_255_2_778
10
21.6055459
20
137.7766942
40
0.9835402
50
101.7934503
51
125.2143527
0
ARC
8
DEFAULT_255_2_778
10
21.729848
20
137.2241326
40
1.5498677
50
89.5248728
51
102.1166783
0
ARC
8
DEFAULT_255_2_778
10
21.7283109
20
136.6705834
40
2.1034129
50
83.2889725
51
89.6080411
0
ARC
8
DEFAULT_255_2_778
10
21.529975
20
134.9027668
40
3.8823067
50
79.4764054
51
83.4308492
0
ARC
8
DEFAULT_255_2_778
10
21.2186357
20
133.1495673
40
5.6628977
50
78.2224868
51
79.6190915
0
ARC
8
DEFAULT_255_2_778
10
21.6838473
20
136.4270715
40
1.9311543
50
67.1323814
51
78.3148813
0
ARC
8
DEFAULT_255_2_778
10
21.801359
20
136.9785614
40
1.3672981
50
78.4565774
51
89.7552271
0
ARC
8
DEFAULT_255_2_778
10
21.7951366
20
137.409447
40
0.9364778
50
89.2619009
51
100.5950934
0
ARC
8
DEFAULT_255_2_778
10
21.6824182
20
137.9749169
40
0.3599879
50
99.5087086
51
124.406715
0
ARC
8
DEFAULT_255_2_778
10
21.5878565
20
138.121343
40
0.1858061
50
125.8630185
51
182.2986975
0
ARC
8
DEFAULT_255_2_778
10
21.5497296
20
138.1138047
40
0.1475296
50
179.9666559
51
180.100057
0
ARC
8
DEFAULT_255_2_778
10
21.566185
20
138.113793
40
0.163985
50
180.0859454
51
239.8819968
0
ARC
8
DEFAULT_255_2_778
10
21.9379018
20
138.7005619
40
0.8584853
50
238.072871
51
243.0442008
0
ARC
8
DEFAULT_255_2_778
10
23.4872034
20
141.6655845
40
4.2038426
50
242.5409111
51
244.1884903
0
ARC
8
DEFAULT_255_2_778
10
26.6463384
20
148.160196
40
11.4260319
50
244.1076525
51
244.9219574
0
ARC
8
DEFAULT_255_2_778
10
29.9038827
20
155.083855
40
19.0777309
50
244.8743531
51
245.066969
0
ARC
8
DEFAULT_255_2_778
10
19.8865272
20
133.4916274
40
4.7250654
50
62.0340028
51
65.293009
0
ARC
8
DEFAULT_255_2_778
10
20.9507744
20
135.4865758
40
2.464003
50
57.1127289
51
62.13736
0
ARC
8
DEFAULT_255_2_778
10
21.7037139
20
136.6402906
40
1.0863604
50
48.3695509
51
57.4197129
0
ARC
8
DEFAULT_255_2_778
10
22.0286268
20
137.0170419
40
0.5889589
50
44.472493
51
47.6467012
0
ARC
8
DEFAULT_255_2_778
10
21.9979457
20
136.9999032
40
0.6229283
50
1.2061613
51
43.6203607
0
ARC
8
DEFAULT_255_2_778
10
21.7312413
20
136.9674903
40
0.890659
50
359.9779196
51
2.9299178
0
ARC
8
DEFAULT_255_2_778
10
21.8802547
20
136.9523837
40
0.7417924
50
333.172934
51
1.140392
0
ARC
8
DEFAULT_255_2_778
10
21.9146167
20
136.9570736
40
0.7135172
50
300.9808035
51
331.5913995
0
ARC
8
DEFAULT_255_2_778
10
21.7182603
20
137.2669862
40
1.0803281
50
281.9040909
51
301.4483918
0
ARC
8
DEFAULT_255_2_778
10
21.5848425
20
137.8655518
40
1.6935565
50
270.5796874
51
282.1436175
0
ARC
8
DEFAULT_255_2_778
10
21.5636722
20
138.3604735
40
2.1887267
50
269.9959074
51
271.0027751
0
LINE
8
DEFAULT_255_2_778
10
21.5635158
20
136.1717468
11
21.5625002
21
136.171747
0
ARC
8
DEFAULT_255_2_778
10
21.5700221
20
139.3605174
40
3.1887792
50
256.2556596
51
269.8648469
0
LINE
8
DEFAULT_255_2_778
10
6.7958002
20
136.262547
11
6.7958002
21
136.757247
0
LINE
8
DEFAULT_255_2_778
10
8.4164002
20
138.680247
11
8.4164002
21
138.204047
0
LINE
8
DEFAULT_255_2_778
10
6.7940002
20
136.260947
11
6.7958002
21
136.262547
0
LINE
8
DEFAULT_255_2_778
10
8.9866002
20
138.729747
11
9.6629002
21
138.729747
0
LINE
8
DEFAULT_255_2_778
10
9.6629002
20
138.729747
11
9.6629002
21
136.222347
0
LINE
8
DEFAULT_255_2_778
10
9.6629002
20
136.222347
11
8.9866002
21
136.222347
0
LINE
8
DEFAULT_255_2_778
10
8.9866002
20
136.222347
11
8.9866002
21
138.729747
0
LINE
8
DEFAULT_255_2_778
10
10.2809002
20
136.222347
11
10.2809002
21
138.729747
0
LINE
8
DEFAULT_255_2_778
10
10.2809002
20
138.729747
11
12.0132002
21
138.729747
0
LINE
8
DEFAULT_255_2_778
10
12.0132002
20
138.729747
11
12.0132002
21
138.276047
0
LINE
8
DEFAULT_255_2_778
10
12.0132002
20
138.276047
11
10.9321002
21
138.276047
0
LINE
8
DEFAULT_255_2_778
10
10.9321002
20
138.276047
11
10.9321002
21
137.709747
0
LINE
8
DEFAULT_255_2_778
10
10.9321002
20
137.709747
11
11.8735002
21
137.709747
0
LINE
8
DEFAULT_255_2_778
10
11.8735002
20
137.709747
11
11.8735002
21
137.296247
0
LINE
8
DEFAULT_255_2_778
10
11.8735002
20
137.296247
11
10.9321002
21
137.296247
0
LINE
8
DEFAULT_255_2_778
10
10.9321002
20
137.296247
11
10.9321002
21
136.700947
0
LINE
8
DEFAULT_255_2_778
10
10.9321002
20
136.700947
11
12.0412002
21
136.700947
0
LINE
8
DEFAULT_255_2_778
10
12.0412002
20
136.700947
11
12.0412002
21
136.220747
0
LINE
8
DEFAULT_255_2_778
10
12.0412002
20
136.220747
11
10.2809002
21
136.222347
0
LINE
8
DEFAULT_255_2_778
10
12.4817002
20
136.222347
11
12.4817002
21
138.729747
0
LINE
8
DEFAULT_255_2_778
10
12.4817002
20
138.729747
11
13.3575002
21
138.729747
0
LINE
8
DEFAULT_255_2_778
10
13.3575002
20
138.729747
11
13.9671002
21
137.127447
0
LINE
8
DEFAULT_255_2_778
10
13.9671002
20
137.127447
11
14.5897002
21
138.729747
0
LINE
8
DEFAULT_255_2_778
10
14.5897002
20
138.729747
11
15.4215002
21
138.729747
0
LINE
8
DEFAULT_255_2_778
10
15.4215002
20
138.729747
11
15.4215002
21
136.222347
0
LINE
8
DEFAULT_255_2_778
10
15.4215002
20
136.222347
11
14.7812002
21
136.222347
0
LINE
8
DEFAULT_255_2_778
10
14.7812002
20
136.222347
11
14.7812002
21
137.998147
0
LINE
8
DEFAULT_255_2_778
10
14.7812002
20
137.998147
11
14.0724002
21
136.197947
0
LINE
8
DEFAULT_255_2_778
10
14.0724002
20
136.197947
11
13.6515002
21
136.197947
0
LINE
8
DEFAULT_255_2_778
10
13.6515002
20
136.197947
11
12.9559002
21
137.998147
0
LINE
8
DEFAULT_255_2_778
10
12.9559002
20
137.998147
11
12.9559002
21
136.222047
0
LINE
8
DEFAULT_255_2_778
10
12.9559002
20
136.222047
11
12.4817002
21
136.222347
0
LINE
8
DEFAULT_255_2_778
10
16.0409002
20
136.222347
11
16.0409002
21
138.729747
0
LINE
8
DEFAULT_255_2_778
10
16.0409002
20
138.729747
11
17.7731002
21
138.729747
0
LINE
8
DEFAULT_255_2_778
10
17.7731002
20
138.729747
11
17.7731002
21
138.276047
0
LINE
8
DEFAULT_255_2_778
10
17.7731002
20
138.276047
11
16.6921002
21
138.276047
0
LINE
8
DEFAULT_255_2_778
10
16.6921002
20
138.276047
11
16.6921002
21
137.709747
0
LINE
8
DEFAULT_255_2_778
10
16.6921002
20
137.709747
11
17.6334002
21
137.709747
0
LINE
8
DEFAULT_255_2_778
10
17.6334002
20
137.709747
11
17.6334002
21
137.296247
0
LINE
8
DEFAULT_255_2_778
10
17.6334002
20
137.296247
11
16.6921002
21
137.296247
0
LINE
8
DEFAULT_255_2_778
10
16.6921002
20
137.296247
11
16.6921002
21
136.700947
0
LINE
8
DEFAULT_255_2_778
10
16.6921002
20
136.700947
11
17.8030002
21
136.700947
0
LINE
8
DEFAULT_255_2_778
10
17.8030002
20
136.700947
11
17.8030002
21
136.220747
0
LINE
8
DEFAULT_255_2_778
10
17.8030002
20
136.220747
11
16.0409002
21
136.222347
0
LINE
8
DEFAULT_255_2_778
10
18.2454002
20
136.222347
11
18.2454002
21
138.729747
0
LINE
8
DEFAULT_255_2_778
10
18.2454002
20
138.729747
11
19.0283002
21
138.729747
0
LINE
8
DEFAULT_255_2_778
10
19.0283002
20
138.729747
11
19.8586002
21
137.050947
0
LINE
8
DEFAULT_255_2_778
10
19.8586002
20
137.050947
11
19.8586002
21
138.729747
0
LINE
8
DEFAULT_255_2_778
10
19.8586002
20
138.729747
11
20.3343002
21
138.729747
0
LINE
8
DEFAULT_255_2_778
10
20.3343002
20
138.729747
11
20.3343002
21
136.222347
0
LINE
8
DEFAULT_255_2_778
10
20.3343002
20
136.222347
11
19.5739002
21
136.222347
0
LINE
8
DEFAULT_255_2_778
10
19.5739002
20
136.222347
11
18.7214002
21
137.923547
0
LINE
8
DEFAULT_255_2_778
10
18.7214002
20
137.923547
11
18.7214002
21
136.222347
0
LINE
8
DEFAULT_255_2_778
10
18.7214002
20
136.222347
11
18.2454002
21
136.222347
0
LINE
8
DEFAULT_255_2_778
10
20.8143002
20
136.262747
11
20.8143002
21
136.757547
0
LINE
8
DEFAULT_255_2_778
10
22.3745002
20
138.693247
11
22.4343002
21
138.682647
0
LINE
8
DEFAULT_255_2_778
10
22.4343002
20
138.682647
11
22.4343002
21
138.206447
0
LINE
8
DEFAULT_255_2_778
10
20.8124002
20
136.263047
11
20.8143002
21
136.262747
0
LINE
8
DEFAULT_255_2_778
10
9.3927417
20
124.2219075
11
10.7156417
21
124.2219075
0
LINE
8
DEFAULT_255_2_778
10
10.7156417
20
124.2219075
11
10.7156417
21
67.3365075
0
LINE
8
DEFAULT_255_2_778
10
9.3926834
20
67.3364333
11
12.0384834
21
67.3364333
0
LINE
8
DEFAULT_255_2_778
10
12.0384834
20
67.3364333
11
12.0384834
21
62.0447333
0
LINE
8
DEFAULT_255_2_778
10
12.0384834
20
62.0447333
11
9.3926834
21
62.0447333
0
LINE
8
DEFAULT_255_2_778
10
9.3926834
20
62.0447333
11
9.3926834
21
67.3364333
0
ARC
8
DEFAULT_255_2_778_1
10
13.1922591
20
62.147177
40
4.816461
50
120.9442904
51
122.351755
0
ARC
8
DEFAULT_255_2_778_1
10
12.7456523
20
62.8508039
40
3.9830657
50
122.3407904
51
124.1946752
0
ARC
8
DEFAULT_255_2_778_1
10
12.3057464
20
63.4973306
40
3.2010724
50
124.1855758
51
126.4338849
0
ARC
8
DEFAULT_255_2_778_1
10
11.9198129
20
64.0200611
40
2.5513094
50
126.4326926
51
128.8877368
0
ARC
8
DEFAULT_255_2_778_1
10
11.5849968
20
64.4344658
40
2.0185498
50
128.8749205
51
131.8726567
0
ARC
8
DEFAULT_255_2_778_1
10
11.2878677
20
64.7654854
40
1.5737356
50
131.8616166
51
135.4168838
0
ARC
8
DEFAULT_255_2_778_1
10
11.025068
20
65.0236765
40
1.2053256
50
135.3893975
51
139.9687014
0
ARC
8
DEFAULT_255_2_778_1
10
10.7921889
20
65.2185102
40
0.9016937
50
139.9301659
51
145.9260426
0
ARC
8
DEFAULT_255_2_778_1
10
10.596054
20
65.3505104
40
0.6652776
50
145.8787362
51
153.8146208
0
ARC
8
DEFAULT_255_2_778_1
10
10.4439553
20
65.4248797
40
0.4959714
50
153.770634
51
164.3484794
0
ARC
8
DEFAULT_255_2_778_1
10
10.3426387
20
65.4530786
40
0.3908039
50
164.3220276
51
179.8083066
0
ARC
8
DEFAULT_255_2_778_1
10
10.3636789
20
65.461215
40
0.4118985
50
180.9499449
51
213.8111542
0
ARC
8
DEFAULT_255_2_778_1
10
10.6395828
20
65.6307896
40
0.73561
50
212.8271214
51
224.258472
0
ARC
8
DEFAULT_255_2_778_1
10
11.0224335
20
66.0001236
40
1.267567
50
224.1376218
51
231.4508261
0
ARC
8
DEFAULT_255_2_778_1
10
11.6651195
20
66.8031168
40
2.2960809
50
231.3955893
51
236.1256478
0
ARC
8
DEFAULT_255_2_778_1
10
13.4974223
20
69.5496293
40
5.5976905
50
236.2233172
51
239.1314682
0
ARC
8
DEFAULT_255_2_778_1
10
25.447327
20
89.2773568
40
28.6623793
50
238.8606853
51
239.0711101
0
ARC
8
DEFAULT_255_2_778_1
10
6.2751281
20
57.1802653
40
8.7248518
50
57.2420924
51
59.4062964
0
ARC
8
DEFAULT_255_2_778_1
10
9.5028241
20
62.2112102
40
2.747542
50
52.8289294
51
57.079028
0
ARC
8
DEFAULT_255_2_778_1
10
10.2774783
20
63.2315488
40
1.466457
50
46.3041868
51
52.8596521
0
ARC
8
DEFAULT_255_2_778_1
10
10.7097073
20
63.6816842
40
0.8424061
50
36.2174211
51
46.4090895
0
ARC
8
DEFAULT_255_2_778_1
10
10.9942088
20
63.8865128
40
0.4918609
50
17.400375
51
36.5489745
0
ARC
8
DEFAULT_255_2_778_1
10
11.1082994
20
63.9263754
40
0.3710912
50
0.0676858
51
16.7951297
0
ARC
8
DEFAULT_255_2_778_1
10
11.0872613
20
63.9282428
40
0.3921317
50
343.8035191
51
359.7912046
0
ARC
8
DEFAULT_255_2_778_1
10
10.9809912
20
63.9587167
40
0.5026844
50
333.2506233
51
343.8465691
0
ARC
8
DEFAULT_255_2_778_1
10
10.8271757
20
64.0354313
40
0.6745679
50
325.6600948
51
333.3122657
0
ARC
8
DEFAULT_255_2_778_1
10
10.6317344
20
64.1682296
40
0.9108568
50
319.7560915
51
325.6976089
0
ARC
8
DEFAULT_255_2_778_1
10
10.403599
20
64.3600002
40
1.2088854
50
315.4577584
51
319.8037947
0
ARC
8
DEFAULT_255_2_778_1
10
10.1402127
20
64.6188507
40
1.5781764
50
311.7298824
51
315.4670864
0
ARC
8
DEFAULT_255_2_778_1
10
9.8311879
20
64.9644074
40
2.0417554
50
308.723055
51
311.7470879
0
ARC
8
DEFAULT_255_2_778_1
10
9.476989
20
65.4056492
40
2.6075745
50
306.1165163
51
308.7300151
0
ARC
8
DEFAULT_255_2_778_1
10
9.0740091
20
65.9569523
40
3.2904564
50
303.9559446
51
306.1266333
0
ARC
8
DEFAULT_255_2_778_1
10
8.6624432
20
66.566215
40
4.0257023
50
302.3733397
51
303.9712246
0
ARC
8
DEFAULT_255_2_778_1
10
8.2428347
20
67.2277058
40
4.8090549
50
300.9434827
51
302.3758078
0
LINE
8
DEFAULT_255_2_778
10
10.7156417
20
62.0448075
11
10.7156417
21
5.1594075
0
LINE
8
DEFAULT_255_2_778
10
10.7156417
20
5.1594075
11
9.3927417
21
5.1594075
0
LINE
8
DEFAULT_255_1_234
10
4.2454489
20
132.8098211
11
4.2454489
21
131.7664983
0
LINE
8
DEFAULT_255_1_234
10
4.2454489
20
131.7664983
11
4.7996389
21
131.7664983
0
LINE
8
DEFAULT_255_1_234
10
4.7996389
20
131.7664983
11
4.7996389
21
131.6404
0
LINE
8
DEFAULT_255_1_234
10
4.7996389
20
131.6404
11
4.0904364
21
131.6404
0
LINE
8
DEFAULT_255_1_234
10
4.0904364
20
131.6404
11
4.0904364
21
132.8098211
0
LINE
8
DEFAULT_255_1_234
10
4.0904364
20
132.8098211
11
4.2454489
21
132.8098211
0
LINE
8
DEFAULT_255_1_234
10
5.377924
20
132.6090276
11
5.377924
21
132.2676788
0
LINE
8
DEFAULT_255_1_234
10
5.377924
20
132.2676788
11
5.7040126
21
132.2676788
0
LINE
8
DEFAULT_255_1_234
10
5.7040126
20
132.2676788
11
5.7040126
21
132.1271233
0
LINE
8
DEFAULT_255_1_234
10
5.7040126
20
132.1271233
11
5.377924
21
132.1271233
0
LINE
8
DEFAULT_255_1_234
10
5.377924
20
132.1271233
11
5.377924
21
131.7576634
0
LINE
8
DEFAULT_255_1_234
10
5.377924
20
131.7576634
11
5.2285337
21
131.7576634
0
LINE
8
DEFAULT_255_1_234
10
5.2285337
20
131.7576634
11
5.2285337
21
132.1271233
0
LINE
8
DEFAULT_255_1_234
10
5.2285337
20
132.1271233
11
4.9024451
21
132.1271233
0
LINE
8
DEFAULT_255_1_234
10
4.9024451
20
132.1271233
11
4.9024451
21
132.2676788
0
LINE
8
DEFAULT_255_1_234
10
4.9024451
20
132.2676788
11
5.2285337
21
132.2676788
0
LINE
8
DEFAULT_255_1_234
10
5.2285337
20
132.2676788
11
5.2285337
21
132.6090276
0
LINE
8
DEFAULT_255_1_234
10
5.2285337
20
132.6090276
11
5.377924
21
132.6090276
0
LINE
8
DEFAULT_255_1_234
10
4.2100364
20
5.8098211
11
4.4092235
21
5.8098211
0
LINE
8
DEFAULT_255_1_234
10
4.4092235
20
5.8098211
11
4.7915342
21
4.8556506
0
LINE
8
DEFAULT_255_1_234
10
4.7915342
20
4.8556506
11
5.173845
21
5.8098211
0
LINE
8
DEFAULT_255_1_234
10
5.173845
20
5.8098211
11
5.3738353
21
5.8098211
0
LINE
8
DEFAULT_255_1_234
10
5.3738353
20
5.8098211
11
5.3738353
21
4.6404
0
LINE
8
DEFAULT_255_1_234
10
5.3738353
20
4.6404
11
5.2196259
21
4.6404
0
LINE
8
DEFAULT_255_1_234
10
5.2196259
20
4.6404
11
5.2196259
21
5.0957996
0
LINE
8
DEFAULT_255_1_234
10
5.2196259
20
5.0957996
11
5.234083
21
5.5873419
0
LINE
8
DEFAULT_255_1_234
10
5.234083
20
5.5873419
11
4.8501659
21
4.6404
0
LINE
8
DEFAULT_255_1_234
10
4.8501659
20
4.6404
11
4.7320994
21
4.6404
0
LINE
8
DEFAULT_255_1_234
10
4.7320994
20
4.6404
11
4.3489854
21
5.5849324
0
LINE
8
DEFAULT_255_1_234
10
4.3489854
20
5.5849324
11
4.3642458
21
5.0957996
0
LINE
8
DEFAULT_255_1_234
10
4.3642458
20
5.0957996
11
4.3642458
21
4.6404
0
LINE
8
DEFAULT_255_1_234
10
4.3642458
20
4.6404
11
4.2100364
21
4.6404
0
LINE
8
DEFAULT_255_1_234
10
4.2100364
20
4.6404
11
4.2100364
21
5.8098211
0
LINE
8
DEFAULT_255_1_234
10
6.3625422
20
5.8098211
11
6.3625422
21
5.726291
0
LINE
8
DEFAULT_255_1_234
10
6.3625422
20
5.726291
11
5.8782284
21
4.6404
0
LINE
8
DEFAULT_255_1_234
10
5.8782284
20
4.6404
11
5.7224127
21
4.6404
0
LINE
8
DEFAULT_255_1_234
10
5.7224127
20
4.6404
11
6.2051202
21
5.6877387
0
LINE
8
DEFAULT_255_1_234
10
6.2051202
20
5.6877387
11
5.5722192
21
5.6877387
0
LINE
8
DEFAULT_255_1_234
10
5.5722192
20
5.6877387
11
5.5722192
21
5.8098211
0
LINE
8
DEFAULT_255_1_234
10
5.5722192
20
5.8098211
11
6.3625422
21
5.8098211
0
LINE
8
DEFAULT_255_1_234
10
6.855691
20
5.1978026
11
6.855691
21
5.0765234
0
LINE
8
DEFAULT_255_1_234
10
6.855691
20
5.0765234
11
6.4637421
21
5.0765234
0
LINE
8
DEFAULT_255_1_234
10
6.4637421
20
5.0765234
11
6.4637421
21
5.1978026
0
LINE
8
DEFAULT_255_1_234
10
6.4637421
20
5.1978026
11
6.855691
21
5.1978026
0
LINE
8
DEFAULT_255_1_234
10
4.1847364
20
13.7473211
11
4.3839235
21
13.7473211
0
LINE
8
DEFAULT_255_1_234
10
4.3839235
20
13.7473211
11
4.7662342
21
12.7931506
0
LINE
8
DEFAULT_255_1_234
10
4.7662342
20
12.7931506
11
5.148545
21
13.7473211
0
LINE
8
DEFAULT_255_1_234
10
5.148545
20
13.7473211
11
5.3485353
21
13.7473211
0
LINE
8
DEFAULT_255_1_234
10
5.3485353
20
13.7473211
11
5.3485353
21
12.5779
0
LINE
8
DEFAULT_255_1_234
10
5.3485353
20
12.5779
11
5.1943259
21
12.5779
0
LINE
8
DEFAULT_255_1_234
10
5.1943259
20
12.5779
11
5.1943259
21
13.0332996
0
LINE
8
DEFAULT_255_1_234
10
5.1943259
20
13.0332996
11
5.208783
21
13.5248419
0
LINE
8
DEFAULT_255_1_234
10
5.208783
20
13.5248419
11
4.8248659
21
12.5779
0
LINE
8
DEFAULT_255_1_234
10
4.8248659
20
12.5779
11
4.7067994
21
12.5779
0
LINE
8
DEFAULT_255_1_234
10
4.7067994
20
12.5779
11
4.3236854
21
13.5224324
0
LINE
8
DEFAULT_255_1_234
10
4.3236854
20
13.5224324
11
4.3389458
21
13.0332996
0
LINE
8
DEFAULT_255_1_234
10
4.3389458
20
13.0332996
11
4.3389458
21
12.5779
0
LINE
8
DEFAULT_255_1_234
10
4.3389458
20
12.5779
11
4.1847364
21
12.5779
0
LINE
8
DEFAULT_255_1_234
10
4.1847364
20
12.5779
11
4.1847364
21
13.7473211
0
LINE
8
DEFAULT_255_1_234
10
6.3372422
20
13.7473211
11
6.3372422
21
13.663791
0
LINE
8
DEFAULT_255_1_234
10
6.3372422
20
13.663791
11
5.8529284
21
12.5779
0
LINE
8
DEFAULT_255_1_234
10
5.8529284
20
12.5779
11
5.6971127
21
12.5779
0
LINE
8
DEFAULT_255_1_234
10
5.6971127
20
12.5779
11
6.1798202
21
13.6252387
0
LINE
8
DEFAULT_255_1_234
10
6.1798202
20
13.6252387
11
5.5469192
21
13.6252387
0
LINE
8
DEFAULT_255_1_234
10
5.5469192
20
13.6252387
11
5.5469192
21
13.7473211
0
LINE
8
DEFAULT_255_1_234
10
5.5469192
20
13.7473211
11
6.3372422
21
13.7473211
0
LINE
8
DEFAULT_255_1_234
10
6.9468512
20
13.5465276
11
6.9468512
21
13.2051788
0
LINE
8
DEFAULT_255_1_234
10
6.9468512
20
13.2051788
11
7.2729397
21
13.2051788
0
LINE
8
DEFAULT_255_1_234
10
7.2729397
20
13.2051788
11
7.2729397
21
13.0646233
0
LINE
8
DEFAULT_255_1_234
10
7.2729397
20
13.0646233
11
6.9468512
21
13.0646233
0
LINE
8
DEFAULT_255_1_234
10
6.9468512
20
13.0646233
11
6.9468512
21
12.6951634
0
LINE
8
DEFAULT_255_1_234
10
6.9468512
20
12.6951634
11
6.7974608
21
12.6951634
0
LINE
8
DEFAULT_255_1_234
10
6.7974608
20
12.6951634
11
6.7974608
21
13.0646233
0
LINE
8
DEFAULT_255_1_234
10
6.7974608
20
13.0646233
11
6.4713723
21
13.0646233
0
LINE
8
DEFAULT_255_1_234
10
6.4713723
20
13.0646233
11
6.4713723
21
13.2051788
0
LINE
8
DEFAULT_255_1_234
10
6.4713723
20
13.2051788
11
6.7974608
21
13.2051788
0
LINE
8
DEFAULT_255_1_234
10
6.7974608
20
13.2051788
11
6.7974608
21
13.5465276
0
LINE
8
DEFAULT_255_1_234
10
6.7974608
20
13.5465276
11
6.9468512
21
13.5465276
0
LINE
8
DEFAULT_255_1_234
10
4.2100364
20
21.6848211
11
4.4092235
21
21.6848211
0
LINE
8
DEFAULT_255_1_234
10
4.4092235
20
21.6848211
11
4.7915342
21
20.7306506
0
LINE
8
DEFAULT_255_1_234
10
4.7915342
20
20.7306506
11
5.173845
21
21.6848211
0
LINE
8
DEFAULT_255_1_234
10
5.173845
20
21.6848211
11
5.3738353
21
21.6848211
0
LINE
8
DEFAULT_255_1_234
10
5.3738353
20
21.6848211
11
5.3738353
21
20.5154
0
LINE
8
DEFAULT_255_1_234
10
5.3738353
20
20.5154
11
5.2196259
21
20.5154
0
LINE
8
DEFAULT_255_1_234
10
5.2196259
20
20.5154
11
5.2196259
21
20.9707996
0
LINE
8
DEFAULT_255_1_234
10
5.2196259
20
20.9707996
11
5.234083
21
21.4623419
0
LINE
8
DEFAULT_255_1_234
10
5.234083
20
21.4623419
11
4.8501659
21
20.5154
0
LINE
8
DEFAULT_255_1_234
10
4.8501659
20
20.5154
11
4.7320994
21
20.5154
0
LINE
8
DEFAULT_255_1_234
10
4.7320994
20
20.5154
11
4.3489854
21
21.4599324
0
LINE
8
DEFAULT_255_1_234
10
4.3489854
20
21.4599324
11
4.3642458
21
20.9707996
0
LINE
8
DEFAULT_255_1_234
10
4.3642458
20
20.9707996
11
4.3642458
21
20.5154
0
LINE
8
DEFAULT_255_1_234
10
4.3642458
20
20.5154
11
4.2100364
21
20.5154
0
LINE
8
DEFAULT_255_1_234
10
4.2100364
20
20.5154
11
4.2100364
21
21.6848211
0
LINE
8
DEFAULT_255_1_234
10
6.1641583
20
21.6856243
11
6.190663
21
21.6856243
0
LINE
8
DEFAULT_255_1_234
10
6.190663
20
21.6856243
11
6.190663
21
21.559526
0
LINE
8
DEFAULT_255_1_234
10
6.190663
20
21.559526
11
6.1633551
21
21.559526
0
LINE
8
DEFAULT_255_1_234
10
5.6163938
20
20.9603583
11
5.6163938
21
21.0173836
0
LINE
8
DEFAULT_255_1_234
10
5.7657841
20
20.9981075
11
5.7657841
21
20.9434917
0
ARC
8
DEFAULT_255_1_234
10
6.1685899
20
21.0597455
40
0.4998079
50
90.6001036
51
104.514704
0
ARC
8
DEFAULT_255_1_234
10
6.1297415
20
21.2042131
40
0.3502176
50
104.2855254
51
133.862935
0
ARC
8
DEFAULT_255_1_234
10
6.1461172
20
21.193383
40
0.3693984
50
134.5302688
51
161.6210873
0
ARC
8
DEFAULT_255_1_234
10
6.3114361
20
21.1350895
40
0.5446739
50
161.2849839
51
174.2076652
0
ARC
8
DEFAULT_255_1_234
10
6.4521298
20
21.1156787
40
0.6866274
50
173.7810589
51
174.9254635
0
ARC
8
DEFAULT_255_1_234
10
5.997113
20
20.9773839
40
0.3033419
50
95.8330959
51
138.9954921
0
ARC
8
DEFAULT_255_1_234
10
6.0194486
20
20.8495375
40
0.4328947
50
89.8753725
51
97.0544009
0
ARC
8
DEFAULT_255_1_234
10
6.0241952
20
20.9330748
40
0.3493769
50
71.6407809
51
90.6240094
0
ARC
8
DEFAULT_255_1_234
10
6.0392525
20
20.9885082
40
0.2920396
50
39.6367836
51
71.019018
0
ARC
8
DEFAULT_255_1_234
10
5.9755998
20
20.9334998
40
0.3761538
50
10.658731
51
39.9043955
0
ARC
8
DEFAULT_255_1_234
10
5.8208081
20
20.8998686
40
0.5345136
50
359.682601
51
11.132623
0
ARC
8
DEFAULT_255_1_234
10
5.8168212
20
20.892801
40
0.5385081
50
347.2486944
51
0.4369317
0
ARC
8
DEFAULT_255_1_234
10
5.9835689
20
20.8526807
40
0.3670249
50
318.1409698
51
347.6118597
0
ARC
8
DEFAULT_255_1_234
10
6.0160682
20
20.8259702
40
0.3250007
50
275.6342139
51
317.8248465
0
ARC
8
DEFAULT_255_1_234
10
5.9939793
20
20.9559219
40
0.4565864
50
269.8874292
51
276.7917694
0
ARC
8
DEFAULT_255_1_234
10
5.9884864
20
20.8533743
40
0.3540676
50
246.9140195
51
270.7437342
0
ARC
8
DEFAULT_255_1_234
10
5.9891254
20
20.8391384
40
0.3412781
50
218.1665114
51
245.878116
0
ARC
8
DEFAULT_255_1_234
10
6.0770715
20
20.9127279
40
0.455911
50
191.4115814
51
218.6077802
0
ARC
8
DEFAULT_255_1_234
10
6.2708804
20
20.9561833
40
0.6545001
50
179.6345085
51
191.7836486
0
ARC
8
DEFAULT_255_1_234
10
6.8291141
20
21.0240697
40
1.2127388
50
171.4525249
51
180.3158839
0
ARC
8
DEFAULT_255_1_234
10
6.3896017
20
21.0924608
40
0.7679464
50
157.9802646
51
171.6246686
0
ARC
8
DEFAULT_255_1_234
10
6.1682038
20
21.1807421
40
0.5296008
50
141.4298019
51
157.854097
0
ARC
8
DEFAULT_255_1_234
10
6.1040358
20
21.2261381
40
0.4511509
50
102.8715806
51
140.8564722
0
ARC
8
DEFAULT_255_1_234
10
6.1687974
20
20.9821552
40
0.7034845
50
90.3778349
51
103.5869322
0
ARC
8
DEFAULT_255_1_234
10
5.994975
20
20.921673
40
0.2370698
50
89.8751008
51
126.2071704
0
ARC
8
DEFAULT_255_1_234
10
5.999554
20
20.9062303
40
0.2522934
50
124.9745049
51
144.895901
0
ARC
8
DEFAULT_255_1_234
10
5.981973
20
20.920556
40
0.2296779
50
145.2974905
51
160.2660252
0
ARC
8
DEFAULT_255_1_234
10
6.2892269
20
20.9403071
40
0.5234525
50
179.6514266
51
190.2855912
0
ARC
8
DEFAULT_255_1_234
10
6.1198406
20
20.9083786
40
0.3510893
50
190.0945431
51
207.5098196
0
ARC
8
DEFAULT_255_1_234
10
6.0632676
20
20.8814623
40
0.288489
50
207.9583163
51
216.3251085
0
ARC
8
DEFAULT_255_1_234
10
6.0292784
20
20.8535105
40
0.2445587
50
215.7661442
51
232.5456785
0
ARC
8
DEFAULT_255_1_234
10
5.9909767
20
20.8048482
40
0.1826382
50
232.8005391
51
270.6605633
0
ARC
8
DEFAULT_255_1_234
10
5.9955468
20
20.8412612
40
0.2190529
50
269.35537
51
288.4744281
0
ARC
8
DEFAULT_255_1_234
10
6.0048365
20
20.8063118
40
0.1829749
50
289.1833337
51
322.9683818
0
ARC
8
DEFAULT_255_1_234
10
5.9436887
20
20.8545391
40
0.2608399
50
322.6007884
51
346.5182367
0
ARC
8
DEFAULT_255_1_234
10
5.8279483
20
20.8840616
40
0.3802777
50
346.2582162
51
358.7741648
0
ARC
8
DEFAULT_255_1_234
10
5.7261152
20
20.8895965
40
0.4822176
50
358.3755224
51
0.0098023
0
ARC
8
DEFAULT_255_1_234
10
5.8017339
20
20.8923657
40
0.4066078
50
359.6214041
51
11.2839074
0
ARC
8
DEFAULT_255_1_234
10
5.9294486
20
20.9190066
40
0.2761514
50
11.0482309
51
31.8146458
0
ARC
8
DEFAULT_255_1_234
10
5.9603529
20
20.9357584
40
0.2410679
50
32.3035391
51
38.082671
0
ARC
8
DEFAULT_255_1_234
10
6.0024189
20
20.9738662
40
0.1844966
50
36.825067
51
85.7415724
0
ARC
8
DEFAULT_255_1_234
10
5.9957022
20
20.9238301
40
0.2349122
50
85.0140713
51
90.0513278
0
LINE
8
DEFAULT_255_1_234
10
6.855691
20
21.0728026
11
6.855691
21
20.9515234
0
LINE
8
DEFAULT_255_1_234
10
6.855691
20
20.9515234
11
6.4637421
21
20.9515234
0
LINE
8
DEFAULT_255_1_234
10
6.4637421
20
20.9515234
11
6.4637421
21
21.0728026
0
LINE
8
DEFAULT_255_1_234
10
6.4637421
20
21.0728026
11
6.855691
21
21.0728026
0
LINE
8
DEFAULT_255_1_234
10
4.1847364
20
29.6223211
11
4.3839235
21
29.6223211
0
LINE
8
DEFAULT_255_1_234
10
4.3839235
20
29.6223211
11
4.7662342
21
28.6681506
0
LINE
8
DEFAULT_255_1_234
10
4.7662342
20
28.6681506
11
5.148545
21
29.6223211
0
LINE
8
DEFAULT_255_1_234
10
5.148545
20
29.6223211
11
5.3485353
21
29.6223211
0
LINE
8
DEFAULT_255_1_234
10
5.3485353
20
29.6223211
11
5.3485353
21
28.4529
0
LINE
8
DEFAULT_255_1_234
10
5.3485353
20
28.4529
11
5.1943259
21
28.4529
0
LINE
8
DEFAULT_255_1_234
10
5.1943259
20
28.4529
11
5.1943259
21
28.9082996
0
LINE
8
DEFAULT_255_1_234
10
5.1943259
20
28.9082996
11
5.208783
21
29.3998419
0
LINE
8
DEFAULT_255_1_234
10
5.208783
20
29.3998419
11
4.8248659
21
28.4529
0
LINE
8
DEFAULT_255_1_234
10
4.8248659
20
28.4529
11
4.7067994
21
28.4529
0
LINE
8
DEFAULT_255_1_234
10
4.7067994
20
28.4529
11
4.3236854
21
29.3974324
0
LINE
8
DEFAULT_255_1_234
10
4.3236854
20
29.3974324
11
4.3389458
21
28.9082996
0
LINE
8
DEFAULT_255_1_234
10
4.3389458
20
28.9082996
11
4.3389458
21
28.4529
0
LINE
8
DEFAULT_255_1_234
10
4.3389458
20
28.4529
11
4.1847364
21
28.4529
0
LINE
8
DEFAULT_255_1_234
10
4.1847364
20
28.4529
11
4.1847364
21
29.6223211
0
LINE
8
DEFAULT_255_1_234
10
6.1388583
20
29.6231243
11
6.165363
21
29.6231243
0
LINE
8
DEFAULT_255_1_234
10
6.165363
20
29.6231243
11
6.165363
21
29.497026
0
LINE
8
DEFAULT_255_1_234
10
6.165363
20
29.497026
11
6.1380551
21
29.497026
0
LINE
8
DEFAULT_255_1_234
10
5.5910938
20
28.8978583
11
5.5910938
21
28.9548836
0
LINE
8
DEFAULT_255_1_234
10
5.7404841
20
28.9356075
11
5.7404841
21
28.8809917
0
ARC
8
DEFAULT_255_1_234
10
6.1432899
20
28.9972455
40
0.4998079
50
90.6001036
51
104.514704
0
ARC
8
DEFAULT_255_1_234
10
6.1044415
20
29.1417131
40
0.3502176
50
104.2855254
51
133.862935
0
ARC
8
DEFAULT_255_1_234
10
6.1208172
20
29.130883
40
0.3693984
50
134.5302688
51
161.6210873
0
ARC
8
DEFAULT_255_1_234
10
6.2861361
20
29.0725895
40
0.5446739
50
161.2849839
51
174.2076652
0
ARC
8
DEFAULT_255_1_234
10
6.4268298
20
29.0531787
40
0.6866274
50
173.7810589
51
174.9254635
0
ARC
8
DEFAULT_255_1_234
10
5.971813
20
28.9148839
40
0.3033419
50
95.8330959
51
138.9954921
0
ARC
8
DEFAULT_255_1_234
10
5.9941486
20
28.7870375
40
0.4328947
50
89.8753725
51
97.0544009
0
ARC
8
DEFAULT_255_1_234
10
5.9988952
20
28.8705748
40
0.3493769
50
71.6407809
51
90.6240094
0
ARC
8
DEFAULT_255_1_234
10
6.0139525
20
28.9260082
40
0.2920396
50
39.6367836
51
71.019018
0
ARC
8
DEFAULT_255_1_234
10
5.9502998
20
28.8709998
40
0.3761538
50
10.658731
51
39.9043955
0
ARC
8
DEFAULT_255_1_234
10
5.7955081
20
28.8373686
40
0.5345136
50
359.682601
51
11.132623
0
ARC
8
DEFAULT_255_1_234
10
5.7915212
20
28.830301
40
0.5385081
50
347.2486944
51
0.4369317
0
ARC
8
DEFAULT_255_1_234
10
5.9582689
20
28.7901807
40
0.3670249
50
318.1409698
51
347.6118597
0
ARC
8
DEFAULT_255_1_234
10
5.9907682
20
28.7634702
40
0.3250007
50
275.6342139
51
317.8248465
0
ARC
8
DEFAULT_255_1_234
10
5.9686793
20
28.8934219
40
0.4565864
50
269.8874292
51
276.7917694
0
ARC
8
DEFAULT_255_1_234
10
5.9631864
20
28.7908743
40
0.3540676
50
246.9140195
51
270.7437342
0
ARC
8
DEFAULT_255_1_234
10
5.9638254
20
28.7766384
40
0.3412781
50
218.1665114
51
245.878116
0
ARC
8
DEFAULT_255_1_234
10
6.0517715
20
28.8502279
40
0.455911
50
191.4115814
51
218.6077802
0
ARC
8
DEFAULT_255_1_234
10
6.2455804
20
28.8936833
40
0.6545001
50
179.6345085
51
191.7836486
0
ARC
8
DEFAULT_255_1_234
10
6.8038141
20
28.9615697
40
1.2127388
50
171.4525249
51
180.3158839
0
ARC
8
DEFAULT_255_1_234
10
6.3643017
20
29.0299608
40
0.7679464
50
157.9802646
51
171.6246686
0
ARC
8
DEFAULT_255_1_234
10
6.1429038
20
29.1182421
40
0.5296008
50
141.4298019
51
157.854097
0
ARC
8
DEFAULT_255_1_234
10
6.0787358
20
29.1636381
40
0.4511509
50
102.8715806
51
140.8564722
0
ARC
8
DEFAULT_255_1_234
10
6.1434974
20
28.9196552
40
0.7034845
50
90.3778349
51
103.5869322
0
ARC
8
DEFAULT_255_1_234
10
5.969675
20
28.859173
40
0.2370698
50
89.8751008
51
126.2071704
0
ARC
8
DEFAULT_255_1_234
10
5.974254
20
28.8437303
40
0.2522934
50
124.9745049
51
144.895901
0
ARC
8
DEFAULT_255_1_234
10
5.956673
20
28.858056
40
0.2296779
50
145.2974905
51
160.2660252
0
ARC
8
DEFAULT_255_1_234
10
6.2639269
20
28.8778071
40
0.5234525
50
179.6514266
51
190.2855912
0
ARC
8
DEFAULT_255_1_234
10
6.0945406
20
28.8458786
40
0.3510893
50
190.0945431
51
207.5098196
0
ARC
8
DEFAULT_255_1_234
10
6.0379676
20
28.8189623
40
0.288489
50
207.9583163
51
216.3251085
0
ARC
8
DEFAULT_255_1_234
10
6.0039784
20
28.7910105
40
0.2445587
50
215.7661442
51
232.5456785
0
ARC
8
DEFAULT_255_1_234
10
5.9656767
20
28.7423482
40
0.1826382
50
232.8005391
51
270.6605633
0
ARC
8
DEFAULT_255_1_234
10
5.9702468
20
28.7787612
40
0.2190529
50
269.35537
51
288.4744281
0
ARC
8
DEFAULT_255_1_234
10
5.9795365
20
28.7438118
40
0.1829749
50
289.1833337
51
322.9683818
0
ARC
8
DEFAULT_255_1_234
10
5.9183887
20
28.7920391
40
0.2608399
50
322.6007884
51
346.5182367
0
ARC
8
DEFAULT_255_1_234
10
5.8026483
20
28.8215616
40
0.3802777
50
346.2582162
51
358.7741648
0
ARC
8
DEFAULT_255_1_234
10
5.7008152
20
28.8270965
40
0.4822176
50
358.3755224
51
0.0098023
0
ARC
8
DEFAULT_255_1_234
10
5.7764339
20
28.8298657
40
0.4066078
50
359.6214041
51
11.2839074
0
ARC
8
DEFAULT_255_1_234
10
5.9041486
20
28.8565066
40
0.2761514
50
11.0482309
51
31.8146458
0
ARC
8
DEFAULT_255_1_234
10
5.9350529
20
28.8732584
40
0.2410679
50
32.3035391
51
38.082671
0
ARC
8
DEFAULT_255_1_234
10
5.9771189
20
28.9113662
40
0.1844966
50
36.825067
51
85.7415724
0
ARC
8
DEFAULT_255_1_234
10
5.9704022
20
28.8613301
40
0.2349122
50
85.0140713
51
90.0513278
0
LINE
8
DEFAULT_255_1_234
10
6.9468512
20
29.4215276
11
6.9468512
21
29.0801788
0
LINE
8
DEFAULT_255_1_234
10
6.9468512
20
29.0801788
11
7.2729397
21
29.0801788
0
LINE
8
DEFAULT_255_1_234
10
7.2729397
20
29.0801788
11
7.2729397
21
28.9396233
0
LINE
8
DEFAULT_255_1_234
10
7.2729397
20
28.9396233
11
6.9468512
21
28.9396233
0
LINE
8
DEFAULT_255_1_234
10
6.9468512
20
28.9396233
11
6.9468512
21
28.5701634
0
LINE
8
DEFAULT_255_1_234
10
6.9468512
20
28.5701634
11
6.7974608
21
28.5701634
0
LINE
8
DEFAULT_255_1_234
10
6.7974608
20
28.5701634
11
6.7974608
21
28.9396233
0
LINE
8
DEFAULT_255_1_234
10
6.7974608
20
28.9396233
11
6.4713723
21
28.9396233
0
LINE
8
DEFAULT_255_1_234
10
6.4713723
20
28.9396233
11
6.4713723
21
29.0801788
0
LINE
8
DEFAULT_255_1_234
10
6.4713723
20
29.0801788
11
6.7974608
21
29.0801788
0
LINE
8
DEFAULT_255_1_234
10
6.7974608
20
29.0801788
11
6.7974608
21
29.4215276
0
LINE
8
DEFAULT_255_1_234
10
6.7974608
20
29.4215276
11
6.9468512
21
29.4215276
0
LINE
8
DEFAULT_255_1_234
10
4.2100364
20
37.5598211
11
4.4092235
21
37.5598211
0
LINE
8
DEFAULT_255_1_234
10
4.4092235
20
37.5598211
11
4.7915342
21
36.6056506
0
LINE
8
DEFAULT_255_1_234
10
4.7915342
20
36.6056506
11
5.173845
21
37.5598211
0
LINE
8
DEFAULT_255_1_234
10
5.173845
20
37.5598211
11
5.3738353
21
37.5598211
0
LINE
8
DEFAULT_255_1_234
10
5.3738353
20
37.5598211
11
5.3738353
21
36.3904
0
LINE
8
DEFAULT_255_1_234
10
5.3738353
20
36.3904
11
5.2196259
21
36.3904
0
LINE
8
DEFAULT_255_1_234
10
5.2196259
20
36.3904
11
5.2196259
21
36.8457996
0
LINE
8
DEFAULT_255_1_234
10
5.2196259
20
36.8457996
11
5.234083
21
37.3373419
0
LINE
8
DEFAULT_255_1_234
10
5.234083
20
37.3373419
11
4.8501659
21
36.3904
0
LINE
8
DEFAULT_255_1_234
10
4.8501659
20
36.3904
11
4.7320994
21
36.3904
0
LINE
8
DEFAULT_255_1_234
10
4.7320994
20
36.3904
11
4.3489854
21
37.3349324
0
LINE
8
DEFAULT_255_1_234
10
4.3489854
20
37.3349324
11
4.3642458
21
36.8457996
0
LINE
8
DEFAULT_255_1_234
10
4.3642458
20
36.8457996
11
4.3642458
21
36.3904
0
LINE
8
DEFAULT_255_1_234
10
4.3642458
20
36.3904
11
4.2100364
21
36.3904
0
LINE
8
DEFAULT_255_1_234
10
4.2100364
20
36.3904
11
4.2100364
21
37.5598211
0
LINE
8
DEFAULT_255_1_234
10
5.7946983
20
36.9461963
11
5.6758286
21
36.9767169
0
LINE
8
DEFAULT_255_1_234
10
5.6758286
20
36.9767169
11
5.7352635
21
37.5598211
0
LINE
8
DEFAULT_255_1_234
10
5.7352635
20
37.5598211
11
6.3344312
21
37.5598211
0
LINE
8
DEFAULT_255_1_234
10
6.3344312
20
37.5598211
11
6.3344312
21
37.4224784
0
LINE
8
DEFAULT_255_1_234
10
6.3344312
20
37.4224784
11
5.8613618
21
37.4224784
0
LINE
8
DEFAULT_255_1_234
10
5.8613618
20
37.4224784
11
5.8260221
21
37.1036184
0
LINE
8
DEFAULT_255_1_234
10
5.6340636
20
36.6980156
11
5.774619
21
36.6980156
0
LINE
8
DEFAULT_255_1_234
10
5.8340539
20
36.9783232
11
5.7946983
21
36.9461963
0
ARC
8
DEFAULT_255_1_234
10
6.0115005
20
36.785623
40
0.3681349
50
93.7182161
51
120.2538958
0
ARC
8
DEFAULT_255_1_234
10
6.0209268
20
36.7048394
40
0.449379
50
89.9660152
51
94.2496022
0
ARC
8
DEFAULT_255_1_234
10
6.0250002
20
36.7637549
40
0.390482
50
73.8043271
51
90.5585896
0
ARC
8
DEFAULT_255_1_234
10
6.0484899
20
36.8495602
40
0.3015334
50
41.3071453
51
73.5430202
0
ARC
8
DEFAULT_255_1_234
10
6.0068726
20
36.8137324
40
0.3564457
50
13.5075983
51
41.2174222
0
ARC
8
DEFAULT_255_1_234
10
5.842693
20
36.7707486
40
0.5261351
50
1.1331335
51
13.8829381
0
ARC
8
DEFAULT_255_1_234
10
5.7015299
20
36.7631665
40
0.6674378
50
359.9919444
51
1.544251
0
ARC
8
DEFAULT_255_1_234
10
5.8292125
20
36.759028
40
0.5397702
50
347.8572367
51
0.4293338
0
ARC
8
DEFAULT_255_1_234
10
6.0042443
20
36.7193736
40
0.3603188
50
323.673004
51
348.1672506
0
ARC
8
DEFAULT_255_1_234
10
6.0336951
20
36.7014168
40
0.3259678
50
316.8171152
51
323.1492751
0
ARC
8
DEFAULT_255_1_234
10
6.039814
20
36.697746
40
0.3189975
50
281.8396411
51
316.5457803
0
ARC
8
DEFAULT_255_1_234
10
6.0022404
20
36.8532762
40
0.4789527
50
269.5770101
51
282.4214771
0
ARC
8
DEFAULT_255_1_234
10
5.9951215
20
36.8319125
40
0.45759
50
256.2427136
51
270.4486331
0
ARC
8
DEFAULT_255_1_234
10
5.9652118
20
36.7119229
40
0.3339303
50
228.9023911
51
256.3314342
0
ARC
8
DEFAULT_255_1_234
10
5.957835
20
36.7002746
40
0.32031
50
193.753695
51
228.5271154
0
ARC
8
DEFAULT_255_1_234
10
6.0816304
20
36.73658
40
0.4492253
50
184.924711
51
194.497588
0
ARC
8
DEFAULT_255_1_234
10
6.1008871
20
36.7401591
40
0.3289787
50
187.3600538
51
198.6732863
0
ARC
8
DEFAULT_255_1_234
10
5.9959165
20
36.7037674
40
0.217884
50
198.4451669
51
217.794479
0
ARC
8
DEFAULT_255_1_234
10
5.966334
20
36.6828085
40
0.1816698
50
218.2887171
51
228.5612368
0
ARC
8
DEFAULT_255_1_234
10
5.9761127
20
36.6959963
40
0.1980329
50
228.9654866
51
258.1234728
0
ARC
8
DEFAULT_255_1_234
10
5.9966837
20
36.7840833
40
0.2884748
50
257.7258293
51
270.401361
0
ARC
8
DEFAULT_255_1_234
10
6.0011724
20
36.7395821
40
0.2439788
50
269.4204404
51
286.4209037
0
ARC
8
DEFAULT_255_1_234
10
6.0160211
20
36.6856657
40
0.1880666
50
286.7251356
51
320.600362
0
ARC
8
DEFAULT_255_1_234
10
5.9777036
20
36.7167595
40
0.2374121
50
320.6712579
51
344.5441685
0
ARC
8
DEFAULT_255_1_234
10
5.8620362
20
36.7507045
40
0.3579479
50
344.2412205
51
356.7357071
0
ARC
8
DEFAULT_255_1_234
10
5.7371511
20
36.7610444
40
0.4832297
50
356.3548756
51
0.0500261
0
ARC
8
DEFAULT_255_1_234
10
5.870802
20
36.764165
40
0.3495889
50
359.5576869
51
12.953486
0
ARC
8
DEFAULT_255_1_234
10
5.9762917
20
36.7897434
40
0.2410532
50
12.6490276
51
41.6081334
0
ARC
8
DEFAULT_255_1_234
10
5.9993288
20
36.8093321
40
0.2108218
50
41.7850273
51
85.9892764
0
ARC
8
DEFAULT_255_1_234
10
5.9870025
20
36.7280462
40
0.2928454
50
84.6957577
51
90.0676183
0
ARC
8
DEFAULT_255_1_234
10
5.9846509
20
36.6611716
40
0.3597255
50
89.6804936
51
99.1614436
0
ARC
8
DEFAULT_255_1_234
10
5.964114
20
36.7839131
40
0.235281
50
98.9830931
51
113.8908934
0
ARC
8
DEFAULT_255_1_234
10
5.941155
20
36.8380587
40
0.176479
50
114.1950727
51
127.3641004
0
LINE
8
DEFAULT_255_1_234
10
6.855691
20
36.9478026
11
6.855691
21
36.8265234
0
LINE
8
DEFAULT_255_1_234
10
6.855691
20
36.8265234
11
6.4637421
21
36.8265234
0
LINE
8
DEFAULT_255_1_234
10
6.4637421
20
36.8265234
11
6.4637421
21
36.9478026
0
LINE
8
DEFAULT_255_1_234
10
6.4637421
20
36.9478026
11
6.855691
21
36.9478026
0
LINE
8
DEFAULT_255_1_234
10
4.1847364
20
45.4973211
11
4.3839235
21
45.4973211
0
LINE
8
DEFAULT_255_1_234
10
4.3839235
20
45.4973211
11
4.7662342
21
44.5431506
0
LINE
8
DEFAULT_255_1_234
10
4.7662342
20
44.5431506
11
5.148545
21
45.4973211
0
LINE
8
DEFAULT_255_1_234
10
5.148545
20
45.4973211
11
5.3485353
21
45.4973211
0
LINE
8
DEFAULT_255_1_234
10
5.3485353
20
45.4973211
11
5.3485353
21
44.3279
0
LINE
8
DEFAULT_255_1_234
10
5.3485353
20
44.3279
11
5.1943259
21
44.3279
0
LINE
8
DEFAULT_255_1_234
10
5.1943259
20
44.3279
11
5.1943259
21
44.7832996
0
LINE
8
DEFAULT_255_1_234
10
5.1943259
20
44.7832996
11
5.208783
21
45.2748419
0
LINE
8
DEFAULT_255_1_234
10
5.208783
20
45.2748419
11
4.8248659
21
44.3279
0
LINE
8
DEFAULT_255_1_234
10
4.8248659
20
44.3279
11
4.7067994
21
44.3279
0
LINE
8
DEFAULT_255_1_234
10
4.7067994
20
44.3279
11
4.3236854
21
45.2724324
0
LINE
8
DEFAULT_255_1_234
10
4.3236854
20
45.2724324
11
4.3389458
21
44.7832996
0
LINE
8
DEFAULT_255_1_234
10
4.3389458
20
44.7832996
11
4.3389458
21
44.3279
0
LINE
8
DEFAULT_255_1_234
10
4.3389458
20
44.3279
11
4.1847364
21
44.3279
0
LINE
8
DEFAULT_255_1_234
10
4.1847364
20
44.3279
11
4.1847364
21
45.4973211
0
LINE
8
DEFAULT_255_1_234
10
5.7693983
20
44.8836963
11
5.6505286
21
44.9142169
0
LINE
8
DEFAULT_255_1_234
10
5.6505286
20
44.9142169
11
5.7099635
21
45.4973211
0
LINE
8
DEFAULT_255_1_234
10
5.7099635
20
45.4973211
11
6.3091312
21
45.4973211
0
LINE
8
DEFAULT_255_1_234
10
6.3091312
20
45.4973211
11
6.3091312
21
45.3599784
0
LINE
8
DEFAULT_255_1_234
10
6.3091312
20
45.3599784
11
5.8360618
21
45.3599784
0
LINE
8
DEFAULT_255_1_234
10
5.8360618
20
45.3599784
11
5.8007221
21
45.0411184
0
LINE
8
DEFAULT_255_1_234
10
5.6087636
20
44.6355156
11
5.749319
21
44.6355156
0
LINE
8
DEFAULT_255_1_234
10
5.8087539
20
44.9158232
11
5.7693983
21
44.8836963
0
ARC
8
DEFAULT_255_1_234
10
5.9862005
20
44.723123
40
0.3681349
50
93.7182161
51
120.2538958
0
ARC
8
DEFAULT_255_1_234
10
5.9956268
20
44.6423394
40
0.449379
50
89.9660152
51
94.2496022
0
ARC
8
DEFAULT_255_1_234
10
5.9997002
20
44.7012549
40
0.390482
50
73.8043271
51
90.5585896
0
ARC
8
DEFAULT_255_1_234
10
6.0231899
20
44.7870602
40
0.3015334
50
41.3071453
51
73.5430202
0
ARC
8
DEFAULT_255_1_234
10
5.9815726
20
44.7512324
40
0.3564457
50
13.5075983
51
41.2174222
0
ARC
8
DEFAULT_255_1_234
10
5.817393
20
44.7082486
40
0.5261351
50
1.1331335
51
13.8829381
0
ARC
8
DEFAULT_255_1_234
10
5.6762299
20
44.7006665
40
0.6674378
50
359.9919444
51
1.544251
0
ARC
8
DEFAULT_255_1_234
10
5.8039125
20
44.696528
40
0.5397702
50
347.8572367
51
0.4293338
0
ARC
8
DEFAULT_255_1_234
10
5.9789443
20
44.6568736
40
0.3603188
50
323.673004
51
348.1672506
0
ARC
8
DEFAULT_255_1_234
10
6.0083951
20
44.6389168
40
0.3259678
50
316.8171152
51
323.1492751
0
ARC
8
DEFAULT_255_1_234
10
6.014514
20
44.635246
40
0.3189975
50
281.8396411
51
316.5457803
0
ARC
8
DEFAULT_255_1_234
10
5.9769404
20
44.7907762
40
0.4789527
50
269.5770101
51
282.4214771
0
ARC
8
DEFAULT_255_1_234
10
5.9698215
20
44.7694125
40
0.45759
50
256.2427136
51
270.4486331
0
ARC
8
DEFAULT_255_1_234
10
5.9399118
20
44.6494229
40
0.3339303
50
228.9023911
51
256.3314342
0
ARC
8
DEFAULT_255_1_234
10
5.932535
20
44.6377746
40
0.32031
50
193.753695
51
228.5271154
0
ARC
8
DEFAULT_255_1_234
10
6.0563304
20
44.67408
40
0.4492253
50
184.924711
51
194.497588
0
ARC
8
DEFAULT_255_1_234
10
6.0755871
20
44.6776591
40
0.3289787
50
187.3600538
51
198.6732863
0
ARC
8
DEFAULT_255_1_234
10
5.9706165
20
44.6412674
40
0.217884
50
198.4451669
51
217.794479
0
ARC
8
DEFAULT_255_1_234
10
5.941034
20
44.6203085
40
0.1816698
50
218.2887171
51
228.5612368
0
ARC
8
DEFAULT_255_1_234
10
5.9508127
20
44.6334963
40
0.1980329
50
228.9654866
51
258.1234728
0
ARC
8
DEFAULT_255_1_234
10
5.9713837
20
44.7215833
40
0.2884748
50
257.7258293
51
270.401361
0
ARC
8
DEFAULT_255_1_234
10
5.9758724
20
44.6770821
40
0.2439788
50
269.4204404
51
286.4209037
0
ARC
8
DEFAULT_255_1_234
10
5.9907211
20
44.6231657
40
0.1880666
50
286.7251356
51
320.600362
0
ARC
8
DEFAULT_255_1_234
10
5.9524036
20
44.6542595
40
0.2374121
50
320.6712579
51
344.5441685
0
ARC
8
DEFAULT_255_1_234
10
5.8367362
20
44.6882045
40
0.3579479
50
344.2412205
51
356.7357071
0
ARC
8
DEFAULT_255_1_234
10
5.7118511
20
44.6985444
40
0.4832297
50
356.3548756
51
0.0500261
0
ARC
8
DEFAULT_255_1_234
10
5.845502
20
44.701665
40
0.3495889
50
359.5576869
51
12.953486
0
ARC
8
DEFAULT_255_1_234
10
5.9509917
20
44.7272434
40
0.2410532
50
12.6490276
51
41.6081334
0
ARC
8
DEFAULT_255_1_234
10
5.9740288
20
44.7468321
40
0.2108218
50
41.7850273
51
85.9892764
0
ARC
8
DEFAULT_255_1_234
10
5.9617025
20
44.6655462
40
0.2928454
50
84.6957577
51
90.0676183
0
ARC
8
DEFAULT_255_1_234
10
5.9593509
20
44.5986716
40
0.3597255
50
89.6804936
51
99.1614436
0
ARC
8
DEFAULT_255_1_234
10
5.938814
20
44.7214131
40
0.235281
50
98.9830931
51
113.8908934
0
ARC
8
DEFAULT_255_1_234
10
5.915855
20
44.7755587
40
0.176479
50
114.1950727
51
127.3641004
0
LINE
8
DEFAULT_255_1_234
10
6.9468512
20
45.2965276
11
6.9468512
21
44.9551788
0
LINE
8
DEFAULT_255_1_234
10
6.9468512
20
44.9551788
11
7.2729397
21
44.9551788
0
LINE
8
DEFAULT_255_1_234
10
7.2729397
20
44.9551788
11
7.2729397
21
44.8146233
0
LINE
8
DEFAULT_255_1_234
10
7.2729397
20
44.8146233
11
6.9468512
21
44.8146233
0
LINE
8
DEFAULT_255_1_234
10
6.9468512
20
44.8146233
11
6.9468512
21
44.4451634
0
LINE
8
DEFAULT_255_1_234
10
6.9468512
20
44.4451634
11
6.7974608
21
44.4451634
0
LINE
8
DEFAULT_255_1_234
10
6.7974608
20
44.4451634
11
6.7974608
21
44.8146233
0
LINE
8
DEFAULT_255_1_234
10
6.7974608
20
44.8146233
11
6.4713723
21
44.8146233
0
LINE
8
DEFAULT_255_1_234
10
6.4713723
20
44.8146233
11
6.4713723
21
44.9551788
0
LINE
8
DEFAULT_255_1_234
10
6.4713723
20
44.9551788
11
6.7974608
21
44.9551788
0
LINE
8
DEFAULT_255_1_234
10
6.7974608
20
44.9551788
11
6.7974608
21
45.2965276
0
LINE
8
DEFAULT_255_1_234
10
6.7974608
20
45.2965276
11
6.9468512
21
45.2965276
0
LINE
8
DEFAULT_255_1_234
10
4.2100364
20
53.4348211
11
4.4092235
21
53.4348211
0
LINE
8
DEFAULT_255_1_234
10
4.4092235
20
53.4348211
11
4.7915342
21
52.4806506
0
LINE
8
DEFAULT_255_1_234
10
4.7915342
20
52.4806506
11
5.173845
21
53.4348211
0
LINE
8
DEFAULT_255_1_234
10
5.173845
20
53.4348211
11
5.3738353
21
53.4348211
0
LINE
8
DEFAULT_255_1_234
10
5.3738353
20
53.4348211
11
5.3738353
21
52.2654
0
LINE
8
DEFAULT_255_1_234
10
5.3738353
20
52.2654
11
5.2196259
21
52.2654
0
LINE
8
DEFAULT_255_1_234
10
5.2196259
20
52.2654
11
5.2196259
21
52.7207996
0
LINE
8
DEFAULT_255_1_234
10
5.2196259
20
52.7207996
11
5.234083
21
53.2123419
0
LINE
8
DEFAULT_255_1_234
10
5.234083
20
53.2123419
11
4.8501659
21
52.2654
0
LINE
8
DEFAULT_255_1_234
10
4.8501659
20
52.2654
11
4.7320994
21
52.2654
0
LINE
8
DEFAULT_255_1_234
10
4.7320994
20
52.2654
11
4.3489854
21
53.2099324
0
LINE
8
DEFAULT_255_1_234
10
4.3489854
20
53.2099324
11
4.3642458
21
52.7207996
0
LINE
8
DEFAULT_255_1_234
10
4.3642458
20
52.7207996
11
4.3642458
21
52.2654
0
LINE
8
DEFAULT_255_1_234
10
4.3642458
20
52.2654
11
4.2100364
21
52.2654
0
LINE
8
DEFAULT_255_1_234
10
4.2100364
20
52.2654
11
4.2100364
21
53.4348211
0
LINE
8
DEFAULT_255_1_234
10
6.2348376
20
53.4348211
11
6.2348376
21
52.658152
0
LINE
8
DEFAULT_255_1_234
10
6.2348376
20
52.658152
11
6.3970787
21
52.658152
0
LINE
8
DEFAULT_255_1_234
10
6.3970787
20
52.658152
11
6.3970787
21
52.5368728
0
LINE
8
DEFAULT_255_1_234
10
6.3970787
20
52.5368728
11
6.2348376
21
52.5368728
0
LINE
8
DEFAULT_255_1_234
10
6.2348376
20
52.5368728
11
6.2348376
21
52.2654
0
LINE
8
DEFAULT_255_1_234
10
6.2348376
20
52.2654
11
6.0854473
21
52.2654
0
LINE
8
DEFAULT_255_1_234
10
6.0854473
20
52.2654
11
6.0854473
21
52.5368728
0
LINE
8
DEFAULT_255_1_234
10
6.0854473
20
52.5368728
11
5.552943
21
52.5368728
0
LINE
8
DEFAULT_255_1_234
10
5.552943
20
52.5368728
11
5.552943
21
52.6244187
0
LINE
8
DEFAULT_255_1_234
10
5.552943
20
52.6244187
11
6.0766124
21
53.4348211
0
LINE
8
DEFAULT_255_1_234
10
6.0766124
20
53.4348211
11
6.2348376
21
53.4348211
0
LINE
8
DEFAULT_255_1_234
10
6.0677774
20
53.1994912
11
5.7216095
21
52.658152
0
LINE
8
DEFAULT_255_1_234
10
5.7216095
20
52.658152
11
6.0854473
21
52.658152
0
LINE
8
DEFAULT_255_1_234
10
6.0854473
20
52.658152
11
6.0854473
21
53.2316181
0
LINE
8
DEFAULT_255_1_234
10
6.0854473
20
53.2316181
11
6.0677774
21
53.1994912
0
LINE
8
DEFAULT_255_1_234
10
6.855691
20
52.8228026
11
6.855691
21
52.7015234
0
LINE
8
DEFAULT_255_1_234
10
6.855691
20
52.7015234
11
6.4637421
21
52.7015234
0
LINE
8
DEFAULT_255_1_234
10
6.4637421
20
52.7015234
11
6.4637421
21
52.8228026
0
LINE
8
DEFAULT_255_1_234
10
6.4637421
20
52.8228026
11
6.855691
21
52.8228026
0
LINE
8
DEFAULT_255_1_234
10
4.1847364
20
61.3723211
11
4.3839235
21
61.3723211
0
LINE
8
DEFAULT_255_1_234
10
4.3839235
20
61.3723211
11
4.7662342
21
60.4181506
0
LINE
8
DEFAULT_255_1_234
10
4.7662342
20
60.4181506
11
5.148545
21
61.3723211
0
LINE
8
DEFAULT_255_1_234
10
5.148545
20
61.3723211
11
5.3485353
21
61.3723211
0
LINE
8
DEFAULT_255_1_234
10
5.3485353
20
61.3723211
11
5.3485353
21
60.2029
0
LINE
8
DEFAULT_255_1_234
10
5.3485353
20
60.2029
11
5.1943259
21
60.2029
0
LINE
8
DEFAULT_255_1_234
10
5.1943259
20
60.2029
11
5.1943259
21
60.6582996
0
LINE
8
DEFAULT_255_1_234
10
5.1943259
20
60.6582996
11
5.208783
21
61.1498419
0
LINE
8
DEFAULT_255_1_234
10
5.208783
20
61.1498419
11
4.8248659
21
60.2029
0
LINE
8
DEFAULT_255_1_234
10
4.8248659
20
60.2029
11
4.7067994
21
60.2029
0
LINE
8
DEFAULT_255_1_234
10
4.7067994
20
60.2029
11
4.3236854
21
61.1474324
0
LINE
8
DEFAULT_255_1_234
10
4.3236854
20
61.1474324
11
4.3389458
21
60.6582996
0
LINE
8
DEFAULT_255_1_234
10
4.3389458
20
60.6582996
11
4.3389458
21
60.2029
0
LINE
8
DEFAULT_255_1_234
10
4.3389458
20
60.2029
11
4.1847364
21
60.2029
0
LINE
8
DEFAULT_255_1_234
10
4.1847364
20
60.2029
11
4.1847364
21
61.3723211
0
LINE
8
DEFAULT_255_1_234
10
6.2095376
20
61.3723211
11
6.2095376
21
60.595652
0
LINE
8
DEFAULT_255_1_234
10
6.2095376
20
60.595652
11
6.3717787
21
60.595652
0
LINE
8
DEFAULT_255_1_234
10
6.3717787
20
60.595652
11
6.3717787
21
60.4743728
0
LINE
8
DEFAULT_255_1_234
10
6.3717787
20
60.4743728
11
6.2095376
21
60.4743728
0
LINE
8
DEFAULT_255_1_234
10
6.2095376
20
60.4743728
11
6.2095376
21
60.2029
0
LINE
8
DEFAULT_255_1_234
10
6.2095376
20
60.2029
11
6.0601473
21
60.2029
0
LINE
8
DEFAULT_255_1_234
10
6.0601473
20
60.2029
11
6.0601473
21
60.4743728
0
LINE
8
DEFAULT_255_1_234
10
6.0601473
20
60.4743728
11
5.527643
21
60.4743728
0
LINE
8
DEFAULT_255_1_234
10
5.527643
20
60.4743728
11
5.527643
21
60.5619187
0
LINE
8
DEFAULT_255_1_234
10
5.527643
20
60.5619187
11
6.0513124
21
61.3723211
0
LINE
8
DEFAULT_255_1_234
10
6.0513124
20
61.3723211
11
6.2095376
21
61.3723211
0
LINE
8
DEFAULT_255_1_234
10
6.0424774
20
61.1369912
11
5.6963095
21
60.595652
0
LINE
8
DEFAULT_255_1_234
10
5.6963095
20
60.595652
11
6.0601473
21
60.595652
0
LINE
8
DEFAULT_255_1_234
10
6.0601473
20
60.595652
11
6.0601473
21
61.1691181
0
LINE
8
DEFAULT_255_1_234
10
6.0601473
20
61.1691181
11
6.0424774
21
61.1369912
0
LINE
8
DEFAULT_255_1_234
10
6.9468512
20
61.1715276
11
6.9468512
21
60.8301788
0
LINE
8
DEFAULT_255_1_234
10
6.9468512
20
60.8301788
11
7.2729397
21
60.8301788
0
LINE
8
DEFAULT_255_1_234
10
7.2729397
20
60.8301788
11
7.2729397
21
60.6896233
0
LINE
8
DEFAULT_255_1_234
10
7.2729397
20
60.6896233
11
6.9468512
21
60.6896233
0
LINE
8
DEFAULT_255_1_234
10
6.9468512
20
60.6896233
11
6.9468512
21
60.3201634
0
LINE
8
DEFAULT_255_1_234
10
6.9468512
20
60.3201634
11
6.7974608
21
60.3201634
0
LINE
8
DEFAULT_255_1_234
10
6.7974608
20
60.3201634
11
6.7974608
21
60.6896233
0
LINE
8
DEFAULT_255_1_234
10
6.7974608
20
60.6896233
11
6.4713723
21
60.6896233
0
LINE
8
DEFAULT_255_1_234
10
6.4713723
20
60.6896233
11
6.4713723
21
60.8301788
0
LINE
8
DEFAULT_255_1_234
10
6.4713723
20
60.8301788
11
6.7974608
21
60.8301788
0
LINE
8
DEFAULT_255_1_234
10
6.7974608
20
60.8301788
11
6.7974608
21
61.1715276
0
LINE
8
DEFAULT_255_1_234
10
6.7974608
20
61.1715276
11
6.9468512
21
61.1715276
0
LINE
8
DEFAULT_255_1_234
10
4.2100364
20
69.3098211
11
4.4092235
21
69.3098211
0
LINE
8
DEFAULT_255_1_234
10
4.4092235
20
69.3098211
11
4.7915342
21
68.3556506
0
LINE
8
DEFAULT_255_1_234
10
4.7915342
20
68.3556506
11
5.173845
21
69.3098211
0
LINE
8
DEFAULT_255_1_234
10
5.173845
20
69.3098211
11
5.3738353
21
69.3098211
0
LINE
8
DEFAULT_255_1_234
10
5.3738353
20
69.3098211
11
5.3738353
21
68.1404
0
LINE
8
DEFAULT_255_1_234
10
5.3738353
20
68.1404
11
5.2196259
21
68.1404
0
LINE
8
DEFAULT_255_1_234
10
5.2196259
20
68.1404
11
5.2196259
21
68.5957996
0
LINE
8
DEFAULT_255_1_234
10
5.2196259
20
68.5957996
11
5.234083
21
69.0873419
0
LINE
8
DEFAULT_255_1_234
10
5.234083
20
69.0873419
11
4.8501659
21
68.1404
0
LINE
8
DEFAULT_255_1_234
10
4.8501659
20
68.1404
11
4.7320994
21
68.1404
0
LINE
8
DEFAULT_255_1_234
10
4.7320994
20
68.1404
11
4.3489854
21
69.0849324
0
LINE
8
DEFAULT_255_1_234
10
4.3489854
20
69.0849324
11
4.3642458
21
68.5957996
0
LINE
8
DEFAULT_255_1_234
10
4.3642458
20
68.5957996
11
4.3642458
21
68.1404
0
LINE
8
DEFAULT_255_1_234
10
4.3642458
20
68.1404
11
4.2100364
21
68.1404
0
LINE
8
DEFAULT_255_1_234
10
4.2100364
20
68.1404
11
4.2100364
21
69.3098211
0
LINE
8
DEFAULT_255_1_234
10
5.8236126
20
68.6761169
11
5.8236126
21
68.7973962
0
LINE
8
DEFAULT_255_1_234
10
5.8236126
20
68.7973962
11
5.9352538
21
68.7973962
0
LINE
8
DEFAULT_255_1_234
10
5.7449016
20
69.0030087
11
5.5963144
21
69.0030087
0
LINE
8
DEFAULT_255_1_234
10
5.5858731
20
68.4488188
11
5.7352635
21
68.4488188
0
LINE
8
DEFAULT_255_1_234
10
5.9352538
20
68.6761169
11
5.8236126
21
68.6761169
0
ARC
8
DEFAULT_255_1_234
10
5.9323404
20
69.1366713
40
0.3392876
50
270.4919872
51
281.8951556
0
ARC
8
DEFAULT_255_1_234
10
5.9564666
20
69.0264702
40
0.2264817
50
281.6691735
51
301.2943132
0
ARC
8
DEFAULT_255_1_234
10
5.9734876
20
68.9953304
40
0.1910381
50
301.7833094
51
311.7545298
0
ARC
8
DEFAULT_255_1_234
10
5.9826452
20
68.9851748
40
0.1773635
50
311.7323931
51
354.2802411
0
ARC
8
DEFAULT_255_1_234
10
5.9100077
20
68.9976722
40
0.2509385
50
353.0937916
51
0.1181479
0
ARC
8
DEFAULT_255_1_234
10
5.8638862
20
69.0024386
40
0.2970898
50
359.1805295
51
15.0453146
0
ARC
8
DEFAULT_255_1_234
10
5.9984699
20
69.0416992
40
0.1569564
50
13.9577229
51
77.6713066
0
ARC
8
DEFAULT_255_1_234
10
5.9598228
20
68.9031949
40
0.3006298
50
76.1116566
51
90.7026153
0
ARC
8
DEFAULT_255_1_234
10
5.9539066
20
68.9305545
40
0.2732568
50
89.5324876
51
103.531937
0
ARC
8
DEFAULT_255_1_234
10
5.933851
20
69.0104884
40
0.1908508
50
103.2931773
51
133.5619022
0
ARC
8
DEFAULT_255_1_234
10
5.9293999
20
69.0164375
40
0.1834746
50
133.8349307
51
173.5344437
0
ARC
8
DEFAULT_255_1_234
10
6.0017042
20
69.0036213
40
0.2568033
50
172.5096846
51
180.1366907
0
ARC
8
DEFAULT_255_1_234
10
5.9065936
20
69.0070622
40
0.3103056
50
155.3484492
51
180.7484736
0
ARC
8
DEFAULT_255_1_234
10
5.9017025
20
69.0041846
40
0.3070957
50
131.5744599
51
154.4798489
0
ARC
8
DEFAULT_255_1_234
10
5.9330172
20
68.972531
40
0.3515643
50
96.9875458
51
131.9690667
0
ARC
8
DEFAULT_255_1_234
10
5.9549652
20
68.8479636
40
0.4779224
50
89.8596053
51
97.7825159
0
ARC
8
DEFAULT_255_1_234
10
5.9597715
20
68.8217616
40
0.5041361
50
78.3655447
51
90.4131539
0
ARC
8
DEFAULT_255_1_234
10
5.9955633
20
68.9876887
40
0.3344039
50
56.6229102
51
78.638727
0
ARC
8
DEFAULT_255_1_234
10
6.0170577
20
69.0252805
40
0.2912001
50
47.0253525
51
56.0854072
0
ARC
8
DEFAULT_255_1_234
10
6.0190357
20
69.0292223
40
0.2869704
50
10.9208013
51
46.7778124
0
ARC
8
DEFAULT_255_1_234
10
5.8826423
20
68.9976857
40
0.426899
50
359.6364486
51
11.6087304
0
ARC
8
DEFAULT_255_1_234
10
6.0661267
20
68.9961752
40
0.243409
50
332.3549906
51
359.7179418
0
ARC
8
DEFAULT_255_1_234
10
6.0010869
20
69.0270142
40
0.3153459
50
325.2333722
51
332.8745602
0
ARC
8
DEFAULT_255_1_234
10
6.0163493
20
69.0163828
40
0.2967456
50
292.9802137
51
325.2392345
0
ARC
8
DEFAULT_255_1_234
10
5.9888866
20
69.0697863
40
0.3566604
50
292.5402179
51
293.6924929
0
ARC
8
DEFAULT_255_1_234
10
6.0281462
20
68.4243091
40
0.3307468
50
57.6435486
51
72.8625112
0
ARC
8
DEFAULT_255_1_234
10
6.0635962
20
68.4817549
40
0.2632492
50
36.7248896
51
57.4697979
0
ARC
8
DEFAULT_255_1_234
10
6.0624595
20
68.483022
40
0.2634081
50
8.0545065
51
36.356114
0
ARC
8
DEFAULT_255_1_234
10
5.976178
20
68.4675174
40
0.3510261
50
359.8320645
51
8.5869982
0
ARC
8
DEFAULT_255_1_234
10
5.9386556
20
68.4627101
40
0.3885653
50
343.9829931
51
0.5571613
0
ARC
8
DEFAULT_255_1_234
10
6.0272753
20
68.4384438
40
0.2966924
50
311.6359546
51
343.7651759
0
ARC
8
DEFAULT_255_1_234
10
5.9894323
20
68.4811102
40
0.3537231
50
279.7829875
51
311.6255694
0
ARC
8
DEFAULT_255_1_234
10
5.9593099
20
68.624828
40
0.5004971
50
269.7286406
51
280.3856417
0
ARC
8
DEFAULT_255_1_234
10
5.9531171
20
68.6206996
40
0.4963778
50
256.6828919
51
270.4412052
0
ARC
8
DEFAULT_255_1_234
10
5.9192467
20
68.4822394
40
0.3538406
50
229.4223008
51
256.8556159
0
ARC
8
DEFAULT_255_1_234
10
5.877786
20
68.4355736
40
0.2914296
50
181.818294
51
229.6455059
0
ARC
8
DEFAULT_255_1_234
10
5.9817816
20
68.4486496
40
0.3959084
50
179.9755256
51
183.2323064
0
ARC
8
DEFAULT_255_1_234
10
5.9645562
20
68.4466037
40
0.2293034
50
179.4465117
51
196.2869258
0
ARC
8
DEFAULT_255_1_234
10
5.915797
20
68.4332651
40
0.1787621
50
196.5661473
51
227.705904
0
ARC
8
DEFAULT_255_1_234
10
5.9322065
20
68.4516155
40
0.2033784
50
227.7652068
51
257.8762805
0
ARC
8
DEFAULT_255_1_234
10
5.9547035
20
68.5459156
40
0.3003081
50
257.4584385
51
270.426602
0
ARC
8
DEFAULT_255_1_234
10
5.9592601
20
68.5748996
40
0.329292
50
269.5962073
51
280.8789248
0
ARC
8
DEFAULT_255_1_234
10
5.982213
20
68.4602685
40
0.2123908
50
280.6346389
51
299.8595945
0
ARC
8
DEFAULT_255_1_234
10
6.0013037
20
68.4240212
40
0.171457
50
300.3576302
51
314.5517981
0
ARC
8
DEFAULT_255_1_234
10
5.9930097
20
68.4300919
40
0.1816095
50
315.0728369
51
345.0431014
0
ARC
8
DEFAULT_255_1_234
10
5.9006911
20
68.4569841
40
0.2777492
50
344.5986631
51
357.9269593
0
ARC
8
DEFAULT_255_1_234
10
5.8111238
20
68.4631276
40
0.3674917
50
357.4748886
51
0.0231117
0
ARC
8
DEFAULT_255_1_234
10
5.9134347
20
68.4655679
40
0.2651907
50
359.5047933
51
13.4239635
0
ARC
8
DEFAULT_255_1_234
10
6.000099
20
68.4877478
40
0.1757509
50
12.9498199
51
48.7551375
0
ARC
8
DEFAULT_255_1_234
10
5.9818724
20
68.46284
40
0.2065134
50
49.5088623
51
72.1836453
0
ARC
8
DEFAULT_255_1_234
10
5.9460877
20
68.3566291
40
0.3185836
50
71.9010081
51
84.3554254
0
ARC
8
DEFAULT_255_1_234
10
5.9299509
20
68.2205326
40
0.4556151
50
84.0193428
51
89.333121
0
LINE
8
DEFAULT_255_1_234
10
6.855691
20
68.6978026
11
6.855691
21
68.5765234
0
LINE
8
DEFAULT_255_1_234
10
6.855691
20
68.5765234
11
6.4637421
21
68.5765234
0
LINE
8
DEFAULT_255_1_234
10
6.4637421
20
68.5765234
11
6.4637421
21
68.6978026
0
LINE
8
DEFAULT_255_1_234
10
6.4637421
20
68.6978026
11
6.855691
21
68.6978026
0
LINE
8
DEFAULT_255_1_234
10
4.1847364
20
77.2473211
11
4.3839235
21
77.2473211
0
LINE
8
DEFAULT_255_1_234
10
4.3839235
20
77.2473211
11
4.7662342
21
76.2931506
0
LINE
8
DEFAULT_255_1_234
10
4.7662342
20
76.2931506
11
5.148545
21
77.2473211
0
LINE
8
DEFAULT_255_1_234
10
5.148545
20
77.2473211
11
5.3485353
21
77.2473211
0
LINE
8
DEFAULT_255_1_234
10
5.3485353
20
77.2473211
11
5.3485353
21
76.0779
0
LINE
8
DEFAULT_255_1_234
10
5.3485353
20
76.0779
11
5.1943259
21
76.0779
0
LINE
8
DEFAULT_255_1_234
10
5.1943259
20
76.0779
11
5.1943259
21
76.5332996
0
LINE
8
DEFAULT_255_1_234
10
5.1943259
20
76.5332996
11
5.208783
21
77.0248419
0
LINE
8
DEFAULT_255_1_234
10
5.208783
20
77.0248419
11
4.8248659
21
76.0779
0
LINE
8
DEFAULT_255_1_234
10
4.8248659
20
76.0779
11
4.7067994
21
76.0779
0
LINE
8
DEFAULT_255_1_234
10
4.7067994
20
76.0779
11
4.3236854
21
77.0224324
0
LINE
8
DEFAULT_255_1_234
10
4.3236854
20
77.0224324
11
4.3389458
21
76.5332996
0
LINE
8
DEFAULT_255_1_234
10
4.3389458
20
76.5332996
11
4.3389458
21
76.0779
0
LINE
8
DEFAULT_255_1_234
10
4.3389458
20
76.0779
11
4.1847364
21
76.0779
0
LINE
8
DEFAULT_255_1_234
10
4.1847364
20
76.0779
11
4.1847364
21
77.2473211
0
LINE
8
DEFAULT_255_1_234
10
5.7983126
20
76.6136169
11
5.7983126
21
76.7348962
0
LINE
8
DEFAULT_255_1_234
10
5.7983126
20
76.7348962
11
5.9099538
21
76.7348962
0
LINE
8
DEFAULT_255_1_234
10
5.7196016
20
76.9405087
11
5.5710144
21
76.9405087
0
LINE
8
DEFAULT_255_1_234
10
5.5605731
20
76.3863188
11
5.7099635
21
76.3863188
0
LINE
8
DEFAULT_255_1_234
10
5.9099538
20
76.6136169
11
5.7983126
21
76.6136169
0
ARC
8
DEFAULT_255_1_234
10
5.9070404
20
77.0741713
40
0.3392876
50
270.4919872
51
281.8951556
0
ARC
8
DEFAULT_255_1_234
10
5.9311666
20
76.9639702
40
0.2264817
50
281.6691735
51
301.2943132
0
ARC
8
DEFAULT_255_1_234
10
5.9481876
20
76.9328304
40
0.1910381
50
301.7833094
51
311.7545298
0
ARC
8
DEFAULT_255_1_234
10
5.9573452
20
76.9226748
40
0.1773635
50
311.7323931
51
354.2802411
0
ARC
8
DEFAULT_255_1_234
10
5.8847077
20
76.9351722
40
0.2509385
50
353.0937916
51
0.1181479
0
ARC
8
DEFAULT_255_1_234
10
5.8385862
20
76.9399386
40
0.2970898
50
359.1805295
51
15.0453146
0
ARC
8
DEFAULT_255_1_234
10
5.9731699
20
76.9791992
40
0.1569564
50
13.9577229
51
77.6713066
0
ARC
8
DEFAULT_255_1_234
10
5.9345228
20
76.8406949
40
0.3006298
50
76.1116566
51
90.7026153
0
ARC
8
DEFAULT_255_1_234
10
5.9286066
20
76.8680545
40
0.2732568
50
89.5324876
51
103.531937
0
ARC
8
DEFAULT_255_1_234
10
5.908551
20
76.9479884
40
0.1908508
50
103.2931773
51
133.5619022
0
ARC
8
DEFAULT_255_1_234
10
5.9040999
20
76.9539375
40
0.1834746
50
133.8349307
51
173.5344437
0
ARC
8
DEFAULT_255_1_234
10
5.9764042
20
76.9411213
40
0.2568033
50
172.5096846
51
180.1366907
0
ARC
8
DEFAULT_255_1_234
10
5.8812936
20
76.9445622
40
0.3103056
50
155.3484492
51
180.7484736
0
ARC
8
DEFAULT_255_1_234
10
5.8764025
20
76.9416846
40
0.3070957
50
131.5744599
51
154.4798489
0
ARC
8
DEFAULT_255_1_234
10
5.9077172
20
76.910031
40
0.3515643
50
96.9875458
51
131.9690667
0
ARC
8
DEFAULT_255_1_234
10
5.9296652
20
76.7854636
40
0.4779224
50
89.8596053
51
97.7825159
0
ARC
8
DEFAULT_255_1_234
10
5.9344715
20
76.7592616
40
0.5041361
50
78.3655447
51
90.4131539
0
ARC
8
DEFAULT_255_1_234
10
5.9702633
20
76.9251887
40
0.3344039
50
56.6229102
51
78.638727
0
ARC
8
DEFAULT_255_1_234
10
5.9917577
20
76.9627805
40
0.2912001
50
47.0253525
51
56.0854072
0
ARC
8
DEFAULT_255_1_234
10
5.9937357
20
76.9667223
40
0.2869704
50
10.9208013
51
46.7778124
0
ARC
8
DEFAULT_255_1_234
10
5.8573423
20
76.9351857
40
0.426899
50
359.6364486
51
11.6087304
0
ARC
8
DEFAULT_255_1_234
10
6.0408267
20
76.9336752
40
0.243409
50
332.3549906
51
359.7179418
0
ARC
8
DEFAULT_255_1_234
10
5.9757869
20
76.9645142
40
0.3153459
50
325.2333722
51
332.8745602
0
ARC
8
DEFAULT_255_1_234
10
5.9910493
20
76.9538828
40
0.2967456
50
292.9802137
51
325.2392345
0
ARC
8
DEFAULT_255_1_234
10
5.9635866
20
77.0072863
40
0.3566604
50
292.5402179
51
293.6924929
0
ARC
8
DEFAULT_255_1_234
10
6.0028462
20
76.3618091
40
0.3307468
50
57.6435486
51
72.8625112
0
ARC
8
DEFAULT_255_1_234
10
6.0382962
20
76.4192549
40
0.2632492
50
36.7248896
51
57.4697979
0
ARC
8
DEFAULT_255_1_234
10
6.0371595
20
76.420522
40
0.2634081
50
8.0545065
51
36.356114
0
ARC
8
DEFAULT_255_1_234
10
5.950878
20
76.4050174
40
0.3510261
50
359.8320645
51
8.5869982
0
ARC
8
DEFAULT_255_1_234
10
5.9133556
20
76.4002101
40
0.3885653
50
343.9829931
51
0.5571613
0
ARC
8
DEFAULT_255_1_234
10
6.0019753
20
76.3759438
40
0.2966924
50
311.6359546
51
343.7651759
0
ARC
8
DEFAULT_255_1_234
10
5.9641323
20
76.4186102
40
0.3537231
50
279.7829875
51
311.6255694
0
ARC
8
DEFAULT_255_1_234
10
5.9340099
20
76.562328
40
0.5004971
50
269.7286406
51
280.3856417
0
ARC
8
DEFAULT_255_1_234
10
5.9278171
20
76.5581996
40
0.4963778
50
256.6828919
51
270.4412052
0
ARC
8
DEFAULT_255_1_234
10
5.8939467
20
76.4197394
40
0.3538406
50
229.4223008
51
256.8556159
0
ARC
8
DEFAULT_255_1_234
10
5.852486
20
76.3730736
40
0.2914296
50
181.818294
51
229.6455059
0
ARC
8
DEFAULT_255_1_234
10
5.9564816
20
76.3861496
40
0.3959084
50
179.9755256
51
183.2323064
0
ARC
8
DEFAULT_255_1_234
10
5.9392562
20
76.3841037
40
0.2293034
50
179.4465117
51
196.2869258
0
ARC
8
DEFAULT_255_1_234
10
5.890497
20
76.3707651
40
0.1787621
50
196.5661473
51
227.705904
0
ARC
8
DEFAULT_255_1_234
10
5.9069065
20
76.3891155
40
0.2033784
50
227.7652068
51
257.8762805
0
ARC
8
DEFAULT_255_1_234
10
5.9294035
20
76.4834156
40
0.3003081
50
257.4584385
51
270.426602
0
ARC
8
DEFAULT_255_1_234
10
5.9339601
20
76.5123996
40
0.329292
50
269.5962073
51
280.8789248
0
ARC
8
DEFAULT_255_1_234
10
5.956913
20
76.3977685
40
0.2123908
50
280.6346389
51
299.8595945
0
ARC
8
DEFAULT_255_1_234
10
5.9760037
20
76.3615212
40
0.171457
50
300.3576302
51
314.5517981
0
ARC
8
DEFAULT_255_1_234
10
5.9677097
20
76.3675919
40
0.1816095
50
315.0728369
51
345.0431014
0
ARC
8
DEFAULT_255_1_234
10
5.8753911
20
76.3944841
40
0.2777492
50
344.5986631
51
357.9269593
0
ARC
8
DEFAULT_255_1_234
10
5.7858238
20
76.4006276
40
0.3674917
50
357.4748886
51
0.0231117
0
ARC
8
DEFAULT_255_1_234
10
5.8881347
20
76.4030679
40
0.2651907
50
359.5047933
51
13.4239635
0
ARC
8
DEFAULT_255_1_234
10
5.974799
20
76.4252478
40
0.1757509
50
12.9498199
51
48.7551375
0
ARC
8
DEFAULT_255_1_234
10
5.9565724
20
76.40034
40
0.2065134
50
49.5088623
51
72.1836453
0
ARC
8
DEFAULT_255_1_234
10
5.9207877
20
76.2941291
40
0.3185836
50
71.9010081
51
84.3554254
0
ARC
8
DEFAULT_255_1_234
10
5.9046509
20
76.1580326
40
0.4556151
50
84.0193428
51
89.333121
0
LINE
8
DEFAULT_255_1_234
10
6.9468512
20
77.0465276
11
6.9468512
21
76.7051788
0
LINE
8
DEFAULT_255_1_234
10
6.9468512
20
76.7051788
11
7.2729397
21
76.7051788
0
LINE
8
DEFAULT_255_1_234
10
7.2729397
20
76.7051788
11
7.2729397
21
76.5646233
0
LINE
8
DEFAULT_255_1_234
10
7.2729397
20
76.5646233
11
6.9468512
21
76.5646233
0
LINE
8
DEFAULT_255_1_234
10
6.9468512
20
76.5646233
11
6.9468512
21
76.1951634
0
LINE
8
DEFAULT_255_1_234
10
6.9468512
20
76.1951634
11
6.7974608
21
76.1951634
0
LINE
8
DEFAULT_255_1_234
10
6.7974608
20
76.1951634
11
6.7974608
21
76.5646233
0
LINE
8
DEFAULT_255_1_234
10
6.7974608
20
76.5646233
11
6.4713723
21
76.5646233
0
LINE
8
DEFAULT_255_1_234
10
6.4713723
20
76.5646233
11
6.4713723
21
76.7051788
0
LINE
8
DEFAULT_255_1_234
10
6.4713723
20
76.7051788
11
6.7974608
21
76.7051788
0
LINE
8
DEFAULT_255_1_234
10
6.7974608
20
76.7051788
11
6.7974608
21
77.0465276
0
LINE
8
DEFAULT_255_1_234
10
6.7974608
20
77.0465276
11
6.9468512
21
77.0465276
0
LINE
8
DEFAULT_255_1_234
10
4.2100364
20
85.1848211
11
4.4092235
21
85.1848211
0
LINE
8
DEFAULT_255_1_234
10
4.4092235
20
85.1848211
11
4.7915342
21
84.2306506
0
LINE
8
DEFAULT_255_1_234
10
4.7915342
20
84.2306506
11
5.173845
21
85.1848211
0
LINE
8
DEFAULT_255_1_234
10
5.173845
20
85.1848211
11
5.3738353
21
85.1848211
0
LINE
8
DEFAULT_255_1_234
10
5.3738353
20
85.1848211
11
5.3738353
21
84.0154
0
LINE
8
DEFAULT_255_1_234
10
5.3738353
20
84.0154
11
5.2196259
21
84.0154
0
LINE
8
DEFAULT_255_1_234
10
5.2196259
20
84.0154
11
5.2196259
21
84.4707996
0
LINE
8
DEFAULT_255_1_234
10
5.2196259
20
84.4707996
11
5.234083
21
84.9623419
0
LINE
8
DEFAULT_255_1_234
10
5.234083
20
84.9623419
11
4.8501659
21
84.0154
0
LINE
8
DEFAULT_255_1_234
10
4.8501659
20
84.0154
11
4.7320994
21
84.0154
0
LINE
8
DEFAULT_255_1_234
10
4.7320994
20
84.0154
11
4.3489854
21
84.9599324
0
LINE
8
DEFAULT_255_1_234
10
4.3489854
20
84.9599324
11
4.3642458
21
84.4707996
0
LINE
8
DEFAULT_255_1_234
10
4.3642458
20
84.4707996
11
4.3642458
21
84.0154
0
LINE
8
DEFAULT_255_1_234
10
4.3642458
20
84.0154
11
4.2100364
21
84.0154
0
LINE
8
DEFAULT_255_1_234
10
4.2100364
20
84.0154
11
4.2100364
21
85.1848211
0
LINE
8
DEFAULT_255_1_234
10
6.3737867
20
84.1366792
11
6.3737867
21
84.0154
0
LINE
8
DEFAULT_255_1_234
10
6.3737867
20
84.0154
11
5.6075588
21
84.0154
0
LINE
8
DEFAULT_255_1_234
10
5.6075588
20
84.0154
11
5.6075588
21
84.1222221
0
LINE
8
DEFAULT_255_1_234
10
5.6075588
20
84.1222221
11
6.0123584
21
84.5719995
0
LINE
8
DEFAULT_255_1_234
10
5.7336571
20
84.8402595
11
5.58507
21
84.8402595
0
LINE
8
DEFAULT_255_1_234
10
6.0999044
20
84.4764218
11
5.7866666
21
84.1366792
0
LINE
8
DEFAULT_255_1_234
10
5.7866666
20
84.1366792
11
6.3737867
21
84.1366792
0
ARC
8
DEFAULT_255_1_234
10
4.6633418
20
85.7649527
40
1.8008286
50
318.5132453
51
320.7828378
0
ARC
8
DEFAULT_255_1_234
10
5.1920392
20
85.3346426
40
1.1191493
50
320.7372736
51
323.9737074
0
ARC
8
DEFAULT_255_1_234
10
5.5840249
20
85.0506361
40
0.6350923
50
323.8961724
51
328.6421089
0
ARC
8
DEFAULT_255_1_234
10
5.7886844
20
84.9244031
40
0.3946393
50
328.8299013
51
331.789948
0
ARC
8
DEFAULT_255_1_234
10
5.8884023
20
84.8729509
40
0.2824501
50
331.4255242
51
352.9364833
0
ARC
8
DEFAULT_255_1_234
10
5.9020523
20
84.8698976
40
0.2685315
50
353.2248685
51
0.0169286
0
ARC
8
DEFAULT_255_1_234
10
5.92304
20
84.872195
40
0.2475536
50
359.4866256
51
15.9339782
0
ARC
8
DEFAULT_255_1_234
10
5.9737385
20
84.8858286
40
0.1950618
50
16.1714718
51
43.5284424
0
ARC
8
DEFAULT_255_1_234
10
5.9814694
20
84.8935573
40
0.184134
50
43.4415429
51
83.1661404
0
ARC
8
DEFAULT_255_1_234
10
5.9680612
20
84.8198771
40
0.258926
50
82.160215
51
90.1505798
0
ARC
8
DEFAULT_255_1_234
10
5.9649039
20
84.7661865
40
0.3126255
50
89.5460705
51
102.5418777
0
ARC
8
DEFAULT_255_1_234
10
5.9406126
20
84.8692665
40
0.2067346
50
102.1739365
51
129.2061916
0
ARC
8
DEFAULT_255_1_234
10
5.9327197
20
84.8817094
40
0.1921118
50
129.7279328
51
135.7542026
0
ARC
8
DEFAULT_255_1_234
10
5.9448725
20
84.8720045
40
0.2075944
50
136.175737
51
166.3674722
0
ARC
8
DEFAULT_255_1_234
10
6.0455644
20
84.8450182
40
0.3118201
50
165.9092917
51
178.8683903
0
ARC
8
DEFAULT_255_1_234
10
6.1320505
20
84.8403179
40
0.3983935
50
178.438168
51
180.0083905
0
ARC
8
DEFAULT_255_1_234
10
5.9919108
20
84.8442231
40
0.4068601
50
163.2878735
51
180.5581814
0
ARC
8
DEFAULT_255_1_234
10
5.9117369
20
84.866284
40
0.3237344
50
133.454115
51
162.9470031
0
ARC
8
DEFAULT_255_1_234
10
5.929591
20
84.8473
40
0.349795
50
100.7869394
51
133.4384016
0
ARC
8
DEFAULT_255_1_234
10
5.9643682
20
84.6924319
40
0.5084616
50
89.6605301
51
101.3704185
0
ARC
8
DEFAULT_255_1_234
10
5.9710021
20
84.6985496
40
0.502348
50
78.2171172
51
90.4130393
0
ARC
8
DEFAULT_255_1_234
10
6.0065099
20
84.8609637
40
0.3361092
50
55.9268222
51
78.4888551
0
ARC
8
DEFAULT_255_1_234
10
6.0261539
20
84.8948324
40
0.2970617
50
47.9292255
51
55.4054003
0
ARC
8
DEFAULT_255_1_234
10
6.03631
20
84.9051502
40
0.2825983
50
4.3347696
51
48.0560701
0
ARC
8
DEFAULT_255_1_234
10
5.9267493
20
84.8881601
40
0.393225
50
359.925209
51
5.5967654
0
ARC
8
DEFAULT_255_1_234
10
5.9696385
20
84.8937816
40
0.3503892
50
337.8914096
51
358.9967724
0
ARC
8
DEFAULT_255_1_234
10
5.6982797
20
84.9984706
40
0.6412172
50
326.9135351
51
338.3505194
0
ARC
8
DEFAULT_255_1_234
10
5.2997101
20
85.2539284
40
1.1146189
50
319.6472867
51
327.095818
0
ARC
8
DEFAULT_255_1_234
10
4.9164104
20
85.5701
40
1.6114559
50
317.2586784
51
319.9046139
0
LINE
8
DEFAULT_255_1_234
10
6.855691
20
84.5728026
11
6.855691
21
84.4515234
0
LINE
8
DEFAULT_255_1_234
10
6.855691
20
84.4515234
11
6.4637421
21
84.4515234
0
LINE
8
DEFAULT_255_1_234
10
6.4637421
20
84.4515234
11
6.4637421
21
84.5728026
0
LINE
8
DEFAULT_255_1_234
10
6.4637421
20
84.5728026
11
6.855691
21
84.5728026
0
LINE
8
DEFAULT_255_1_234
10
4.1847364
20
93.1223211
11
4.3839235
21
93.1223211
0
LINE
8
DEFAULT_255_1_234
10
4.3839235
20
93.1223211
11
4.7662342
21
92.1681506
0
LINE
8
DEFAULT_255_1_234
10
4.7662342
20
92.1681506
11
5.148545
21
93.1223211
0
LINE
8
DEFAULT_255_1_234
10
5.148545
20
93.1223211
11
5.3485353
21
93.1223211
0
LINE
8
DEFAULT_255_1_234
10
5.3485353
20
93.1223211
11
5.3485353
21
91.9529
0
LINE
8
DEFAULT_255_1_234
10
5.3485353
20
91.9529
11
5.1943259
21
91.9529
0
LINE
8
DEFAULT_255_1_234
10
5.1943259
20
91.9529
11
5.1943259
21
92.4082996
0
LINE
8
DEFAULT_255_1_234
10
5.1943259
20
92.4082996
11
5.208783
21
92.8998419
0
LINE
8
DEFAULT_255_1_234
10
5.208783
20
92.8998419
11
4.8248659
21
91.9529
0
LINE
8
DEFAULT_255_1_234
10
4.8248659
20
91.9529
11
4.7067994
21
91.9529
0
LINE
8
DEFAULT_255_1_234
10
4.7067994
20
91.9529
11
4.3236854
21
92.8974324
0
LINE
8
DEFAULT_255_1_234
10
4.3236854
20
92.8974324
11
4.3389458
21
92.4082996
0
LINE
8
DEFAULT_255_1_234
10
4.3389458
20
92.4082996
11
4.3389458
21
91.9529
0
LINE
8
DEFAULT_255_1_234
10
4.3389458
20
91.9529
11
4.1847364
21
91.9529
0
LINE
8
DEFAULT_255_1_234
10
4.1847364
20
91.9529
11
4.1847364
21
93.1223211
0
LINE
8
DEFAULT_255_1_234
10
6.3484867
20
92.0741792
11
6.3484867
21
91.9529
0
LINE
8
DEFAULT_255_1_234
10
6.3484867
20
91.9529
11
5.5822588
21
91.9529
0
LINE
8
DEFAULT_255_1_234
10
5.5822588
20
91.9529
11
5.5822588
21
92.0597221
0
LINE
8
DEFAULT_255_1_234
10
5.5822588
20
92.0597221
11
5.9870584
21
92.5094995
0
LINE
8
DEFAULT_255_1_234
10
5.7083571
20
92.7777595
11
5.55977
21
92.7777595
0
LINE
8
DEFAULT_255_1_234
10
6.0746044
20
92.4139218
11
5.7613666
21
92.0741792
0
LINE
8
DEFAULT_255_1_234
10
5.7613666
20
92.0741792
11
6.3484867
21
92.0741792
0
ARC
8
DEFAULT_255_1_234
10
4.6380418
20
93.7024527
40
1.8008286
50
318.5132453
51
320.7828378
0
ARC
8
DEFAULT_255_1_234
10
5.1667392
20
93.2721426
40
1.1191493
50
320.7372736
51
323.9737074
0
ARC
8
DEFAULT_255_1_234
10
5.5587249
20
92.9881361
40
0.6350923
50
323.8961724
51
328.6421089
0
ARC
8
DEFAULT_255_1_234
10
5.7633844
20
92.8619031
40
0.3946393
50
328.8299013
51
331.789948
0
ARC
8
DEFAULT_255_1_234
10
5.8631023
20
92.8104509
40
0.2824501
50
331.4255242
51
352.9364833
0
ARC
8
DEFAULT_255_1_234
10
5.8767523
20
92.8073976
40
0.2685315
50
353.2248685
51
0.0169286
0
ARC
8
DEFAULT_255_1_234
10
5.89774
20
92.809695
40
0.2475536
50
359.4866256
51
15.9339782
0
ARC
8
DEFAULT_255_1_234
10
5.9484385
20
92.8233286
40
0.1950618
50
16.1714718
51
43.5284424
0
ARC
8
DEFAULT_255_1_234
10
5.9561694
20
92.8310573
40
0.184134
50
43.4415429
51
83.1661404
0
ARC
8
DEFAULT_255_1_234
10
5.9427612
20
92.7573771
40
0.258926
50
82.160215
51
90.1505798
0
ARC
8
DEFAULT_255_1_234
10
5.9396039
20
92.7036865
40
0.3126255
50
89.5460705
51
102.5418777
0
ARC
8
DEFAULT_255_1_234
10
5.9153126
20
92.8067665
40
0.2067346
50
102.1739365
51
129.2061916
0
ARC
8
DEFAULT_255_1_234
10
5.9074197
20
92.8192094
40
0.1921118
50
129.7279328
51
135.7542026
0
ARC
8
DEFAULT_255_1_234
10
5.9195725
20
92.8095045
40
0.2075944
50
136.175737
51
166.3674722
0
ARC
8
DEFAULT_255_1_234
10
6.0202644
20
92.7825182
40
0.3118201
50
165.9092917
51
178.8683903
0
ARC
8
DEFAULT_255_1_234
10
6.1067505
20
92.7778179
40
0.3983935
50
178.438168
51
180.0083905
0
ARC
8
DEFAULT_255_1_234
10
5.9666108
20
92.7817231
40
0.4068601
50
163.2878735
51
180.5581814
0
ARC
8
DEFAULT_255_1_234
10
5.8864369
20
92.803784
40
0.3237344
50
133.454115
51
162.9470031
0
ARC
8
DEFAULT_255_1_234
10
5.904291
20
92.7848
40
0.349795
50
100.7869394
51
133.4384016
0
ARC
8
DEFAULT_255_1_234
10
5.9390682
20
92.6299319
40
0.5084616
50
89.6605301
51
101.3704185
0
ARC
8
DEFAULT_255_1_234
10
5.9457021
20
92.6360496
40
0.502348
50
78.2171172
51
90.4130393
0
ARC
8
DEFAULT_255_1_234
10
5.9812099
20
92.7984637
40
0.3361092
50
55.9268222
51
78.4888551
0
ARC
8
DEFAULT_255_1_234
10
6.0008539
20
92.8323324
40
0.2970617
50
47.9292255
51
55.4054003
0
ARC
8
DEFAULT_255_1_234
10
6.01101
20
92.8426502
40
0.2825983
50
4.3347696
51
48.0560701
0
ARC
8
DEFAULT_255_1_234
10
5.9014493
20
92.8256601
40
0.393225
50
359.925209
51
5.5967654
0
ARC
8
DEFAULT_255_1_234
10
5.9443385
20
92.8312816
40
0.3503892
50
337.8914096
51
358.9967724
0
ARC
8
DEFAULT_255_1_234
10
5.6729797
20
92.9359706
40
0.6412172
50
326.9135351
51
338.3505194
0
ARC
8
DEFAULT_255_1_234
10
5.2744101
20
93.1914284
40
1.1146189
50
319.6472867
51
327.095818
0
ARC
8
DEFAULT_255_1_234
10
4.8911104
20
93.5076
40
1.6114559
50
317.2586784
51
319.9046139
0
LINE
8
DEFAULT_255_1_234
10
6.9468512
20
92.9215276
11
6.9468512
21
92.5801788
0
LINE
8
DEFAULT_255_1_234
10
6.9468512
20
92.5801788
11
7.2729397
21
92.5801788
0
LINE
8
DEFAULT_255_1_234
10
7.2729397
20
92.5801788
11
7.2729397
21
92.4396233
0
LINE
8
DEFAULT_255_1_234
10
7.2729397
20
92.4396233
11
6.9468512
21
92.4396233
0
LINE
8
DEFAULT_255_1_234
10
6.9468512
20
92.4396233
11
6.9468512
21
92.0701634
0
LINE
8
DEFAULT_255_1_234
10
6.9468512
20
92.0701634
11
6.7974608
21
92.0701634
0
LINE
8
DEFAULT_255_1_234
10
6.7974608
20
92.0701634
11
6.7974608
21
92.4396233
0
LINE
8
DEFAULT_255_1_234
10
6.7974608
20
92.4396233
11
6.4713723
21
92.4396233
0
LINE
8
DEFAULT_255_1_234
10
6.4713723
20
92.4396233
11
6.4713723
21
92.5801788
0
LINE
8
DEFAULT_255_1_234
10
6.4713723
20
92.5801788
11
6.7974608
21
92.5801788
0
LINE
8
DEFAULT_255_1_234
10
6.7974608
20
92.5801788
11
6.7974608
21
92.9215276
0
LINE
8
DEFAULT_255_1_234
10
6.7974608
20
92.9215276
11
6.9468512
21
92.9215276
0
LINE
8
DEFAULT_255_1_234
10
4.2100364
20
101.0598211
11
4.4092235
21
101.0598211
0
LINE
8
DEFAULT_255_1_234
10
4.4092235
20
101.0598211
11
4.7915342
21
100.1056506
0
LINE
8
DEFAULT_255_1_234
10
4.7915342
20
100.1056506
11
5.173845
21
101.0598211
0
LINE
8
DEFAULT_255_1_234
10
5.173845
20
101.0598211
11
5.3738353
21
101.0598211
0
LINE
8
DEFAULT_255_1_234
10
5.3738353
20
101.0598211
11
5.3738353
21
99.8904
0
LINE
8
DEFAULT_255_1_234
10
5.3738353
20
99.8904
11
5.2196259
21
99.8904
0
LINE
8
DEFAULT_255_1_234
10
5.2196259
20
99.8904
11
5.2196259
21
100.3457996
0
LINE
8
DEFAULT_255_1_234
10
5.2196259
20
100.3457996
11
5.234083
21
100.8373419
0
LINE
8
DEFAULT_255_1_234
10
5.234083
20
100.8373419
11
4.8501659
21
99.8904
0
LINE
8
DEFAULT_255_1_234
10
4.8501659
20
99.8904
11
4.7320994
21
99.8904
0
LINE
8
DEFAULT_255_1_234
10
4.7320994
20
99.8904
11
4.3489854
21
100.8349324
0
LINE
8
DEFAULT_255_1_234
10
4.3489854
20
100.8349324
11
4.3642458
21
100.3457996
0
LINE
8
DEFAULT_255_1_234
10
4.3642458
20
100.3457996
11
4.3642458
21
99.8904
0
LINE
8
DEFAULT_255_1_234
10
4.3642458
20
99.8904
11
4.2100364
21
99.8904
0
LINE
8
DEFAULT_255_1_234
10
4.2100364
20
99.8904
11
4.2100364
21
101.0598211
0
LINE
8
DEFAULT_255_1_234
10
6.0958885
20
101.0654433
11
6.0958885
21
99.8904
0
LINE
8
DEFAULT_255_1_234
10
6.0958885
20
99.8904
11
5.9464982
21
99.8904
0
LINE
8
DEFAULT_255_1_234
10
5.9464982
20
99.8904
11
5.9464982
21
100.8807133
0
LINE
8
DEFAULT_255_1_234
10
5.9464982
20
100.8807133
11
5.6469144
21
100.7706785
0
LINE
8
DEFAULT_255_1_234
10
5.6469144
20
100.7706785
11
5.6469144
21
100.9056117
0
LINE
8
DEFAULT_255_1_234
10
5.6469144
20
100.9056117
11
6.0725965
21
101.0654433
0
LINE
8
DEFAULT_255_1_234
10
6.0725965
20
101.0654433
11
6.0958885
21
101.0654433
0
LINE
8
DEFAULT_255_1_234
10
6.855691
20
100.4478026
11
6.855691
21
100.3265234
0
LINE
8
DEFAULT_255_1_234
10
6.855691
20
100.3265234
11
6.4637421
21
100.3265234
0
LINE
8
DEFAULT_255_1_234
10
6.4637421
20
100.3265234
11
6.4637421
21
100.4478026
0
LINE
8
DEFAULT_255_1_234
10
6.4637421
20
100.4478026
11
6.855691
21
100.4478026
0
LINE
8
DEFAULT_255_1_234
10
4.1847364
20
108.9973211
11
4.3839235
21
108.9973211
0
LINE
8
DEFAULT_255_1_234
10
4.3839235
20
108.9973211
11
4.7662342
21
108.0431506
0
LINE
8
DEFAULT_255_1_234
10
4.7662342
20
108.0431506
11
5.148545
21
108.9973211
0
LINE
8
DEFAULT_255_1_234
10
5.148545
20
108.9973211
11
5.3485353
21
108.9973211
0
LINE
8
DEFAULT_255_1_234
10
5.3485353
20
108.9973211
11
5.3485353
21
107.8279
0
LINE
8
DEFAULT_255_1_234
10
5.3485353
20
107.8279
11
5.1943259
21
107.8279
0
LINE
8
DEFAULT_255_1_234
10
5.1943259
20
107.8279
11
5.1943259
21
108.2832996
0
LINE
8
DEFAULT_255_1_234
10
5.1943259
20
108.2832996
11
5.208783
21
108.7748419
0
LINE
8
DEFAULT_255_1_234
10
5.208783
20
108.7748419
11
4.8248659
21
107.8279
0
LINE
8
DEFAULT_255_1_234
10
4.8248659
20
107.8279
11
4.7067994
21
107.8279
0
LINE
8
DEFAULT_255_1_234
10
4.7067994
20
107.8279
11
4.3236854
21
108.7724324
0
LINE
8
DEFAULT_255_1_234
10
4.3236854
20
108.7724324
11
4.3389458
21
108.2832996
0
LINE
8
DEFAULT_255_1_234
10
4.3389458
20
108.2832996
11
4.3389458
21
107.8279
0
LINE
8
DEFAULT_255_1_234
10
4.3389458
20
107.8279
11
4.1847364
21
107.8279
0
LINE
8
DEFAULT_255_1_234
10
4.1847364
20
107.8279
11
4.1847364
21
108.9973211
0
LINE
8
DEFAULT_255_1_234
10
6.0705885
20
109.0029433
11
6.0705885
21
107.8279
0
LINE
8
DEFAULT_255_1_234
10
6.0705885
20
107.8279
11
5.9211982
21
107.8279
0
LINE
8
DEFAULT_255_1_234
10
5.9211982
20
107.8279
11
5.9211982
21
108.8182133
0
LINE
8
DEFAULT_255_1_234
10
5.9211982
20
108.8182133
11
5.6216144
21
108.7081785
0
LINE
8
DEFAULT_255_1_234
10
5.6216144
20
108.7081785
11
5.6216144
21
108.8431117
0
LINE
8
DEFAULT_255_1_234
10
5.6216144
20
108.8431117
11
6.0472965
21
109.0029433
0
LINE
8
DEFAULT_255_1_234
10
6.0472965
20
109.0029433
11
6.0705885
21
109.0029433
0
LINE
8
DEFAULT_255_1_234
10
6.9468512
20
108.7965276
11
6.9468512
21
108.4551788
0
LINE
8
DEFAULT_255_1_234
10
6.9468512
20
108.4551788
11
7.2729397
21
108.4551788
0
LINE
8
DEFAULT_255_1_234
10
7.2729397
20
108.4551788
11
7.2729397
21
108.3146233
0
LINE
8
DEFAULT_255_1_234
10
7.2729397
20
108.3146233
11
6.9468512
21
108.3146233
0
LINE
8
DEFAULT_255_1_234
10
6.9468512
20
108.3146233
11
6.9468512
21
107.9451634
0
LINE
8
DEFAULT_255_1_234
10
6.9468512
20
107.9451634
11
6.7974608
21
107.9451634
0
LINE
8
DEFAULT_255_1_234
10
6.7974608
20
107.9451634
11
6.7974608
21
108.3146233
0
LINE
8
DEFAULT_255_1_234
10
6.7974608
20
108.3146233
11
6.4713723
21
108.3146233
0
LINE
8
DEFAULT_255_1_234
10
6.4713723
20
108.3146233
11
6.4713723
21
108.4551788
0
LINE
8
DEFAULT_255_1_234
10
6.4713723
20
108.4551788
11
6.7974608
21
108.4551788
0
LINE
8
DEFAULT_255_1_234
10
6.7974608
20
108.4551788
11
6.7974608
21
108.7965276
0
LINE
8
DEFAULT_255_1_234
10
6.7974608
20
108.7965276
11
6.9468512
21
108.7965276
0
LINE
8
DEFAULT_255_1_234
10
4.1847364
20
116.9348211
11
4.3839235
21
116.9348211
0
LINE
8
DEFAULT_255_1_234
10
4.3839235
20
116.9348211
11
4.7662342
21
115.9806506
0
LINE
8
DEFAULT_255_1_234
10
4.7662342
20
115.9806506
11
5.148545
21
116.9348211
0
LINE
8
DEFAULT_255_1_234
10
5.148545
20
116.9348211
11
5.3485353
21
116.9348211
0
LINE
8
DEFAULT_255_1_234
10
5.3485353
20
116.9348211
11
5.3485353
21
115.7654
0
LINE
8
DEFAULT_255_1_234
10
5.3485353
20
115.7654
11
5.1943259
21
115.7654
0
LINE
8
DEFAULT_255_1_234
10
5.1943259
20
115.7654
11
5.1943259
21
116.2207996
0
LINE
8
DEFAULT_255_1_234
10
5.1943259
20
116.2207996
11
5.208783
21
116.7123419
0
LINE
8
DEFAULT_255_1_234
10
5.208783
20
116.7123419
11
4.8248659
21
115.7654
0
LINE
8
DEFAULT_255_1_234
10
4.8248659
20
115.7654
11
4.7067994
21
115.7654
0
LINE
8
DEFAULT_255_1_234
10
4.7067994
20
115.7654
11
4.3236854
21
116.7099324
0
LINE
8
DEFAULT_255_1_234
10
4.3236854
20
116.7099324
11
4.3389458
21
116.2207996
0
LINE
8
DEFAULT_255_1_234
10
4.3389458
20
116.2207996
11
4.3389458
21
115.7654
0
LINE
8
DEFAULT_255_1_234
10
4.3389458
20
115.7654
11
4.1847364
21
115.7654
0
LINE
8
DEFAULT_255_1_234
10
4.1847364
20
115.7654
11
4.1847364
21
116.9348211
0
LINE
8
DEFAULT_255_1_234
10
6.3155565
20
116.4569327
11
6.3155565
21
116.2641709
0
LINE
8
DEFAULT_255_1_234
10
5.5774398
20
116.2440916
11
5.5774398
21
116.4424755
0
LINE
8
DEFAULT_255_1_234
10
6.1669694
20
116.2240123
11
6.1669694
21
116.4673739
0
LINE
8
DEFAULT_255_1_234
10
5.726027
20
116.4786184
11
5.726027
21
116.2408789
0
ARC
8
DEFAULT_255_1_234
10
5.0908455
20
116.2592805
40
1.2247208
50
353.8441951
51
0.2287902
0
ARC
8
DEFAULT_255_1_234
10
5.5547959
20
116.2074806
40
0.7578929
50
344.4934747
51
353.9765454
0
ARC
8
DEFAULT_255_1_234
10
5.8540549
20
116.1223981
40
0.4467846
50
329.2803592
51
344.7472793
0
ARC
8
DEFAULT_255_1_234
10
5.9533374
20
116.0679018
40
0.3336173
50
324.9352394
51
328.6160465
0
ARC
8
DEFAULT_255_1_234
10
5.9910482
20
116.0415427
40
0.2876076
50
280.580143
51
324.9173126
0
ARC
8
DEFAULT_255_1_234
10
5.9509275
20
116.2086099
40
0.4592847
50
269.5977311
51
281.6734359
0
ARC
8
DEFAULT_255_1_234
10
5.9437181
20
116.1966173
40
0.4472986
50
256.6228859
51
270.51044
0
ARC
8
DEFAULT_255_1_234
10
5.9035159
20
116.0417877
40
0.2873874
50
215.8618325
51
257.2788573
0
ARC
8
DEFAULT_255_1_234
10
6.005619
20
116.1102977
40
0.4102928
50
197.9693508
51
215.2623606
0
ARC
8
DEFAULT_255_1_234
10
6.2541306
20
116.1941709
40
0.6725652
50
187.8816417
51
198.2346507
0
ARC
8
DEFAULT_255_1_234
10
6.6499514
20
116.2513079
40
1.0724845
50
180.8976217
51
188.0055519
0
ARC
8
DEFAULT_255_1_234
10
6.9299702
20
116.2616777
40
1.3526448
50
180.7449369
51
181.1510016
0
ARC
8
DEFAULT_255_1_234
10
6.7722431
20
116.4473042
40
1.1948131
50
173.7675579
51
180.231553
0
ARC
8
DEFAULT_255_1_234
10
6.3204578
20
116.4983666
40
0.7401564
50
164.3058563
51
173.9002247
0
ARC
8
DEFAULT_255_1_234
10
6.0292647
20
116.5822656
40
0.4371288
50
148.7922025
51
164.568378
0
ARC
8
DEFAULT_255_1_234
10
5.9341099
20
116.6353929
40
0.3282386
50
144.5883898
51
148.1176286
0
ARC
8
DEFAULT_255_1_234
10
5.8997997
20
116.6593315
40
0.2864044
50
101.6440918
51
144.514236
0
ARC
8
DEFAULT_255_1_234
10
5.9423064
20
116.4904069
40
0.4604934
50
89.5284041
51
102.5819763
0
ARC
8
DEFAULT_255_1_234
10
5.9502151
20
116.4865018
40
0.464401
50
77.0437873
51
90.5081339
0
ARC
8
DEFAULT_255_1_234
10
5.9904153
20
116.6507615
40
0.2953195
50
48.2778575
51
77.4994676
0
ARC
8
DEFAULT_255_1_234
10
5.9976784
20
116.6636746
40
0.2808655
50
36.3142134
51
47.6305865
0
ARC
8
DEFAULT_255_1_234
10
5.9108091
20
116.6051515
40
0.3855453
50
18.2931786
51
35.6769206
0
ARC
8
DEFAULT_255_1_234
10
5.656485
20
116.5178593
40
0.654423
50
8.024666
51
18.5605216
0
ARC
8
DEFAULT_255_1_234
10
5.240177
20
116.4563792
40
1.0752407
50
1.1274072
51
8.1718305
0
ARC
8
DEFAULT_255_1_234
10
4.9165961
20
116.4436885
40
1.3990231
50
0.5424119
51
1.3863029
0
ARC
8
DEFAULT_255_1_234
10
5.0987338
20
116.4709342
40
1.0682415
50
359.8090433
51
4.9407866
0
ARC
8
DEFAULT_255_1_234
10
5.5197352
20
116.5085113
40
0.6455691
50
4.8362157
51
12.2904523
0
ARC
8
DEFAULT_255_1_234
10
5.7952467
20
116.5698965
40
0.3633074
50
12.0805627
51
23.8173984
0
ARC
8
DEFAULT_255_1_234
10
5.9126173
20
116.6195919
40
0.2358723
50
24.2871213
51
31.3935614
0
ARC
8
DEFAULT_255_1_234
10
5.965087
20
116.6539233
40
0.1732111
50
30.7407893
51
82.4657128
0
ARC
8
DEFAULT_255_1_234
10
5.9471004
20
116.5655691
40
0.263235
50
81.1060089
51
90.2184952
0
ARC
8
DEFAULT_255_1_234
10
5.9435303
20
116.5913924
40
0.2374236
50
89.3806855
51
105.6762551
0
ARC
8
DEFAULT_255_1_234
10
5.9251934
20
116.6580567
40
0.1682847
50
105.7981136
51
149.7388061
0
ARC
8
DEFAULT_255_1_234
10
6.0316012
20
116.594095
40
0.2924306
50
149.4208916
51
163.6286378
0
ARC
8
DEFAULT_255_1_234
10
6.24069
20
116.530325
40
0.5110213
50
163.3763315
51
172.1410975
0
ARC
8
DEFAULT_255_1_234
10
6.5707619
20
116.4830518
40
0.8444586
50
172.0259487
51
178.0703232
0
ARC
8
DEFAULT_255_1_234
10
6.8737709
20
116.4686906
40
1.1477868
50
177.8631668
51
179.5044149
0
ARC
8
DEFAULT_255_1_234
10
6.7665113
20
116.2372389
40
1.0404907
50
179.7995573
51
185.2460446
0
ARC
8
DEFAULT_255_1_234
10
6.3622152
20
116.1989513
40
0.6343885
50
185.1411642
51
193.0079639
0
ARC
8
DEFAULT_255_1_234
10
6.0978625
20
116.1364641
40
0.3627568
50
192.7897626
51
205.2507664
0
ARC
8
DEFAULT_255_1_234
10
5.9932172
20
116.0897415
40
0.2481908
50
205.8005384
51
211.2537509
0
ARC
8
DEFAULT_255_1_234
10
5.9408612
20
116.054658
40
0.1852521
50
210.3789793
51
238.4008143
0
ARC
8
DEFAULT_255_1_234
10
5.9389134
20
116.0593376
40
0.1882621
50
239.6520629
51
265.9793761
0
ARC
8
DEFAULT_255_1_234
10
5.9474334
20
116.1265427
40
0.2559272
50
265.1315437
51
270.060332
0
ARC
8
DEFAULT_255_1_234
10
5.9503113
20
116.0941534
40
0.2235528
50
269.3314664
51
287.2178029
0
ARC
8
DEFAULT_255_1_234
10
5.9640965
20
116.0438279
40
0.1714108
50
287.7958004
51
329.080874
0
ARC
8
DEFAULT_255_1_234
10
5.8683422
20
116.103593
40
0.2842745
50
328.6634704
51
343.3325132
0
ARC
8
DEFAULT_255_1_234
10
5.6510442
20
116.1712863
40
0.5118644
50
343.0499468
51
351.9393422
0
ARC
8
DEFAULT_255_1_234
10
5.3043742
20
116.2223949
40
0.8622784
50
351.8069023
51
357.7959224
0
ARC
8
DEFAULT_255_1_234
10
4.9808298
20
116.2391721
40
1.1862365
50
357.5871873
51
359.2677531
0
LINE
8
DEFAULT_255_1_234
10
6.9468512
20
116.7340276
11
6.9468512
21
116.3926788
0
LINE
8
DEFAULT_255_1_234
10
6.9468512
20
116.3926788
11
7.2729397
21
116.3926788
0
LINE
8
DEFAULT_255_1_234
10
7.2729397
20
116.3926788
11
7.2729397
21
116.2521233
0
LINE
8
DEFAULT_255_1_234
10
7.2729397
20
116.2521233
11
6.9468512
21
116.2521233
0
LINE
8
DEFAULT_255_1_234
10
6.9468512
20
116.2521233
11
6.9468512
21
115.8826634
0
LINE
8
DEFAULT_255_1_234
10
6.9468512
20
115.8826634
11
6.7974608
21
115.8826634
0
LINE
8
DEFAULT_255_1_234
10
6.7974608
20
115.8826634
11
6.7974608
21
116.2521233
0
LINE
8
DEFAULT_255_1_234
10
6.7974608
20
116.2521233
11
6.4713723
21
116.2521233
0
LINE
8
DEFAULT_255_1_234
10
6.4713723
20
116.2521233
11
6.4713723
21
116.3926788
0
LINE
8
DEFAULT_255_1_234
10
6.4713723
20
116.3926788
11
6.7974608
21
116.3926788
0
LINE
8
DEFAULT_255_1_234
10
6.7974608
20
116.3926788
11
6.7974608
21
116.7340276
0
LINE
8
DEFAULT_255_1_234
10
6.7974608
20
116.7340276
11
6.9468512
21
116.7340276
0
LINE
8
DEFAULT_255_1_234
10
4.2100364
20
124.8723211
11
4.4092235
21
124.8723211
0
LINE
8
DEFAULT_255_1_234
10
4.4092235
20
124.8723211
11
4.7915342
21
123.9181506
0
LINE
8
DEFAULT_255_1_234
10
4.7915342
20
123.9181506
11
5.173845
21
124.8723211
0
LINE
8
DEFAULT_255_1_234
10
5.173845
20
124.8723211
11
5.3738353
21
124.8723211
0
LINE
8
DEFAULT_255_1_234
10
5.3738353
20
124.8723211
11
5.3738353
21
123.7029
0
LINE
8
DEFAULT_255_1_234
10
5.3738353
20
123.7029
11
5.2196259
21
123.7029
0
LINE
8
DEFAULT_255_1_234
10
5.2196259
20
123.7029
11
5.2196259
21
124.1582996
0
LINE
8
DEFAULT_255_1_234
10
5.2196259
20
124.1582996
11
5.234083
21
124.6498419
0
LINE
8
DEFAULT_255_1_234
10
5.234083
20
124.6498419
11
4.8501659
21
123.7029
0
LINE
8
DEFAULT_255_1_234
10
4.8501659
20
123.7029
11
4.7320994
21
123.7029
0
LINE
8
DEFAULT_255_1_234
10
4.7320994
20
123.7029
11
4.3489854
21
124.6474324
0
LINE
8
DEFAULT_255_1_234
10
4.3489854
20
124.6474324
11
4.3642458
21
124.1582996
0
LINE
8
DEFAULT_255_1_234
10
4.3642458
20
124.1582996
11
4.3642458
21
123.7029
0
LINE
8
DEFAULT_255_1_234
10
4.3642458
20
123.7029
11
4.2100364
21
123.7029
0
LINE
8
DEFAULT_255_1_234
10
4.2100364
20
123.7029
11
4.2100364
21
124.8723211
0
LINE
8
DEFAULT_255_1_234
10
6.3408565
20
124.3944327
11
6.3408565
21
124.2016709
0
LINE
8
DEFAULT_255_1_234
10
5.6027398
20
124.1815916
11
5.6027398
21
124.3799755
0
LINE
8
DEFAULT_255_1_234
10
6.1922694
20
124.1615123
11
6.1922694
21
124.4048739
0
LINE
8
DEFAULT_255_1_234
10
5.751327
20
124.4161184
11
5.751327
21
124.1783789
0
ARC
8
DEFAULT_255_1_234
10
5.1161455
20
124.1967805
40
1.2247208
50
353.8441951
51
0.2287902
0
ARC
8
DEFAULT_255_1_234
10
5.5800959
20
124.1449806
40
0.7578929
50
344.4934747
51
353.9765454
0
ARC
8
DEFAULT_255_1_234
10
5.8793549
20
124.0598981
40
0.4467846
50
329.2803592
51
344.7472793
0
ARC
8
DEFAULT_255_1_234
10
5.9786374
20
124.0054018
40
0.3336173
50
324.9352394
51
328.6160465
0
ARC
8
DEFAULT_255_1_234
10
6.0163482
20
123.9790427
40
0.2876076
50
280.580143
51
324.9173126
0
ARC
8
DEFAULT_255_1_234
10
5.9762275
20
124.1461099
40
0.4592847
50
269.5977311
51
281.6734359
0
ARC
8
DEFAULT_255_1_234
10
5.9690181
20
124.1341173
40
0.4472986
50
256.6228859
51
270.51044
0
ARC
8
DEFAULT_255_1_234
10
5.9288159
20
123.9792877
40
0.2873874
50
215.8618325
51
257.2788573
0
ARC
8
DEFAULT_255_1_234
10
6.030919
20
124.0477977
40
0.4102928
50
197.9693508
51
215.2623606
0
ARC
8
DEFAULT_255_1_234
10
6.2794306
20
124.1316709
40
0.6725652
50
187.8816417
51
198.2346507
0
ARC
8
DEFAULT_255_1_234
10
6.6752514
20
124.1888079
40
1.0724845
50
180.8976217
51
188.0055519
0
ARC
8
DEFAULT_255_1_234
10
6.9552702
20
124.1991777
40
1.3526448
50
180.7449369
51
181.1510016
0
ARC
8
DEFAULT_255_1_234
10
6.7975431
20
124.3848042
40
1.1948131
50
173.7675579
51
180.231553
0
ARC
8
DEFAULT_255_1_234
10
6.3457578
20
124.4358666
40
0.7401564
50
164.3058563
51
173.9002247
0
ARC
8
DEFAULT_255_1_234
10
6.0545647
20
124.5197656
40
0.4371288
50
148.7922025
51
164.568378
0
ARC
8
DEFAULT_255_1_234
10
5.9594099
20
124.5728929
40
0.3282386
50
144.5883898
51
148.1176286
0
ARC
8
DEFAULT_255_1_234
10
5.9250997
20
124.5968315
40
0.2864044
50
101.6440918
51
144.514236
0
ARC
8
DEFAULT_255_1_234
10
5.9676064
20
124.4279069
40
0.4604934
50
89.5284041
51
102.5819763
0
ARC
8
DEFAULT_255_1_234
10
5.9755151
20
124.4240018
40
0.464401
50
77.0437873
51
90.5081339
0
ARC
8
DEFAULT_255_1_234
10
6.0157153
20
124.5882615
40
0.2953195
50
48.2778575
51
77.4994676
0
ARC
8
DEFAULT_255_1_234
10
6.0229784
20
124.6011746
40
0.2808655
50
36.3142134
51
47.6305865
0
ARC
8
DEFAULT_255_1_234
10
5.9361091
20
124.5426515
40
0.3855453
50
18.2931786
51
35.6769206
0
ARC
8
DEFAULT_255_1_234
10
5.681785
20
124.4553593
40
0.654423
50
8.024666
51
18.5605216
0
ARC
8
DEFAULT_255_1_234
10
5.265477
20
124.3938792
40
1.0752407
50
1.1274072
51
8.1718305
0
ARC
8
DEFAULT_255_1_234
10
4.9418961
20
124.3811885
40
1.3990231
50
0.5424119
51
1.3863029
0
ARC
8
DEFAULT_255_1_234
10
5.1240338
20
124.4084342
40
1.0682415
50
359.8090433
51
4.9407866
0
ARC
8
DEFAULT_255_1_234
10
5.5450352
20
124.4460113
40
0.6455691
50
4.8362157
51
12.2904523
0
ARC
8
DEFAULT_255_1_234
10
5.8205467
20
124.5073965
40
0.3633074
50
12.0805627
51
23.8173984
0
ARC
8
DEFAULT_255_1_234
10
5.9379173
20
124.5570919
40
0.2358723
50
24.2871213
51
31.3935614
0
ARC
8
DEFAULT_255_1_234
10
5.990387
20
124.5914233
40
0.1732111
50
30.7407893
51
82.4657128
0
ARC
8
DEFAULT_255_1_234
10
5.9724004
20
124.5030691
40
0.263235
50
81.1060089
51
90.2184952
0
ARC
8
DEFAULT_255_1_234
10
5.9688303
20
124.5288924
40
0.2374236
50
89.3806855
51
105.6762551
0
ARC
8
DEFAULT_255_1_234
10
5.9504934
20
124.5955567
40
0.1682847
50
105.7981136
51
149.7388061
0
ARC
8
DEFAULT_255_1_234
10
6.0569012
20
124.531595
40
0.2924306
50
149.4208916
51
163.6286378
0
ARC
8
DEFAULT_255_1_234
10
6.26599
20
124.467825
40
0.5110213
50
163.3763315
51
172.1410975
0
ARC
8
DEFAULT_255_1_234
10
6.5960619
20
124.4205518
40
0.8444586
50
172.0259487
51
178.0703232
0
ARC
8
DEFAULT_255_1_234
10
6.8990709
20
124.4061906
40
1.1477868
50
177.8631668
51
179.5044149
0
ARC
8
DEFAULT_255_1_234
10
6.7918113
20
124.1747389
40
1.0404907
50
179.7995573
51
185.2460446
0
ARC
8
DEFAULT_255_1_234
10
6.3875152
20
124.1364513
40
0.6343885
50
185.1411642
51
193.0079639
0
ARC
8
DEFAULT_255_1_234
10
6.1231625
20
124.0739641
40
0.3627568
50
192.7897626
51
205.2507664
0
ARC
8
DEFAULT_255_1_234
10
6.0185172
20
124.0272415
40
0.2481908
50
205.8005384
51
211.2537509
0
ARC
8
DEFAULT_255_1_234
10
5.9661612
20
123.992158
40
0.1852521
50
210.3789793
51
238.4008143
0
ARC
8
DEFAULT_255_1_234
10
5.9642134
20
123.9968376
40
0.1882621
50
239.6520629
51
265.9793761
0
ARC
8
DEFAULT_255_1_234
10
5.9727334
20
124.0640427
40
0.2559272
50
265.1315437
51
270.060332
0
ARC
8
DEFAULT_255_1_234
10
5.9756113
20
124.0316534
40
0.2235528
50
269.3314664
51
287.2178029
0
ARC
8
DEFAULT_255_1_234
10
5.9893965
20
123.9813279
40
0.1714108
50
287.7958004
51
329.080874
0
ARC
8
DEFAULT_255_1_234
10
5.8936422
20
124.041093
40
0.2842745
50
328.6634704
51
343.3325132
0
ARC
8
DEFAULT_255_1_234
10
5.6763442
20
124.1087863
40
0.5118644
50
343.0499468
51
351.9393422
0
ARC
8
DEFAULT_255_1_234
10
5.3296742
20
124.1598949
40
0.8622784
50
351.8069023
51
357.7959224
0
ARC
8
DEFAULT_255_1_234
10
5.0061298
20
124.1766721
40
1.1862365
50
357.5871873
51
359.2677531
0
LINE
8
DEFAULT_255_1_234
10
6.855691
20
124.2603026
11
6.855691
21
124.1390234
0
LINE
8
DEFAULT_255_1_234
10
6.855691
20
124.1390234
11
6.4637421
21
124.1390234
0
LINE
8
DEFAULT_255_1_234
10
6.4637421
20
124.1390234
11
6.4637421
21
124.2603026
0
LINE
8
DEFAULT_255_1_234
10
6.4637421
20
124.2603026
11
6.855691
21
124.2603026
0
LINE
8
DEFAULT_255_1_234
10
23.0434364
20
132.8098211
11
23.2426235
21
132.8098211
0
LINE
8
DEFAULT_255_1_234
10
23.2426235
20
132.8098211
11
23.6249342
21
131.8556506
0
LINE
8
DEFAULT_255_1_234
10
23.6249342
20
131.8556506
11
24.007245
21
132.8098211
0
LINE
8
DEFAULT_255_1_234
10
24.007245
20
132.8098211
11
24.2072353
21
132.8098211
0
LINE
8
DEFAULT_255_1_234
10
24.2072353
20
132.8098211
11
24.2072353
21
131.6404
0
LINE
8
DEFAULT_255_1_234
10
24.2072353
20
131.6404
11
24.0530259
21
131.6404
0
LINE
8
DEFAULT_255_1_234
10
24.0530259
20
131.6404
11
24.0530259
21
132.0957996
0
LINE
8
DEFAULT_255_1_234
10
24.0530259
20
132.0957996
11
24.067483
21
132.5873419
0
LINE
8
DEFAULT_255_1_234
10
24.067483
20
132.5873419
11
23.6835659
21
131.6404
0
LINE
8
DEFAULT_255_1_234
10
23.6835659
20
131.6404
11
23.5654994
21
131.6404
0
LINE
8
DEFAULT_255_1_234
10
23.5654994
20
131.6404
11
23.1823854
21
132.5849324
0
LINE
8
DEFAULT_255_1_234
10
23.1823854
20
132.5849324
11
23.1976458
21
132.0957996
0
LINE
8
DEFAULT_255_1_234
10
23.1976458
20
132.0957996
11
23.1976458
21
131.6404
0
LINE
8
DEFAULT_255_1_234
10
23.1976458
20
131.6404
11
23.0434364
21
131.6404
0
LINE
8
DEFAULT_255_1_234
10
23.0434364
20
131.6404
11
23.0434364
21
132.8098211
0
ENDSEC
0
EOF