0
SECTION
2
HEADER
9
$MEASUREMENT
70
1
0
ENDSEC
0
SECTION
2
TABLES
0
TABLE
2
LTYPE
0
LTYPE
72
65
70
64
2
CONTINUOUS
3
______
73
0
40
0
0
ENDTAB
0
TABLE
2
LAYER
0
LAYER
2
DEFAULT_255_2_778
70
0
62
255
6
CONTINUOUS
0
ENDTAB
0
ENDSEC
0
SECTION
2
ENTITIES
0
ARC
8
DEFAULT_255_2_778
10
1.7423513
20
103.8996101
40
1.1945379
50
54.6011629
51
90.0943757
0
ARC
8
DEFAULT_255_2_778
10
1.7415127
20
103.8949925
40
1.1987895
50
5.343082
51
54.6963316
0
ARC
8
DEFAULT_255_2_778
10
1.7248302
20
103.8944155
40
1.2154536
50
359.9920233
51
5.29693
0
ARC
8
DEFAULT_255_2_778
10
1.7457781
20
103.8923112
40
1.1945072
50
324.5574782
51
0.0928191
0
ARC
8
DEFAULT_255_2_778
10
1.7410768
20
103.8931486
40
1.1988245
50
275.3412053
51
324.6551664
0
ARC
8
DEFAULT_255_2_778
10
1.7405495
20
103.9096797
40
1.2153334
50
269.9921833
51
275.2934095
0
ARC
8
DEFAULT_255_2_778
10
1.7422987
20
77.9000094
40
1.1943384
50
54.5479662
51
90.0918639
0
ARC
8
DEFAULT_255_2_778
10
1.7412707
20
77.8949627
40
1.1990475
50
5.3464965
51
54.6478285
0
ARC
8
DEFAULT_255_2_778
10
1.7256927
20
77.8946094
40
1.2145911
50
359.9923059
51
5.2946162
0
ARC
8
DEFAULT_255_2_778
10
1.7458485
20
77.8925756
40
1.1944367
50
324.5564044
51
0.0897375
0
ARC
8
DEFAULT_255_2_778
10
1.7409608
20
77.8934332
40
1.1989178
50
275.3463574
51
324.6584672
0
ARC
8
DEFAULT_255_2_778
10
1.7405518
20
77.9094113
40
1.2148649
50
269.992075
51
275.2953508
0
ARC
8
DEFAULT_255_2_778
10
1.7423228
20
46.7003148
40
1.1943331
50
54.5492026
51
90.0930214
0
ARC
8
DEFAULT_255_2_778
10
1.7411873
20
46.6952522
40
1.1991174
50
5.3393739
51
54.6453076
0
ARC
8
DEFAULT_255_2_778
10
1.7247034
20
46.6947113
40
1.2155805
50
359.9922259
51
5.2924609
0
ARC
8
DEFAULT_255_2_778
10
1.7457475
20
46.6925787
40
1.1945379
50
324.6011629
51
0.0943757
0
ARC
8
DEFAULT_255_2_778
10
1.7411299
20
46.6934174
40
1.1987895
50
275.343082
51
324.6963316
0
ARC
8
DEFAULT_255_2_778
10
1.740553
20
46.7100999
40
1.2154536
50
269.9920233
51
275.29693
0
ARC
8
DEFAULT_255_2_778
10
1.7423513
20
20.7001101
40
1.1945379
50
54.6011629
51
90.0943757
0
ARC
8
DEFAULT_255_2_778
10
1.7415127
20
20.6954925
40
1.1987895
50
5.343082
51
54.6963316
0
ARC
8
DEFAULT_255_2_778
10
1.7248302
20
20.6949155
40
1.2154536
50
359.9920233
51
5.29693
0
ARC
8
DEFAULT_255_2_778
10
1.7457475
20
20.6927787
40
1.1945379
50
324.6011629
51
0.0943757
0
ARC
8
DEFAULT_255_2_778
10
1.7411299
20
20.6936174
40
1.1987895
50
275.343082
51
324.6963316
0
ARC
8
DEFAULT_255_2_778
10
1.740553
20
20.7102999
40
1.2154536
50
269.9920233
51
275.29693
0
ARC
8
DEFAULT_255_2_778
10
24.7384688
20
20.6891832
40
1.1943384
50
234.5479662
51
270.0918639
0
ARC
8
DEFAULT_255_2_778
10
24.7394967
20
20.6942299
40
1.1990475
50
185.3464965
51
234.6478285
0
ARC
8
DEFAULT_255_2_778
10
24.7550747
20
20.6945832
40
1.2145911
50
179.9923059
51
185.2946162
0
ARC
8
DEFAULT_255_2_778
10
24.7347837
20
20.696582
40
1.1943014
50
144.5497193
51
180.0880656
0
ARC
8
DEFAULT_255_2_778
10
24.7399628
20
20.6955914
40
1.1990968
50
95.3515876
51
144.6546935
0
ARC
8
DEFAULT_255_2_778
10
24.7402173
20
20.6804067
40
1.2142395
50
89.9921454
51
95.2967167
0
ARC
8
DEFAULT_255_2_778
10
24.7384688
20
46.6889832
40
1.1943384
50
234.5479662
51
270.0918639
0
ARC
8
DEFAULT_255_2_778
10
24.7394967
20
46.6940299
40
1.1990475
50
185.3464965
51
234.6478285
0
ARC
8
DEFAULT_255_2_778
10
24.7550747
20
46.6943832
40
1.2145911
50
179.9923059
51
185.2946162
0
ARC
8
DEFAULT_255_2_778
10
24.7362614
20
46.6953778
40
1.195778
50
144.5485382
51
180.0398407
0
ARC
8
DEFAULT_255_2_778
10
24.7410233
20
46.6945112
40
1.2001615
50
95.3966794
51
144.6466888
0
ARC
8
DEFAULT_255_2_778
10
24.7415037
20
46.67842
40
1.216227
50
90.0527606
51
95.3479178
0
ARC
8
DEFAULT_255_2_778
10
24.7384161
20
77.8890826
40
1.1945379
50
234.6011629
51
270.0943757
0
ARC
8
DEFAULT_255_2_778
10
24.7392548
20
77.8937002
40
1.1987895
50
185.343082
51
234.6963316
0
ARC
8
DEFAULT_255_2_778
10
24.7559373
20
77.8942771
40
1.2154536
50
179.9920233
51
185.29693
0
ARC
8
DEFAULT_255_2_778
10
24.7348892
20
77.8963786
40
1.194407
50
144.5513289
51
180.0926922
0
ARC
8
DEFAULT_255_2_778
10
24.7397892
20
77.8954177
40
1.1989577
50
95.3438778
51
144.6497258
0
ARC
8
DEFAULT_255_2_778
10
24.7402195
20
77.8794512
40
1.2148953
50
89.9922565
51
95.293957
0
ARC
8
DEFAULT_255_2_778
10
24.7384688
20
103.8884832
40
1.1943384
50
234.5479662
51
270.0918639
0
ARC
8
DEFAULT_255_2_778
10
24.7394967
20
103.8935299
40
1.1990475
50
185.3464965
51
234.6478285
0
ARC
8
DEFAULT_255_2_778
10
24.7550747
20
103.8938832
40
1.2145911
50
179.9923059
51
185.2946162
0
ARC
8
DEFAULT_255_2_778
10
24.7347837
20
103.895882
40
1.1943014
50
144.5497193
51
180.0880656
0
ARC
8
DEFAULT_255_2_778
10
24.7399628
20
103.8948914
40
1.1990968
50
95.3515876
51
144.6546935
0
ARC
8
DEFAULT_255_2_778
10
24.7402173
20
103.8797067
40
1.2142395
50
89.9921454
51
95.2967167
0
LINE
8
DEFAULT_255_2_778
10
30.7259837
20
124.7942463
11
30.6055837
21
124.7868463
0
LINE
8
DEFAULT_255_2_778
10
30.6055837
20
124.7868463
11
30.4881837
21
124.7654463
0
LINE
8
DEFAULT_255_2_778
10
30.4881837
20
124.7654463
11
30.3759837
21
124.7307463
0
LINE
8
DEFAULT_255_2_778
10
30.3759837
20
124.7307463
11
30.2711837
21
124.6847463
0
LINE
8
DEFAULT_255_2_778
10
30.2711837
20
124.6847463
11
30.1753837
21
124.6288463
0
LINE
8
DEFAULT_255_2_778
10
30.1753837
20
124.6288463
11
30.0893837
21
124.5653463
0
LINE
8
DEFAULT_255_2_778
10
30.0893837
20
124.5653463
11
30.0137837
21
124.4960463
0
LINE
8
DEFAULT_255_2_778
10
30.0137837
20
124.4960463
11
29.9481837
21
124.4225463
0
LINE
8
DEFAULT_255_2_778
10
29.9481837
20
124.4225463
11
29.8922837
21
124.3463463
0
LINE
8
DEFAULT_255_2_778
10
29.8922837
20
124.3463463
11
29.8457837
21
124.2685463
0
LINE
8
DEFAULT_255_2_778
10
29.8457837
20
124.2685463
11
29.8076837
21
124.1896463
0
LINE
8
DEFAULT_255_2_778
10
29.8076837
20
124.1896463
11
29.7774837
21
124.1105463
0
LINE
8
DEFAULT_255_2_778
10
29.7774837
20
124.1105463
11
29.7544837
21
124.0311463
0
LINE
8
DEFAULT_255_2_778
10
29.7544837
20
124.0311463
11
29.7385837
21
123.9520463
0
LINE
8
DEFAULT_255_2_778
10
29.7385837
20
123.9520463
11
29.7290837
21
123.8727463
0
LINE
8
DEFAULT_255_2_778
10
29.7290837
20
123.8727463
11
29.7258837
21
123.7935463
0
LINE
8
DEFAULT_255_2_778
10
29.7258837
20
123.7935463
11
29.7258837
21
122.4936463
0
LINE
8
DEFAULT_255_2_778
10
10.2403837
20
114.2942463
11
1.7403837
21
114.2942463
0
LINE
8
DEFAULT_255_2_778
10
1.7403837
20
114.2942463
11
1.7403837
21
105.0941463
0
LINE
8
DEFAULT_255_2_778
10
1.7403837
20
102.6943463
11
1.7403837
21
79.0943463
0
LINE
8
DEFAULT_255_2_778
10
1.7403837
20
76.6945463
11
1.7403837
21
47.8946463
0
LINE
8
DEFAULT_255_2_778
10
1.7403837
20
45.4946463
11
1.7403837
21
21.8946463
0
LINE
8
DEFAULT_255_2_778
10
1.7403837
20
19.4948463
11
1.7403837
21
10.2947463
0
LINE
8
DEFAULT_255_2_778
10
1.7403837
20
10.2947463
11
24.7403837
21
10.2947463
0
LINE
8
DEFAULT_255_2_778
10
24.7403837
20
10.2947463
11
24.7403837
21
19.4948463
0
LINE
8
DEFAULT_255_2_778
10
24.7403837
20
21.8946463
11
24.7403837
21
45.4946463
0
LINE
8
DEFAULT_255_2_778
10
24.7403837
20
47.8946463
11
24.7403837
21
76.6945463
0
LINE
8
DEFAULT_255_2_778
10
24.7403837
20
79.0943463
11
24.7403837
21
102.6941463
0
LINE
8
DEFAULT_255_2_778
10
24.7403837
20
105.0939463
11
24.7403837
21
114.2942463
0
LINE
8
DEFAULT_255_2_778
10
24.7403837
20
114.2942463
11
16.2403837
21
114.2942463
0
LINE
8
DEFAULT_255_2_778
10
1.7404338
20
56.7942701
11
4.8405338
21
56.7942701
0
LINE
8
DEFAULT_255_2_778
10
4.8405338
20
56.7942701
11
4.8405338
21
67.7943701
0
LINE
8
DEFAULT_255_2_778
10
4.8405338
20
67.7943701
11
1.7404338
21
67.7943701
0
LINE
8
DEFAULT_255_2_778
10
21.2447338
20
124.0870701
11
4.9125338
21
124.0870701
0
LINE
8
DEFAULT_255_2_778
10
4.9125338
20
124.0870701
11
4.9125338
21
119.8873701
0
LINE
8
DEFAULT_255_2_778
10
4.9125338
20
119.8873701
11
21.2447338
21
119.8873701
0
LINE
8
DEFAULT_255_2_778
10
21.2447338
20
119.8873701
11
21.2447338
21
124.0870701
0
LINE
8
DEFAULT_255_2_778
10
29.7262338
20
2.0942701
11
29.7262338
21
0.7943701
0
LINE
8
DEFAULT_255_2_778
10
29.7262338
20
0.7943701
11
29.7293338
21
0.7152701
0
LINE
8
DEFAULT_255_2_778
10
29.7293338
20
0.7152701
11
29.7389338
21
0.6359701
0
LINE
8
DEFAULT_255_2_778
10
29.7389338
20
0.6359701
11
29.7547338
21
0.5568701
0
LINE
8
DEFAULT_255_2_778
10
29.7547338
20
0.5568701
11
29.7778338
21
0.4774701
0
LINE
8
DEFAULT_255_2_778
10
29.7778338
20
0.4774701
11
29.8079338
21
0.3983701
0
LINE
8
DEFAULT_255_2_778
10
29.8079338
20
0.3983701
11
29.8460338
21
0.3194701
0
LINE
8
DEFAULT_255_2_778
10
29.8460338
20
0.3194701
11
29.8926338
21
0.2416701
0
LINE
8
DEFAULT_255_2_778
10
29.8926338
20
0.2416701
11
29.9484338
21
0.1654701
0
LINE
8
DEFAULT_255_2_778
10
29.9484338
20
0.1654701
11
30.0140338
21
0.0919701
0
LINE
8
DEFAULT_255_2_778
10
30.0140338
20
0.0919701
11
30.0897338
21
0.0226701
0
LINE
8
DEFAULT_255_2_778
10
30.0897338
20
0.0226701
11
30.1757338
21
-0.0408299
0
LINE
8
DEFAULT_255_2_778
10
30.1757338
20
-0.0408299
11
30.2715338
21
-0.0967299
0
LINE
8
DEFAULT_255_2_778
10
30.2715338
20
-0.0967299
11
30.3763338
21
-0.1427299
0
LINE
8
DEFAULT_255_2_778
10
30.3763338
20
-0.1427299
11
30.4884338
21
-0.1774299
0
LINE
8
DEFAULT_255_2_778
10
30.4884338
20
-0.1774299
11
30.6059338
21
-0.1988299
0
LINE
8
DEFAULT_255_2_778
10
30.6059338
20
-0.1988299
11
30.7263338
21
-0.2059299
0
LINE
8
DEFAULT_255_2_778
10
16.2404338
20
115.7942701
11
10.2404338
21
115.7942701
0
LINE
8
DEFAULT_255_2_778
10
10.2404338
20
115.7942701
11
10.2404338
21
112.7941701
0
LINE
8
DEFAULT_255_2_778
10
10.2404338
20
112.7941701
11
16.2404338
21
112.7941701
0
LINE
8
DEFAULT_255_2_778
10
16.2404338
20
112.7941701
11
16.2404338
21
115.7942701
0
LINE
8
DEFAULT_255_2_778
10
33.3549338
20
122.3942701
11
33.3549338
21
123.7941701
0
LINE
8
DEFAULT_255_2_778
10
33.3549338
20
123.7941701
11
33.3518338
21
123.8732701
0
LINE
8
DEFAULT_255_2_778
10
33.3518338
20
123.8732701
11
33.3422338
21
123.9526701
0
LINE
8
DEFAULT_255_2_778
10
33.3422338
20
123.9526701
11
33.3264338
21
124.0317701
0
LINE
8
DEFAULT_255_2_778
10
33.3264338
20
124.0317701
11
33.3033338
21
124.1111701
0
LINE
8
DEFAULT_255_2_778
10
33.3033338
20
124.1111701
11
33.2732338
21
124.1902701
0
LINE
8
DEFAULT_255_2_778
10
33.2732338
20
124.1902701
11
33.2351338
21
124.2690701
0
LINE
8
DEFAULT_255_2_778
10
33.2351338
20
124.2690701
11
33.1885338
21
124.3468701
0
LINE
8
DEFAULT_255_2_778
10
33.1885338
20
124.3468701
11
33.1327338
21
124.4230701
0
LINE
8
DEFAULT_255_2_778
10
33.1327338
20
124.4230701
11
33.0671338
21
124.4966701
0
LINE
8
DEFAULT_255_2_778
10
33.0671338
20
124.4966701
11
32.9914338
21
124.5659701
0
LINE
8
DEFAULT_255_2_778
10
32.9914338
20
124.5659701
11
32.9054338
21
124.6294701
0
LINE
8
DEFAULT_255_2_778
10
32.9054338
20
124.6294701
11
32.8096338
21
124.6852701
0
LINE
8
DEFAULT_255_2_778
10
32.8096338
20
124.6852701
11
32.7049338
21
124.7313701
0
LINE
8
DEFAULT_255_2_778
10
32.7049338
20
124.7313701
11
32.5927338
21
124.7659701
0
LINE
8
DEFAULT_255_2_778
10
32.5927338
20
124.7659701
11
32.4752338
21
124.7874701
0
LINE
8
DEFAULT_255_2_778
10
32.4752338
20
124.7874701
11
32.3548338
21
124.7945701
0
LINE
8
DEFAULT_255_2_778
10
40.2405141
20
124.7943056
11
0.2405141
21
124.7943056
0
LINE
8
DEFAULT_255_2_778
10
0.2405141
20
124.7943056
11
0.2405141
21
-0.2056944
0
LINE
8
DEFAULT_255_2_778
10
0.2405141
20
-0.2056944
11
40.2405141
21
-0.2056944
0
LINE
8
DEFAULT_255_2_778
10
40.2405141
20
-0.2056944
11
40.2405141
21
124.7943056
0
ARC
8
DEFAULT_255_2_778
10
26.7407159
20
2.5943171
40
0.5000969
50
179.9996485
51
270.0003515
0
LINE
8
DEFAULT_255_2_778
10
33.3547189
20
0.7943202
11
33.3584189
21
2.0942202
0
LINE
8
DEFAULT_255_2_778
10
33.3613189
20
0.7941202
11
33.3420189
21
0.6348202
0
LINE
8
DEFAULT_255_2_778
10
33.3420189
20
0.6348202
11
33.3259189
21
0.5552202
0
LINE
8
DEFAULT_255_2_778
10
33.3259189
20
0.5552202
11
33.3026189
21
0.4755202
0
LINE
8
DEFAULT_255_2_778
10
33.3026189
20
0.4755202
11
33.2722189
21
0.3959202
0
LINE
8
DEFAULT_255_2_778
10
33.2722189
20
0.3959202
11
33.2335189
21
0.3168202
0
LINE
8
DEFAULT_255_2_778
10
33.2335189
20
0.3168202
11
33.1864189
21
0.2385202
0
LINE
8
DEFAULT_255_2_778
10
33.1864189
20
0.2385202
11
33.1301189
21
0.1620202
0
LINE
8
DEFAULT_255_2_778
10
33.1301189
20
0.1620202
11
33.0639189
21
0.0884202
0
LINE
8
DEFAULT_255_2_778
10
33.0639189
20
0.0884202
11
32.9877189
21
0.0194202
0
LINE
8
DEFAULT_255_2_778
10
32.9877189
20
0.0194202
11
32.9015189
21
-0.0435798
0
LINE
8
DEFAULT_255_2_778
10
32.9015189
20
-0.0435798
11
32.8065189
21
-0.0983798
0
LINE
8
DEFAULT_255_2_778
10
32.8065189
20
-0.0983798
11
32.7036189
21
-0.1432798
0
LINE
8
DEFAULT_255_2_778
10
32.7036189
20
-0.1432798
11
32.5932189
21
-0.1771798
0
LINE
8
DEFAULT_255_2_778
10
32.5932189
20
-0.1771798
11
32.4766189
21
-0.1985798
0
LINE
8
DEFAULT_255_2_778
10
32.4766189
20
-0.1985798
11
32.3549189
21
-0.2059798
0
LINE
8
DEFAULT_255_2_778
10
40.2405189
20
122.3942202
11
26.2406189
21
122.3942202
0
LINE
8
DEFAULT_255_2_778
10
26.2406189
20
122.3942202
11
26.2406189
21
2.5943202
0
LINE
8
DEFAULT_255_2_778
10
26.7407189
20
2.0942202
11
40.2408189
21
2.0942202
0
LINE
8
DEFAULT_255_2_778
10
26.7407282
20
55.9941995
11
29.8209282
21
55.9941995
0
LINE
8
DEFAULT_255_2_778
10
26.7404282
20
118.3942995
11
29.8011282
21
118.3942995
0
LINE
8
DEFAULT_255_2_778
10
26.7407282
20
11.3941995
11
29.8209282
21
11.3941995
0
LINE
8
DEFAULT_255_2_778
10
26.7407282
20
9.1943995
11
29.8209282
21
9.1943995
0
LINE
8
DEFAULT_255_2_778
10
26.7407282
20
6.1942995
11
29.8209282
21
6.1942995
0
LINE
8
DEFAULT_255_2_778
10
26.7407282
20
21.7943995
11
29.8209282
21
21.7943995
0
LINE
8
DEFAULT_255_2_778
10
26.7407282
20
19.5943995
11
29.8209282
21
19.5943995
0
LINE
8
DEFAULT_255_2_778
10
26.7407282
20
16.5942995
11
29.8209282
21
16.5942995
0
LINE
8
DEFAULT_255_2_778
10
26.7407282
20
14.3942995
11
29.8209282
21
14.3942995
0
LINE
8
DEFAULT_255_2_778
10
26.7407282
20
35.1941995
11
29.8209282
21
35.1941995
0
LINE
8
DEFAULT_255_2_778
10
26.7407282
20
32.1943995
11
29.8209282
21
32.1943995
0
LINE
8
DEFAULT_255_2_778
10
26.7407282
20
29.9943995
11
29.8209282
21
29.9943995
0
LINE
8
DEFAULT_255_2_778
10
26.7407282
20
24.7941995
11
29.8209282
21
24.7941995
0
LINE
8
DEFAULT_255_2_778
10
26.7407282
20
26.9942995
11
29.8209282
21
26.9942995
0
LINE
8
DEFAULT_255_2_778
10
26.7406605
20
56.6942243
11
29.8209605
21
56.6942243
0
LINE
8
DEFAULT_255_2_778
10
29.8209605
20
56.6942243
11
29.8209605
21
5.4942243
0
LINE
8
DEFAULT_255_2_778
10
29.8209605
20
5.4942243
11
26.7406605
21
5.4942243
0
LINE
8
DEFAULT_255_2_778
10
26.7406605
20
5.4942243
11
26.7406605
21
56.6942243
0
LINE
8
DEFAULT_255_2_778
10
26.7407282
20
42.5942575
11
29.8209282
21
42.5942575
0
LINE
8
DEFAULT_255_2_778
10
26.7407282
20
40.3942575
11
29.8209282
21
40.3942575
0
LINE
8
DEFAULT_255_2_778
10
26.7407282
20
37.3941575
11
29.8209282
21
37.3941575
0
LINE
8
DEFAULT_255_2_778
10
26.7407282
20
52.9942575
11
29.8209282
21
52.9942575
0
LINE
8
DEFAULT_255_2_778
10
26.7407282
20
50.7942575
11
29.8209282
21
50.7942575
0
LINE
8
DEFAULT_255_2_778
10
26.7407282
20
47.7941575
11
29.8209282
21
47.7941575
0
LINE
8
DEFAULT_255_2_778
10
26.7407282
20
45.5941575
11
29.8209282
21
45.5941575
0
LINE
8
DEFAULT_255_2_778
10
26.7404282
20
73.7941575
11
29.8011282
21
73.7941575
0
LINE
8
DEFAULT_255_2_778
10
26.7404282
20
71.5941575
11
29.8011282
21
71.5941575
0
LINE
8
DEFAULT_255_2_778
10
26.7404282
20
68.5787575
11
29.8011282
21
68.5787575
0
LINE
8
DEFAULT_255_2_778
10
26.7404282
20
84.1941575
11
29.8011282
21
84.1941575
0
LINE
8
DEFAULT_255_2_778
10
26.7404282
20
81.9941575
11
29.8011282
21
81.9941575
0
LINE
8
DEFAULT_255_2_778
10
26.7404282
20
78.9943575
11
29.8011282
21
78.9943575
0
LINE
8
DEFAULT_255_2_778
10
26.7404282
20
76.7942575
11
29.8011282
21
76.7942575
0
LINE
8
DEFAULT_255_2_778
10
26.7404282
20
97.5942575
11
29.8011282
21
97.5942575
0
LINE
8
DEFAULT_255_2_778
10
26.7404282
20
94.5941575
11
29.8011282
21
94.5941575
0
LINE
8
DEFAULT_255_2_778
10
26.7404282
20
92.3941575
11
29.8011282
21
92.3941575
0
LINE
8
DEFAULT_255_2_778
10
26.7404282
20
87.1942575
11
29.8011282
21
87.1942575
0
LINE
8
DEFAULT_255_2_778
10
26.7404282
20
89.3942575
11
29.8011282
21
89.3942575
0
LINE
8
DEFAULT_255_2_778
10
29.8011386
20
119.0943243
11
29.8011386
21
67.8943243
0
LINE
8
DEFAULT_255_2_778
10
29.8011386
20
67.8943243
11
26.7295386
21
67.8943243
0
LINE
8
DEFAULT_255_2_778
10
26.7295386
20
67.8943243
11
26.7208386
21
119.0943243
0
LINE
8
DEFAULT_255_2_778
10
26.7208386
20
119.0943243
11
29.8209386
21
119.0943243
0
ARC
8
DEFAULT_255_2_778
10
4.337798
20
6.7964591
40
0.9471227
50
138.7691257
51
180.1488555
0
ARC
8
DEFAULT_255_2_778
10
4.3379926
20
6.7972898
40
0.946722
50
92.2525226
51
138.8147006
0
ARC
8
DEFAULT_255_2_778
10
4.3407443
20
6.7678206
40
0.9762778
50
89.9979919
51
92.3459109
0
ARC
8
DEFAULT_255_2_778
10
4.3434848
20
6.7810794
40
0.9630229
50
90.0043646
51
90.1610158
0
ARC
8
DEFAULT_255_2_778
10
4.3434556
20
6.7969595
40
0.9471426
50
44.992132
51
90.0026691
0
ARC
8
DEFAULT_255_2_778
10
4.3432331
20
6.7967486
40
0.947449
50
359.9930689
51
44.991638
0
ARC
8
DEFAULT_255_2_778
10
4.3258402
20
6.7967075
40
0.9648419
50
359.8391309
51
359.9956394
0
ARC
8
DEFAULT_255_2_778
10
4.3434702
20
6.7914697
40
0.9472116
50
319.1172716
51
0.1529628
0
ARC
8
DEFAULT_255_2_778
10
4.3435595
20
6.7904865
40
0.946501
50
272.269775
51
319.1587331
0
ARC
8
DEFAULT_255_2_778
10
4.3408191
20
6.8195725
40
0.9756739
50
269.997616
51
272.3629294
0
ARC
8
DEFAULT_255_2_778
10
4.3383565
20
6.7910165
40
0.9471211
50
228.5969044
51
270.1465178
0
ARC
8
DEFAULT_255_2_778
10
4.3374826
20
6.7912504
40
0.9467189
50
182.2461493
51
228.6459367
0
ARC
8
DEFAULT_255_2_778
10
4.3666975
20
6.7939652
40
0.976019
50
179.9980462
51
182.3381798
0
LINE
8
DEFAULT_255_2_778
10
26.7403785
20
104.9940985
11
29.8010785
21
104.9940985
0
LINE
8
DEFAULT_255_2_778
10
26.7403785
20
102.7940985
11
29.8010785
21
102.7940985
0
LINE
8
DEFAULT_255_2_778
10
26.7403785
20
99.7942985
11
29.8010785
21
99.7942985
0
LINE
8
DEFAULT_255_2_778
10
26.7403785
20
115.3940985
11
29.8010785
21
115.3940985
0
LINE
8
DEFAULT_255_2_778
10
26.7403785
20
113.1940985
11
29.8010785
21
113.1940985
0
LINE
8
DEFAULT_255_2_778
10
26.7403785
20
110.1941985
11
29.8010785
21
110.1941985
0
LINE
8
DEFAULT_255_2_778
10
26.7403785
20
107.9941985
11
29.8010785
21
107.9941985
0
LINE
8
DEFAULT_255_2_778
10
3.3906785
20
6.7939985
11
3.3906785
21
6.7939985
0
LINE
8
DEFAULT_255_2_778
10
6.9405459
20
9.3441541
11
1.8404459
21
9.3441541
0
LINE
8
DEFAULT_255_2_778
10
1.8404459
20
9.3441541
11
1.8404459
21
4.2440541
0
LINE
8
DEFAULT_255_2_778
10
1.8404459
20
4.2440541
11
6.9405459
21
4.2440541
0
LINE
8
DEFAULT_255_2_778
10
6.9405459
20
4.2440541
11
6.9405459
21
9.3441541
0
ARC
8
DEFAULT_255_2_778
10
28.2697481
20
12.8955521
40
0.5488181
50
89.8660429
51
180.1235406
0
ARC
8
DEFAULT_255_2_778
10
28.2722996
20
12.8956371
40
0.5487331
50
359.8675643
51
90.1324283
0
ARC
8
DEFAULT_255_2_778
10
28.2723419
20
12.8929584
40
0.5486912
50
269.8631411
51
0.147268
0
ARC
8
DEFAULT_255_2_778
10
28.2697061
20
12.8930435
40
0.5487764
50
179.8616364
51
270.1383563
0
LINE
8
DEFAULT_255_2_778
10
27.7209313
20
12.8943687
11
27.7209313
21
12.8943687
0
ARC
8
DEFAULT_255_2_778
10
28.2697696
20
7.6954304
40
0.5488398
50
89.8682888
51
180.1317112
0
ARC
8
DEFAULT_255_2_778
10
28.2722782
20
7.6955154
40
0.5487547
50
359.8593896
51
90.1301939
0
ARC
8
DEFAULT_255_2_778
10
28.2723632
20
7.6928368
40
0.5486696
50
269.8609058
51
0.1390942
0
ARC
8
DEFAULT_255_2_778
10
28.2696846
20
7.6929218
40
0.5487547
50
179.8698061
51
270.1406104
0
LINE
8
DEFAULT_255_2_778
10
27.7209313
20
7.6941687
11
27.7209313
21
7.6941687
0
ARC
8
DEFAULT_255_2_778
10
28.2697696
20
23.2955304
40
0.5488398
50
89.8682888
51
180.1317112
0
ARC
8
DEFAULT_255_2_778
10
28.2722782
20
23.2956154
40
0.5487547
50
359.8593896
51
90.1301939
0
ARC
8
DEFAULT_255_2_778
10
28.2723632
20
23.2929368
40
0.5486696
50
269.8609058
51
0.1390942
0
ARC
8
DEFAULT_255_2_778
10
28.2696846
20
23.2930218
40
0.5487547
50
179.8698061
51
270.1406104
0
LINE
8
DEFAULT_255_2_778
10
27.7209313
20
23.2942687
11
27.7209313
21
23.2942687
0
ARC
8
DEFAULT_255_2_778
10
28.2697696
20
18.0954304
40
0.5488398
50
89.8682888
51
180.1317112
0
ARC
8
DEFAULT_255_2_778
10
28.2722782
20
18.0955154
40
0.5487547
50
359.8593896
51
90.1301939
0
ARC
8
DEFAULT_255_2_778
10
28.2723632
20
18.0928368
40
0.5486696
50
269.8609058
51
0.1390942
0
ARC
8
DEFAULT_255_2_778
10
28.2696846
20
18.0929218
40
0.5487547
50
179.8698061
51
270.1406104
0
LINE
8
DEFAULT_255_2_778
10
27.7209313
20
18.0941687
11
27.7209313
21
18.0941687
0
ARC
8
DEFAULT_255_2_778
10
28.2697696
20
33.6954304
40
0.5488398
50
89.8682888
51
180.1317112
0
ARC
8
DEFAULT_255_2_778
10
28.2722782
20
33.6955154
40
0.5487547
50
359.8593896
51
90.1301939
0
ARC
8
DEFAULT_255_2_778
10
28.2723632
20
33.6928368
40
0.5486696
50
269.8609058
51
0.1390942
0
ARC
8
DEFAULT_255_2_778
10
28.2696846
20
33.6929218
40
0.5487547
50
179.8698061
51
270.1406104
0
LINE
8
DEFAULT_255_2_778
10
27.7209313
20
33.6941687
11
27.7209313
21
33.6941687
0
ARC
8
DEFAULT_255_2_778
10
28.2697696
20
28.4953304
40
0.5488398
50
89.8682888
51
180.1317112
0
ARC
8
DEFAULT_255_2_778
10
28.2722782
20
28.4954154
40
0.5487547
50
359.8593896
51
90.1301939
0
ARC
8
DEFAULT_255_2_778
10
28.2723632
20
28.4927368
40
0.5486696
50
269.8609058
51
0.1390942
0
ARC
8
DEFAULT_255_2_778
10
28.2696846
20
28.4928218
40
0.5487547
50
179.8698061
51
270.1406104
0
LINE
8
DEFAULT_255_2_778
10
27.7209313
20
28.4940687
11
27.7209313
21
28.4940687
0
ARC
8
DEFAULT_255_2_778
10
28.2697696
20
44.0954304
40
0.5488398
50
89.8682888
51
180.1317112
0
ARC
8
DEFAULT_255_2_778
10
28.2722782
20
44.0955154
40
0.5487547
50
359.8593896
51
90.1301939
0
ARC
8
DEFAULT_255_2_778
10
28.2723632
20
44.0928368
40
0.5486696
50
269.8609058
51
0.1390942
0
ARC
8
DEFAULT_255_2_778
10
28.2696846
20
44.0929218
40
0.5487547
50
179.8698061
51
270.1406104
0
LINE
8
DEFAULT_255_2_778
10
27.7209313
20
44.0941687
11
27.7209313
21
44.0941687
0
ARC
8
DEFAULT_255_2_778
10
28.2697696
20
38.8953304
40
0.5488398
50
89.8682888
51
180.1317112
0
ARC
8
DEFAULT_255_2_778
10
28.2722782
20
38.8954154
40
0.5487547
50
359.8593896
51
90.1301939
0
ARC
8
DEFAULT_255_2_778
10
28.2723632
20
38.8927368
40
0.5486696
50
269.8609058
51
0.1390942
0
ARC
8
DEFAULT_255_2_778
10
28.2696846
20
38.8928218
40
0.5487547
50
179.8698061
51
270.1406104
0
LINE
8
DEFAULT_255_2_778
10
27.7209313
20
38.8940687
11
27.7209313
21
38.8940687
0
ARC
8
DEFAULT_255_2_778
10
28.2697696
20
54.4954304
40
0.5488398
50
89.8682888
51
180.1317112
0
ARC
8
DEFAULT_255_2_778
10
28.2722782
20
54.4955154
40
0.5487547
50
359.8593896
51
90.1301939
0
ARC
8
DEFAULT_255_2_778
10
28.2723632
20
54.4928368
40
0.5486696
50
269.8609058
51
0.1390942
0
ARC
8
DEFAULT_255_2_778
10
28.2696846
20
54.4929218
40
0.5487547
50
179.8698061
51
270.1406104
0
LINE
8
DEFAULT_255_2_778
10
27.7209313
20
54.4941687
11
27.7209313
21
54.4941687
0
ARC
8
DEFAULT_255_2_778
10
28.2697696
20
49.2953304
40
0.5488398
50
89.8682888
51
180.1317112
0
ARC
8
DEFAULT_255_2_778
10
28.2722782
20
49.2954154
40
0.5487547
50
359.8593896
51
90.1301939
0
ARC
8
DEFAULT_255_2_778
10
28.2723632
20
49.2927368
40
0.5486696
50
269.8609058
51
0.1390942
0
ARC
8
DEFAULT_255_2_778
10
28.2696846
20
49.2928218
40
0.5487547
50
179.8698061
51
270.1406104
0
LINE
8
DEFAULT_255_2_778
10
27.7209313
20
49.2940687
11
27.7209313
21
49.2940687
0
ARC
8
DEFAULT_255_2_778
10
28.2501696
20
75.2954304
40
0.5488398
50
89.8682888
51
180.1317112
0
ARC
8
DEFAULT_255_2_778
10
28.2526782
20
75.2955154
40
0.5487547
50
359.8593896
51
90.1301939
0
ARC
8
DEFAULT_255_2_778
10
28.2527632
20
75.2928368
40
0.5486696
50
269.8609058
51
0.1390942
0
ARC
8
DEFAULT_255_2_778
10
28.2500846
20
75.2929218
40
0.5487547
50
179.8698061
51
270.1406104
0
LINE
8
DEFAULT_255_2_778
10
27.7013313
20
75.2941687
11
27.7013313
21
75.2941687
0
ARC
8
DEFAULT_255_2_778
10
28.2501696
20
70.0952304
40
0.5488398
50
89.8682888
51
180.1317112
0
ARC
8
DEFAULT_255_2_778
10
28.2526782
20
70.0953154
40
0.5487547
50
359.8593896
51
90.1301939
0
ARC
8
DEFAULT_255_2_778
10
28.2527632
20
70.0926368
40
0.5486696
50
269.8609058
51
0.1390942
0
ARC
8
DEFAULT_255_2_778
10
28.2500846
20
70.0927218
40
0.5487547
50
179.8698061
51
270.1406104
0
LINE
8
DEFAULT_255_2_778
10
27.7013313
20
70.0939687
11
27.7013313
21
70.0939687
0
ARC
8
DEFAULT_255_2_778
10
28.2501696
20
85.6953304
40
0.5488398
50
89.8682888
51
180.1317112
0
ARC
8
DEFAULT_255_2_778
10
28.2526782
20
85.6954154
40
0.5487547
50
359.8593896
51
90.1301939
0
ARC
8
DEFAULT_255_2_778
10
28.2527632
20
85.6927368
40
0.5486696
50
269.8609058
51
0.1390942
0
ARC
8
DEFAULT_255_2_778
10
28.2500846
20
85.6928218
40
0.5487547
50
179.8698061
51
270.1406104
0
LINE
8
DEFAULT_255_2_778
10
27.7013313
20
85.6940687
11
27.7013313
21
85.6940687
0
ARC
8
DEFAULT_255_2_778
10
28.2501696
20
80.4955304
40
0.5488398
50
89.8682888
51
180.1317112
0
ARC
8
DEFAULT_255_2_778
10
28.2526782
20
80.4956154
40
0.5487547
50
359.8593896
51
90.1301939
0
ARC
8
DEFAULT_255_2_778
10
28.2527632
20
80.4929368
40
0.5486696
50
269.8609058
51
0.1390942
0
ARC
8
DEFAULT_255_2_778
10
28.2500846
20
80.4930218
40
0.5487547
50
179.8698061
51
270.1406104
0
LINE
8
DEFAULT_255_2_778
10
27.7013313
20
80.4942687
11
27.7013313
21
80.4942687
0
ARC
8
DEFAULT_255_2_778
10
28.2501696
20
96.0953304
40
0.5488398
50
89.8682888
51
180.1317112
0
ARC
8
DEFAULT_255_2_778
10
28.2526782
20
96.0954154
40
0.5487547
50
359.8593896
51
90.1301939
0
ARC
8
DEFAULT_255_2_778
10
28.2527632
20
96.0927368
40
0.5486696
50
269.8609058
51
0.1390942
0
ARC
8
DEFAULT_255_2_778
10
28.2500846
20
96.0928218
40
0.5487547
50
179.8698061
51
270.1406104
0
LINE
8
DEFAULT_255_2_778
10
27.7013313
20
96.0940687
11
27.7013313
21
96.0940687
0
ARC
8
DEFAULT_255_2_778
10
28.2501696
20
90.8955304
40
0.5488398
50
89.8682888
51
180.1317112
0
ARC
8
DEFAULT_255_2_778
10
28.2526782
20
90.8956154
40
0.5487547
50
359.8593896
51
90.1301939
0
ARC
8
DEFAULT_255_2_778
10
28.2527632
20
90.8929368
40
0.5486696
50
269.8609058
51
0.1390942
0
ARC
8
DEFAULT_255_2_778
10
28.2500846
20
90.8930218
40
0.5487547
50
179.8698061
51
270.1406104
0
LINE
8
DEFAULT_255_2_778
10
27.7013313
20
90.8942687
11
27.7013313
21
90.8942687
0
ARC
8
DEFAULT_255_2_778
10
28.2501696
20
106.4953304
40
0.5488398
50
89.8682888
51
180.1317112
0
ARC
8
DEFAULT_255_2_778
10
28.2526782
20
106.4954154
40
0.5487547
50
359.8593896
51
90.1301939
0
ARC
8
DEFAULT_255_2_778
10
28.2527632
20
106.4927368
40
0.5486696
50
269.8609058
51
0.1390942
0
ARC
8
DEFAULT_255_2_778
10
28.2500846
20
106.4928218
40
0.5487547
50
179.8698061
51
270.1406104
0
LINE
8
DEFAULT_255_2_778
10
27.7013313
20
106.4940687
11
27.7013313
21
106.4940687
0
ARC
8
DEFAULT_255_2_778
10
28.2501696
20
101.2954304
40
0.5488398
50
89.8682888
51
180.1317112
0
ARC
8
DEFAULT_255_2_778
10
28.2526782
20
101.2955154
40
0.5487547
50
359.8593896
51
90.1301939
0
ARC
8
DEFAULT_255_2_778
10
28.2527632
20
101.2928368
40
0.5486696
50
269.8609058
51
0.1390942
0
ARC
8
DEFAULT_255_2_778
10
28.2500846
20
101.2929218
40
0.5487547
50
179.8698061
51
270.1406104
0
LINE
8
DEFAULT_255_2_778
10
27.7013313
20
101.2941687
11
27.7013313
21
101.2941687
0
ARC
8
DEFAULT_255_2_778
10
28.2501696
20
116.8953304
40
0.5488398
50
89.8682888
51
180.1317112
0
ARC
8
DEFAULT_255_2_778
10
28.2526782
20
116.8954154
40
0.5487547
50
359.8593896
51
90.1301939
0
ARC
8
DEFAULT_255_2_778
10
28.2527632
20
116.8927368
40
0.5486696
50
269.8609058
51
0.1390942
0
ARC
8
DEFAULT_255_2_778
10
28.2500846
20
116.8928218
40
0.5487547
50
179.8698061
51
270.1406104
0
LINE
8
DEFAULT_255_2_778
10
27.7013313
20
116.8940687
11
27.7013313
21
116.8940687
0
ARC
8
DEFAULT_255_2_778
10
28.2501696
20
111.6954304
40
0.5488398
50
89.8682888
51
180.1317112
0
ARC
8
DEFAULT_255_2_778
10
28.2526782
20
111.6955154
40
0.5487547
50
359.8593896
51
90.1301939
0
ARC
8
DEFAULT_255_2_778
10
28.2527632
20
111.6928368
40
0.5486696
50
269.8609058
51
0.1390942
0
ARC
8
DEFAULT_255_2_778
10
28.2500846
20
111.6929218
40
0.5487547
50
179.8698061
51
270.1406104
0
LINE
8
DEFAULT_255_2_778
10
27.7013313
20
111.6941687
11
27.7013313
21
111.6941687
0
LINE
8
DEFAULT_255_2_778
10
11.8631188
20
123.182727
11
10.9995188
21
123.182727
0
LINE
8
DEFAULT_255_2_778
10
10.9995188
20
123.182727
11
10.9995188
21
120.783527
0
LINE
8
DEFAULT_255_2_778
10
10.9995188
20
120.783527
11
11.4795188
21
120.783527
0
LINE
8
DEFAULT_255_2_778
10
11.4795188
20
120.783527
11
11.4795188
21
122.319127
0
LINE
8
DEFAULT_255_2_778
10
11.4795188
20
122.319127
11
12.1512188
21
120.759627
0
LINE
8
DEFAULT_255_2_778
10
12.1512188
20
120.759627
11
12.5830188
21
120.759627
0
LINE
8
DEFAULT_255_2_778
10
12.5830188
20
120.759627
11
13.2548188
21
122.343227
0
LINE
8
DEFAULT_255_2_778
10
13.2548188
20
122.343227
11
13.2548188
21
120.783727
0
LINE
8
DEFAULT_255_2_778
10
13.2548188
20
120.783727
11
13.9507188
21
120.783727
0
LINE
8
DEFAULT_255_2_778
10
13.9507188
20
120.783727
11
13.9507188
21
123.182727
0
LINE
8
DEFAULT_255_2_778
10
13.9507188
20
123.182727
11
13.0871188
21
123.182727
0
LINE
8
DEFAULT_255_2_778
10
13.0871188
20
123.182727
11
12.4873188
21
121.719327
0
LINE
8
DEFAULT_255_2_778
10
12.4873188
20
121.719327
11
11.8634188
21
123.182727
0
ARC
8
DEFAULT_255_2_778
10
6.0992048
20
122.6131448
40
0.1529546
50
154.5379518
51
177.7719758
0
ARC
8
DEFAULT_255_2_778
10
6.0992312
20
122.6131245
40
0.1529819
50
177.7647741
51
180.0031552
0
ARC
8
DEFAULT_255_2_778
10
6.0997642
20
122.6130951
40
0.1535149
50
179.9921473
51
221.7351036
0
ARC
8
DEFAULT_255_2_778
10
6.3045443
20
122.8058553
40
0.4347113
50
222.7268267
51
239.0853284
0
ARC
8
DEFAULT_255_2_778
10
6.7600552
20
123.6100201
40
1.3588386
50
240.027785
51
251.3806768
0
ARC
8
DEFAULT_255_2_778
10
5.0358171
20
119.0997045
40
3.4713455
50
59.898617
51
68.1778936
0
ARC
8
DEFAULT_255_2_778
10
6.3912105
20
121.449061
40
0.7590734
50
25.9231914
51
59.4704509
0
ARC
8
DEFAULT_255_2_778
10
6.4284743
20
121.4879702
40
0.7087961
50
359.9865762
51
24.411095
0
LINE
8
DEFAULT_255_2_778
10
7.1372704
20
121.4878041
11
7.1372703
21
121.4875532
0
ARC
8
DEFAULT_255_2_778
10
6.4264109
20
121.487777
40
0.7108594
50
335.430327
51
359.9819635
0
ARC
8
DEFAULT_255_2_778
10
6.4236507
20
121.5158727
40
0.7254626
50
315.9206773
51
333.5025736
0
ARC
8
DEFAULT_255_2_778
10
6.2368481
20
121.8025566
40
1.0618132
50
282.3972217
51
311.8163263
0
ARC
8
DEFAULT_255_2_778
10
6.0075137
20
123.1201769
40
2.3986685
50
271.0932301
51
280.9903969
0
ARC
8
DEFAULT_255_2_778
10
6.0073994
20
123.1234882
40
2.4019815
50
270.0003253
51
271.094449
0
ARC
8
DEFAULT_255_2_778
10
6.0075486
20
123.1256495
40
2.4041427
50
252.6173498
51
269.9967697
0
ARC
8
DEFAULT_255_2_778
10
5.9179402
20
122.8293384
40
1.6430504
50
247.5050814
51
270.0014959
0
ARC
8
DEFAULT_255_2_778
10
5.9179833
20
122.8297026
40
1.6434146
50
269.9999939
51
271.9292983
0
ARC
8
DEFAULT_255_2_778
10
5.9179756
20
122.8298183
40
1.6435305
50
271.9294297
51
280.7632391
0
ARC
8
DEFAULT_255_2_778
10
6.1490802
20
121.7741658
40
0.5640835
50
277.7253185
51
295.6105845
0
ARC
8
DEFAULT_255_2_778
10
6.2927744
20
121.4050617
40
0.1717654
50
305.6589239
51
359.98432
0
ARC
8
DEFAULT_255_2_778
10
6.2926418
20
121.405004
40
0.1718981
50
0.0035521
51
8.5495839
0
ARC
8
DEFAULT_255_2_778
10
6.2849133
20
121.4038299
40
0.1797152
50
8.5534361
51
9.0188554
0
ARC
8
DEFAULT_255_2_778
10
6.2926539
20
121.4053371
40
0.1718342
50
8.9271109
51
72.2617004
0
ARC
8
DEFAULT_255_2_778
10
6.1982337
20
122.8334621
40
1.0922064
50
227.2831052
51
242.7007608
0
ARC
8
DEFAULT_255_2_778
10
5.894435
20
122.479105
40
0.6260013
50
194.8372739
51
225.710287
0
ARC
8
DEFAULT_255_2_778
10
5.9262841
20
122.4989165
40
0.6619528
50
180.3439195
51
195.7890107
0
ARC
8
DEFAULT_255_2_778
10
5.9271193
20
122.4988983
40
0.6627879
50
180.0029238
51
180.3419141
0
ARC
8
DEFAULT_255_2_778
10
5.9238487
20
122.4989267
40
0.6595171
50
164.1817793
51
180.0054045
0
ARC
8
DEFAULT_255_2_778
10
5.8409161
20
122.5526456
40
0.5658297
50
142.8182823
51
167.1275445
0
ARC
8
DEFAULT_255_2_778
10
6.0132543
20
122.4001564
40
0.7954807
50
121.1972413
51
141.5692487
0
ARC
8
DEFAULT_255_2_778
10
6.2067591
20
122.0484475
40
1.1966774
50
90.036169
51
120.3996289
0
ARC
8
DEFAULT_255_2_778
10
6.2060099
20
122.0569808
40
1.1881437
50
86.1925672
51
90.0003012
0
ARC
8
DEFAULT_255_2_778
10
6.0700656
20
118.6640843
40
4.5834556
50
78.6945114
51
87.3133818
0
ARC
8
DEFAULT_255_2_778
10
6.177397
20
120.4706205
40
2.3455568
50
70.286156
51
82.961651
0
ARC
8
DEFAULT_255_2_778
10
6.3494166
20
121.6943843
40
1.110131
50
84.0337442
51
89.0479125
0
ARC
8
DEFAULT_255_2_778
10
6.3494413
20
121.6954318
40
1.1090831
50
89.0482887
51
90.0005676
0
ARC
8
DEFAULT_255_2_778
10
6.349365
20
121.6965379
40
1.1079771
50
89.9966237
51
103.3886779
0
ARC
8
DEFAULT_255_2_778
10
6.1392015
20
122.571859
40
0.2077887
50
102.9017069
51
149.1530399
0
LINE
8
DEFAULT_255_2_778
10
5.2893066
20
120.831302
11
5.2893066
21
121.311302
0
LINE
8
DEFAULT_255_2_778
10
6.3450066
20
121.569002
11
6.0571066
21
121.694902
0
LINE
8
DEFAULT_255_2_778
10
6.0571066
20
121.694902
11
5.6973066
21
121.862902
0
LINE
8
DEFAULT_255_2_778
10
6.9686066
20
123.158602
11
6.9686066
21
122.678702
0
ARC
8
DEFAULT_255_2_778
10
20.0266048
20
122.6131448
40
0.1529546
50
154.5379518
51
177.7719758
0
ARC
8
DEFAULT_255_2_778
10
20.0266312
20
122.6131245
40
0.1529819
50
177.7647741
51
180.0031552
0
ARC
8
DEFAULT_255_2_778
10
20.0271642
20
122.6130951
40
0.1535149
50
179.9921473
51
221.7351036
0
ARC
8
DEFAULT_255_2_778
10
20.2319443
20
122.8058553
40
0.4347113
50
222.7268267
51
239.0853284
0
ARC
8
DEFAULT_255_2_778
10
20.6874552
20
123.6100201
40
1.3588386
50
240.027785
51
251.3806768
0
ARC
8
DEFAULT_255_2_778
10
18.9632171
20
119.0997045
40
3.4713455
50
59.898617
51
68.1778936
0
ARC
8
DEFAULT_255_2_778
10
20.3186105
20
121.449061
40
0.7590734
50
25.9231914
51
59.4704509
0
ARC
8
DEFAULT_255_2_778
10
20.3558743
20
121.4879702
40
0.7087961
50
359.9865762
51
24.411095
0
LINE
8
DEFAULT_255_2_778
10
21.0646704
20
121.4878041
11
21.0646703
21
121.4875532
0
ARC
8
DEFAULT_255_2_778
10
20.3538109
20
121.487777
40
0.7108594
50
335.430327
51
359.9819635
0
ARC
8
DEFAULT_255_2_778
10
20.3510507
20
121.5158727
40
0.7254626
50
315.9206773
51
333.5025736
0
ARC
8
DEFAULT_255_2_778
10
20.164485
20
121.8020939
40
1.0613105
50
282.3900946
51
311.8234488
0
ARC
8
DEFAULT_255_2_778
10
19.9349137
20
123.1201769
40
2.3986685
50
271.0932301
51
280.9903969
0
ARC
8
DEFAULT_255_2_778
10
19.9347994
20
123.1234882
40
2.4019815
50
270.0003253
51
271.094449
0
ARC
8
DEFAULT_255_2_778
10
19.9349486
20
123.1256495
40
2.4041427
50
252.6173498
51
269.9967697
0
ARC
8
DEFAULT_255_2_778
10
19.8453402
20
122.8293384
40
1.6430504
50
247.5050814
51
270.0014959
0
ARC
8
DEFAULT_255_2_778
10
19.8453833
20
122.8297026
40
1.6434146
50
269.9999939
51
271.9292983
0
ARC
8
DEFAULT_255_2_778
10
19.8453756
20
122.8298183
40
1.6435305
50
271.9294297
51
280.7632391
0
ARC
8
DEFAULT_255_2_778
10
20.0764802
20
121.7741658
40
0.5640835
50
277.7253185
51
295.6105845
0
ARC
8
DEFAULT_255_2_778
10
20.2201744
20
121.4050617
40
0.1717654
50
305.6589239
51
359.98432
0
ARC
8
DEFAULT_255_2_778
10
20.2200418
20
121.405004
40
0.1718981
50
0.0035521
51
8.5495839
0
ARC
8
DEFAULT_255_2_778
10
20.2123133
20
121.4038299
40
0.1797152
50
8.5534361
51
9.0188554
0
ARC
8
DEFAULT_255_2_778
10
20.2200539
20
121.4053371
40
0.1718342
50
8.9271109
51
72.2617004
0
ARC
8
DEFAULT_255_2_778
10
20.1256337
20
122.8334621
40
1.0922064
50
227.2831052
51
242.7007608
0
ARC
8
DEFAULT_255_2_778
10
19.821835
20
122.479105
40
0.6260013
50
194.8372739
51
225.710287
0
ARC
8
DEFAULT_255_2_778
10
19.8536841
20
122.4989165
40
0.6619528
50
180.3439195
51
195.7890107
0
ARC
8
DEFAULT_255_2_778
10
19.8545193
20
122.4988983
40
0.6627879
50
180.0029238
51
180.3419141
0
ARC
8
DEFAULT_255_2_778
10
19.8512487
20
122.4989267
40
0.6595171
50
164.1817793
51
180.0054045
0
ARC
8
DEFAULT_255_2_778
10
19.7683161
20
122.5526456
40
0.5658297
50
142.8182823
51
167.1275445
0
ARC
8
DEFAULT_255_2_778
10
19.9406543
20
122.4001564
40
0.7954807
50
121.1972413
51
141.5692487
0
ARC
8
DEFAULT_255_2_778
10
20.1341591
20
122.0484475
40
1.1966774
50
90.036169
51
120.3996289
0
ARC
8
DEFAULT_255_2_778
10
20.1334099
20
122.0569808
40
1.1881437
50
86.1925672
51
90.0003012
0
ARC
8
DEFAULT_255_2_778
10
19.9974656
20
118.6640843
40
4.5834556
50
78.6945114
51
87.3133818
0
ARC
8
DEFAULT_255_2_778
10
20.104797
20
120.4706205
40
2.3455568
50
70.286156
51
82.961651
0
ARC
8
DEFAULT_255_2_778
10
20.2768166
20
121.6943843
40
1.110131
50
84.0337442
51
89.0479125
0
ARC
8
DEFAULT_255_2_778
10
20.2768413
20
121.6954318
40
1.1090831
50
89.0482887
51
90.0005676
0
ARC
8
DEFAULT_255_2_778
10
20.276765
20
121.6965379
40
1.1079771
50
89.9966237
51
103.3886779
0
ARC
8
DEFAULT_255_2_778
10
20.0666015
20
122.571859
40
0.2077887
50
102.9017069
51
149.1530399
0
LINE
8
DEFAULT_255_2_778
10
19.2167066
20
120.831302
11
19.2167066
21
121.311302
0
LINE
8
DEFAULT_255_2_778
10
20.2724066
20
121.569002
11
19.9845066
21
121.694902
0
LINE
8
DEFAULT_255_2_778
10
19.9845066
20
121.694902
11
19.6247066
21
121.862902
0
LINE
8
DEFAULT_255_2_778
10
20.8960066
20
123.158602
11
20.8960066
21
122.678702
0
LINE
8
DEFAULT_255_2_778
10
8.7921844
20
123.1829208
11
10.5674844
21
123.1829208
0
LINE
8
DEFAULT_255_2_778
10
10.5674844
20
123.1829208
11
10.5674844
21
122.7389208
0
LINE
8
DEFAULT_255_2_778
10
10.5674844
20
122.7389208
11
9.4877844
21
122.7389208
0
LINE
8
DEFAULT_255_2_778
10
9.4877844
20
122.7389208
11
9.4877844
21
122.1992208
0
LINE
8
DEFAULT_255_2_778
10
9.4877844
20
122.1992208
11
10.4232844
21
122.1992208
0
LINE
8
DEFAULT_255_2_778
10
10.4232844
20
122.1992208
11
10.4232844
21
121.8034208
0
LINE
8
DEFAULT_255_2_778
10
10.4232844
20
121.8034208
11
9.4877844
21
121.8034208
0
LINE
8
DEFAULT_255_2_778
10
9.4877844
20
121.8034208
11
9.4877844
21
121.2395208
0
LINE
8
DEFAULT_255_2_778
10
9.4877844
20
121.2395208
11
10.5912844
21
121.2395208
0
LINE
8
DEFAULT_255_2_778
10
10.5912844
20
121.2395208
11
10.5912844
21
120.7837208
0
LINE
8
DEFAULT_255_2_778
10
10.5912844
20
120.7837208
11
8.7918844
21
120.7837208
0
LINE
8
DEFAULT_255_2_778
10
8.7918844
20
120.7837208
11
8.7918844
21
123.1829208
0
LINE
8
DEFAULT_255_2_778
10
7.5204762
20
123.1829208
11
8.2401762
21
123.1829208
0
LINE
8
DEFAULT_255_2_778
10
8.2401762
20
123.1829208
11
8.2401762
21
120.7837208
0
LINE
8
DEFAULT_255_2_778
10
8.2401762
20
120.7837208
11
7.5204762
21
120.7837208
0
LINE
8
DEFAULT_255_2_778
10
7.5204762
20
120.7837208
11
7.5204762
21
123.1829208
0
LINE
8
DEFAULT_255_2_778
10
17.4772762
20
123.1829208
11
16.6975762
21
123.1829208
0
LINE
8
DEFAULT_255_2_778
10
16.6975762
20
123.1829208
11
16.6975762
21
120.7837208
0
LINE
8
DEFAULT_255_2_778
10
16.6975762
20
120.7837208
11
17.1774762
21
120.7837208
0
LINE
8
DEFAULT_255_2_778
10
17.1774762
20
120.7837208
11
17.1774762
21
122.3193208
0
LINE
8
DEFAULT_255_2_778
10
17.1774762
20
122.3193208
11
18.0410762
21
120.7839208
0
LINE
8
DEFAULT_255_2_778
10
18.0410762
20
120.7839208
11
18.8088762
21
120.7839208
0
LINE
8
DEFAULT_255_2_778
10
18.8088762
20
120.7839208
11
18.8088762
21
123.1829208
0
LINE
8
DEFAULT_255_2_778
10
18.8088762
20
123.1829208
11
18.3289762
21
123.1829208
0
LINE
8
DEFAULT_255_2_778
10
18.3289762
20
123.1829208
11
18.3289762
21
121.6954208
0
LINE
8
DEFAULT_255_2_778
10
18.3289762
20
121.6954208
11
17.4772762
21
123.1829208
0
LINE
8
DEFAULT_255_2_778
10
14.5023844
20
123.1829208
11
16.2776844
21
123.1829208
0
LINE
8
DEFAULT_255_2_778
10
16.2776844
20
123.1829208
11
16.2776844
21
122.7389208
0
LINE
8
DEFAULT_255_2_778
10
16.2776844
20
122.7389208
11
15.1979844
21
122.7389208
0
LINE
8
DEFAULT_255_2_778
10
15.1979844
20
122.7389208
11
15.1979844
21
122.1992208
0
LINE
8
DEFAULT_255_2_778
10
15.1979844
20
122.1992208
11
16.1334844
21
122.1992208
0
LINE
8
DEFAULT_255_2_778
10
16.1334844
20
122.1992208
11
16.1334844
21
121.8034208
0
LINE
8
DEFAULT_255_2_778
10
16.1334844
20
121.8034208
11
15.1979844
21
121.8034208
0
LINE
8
DEFAULT_255_2_778
10
15.1979844
20
121.8034208
11
15.1979844
21
121.2395208
0
LINE
8
DEFAULT_255_2_778
10
15.1979844
20
121.2395208
11
16.3014844
21
121.2395208
0
LINE
8
DEFAULT_255_2_778
10
16.3014844
20
121.2395208
11
16.3014844
21
120.7837208
0
LINE
8
DEFAULT_255_2_778
10
16.3014844
20
120.7837208
11
14.5020844
21
120.7837208
0
LINE
8
DEFAULT_255_2_778
10
14.5020844
20
120.7837208
11
14.5020844
21
123.1829208
0
LINE
8
DEFAULT_255_2_778
10
14.2584283
20
119.0978062
11
14.0848283
21
119.0978062
0
LINE
8
DEFAULT_255_2_778
10
14.0848283
20
119.0978062
11
13.8506283
21
118.9049062
0
LINE
8
DEFAULT_255_2_778
10
13.8506283
20
118.9049062
11
13.7183283
21
118.8361062
0
LINE
8
DEFAULT_255_2_778
10
13.7183283
20
118.8361062
11
13.7183283
21
118.6242062
0
LINE
8
DEFAULT_255_2_778
10
13.7183283
20
118.6242062
11
14.0205283
21
118.8057062
0
LINE
8
DEFAULT_255_2_778
10
14.0205283
20
118.8057062
11
14.0533283
21
118.8350062
0
LINE
8
DEFAULT_255_2_778
10
14.0533283
20
118.8350062
11
14.0533283
21
117.4074062
0
LINE
8
DEFAULT_255_2_778
10
14.0533283
20
117.4074062
11
14.2584283
21
117.4074062
0
LINE
8
DEFAULT_255_2_778
10
14.2584283
20
117.4074062
11
14.2584283
21
119.0978062
0
LINE
8
DEFAULT_255_2_778
10
13.0722283
20
118.5916062
11
13.2977283
21
118.5916062
0
LINE
8
DEFAULT_255_2_778
10
13.2977283
20
118.5916062
11
12.8976283
21
118.0241062
0
LINE
8
DEFAULT_255_2_778
10
12.8976283
20
118.0241062
11
13.3151283
21
117.4074062
0
LINE
8
DEFAULT_255_2_778
10
13.3151283
20
117.4074062
11
13.0667283
21
117.4074062
0
LINE
8
DEFAULT_255_2_778
10
13.0667283
20
117.4074062
11
12.7608283
21
117.8868062
0
LINE
8
DEFAULT_255_2_778
10
12.7608283
20
117.8868062
11
12.4571283
21
117.4074062
0
LINE
8
DEFAULT_255_2_778
10
12.4571283
20
117.4074062
11
12.2271283
21
117.4074062
0
LINE
8
DEFAULT_255_2_778
10
12.2271283
20
117.4074062
11
12.6566283
21
118.0132062
0
LINE
8
DEFAULT_255_2_778
10
12.6566283
20
118.0132062
11
12.2565283
21
118.5916062
0
LINE
8
DEFAULT_255_2_778
10
12.2565283
20
118.5916062
11
12.5145283
21
118.5916062
0
LINE
8
DEFAULT_255_2_778
10
12.5145283
20
118.5916062
11
12.7910283
21
118.1543062
0
LINE
8
DEFAULT_255_2_778
10
12.7910283
20
118.1543062
11
13.0717283
21
118.5916062
0
LINE
8
DEFAULT_255_2_778
10
18.9894283
20
119.1073062
11
20.2244283
21
119.1073062
0
LINE
8
DEFAULT_255_2_778
10
20.2244283
20
119.1073062
11
20.2244283
21
118.9144062
0
LINE
8
DEFAULT_255_2_778
10
20.2244283
20
118.9144062
11
19.7117283
21
118.9144062
0
LINE
8
DEFAULT_255_2_778
10
19.7117283
20
118.9144062
11
19.7117283
21
117.4071062
0
LINE
8
DEFAULT_255_2_778
10
19.7117283
20
117.4071062
11
19.5021283
21
117.4071062
0
LINE
8
DEFAULT_255_2_778
10
19.5021283
20
117.4071062
11
19.5021283
21
118.9144062
0
LINE
8
DEFAULT_255_2_778
10
19.5021283
20
118.9144062
11
18.9894283
21
118.9144062
0
LINE
8
DEFAULT_255_2_778
10
18.9894283
20
118.9144062
11
18.9894283
21
119.1073062
0
LINE
8
DEFAULT_255_2_778
10
18.5012283
20
119.1073062
11
18.7105283
21
119.1073062
0
LINE
8
DEFAULT_255_2_778
10
18.7105283
20
119.1073062
11
18.7105283
21
117.4074062
0
LINE
8
DEFAULT_255_2_778
10
18.7105283
20
117.4074062
11
18.5012283
21
117.4074062
0
LINE
8
DEFAULT_255_2_778
10
18.5012283
20
117.4074062
11
18.5012283
21
119.1073062
0
LINE
8
DEFAULT_255_2_778
10
7.4086283
20
119.1073062
11
7.6385283
21
119.1073062
0
LINE
8
DEFAULT_255_2_778
10
7.6385283
20
119.1073062
11
8.2663283
21
117.4074062
0
LINE
8
DEFAULT_255_2_778
10
8.2663283
20
117.4074062
11
8.0385283
21
117.4074062
0
LINE
8
DEFAULT_255_2_778
10
8.0385283
20
117.4074062
11
7.8845283
21
117.8508062
0
LINE
8
DEFAULT_255_2_778
10
7.8845283
20
117.8508062
11
7.1646283
21
117.8508062
0
LINE
8
DEFAULT_255_2_778
10
7.1646283
20
117.8508062
11
7.0127283
21
117.4074062
0
LINE
8
DEFAULT_255_2_778
10
7.0127283
20
117.4074062
11
6.7807283
21
117.4074062
0
LINE
8
DEFAULT_255_2_778
10
6.7807283
20
117.4074062
11
7.4086283
21
119.1073062
0
LINE
8
DEFAULT_255_2_778
10
7.2318283
20
118.0434062
11
7.8184283
21
118.0434062
0
LINE
8
DEFAULT_255_2_778
10
7.8184283
20
118.0434062
11
7.5244283
21
118.8880062
0
LINE
8
DEFAULT_255_2_778
10
7.5244283
20
118.8880062
11
7.2318283
21
118.0434062
0
LINE
8
DEFAULT_255_2_778
10
9.2843004
20
119.134565
11
9.0983004
21
119.137465
0
LINE
8
DEFAULT_255_2_778
10
9.0983004
20
119.137465
11
8.9469004
21
119.106465
0
LINE
8
DEFAULT_255_2_778
10
8.9469004
20
119.106465
11
8.8294004
21
119.052565
0
LINE
8
DEFAULT_255_2_778
10
8.8294004
20
119.052565
11
8.7424004
21
118.987165
0
LINE
8
DEFAULT_255_2_778
10
8.7424004
20
118.987165
11
8.6688004
21
118.905965
0
LINE
8
DEFAULT_255_2_778
10
8.6688004
20
118.905965
11
8.6223004
21
118.836365
0
LINE
8
DEFAULT_255_2_778
10
8.6223004
20
118.836365
11
8.5858004
21
118.766265
0
LINE
8
DEFAULT_255_2_778
10
8.5858004
20
118.766265
11
8.5548004
21
118.688965
0
LINE
8
DEFAULT_255_2_778
10
8.5548004
20
118.688965
11
8.5368004
21
118.630565
0
LINE
8
DEFAULT_255_2_778
10
8.5368004
20
118.630565
11
8.5223004
21
118.570965
0
LINE
8
DEFAULT_255_2_778
10
8.5223004
20
118.570965
11
8.5111004
21
118.510965
0
LINE
8
DEFAULT_255_2_778
10
8.5111004
20
118.510965
11
8.5061004
21
118.476565
0
LINE
8
DEFAULT_255_2_778
10
8.5061004
20
118.476565
11
8.5019004
21
118.441865
0
LINE
8
DEFAULT_255_2_778
10
8.5019004
20
118.441865
11
8.4987004
21
118.407265
0
LINE
8
DEFAULT_255_2_778
10
8.4987004
20
118.407265
11
8.4984004
21
118.126465
0
LINE
8
DEFAULT_255_2_778
10
8.4984004
20
118.126465
11
8.5016004
21
118.091265
0
LINE
8
DEFAULT_255_2_778
10
8.5016004
20
118.091265
11
8.5056004
21
118.056065
0
LINE
8
DEFAULT_255_2_778
10
8.5056004
20
118.056065
11
8.5106004
21
118.020965
0
LINE
8
DEFAULT_255_2_778
10
8.5106004
20
118.020965
11
8.5217004
21
117.959765
0
LINE
8
DEFAULT_255_2_778
10
8.5217004
20
117.959765
11
8.5360004
21
117.899265
0
LINE
8
DEFAULT_255_2_778
10
8.5360004
20
117.899265
11
8.5537004
21
117.839665
0
LINE
8
DEFAULT_255_2_778
10
8.5537004
20
117.839665
11
8.5850004
21
117.758165
0
LINE
8
DEFAULT_255_2_778
10
8.5850004
20
117.758165
11
8.6228004
21
117.683065
0
LINE
8
DEFAULT_255_2_778
10
8.6228004
20
117.683065
11
8.6789004
21
117.599465
0
LINE
8
DEFAULT_255_2_778
10
8.6789004
20
117.599465
11
8.7554004
21
117.518265
0
LINE
8
DEFAULT_255_2_778
10
8.7554004
20
117.518265
11
8.8450004
21
117.454465
0
LINE
8
DEFAULT_255_2_778
10
8.8450004
20
117.454465
11
8.9654004
21
117.403165
0
LINE
8
DEFAULT_255_2_778
10
8.9654004
20
117.403165
11
9.1305004
21
117.375365
0
LINE
8
DEFAULT_255_2_778
10
9.1305004
20
117.375365
11
9.3216004
21
117.386465
0
LINE
8
DEFAULT_255_2_778
10
9.3216004
20
117.386465
11
9.4729004
21
117.434565
0
LINE
8
DEFAULT_255_2_778
10
9.4729004
20
117.434565
11
9.5666004
21
117.490665
0
LINE
8
DEFAULT_255_2_778
10
9.5666004
20
117.490665
11
9.6491004
21
117.566065
0
LINE
8
DEFAULT_255_2_778
10
9.6491004
20
117.566065
11
9.7047004
21
117.636465
0
LINE
8
DEFAULT_255_2_778
10
9.7047004
20
117.636465
11
9.7481004
21
117.708465
0
LINE
8
DEFAULT_255_2_778
10
9.7481004
20
117.708465
11
9.7835004
21
117.784365
0
LINE
8
DEFAULT_255_2_778
10
9.7835004
20
117.784365
11
9.8039004
21
117.839665
0
LINE
8
DEFAULT_255_2_778
10
9.8039004
20
117.839665
11
9.8216004
21
117.899265
0
LINE
8
DEFAULT_255_2_778
10
9.8216004
20
117.899265
11
9.8359004
21
117.959765
0
LINE
8
DEFAULT_255_2_778
10
9.8359004
20
117.959765
11
9.8470004
21
118.020965
0
LINE
8
DEFAULT_255_2_778
10
9.8470004
20
118.020965
11
9.8521004
21
118.055865
0
LINE
8
DEFAULT_255_2_778
10
9.8521004
20
118.055865
11
9.8563004
21
118.091065
0
LINE
8
DEFAULT_255_2_778
10
9.8563004
20
118.091065
11
9.8595004
21
118.126265
0
LINE
8
DEFAULT_255_2_778
10
9.8595004
20
118.126265
11
9.8595004
21
118.406165
0
LINE
8
DEFAULT_255_2_778
10
9.8595004
20
118.406165
11
9.8560004
21
118.440565
0
LINE
8
DEFAULT_255_2_778
10
9.8560004
20
118.440565
11
9.8518004
21
118.474965
0
LINE
8
DEFAULT_255_2_778
10
9.8518004
20
118.474965
11
9.8468004
21
118.509365
0
LINE
8
DEFAULT_255_2_778
10
9.8468004
20
118.509365
11
9.8354004
21
118.569365
0
LINE
8
DEFAULT_255_2_778
10
9.8354004
20
118.569365
11
9.8208004
21
118.628665
0
LINE
8
DEFAULT_255_2_778
10
9.8208004
20
118.628665
11
9.8026004
21
118.686865
0
LINE
8
DEFAULT_255_2_778
10
9.8026004
20
118.686865
11
9.7703004
21
118.766565
0
LINE
8
DEFAULT_255_2_778
10
9.7703004
20
118.766565
11
9.7311004
21
118.840065
0
LINE
8
DEFAULT_255_2_778
10
9.7311004
20
118.840065
11
9.6737004
21
118.921565
0
LINE
8
DEFAULT_255_2_778
10
9.6737004
20
118.921565
11
9.5970004
21
119.000365
0
LINE
8
DEFAULT_255_2_778
10
9.5970004
20
119.000365
11
9.4888004
21
119.072665
0
LINE
8
DEFAULT_255_2_778
10
9.4888004
20
119.072665
11
9.3628004
21
119.119465
0
LINE
8
DEFAULT_255_2_778
10
9.3628004
20
119.119465
11
9.2843004
21
119.134565
0
LINE
8
DEFAULT_255_2_778
10
9.2303004
20
118.945865
11
9.3615004
21
118.913065
0
LINE
8
DEFAULT_255_2_778
10
9.3615004
20
118.913065
11
9.4565004
21
118.854065
0
LINE
8
DEFAULT_255_2_778
10
9.4565004
20
118.854065
11
9.5248004
21
118.778965
0
LINE
8
DEFAULT_255_2_778
10
9.5248004
20
118.778965
11
9.5737004
21
118.695865
0
LINE
8
DEFAULT_255_2_778
10
9.5737004
20
118.695865
11
9.6033004
21
118.623665
0
LINE
8
DEFAULT_255_2_778
10
9.6033004
20
118.623665
11
9.6171004
21
118.579465
0
LINE
8
DEFAULT_255_2_778
10
9.6171004
20
118.579465
11
9.6301004
21
118.527365
0
LINE
8
DEFAULT_255_2_778
10
9.6301004
20
118.527365
11
9.6399004
21
118.474665
0
LINE
8
DEFAULT_255_2_778
10
9.6399004
20
118.474665
11
9.6438004
21
118.448265
0
LINE
8
DEFAULT_255_2_778
10
9.6438004
20
118.448265
11
9.6475004
21
118.417765
0
LINE
8
DEFAULT_255_2_778
10
9.6475004
20
118.417765
11
9.6504004
21
118.387365
0
LINE
8
DEFAULT_255_2_778
10
9.6504004
20
118.387365
11
9.6504004
21
118.140565
0
LINE
8
DEFAULT_255_2_778
10
9.6504004
20
118.140565
11
9.6475004
21
118.109565
0
LINE
8
DEFAULT_255_2_778
10
9.6475004
20
118.109565
11
9.6438004
21
118.078565
0
LINE
8
DEFAULT_255_2_778
10
9.6438004
20
118.078565
11
9.6356004
21
118.024665
0
LINE
8
DEFAULT_255_2_778
10
9.6356004
20
118.024665
11
9.6245004
21
117.971165
0
LINE
8
DEFAULT_255_2_778
10
9.6245004
20
117.971165
11
9.6039004
21
117.898965
0
LINE
8
DEFAULT_255_2_778
10
9.6039004
20
117.898965
11
9.5732004
21
117.822265
0
LINE
8
DEFAULT_255_2_778
10
9.5732004
20
117.822265
11
9.5266004
21
117.741265
0
LINE
8
DEFAULT_255_2_778
10
9.5266004
20
117.741265
11
9.4708004
21
117.675365
0
LINE
8
DEFAULT_255_2_778
10
9.4708004
20
117.675365
11
9.3774004
21
117.609465
0
LINE
8
DEFAULT_255_2_778
10
9.3774004
20
117.609465
11
9.2480004
21
117.570565
0
LINE
8
DEFAULT_255_2_778
10
9.2480004
20
117.570565
11
9.0911004
21
117.573265
0
LINE
8
DEFAULT_255_2_778
10
9.0911004
20
117.573265
11
8.9646004
21
117.617165
0
LINE
8
DEFAULT_255_2_778
10
8.9646004
20
117.617165
11
8.8858004
21
117.675365
0
LINE
8
DEFAULT_255_2_778
10
8.8858004
20
117.675365
11
8.8207004
21
117.755765
0
LINE
8
DEFAULT_255_2_778
10
8.8207004
20
117.755765
11
8.7839004
21
117.822465
0
LINE
8
DEFAULT_255_2_778
10
8.7839004
20
117.822465
11
8.7532004
21
117.899465
0
LINE
8
DEFAULT_255_2_778
10
8.7532004
20
117.899465
11
8.7395004
21
117.945565
0
LINE
8
DEFAULT_255_2_778
10
8.7395004
20
117.945565
11
8.7268004
21
117.998465
0
LINE
8
DEFAULT_255_2_778
10
8.7268004
20
117.998465
11
8.7173004
21
118.052165
0
LINE
8
DEFAULT_255_2_778
10
8.7173004
20
118.052165
11
8.7136004
21
118.079165
0
LINE
8
DEFAULT_255_2_778
10
8.7136004
20
118.079165
11
8.7098004
21
118.110065
0
LINE
8
DEFAULT_255_2_778
10
8.7098004
20
118.110065
11
8.7069004
21
118.141065
0
LINE
8
DEFAULT_255_2_778
10
8.7069004
20
118.141065
11
8.7072004
21
118.387365
0
LINE
8
DEFAULT_255_2_778
10
8.7072004
20
118.387365
11
8.7101004
21
118.417765
0
LINE
8
DEFAULT_255_2_778
10
8.7101004
20
118.417765
11
8.7138004
21
118.448265
0
LINE
8
DEFAULT_255_2_778
10
8.7138004
20
118.448265
11
8.7223004
21
118.501165
0
LINE
8
DEFAULT_255_2_778
10
8.7223004
20
118.501165
11
8.7337004
21
118.553565
0
LINE
8
DEFAULT_255_2_778
10
8.7337004
20
118.553565
11
8.7546004
21
118.624465
0
LINE
8
DEFAULT_255_2_778
10
8.7546004
20
118.624465
11
8.7860004
21
118.699865
0
LINE
8
DEFAULT_255_2_778
10
8.7860004
20
118.699865
11
8.8331004
21
118.778665
0
LINE
8
DEFAULT_255_2_778
10
8.8331004
20
118.778665
11
8.9014004
21
118.853865
0
LINE
8
DEFAULT_255_2_778
10
8.9014004
20
118.853865
11
8.9961004
21
118.912865
0
LINE
8
DEFAULT_255_2_778
10
8.9961004
20
118.912865
11
9.1440004
21
118.946965
0
LINE
8
DEFAULT_255_2_778
10
9.1440004
20
118.946965
11
9.2303004
21
118.945865
0
LINE
8
DEFAULT_255_2_778
10
11.5398004
20
119.107265
11
11.7817004
21
119.107265
0
LINE
8
DEFAULT_255_2_778
10
11.7817004
20
119.107265
11
11.7817004
21
118.018265
0
LINE
8
DEFAULT_255_2_778
10
11.7817004
20
118.018265
11
12.0711004
21
118.018265
0
LINE
8
DEFAULT_255_2_778
10
12.0711004
20
118.018265
11
12.0711004
21
117.832765
0
LINE
8
DEFAULT_255_2_778
10
12.0711004
20
117.832765
11
11.7817004
21
117.832765
0
LINE
8
DEFAULT_255_2_778
10
11.7817004
20
117.832765
11
11.7817004
21
117.407665
0
LINE
8
DEFAULT_255_2_778
10
11.7817004
20
117.407665
11
11.5766004
21
117.407665
0
LINE
8
DEFAULT_255_2_778
10
11.5766004
20
117.407665
11
11.5766004
21
117.832765
0
LINE
8
DEFAULT_255_2_778
10
11.5766004
20
117.832765
11
10.8654004
21
117.832765
0
LINE
8
DEFAULT_255_2_778
10
10.8654004
20
117.832765
11
10.8654004
21
118.037565
0
LINE
8
DEFAULT_255_2_778
10
10.8654004
20
118.037565
11
11.5398004
21
119.107265
0
LINE
8
DEFAULT_255_2_778
10
11.0443004
20
118.017965
11
11.5766004
21
118.017965
0
LINE
8
DEFAULT_255_2_778
10
11.5766004
20
118.017965
11
11.5766004
21
118.864965
0
LINE
8
DEFAULT_255_2_778
10
11.5766004
20
118.864965
11
11.0443004
21
118.017965
0
LINE
8
DEFAULT_255_2_778
10
15.5694004
20
118.329465
11
15.6986004
21
118.280965
0
LINE
8
DEFAULT_255_2_778
10
15.6986004
20
118.280965
11
15.7647004
21
118.207965
0
LINE
8
DEFAULT_255_2_778
10
15.7647004
20
118.207965
11
15.7978004
21
118.142865
0
LINE
8
DEFAULT_255_2_778
10
15.7978004
20
118.142865
11
15.8136004
21
118.092665
0
LINE
8
DEFAULT_255_2_778
10
15.8136004
20
118.092665
11
15.8216004
21
118.053765
0
LINE
8
DEFAULT_255_2_778
10
15.8216004
20
118.053765
11
15.8256004
21
118.024365
0
LINE
8
DEFAULT_255_2_778
10
15.8256004
20
118.024365
11
15.8250004
21
117.872265
0
LINE
8
DEFAULT_255_2_778
10
15.8250004
20
117.872265
11
15.8179004
21
117.829365
0
LINE
8
DEFAULT_255_2_778
10
15.8179004
20
117.829365
11
15.8015004
21
117.770865
0
LINE
8
DEFAULT_255_2_778
10
15.8015004
20
117.770865
11
15.7658004
21
117.698665
0
LINE
8
DEFAULT_255_2_778
10
15.7658004
20
117.698665
11
15.6978004
21
117.622765
0
LINE
8
DEFAULT_255_2_778
10
15.6978004
20
117.622765
11
15.5877004
21
117.570565
0
LINE
8
DEFAULT_255_2_778
10
15.5877004
20
117.570565
11
15.4194004
21
117.570565
0
LINE
8
DEFAULT_255_2_778
10
15.4194004
20
117.570565
11
15.3088004
21
117.624065
0
LINE
8
DEFAULT_255_2_778
10
15.3088004
20
117.624065
11
15.2414004
21
117.699965
0
LINE
8
DEFAULT_255_2_778
10
15.2414004
20
117.699965
11
15.2093004
21
117.762665
0
LINE
8
DEFAULT_255_2_778
10
15.2093004
20
117.762665
11
15.1927004
21
117.815565
0
LINE
8
DEFAULT_255_2_778
10
15.1927004
20
117.815565
11
15.1842004
21
117.857965
0
LINE
8
DEFAULT_255_2_778
10
15.1842004
20
117.857965
11
15.1858004
21
118.047365
0
LINE
8
DEFAULT_255_2_778
10
15.1858004
20
118.047365
11
15.1980004
21
118.097165
0
LINE
8
DEFAULT_255_2_778
10
15.1980004
20
118.097165
11
15.2218004
21
118.154565
0
LINE
8
DEFAULT_255_2_778
10
15.2218004
20
118.154565
11
15.2771004
21
118.231265
0
LINE
8
DEFAULT_255_2_778
10
15.2771004
20
118.231265
11
15.3797004
21
118.302165
0
LINE
8
DEFAULT_255_2_778
10
15.3797004
20
118.302165
11
15.5694004
21
118.329465
0
LINE
8
DEFAULT_255_2_778
10
15.6475004
20
119.124265
11
15.4496004
21
119.125565
0
LINE
8
DEFAULT_255_2_778
10
15.4496004
20
119.125565
11
15.3115004
21
119.083265
0
LINE
8
DEFAULT_255_2_778
10
15.3115004
20
119.083265
11
15.2096004
21
119.015465
0
LINE
8
DEFAULT_255_2_778
10
15.2096004
20
119.015465
11
15.1331004
21
118.932665
0
LINE
8
DEFAULT_255_2_778
10
15.1331004
20
118.932665
11
15.0718004
21
118.833165
0
LINE
8
DEFAULT_255_2_778
10
15.0718004
20
118.833165
11
15.0405004
21
118.765165
0
LINE
8
DEFAULT_255_2_778
10
15.0405004
20
118.765165
11
15.0122004
21
118.687365
0
LINE
8
DEFAULT_255_2_778
10
15.0122004
20
118.687365
11
14.9889004
21
118.604365
0
LINE
8
DEFAULT_255_2_778
10
14.9889004
20
118.604365
11
14.9757004
21
118.543465
0
LINE
8
DEFAULT_255_2_778
10
14.9757004
20
118.543465
11
14.9651004
21
118.482065
0
LINE
8
DEFAULT_255_2_778
10
14.9651004
20
118.482065
11
14.9569004
21
118.420165
0
LINE
8
DEFAULT_255_2_778
10
14.9569004
20
118.420165
11
14.9532004
21
118.384965
0
LINE
8
DEFAULT_255_2_778
10
14.9532004
20
118.384965
11
14.9524004
21
117.992065
0
LINE
8
DEFAULT_255_2_778
10
14.9524004
20
117.992065
11
14.9564004
21
117.957965
0
LINE
8
DEFAULT_255_2_778
10
14.9564004
20
117.957965
11
14.9641004
21
117.905065
0
LINE
8
DEFAULT_255_2_778
10
14.9641004
20
117.905065
11
14.9741004
21
117.852365
0
LINE
8
DEFAULT_255_2_778
10
14.9741004
20
117.852365
11
14.9866004
21
117.800265
0
LINE
8
DEFAULT_255_2_778
10
14.9866004
20
117.800265
11
15.0135004
21
117.715865
0
LINE
8
DEFAULT_255_2_778
10
15.0135004
20
117.715865
11
15.0469004
21
117.640465
0
LINE
8
DEFAULT_255_2_778
10
15.0469004
20
117.640465
11
15.0948004
21
117.561565
0
LINE
8
DEFAULT_255_2_778
10
15.0948004
20
117.561565
11
15.1779004
21
117.471865
0
LINE
8
DEFAULT_255_2_778
10
15.1779004
20
117.471865
11
15.2956004
21
117.402865
0
LINE
8
DEFAULT_255_2_778
10
15.2956004
20
117.402865
11
15.4692004
21
117.369765
0
LINE
8
DEFAULT_255_2_778
10
15.4692004
20
117.369765
11
15.6581004
21
117.391265
0
LINE
8
DEFAULT_255_2_778
10
15.6581004
20
117.391265
11
15.7877004
21
117.447565
0
LINE
8
DEFAULT_255_2_778
10
15.7877004
20
117.447565
11
15.8824004
21
117.524865
0
LINE
8
DEFAULT_255_2_778
10
15.8824004
20
117.524865
11
15.9377004
21
117.595165
0
LINE
8
DEFAULT_255_2_778
10
15.9377004
20
117.595165
11
15.9729004
21
117.658665
0
LINE
8
DEFAULT_255_2_778
10
15.9729004
20
117.658665
11
15.9941004
21
117.711665
0
LINE
8
DEFAULT_255_2_778
10
15.9941004
20
117.711665
11
16.0100004
21
117.766365
0
LINE
8
DEFAULT_255_2_778
10
16.0100004
20
117.766365
11
16.0182004
21
117.805865
0
LINE
8
DEFAULT_255_2_778
10
16.0182004
20
117.805865
11
16.0245004
21
117.847865
0
LINE
8
DEFAULT_255_2_778
10
16.0245004
20
117.847865
11
16.0235004
21
118.069565
0
LINE
8
DEFAULT_255_2_778
10
16.0235004
20
118.069565
11
16.0168004
21
118.111165
0
LINE
8
DEFAULT_255_2_778
10
16.0168004
20
118.111165
11
16.0049004
21
118.163265
0
LINE
8
DEFAULT_255_2_778
10
16.0049004
20
118.163265
11
15.9822004
21
118.230765
0
LINE
8
DEFAULT_255_2_778
10
15.9822004
20
118.230765
11
15.9404004
21
118.312765
0
LINE
8
DEFAULT_255_2_778
10
15.9404004
20
118.312765
11
15.8660004
21
118.405365
0
LINE
8
DEFAULT_255_2_778
10
15.8660004
20
118.405365
11
15.7586004
21
118.481065
0
LINE
8
DEFAULT_255_2_778
10
15.7586004
20
118.481065
11
15.5991004
21
118.523365
0
LINE
8
DEFAULT_255_2_778
10
15.5991004
20
118.523365
11
15.4329004
21
118.509065
0
LINE
8
DEFAULT_255_2_778
10
15.4329004
20
118.509065
11
15.2988004
21
118.443765
0
LINE
8
DEFAULT_255_2_778
10
15.2988004
20
118.443765
11
15.1935004
21
118.341865
0
LINE
8
DEFAULT_255_2_778
10
15.1935004
20
118.341865
11
15.1448004
21
118.270665
0
LINE
8
DEFAULT_255_2_778
10
15.1448004
20
118.270665
11
15.1490004
21
118.326565
0
LINE
8
DEFAULT_255_2_778
10
15.1490004
20
118.326565
11
15.1546004
21
118.382365
0
LINE
8
DEFAULT_255_2_778
10
15.1546004
20
118.382365
11
15.1620004
21
118.437865
0
LINE
8
DEFAULT_255_2_778
10
15.1620004
20
118.437865
11
15.1749004
21
118.511165
0
LINE
8
DEFAULT_255_2_778
10
15.1749004
20
118.511165
11
15.1972004
21
118.601465
0
LINE
8
DEFAULT_255_2_778
10
15.1972004
20
118.601465
11
15.2276004
21
118.689565
0
LINE
8
DEFAULT_255_2_778
10
15.2276004
20
118.689565
11
15.2736004
21
118.782165
0
LINE
8
DEFAULT_255_2_778
10
15.2736004
20
118.782165
11
15.3538004
21
118.877665
0
LINE
8
DEFAULT_255_2_778
10
15.3538004
20
118.877665
11
15.4676004
21
118.936365
0
LINE
8
DEFAULT_255_2_778
10
15.4676004
20
118.936365
11
15.6247004
21
118.935565
0
LINE
8
DEFAULT_255_2_778
10
15.6247004
20
118.935565
11
15.7184004
21
118.886365
0
LINE
8
DEFAULT_255_2_778
10
15.7184004
20
118.886365
11
15.7658004
21
118.826865
0
LINE
8
DEFAULT_255_2_778
10
15.7658004
20
118.826865
11
15.7845004
21
118.780765
0
LINE
8
DEFAULT_255_2_778
10
15.7845004
20
118.780765
11
15.7922004
21
118.748565
0
LINE
8
DEFAULT_255_2_778
10
15.7922004
20
118.748565
11
15.7957004
21
118.722365
0
LINE
8
DEFAULT_255_2_778
10
15.7957004
20
118.722365
11
15.7975004
21
118.682865
0
LINE
8
DEFAULT_255_2_778
10
15.7975004
20
118.682865
11
15.9981004
21
118.682865
0
LINE
8
DEFAULT_255_2_778
10
15.9981004
20
118.682865
11
15.9957004
21
118.741665
0
LINE
8
DEFAULT_255_2_778
10
15.9957004
20
118.741665
11
15.9936004
21
118.761265
0
LINE
8
DEFAULT_255_2_778
10
15.9936004
20
118.761265
11
15.9875004
21
118.800365
0
LINE
8
DEFAULT_255_2_778
10
15.9875004
20
118.800365
11
15.9790004
21
118.836665
0
LINE
8
DEFAULT_255_2_778
10
15.9790004
20
118.836665
11
15.9623004
21
118.886365
0
LINE
8
DEFAULT_255_2_778
10
15.9623004
20
118.886365
11
15.9309004
21
118.947465
0
LINE
8
DEFAULT_255_2_778
10
15.9309004
20
118.947465
11
15.8787004
21
119.012065
0
LINE
8
DEFAULT_255_2_778
10
15.8787004
20
119.012065
11
15.7909004
21
119.077365
0
LINE
8
DEFAULT_255_2_778
10
15.7909004
20
119.077365
11
15.6687004
21
119.121065
0
LINE
8
DEFAULT_255_2_778
10
15.6687004
20
119.121065
11
15.6475004
21
119.124265
0
LINE
8
DEFAULT_255_2_778
10
17.7618004
20
119.097465
11
17.9742004
21
119.028165
0
LINE
8
DEFAULT_255_2_778
10
17.9742004
20
119.028165
11
18.0708004
21
118.950665
0
LINE
8
DEFAULT_255_2_778
10
18.0708004
20
118.950665
11
18.1123004
21
118.889565
0
LINE
8
DEFAULT_255_2_778
10
18.1123004
20
118.889565
11
18.1359004
21
118.830765
0
LINE
8
DEFAULT_255_2_778
10
18.1359004
20
118.830765
11
18.1478004
21
118.780765
0
LINE
8
DEFAULT_255_2_778
10
18.1478004
20
118.780765
11
18.1531004
21
118.742165
0
LINE
8
DEFAULT_255_2_778
10
18.1531004
20
118.742165
11
18.1520004
21
118.621765
0
LINE
8
DEFAULT_255_2_778
10
18.1520004
20
118.621765
11
18.1454004
21
118.581865
0
LINE
8
DEFAULT_255_2_778
10
18.1454004
20
118.581865
11
18.1306004
21
118.530265
0
LINE
8
DEFAULT_255_2_778
10
18.1306004
20
118.530265
11
18.0978004
21
118.464065
0
LINE
8
DEFAULT_255_2_778
10
18.0978004
20
118.464065
11
18.0264004
21
118.380465
0
LINE
8
DEFAULT_255_2_778
10
18.0264004
20
118.380465
11
17.9091004
21
118.311165
0
LINE
8
DEFAULT_255_2_778
10
17.9091004
20
118.311165
11
17.8856004
21
118.303765
0
LINE
8
DEFAULT_255_2_778
10
17.8856004
20
118.303765
11
18.0242004
21
118.245865
0
LINE
8
DEFAULT_255_2_778
10
18.0242004
20
118.245865
11
18.1131004
21
118.170965
0
LINE
8
DEFAULT_255_2_778
10
18.1131004
20
118.170965
11
18.1602004
21
118.102465
0
LINE
8
DEFAULT_255_2_778
10
18.1602004
20
118.102465
11
18.1878004
21
118.037065
0
LINE
8
DEFAULT_255_2_778
10
18.1878004
20
118.037065
11
18.1994004
21
117.994465
0
LINE
8
DEFAULT_255_2_778
10
18.1994004
20
117.994465
11
18.2052004
21
117.963265
0
LINE
8
DEFAULT_255_2_778
10
18.2052004
20
117.963265
11
18.2034004
21
117.755265
0
LINE
8
DEFAULT_255_2_778
10
18.2034004
20
117.755265
11
18.1946004
21
117.713965
0
LINE
8
DEFAULT_255_2_778
10
18.1946004
20
117.713965
11
18.1772004
21
117.661365
0
LINE
8
DEFAULT_255_2_778
10
18.1772004
20
117.661365
11
18.1454004
21
117.601065
0
LINE
8
DEFAULT_255_2_778
10
18.1454004
20
117.601065
11
18.0745004
21
117.522465
0
LINE
8
DEFAULT_255_2_778
10
18.0745004
20
117.522465
11
17.9726004
21
117.458665
0
LINE
8
DEFAULT_255_2_778
10
17.9726004
20
117.458665
11
17.7811004
21
117.411865
0
LINE
8
DEFAULT_255_2_778
10
17.7811004
20
117.411865
11
17.6731004
21
117.407365
0
LINE
8
DEFAULT_255_2_778
10
17.6731004
20
117.407365
11
17.0995004
21
117.407365
0
LINE
8
DEFAULT_255_2_778
10
17.0995004
20
117.407365
11
17.0995004
21
119.107265
0
LINE
8
DEFAULT_255_2_778
10
17.0995004
20
119.107265
11
17.7618004
21
119.097465
0
LINE
8
DEFAULT_255_2_778
10
17.7221004
20
118.186265
11
17.9078004
21
118.116465
0
LINE
8
DEFAULT_255_2_778
10
17.9078004
20
118.116465
11
17.9650004
21
118.053465
0
LINE
8
DEFAULT_255_2_778
10
17.9650004
20
118.053465
11
17.9875004
21
118.002165
0
LINE
8
DEFAULT_255_2_778
10
17.9875004
20
118.002165
11
17.9980004
21
117.955865
0
LINE
8
DEFAULT_255_2_778
10
17.9980004
20
117.955865
11
17.9962004
21
117.817765
0
LINE
8
DEFAULT_255_2_778
10
17.9962004
20
117.817765
11
17.9808004
21
117.761365
0
LINE
8
DEFAULT_255_2_778
10
17.9808004
20
117.761365
11
17.9427004
21
117.694165
0
LINE
8
DEFAULT_255_2_778
10
17.9427004
20
117.694165
11
17.8372004
21
117.624565
0
LINE
8
DEFAULT_255_2_778
10
17.8372004
20
117.624565
11
17.6546004
21
117.599965
0
LINE
8
DEFAULT_255_2_778
10
17.6546004
20
117.599965
11
17.3088004
21
117.599965
0
LINE
8
DEFAULT_255_2_778
10
17.3088004
20
117.599965
11
17.3088004
21
118.191565
0
LINE
8
DEFAULT_255_2_778
10
17.3088004
20
118.191565
11
17.7221004
21
118.186265
0
LINE
8
DEFAULT_255_2_778
10
17.6996004
20
118.908065
11
17.8710004
21
118.834765
0
LINE
8
DEFAULT_255_2_778
10
17.8710004
20
118.834765
11
17.9229004
21
118.765465
0
LINE
8
DEFAULT_255_2_778
10
17.9229004
20
118.765465
11
17.9385004
21
118.718665
0
LINE
8
DEFAULT_255_2_778
10
17.9385004
20
118.718665
11
17.9441004
21
118.685565
0
LINE
8
DEFAULT_255_2_778
10
17.9441004
20
118.685565
11
17.9422004
21
118.595365
0
LINE
8
DEFAULT_255_2_778
10
17.9422004
20
118.595365
11
17.9311004
21
118.549565
0
LINE
8
DEFAULT_255_2_778
10
17.9311004
20
118.549565
11
17.8978004
21
118.489765
0
LINE
8
DEFAULT_255_2_778
10
17.8978004
20
118.489765
11
17.7898004
21
118.416965
0
LINE
8
DEFAULT_255_2_778
10
17.7898004
20
118.416965
11
17.6062004
21
118.388665
0
LINE
8
DEFAULT_255_2_778
10
17.6062004
20
118.388665
11
17.3083004
21
118.388665
0
LINE
8
DEFAULT_255_2_778
10
17.3083004
20
118.388665
11
17.3083004
21
118.913865
0
LINE
8
DEFAULT_255_2_778
10
17.3083004
20
118.913865
11
17.6996004
21
118.908065
0
LINE
8
DEFAULT_255_2_778
10
33.8013004
20
117.867165
11
33.5600004
21
117.885765
0
LINE
8
DEFAULT_255_2_778
10
33.5600004
20
117.885765
11
33.3365004
21
117.856865
0
LINE
8
DEFAULT_255_2_778
10
33.3365004
20
117.856865
11
33.1846004
21
117.797865
0
LINE
8
DEFAULT_255_2_778
10
33.1846004
20
117.797865
11
33.0843004
21
117.726965
0
LINE
8
DEFAULT_255_2_778
10
33.0843004
20
117.726965
11
33.0200004
21
117.652065
0
LINE
8
DEFAULT_255_2_778
10
33.0200004
20
117.652065
11
32.9891004
21
117.595765
0
LINE
8
DEFAULT_255_2_778
10
32.9891004
20
117.595765
11
32.9719004
21
117.550765
0
LINE
8
DEFAULT_255_2_778
10
32.9719004
20
117.550765
11
32.9626004
21
117.517165
0
LINE
8
DEFAULT_255_2_778
10
32.9626004
20
117.517165
11
32.9560004
21
117.483065
0
LINE
8
DEFAULT_255_2_778
10
32.9560004
20
117.483065
11
32.9584004
21
117.300765
0
LINE
8
DEFAULT_255_2_778
10
32.9584004
20
117.300765
11
32.9753004
21
117.239565
0
LINE
8
DEFAULT_255_2_778
10
32.9753004
20
117.239565
11
33.0161004
21
117.160465
0
LINE
8
DEFAULT_255_2_778
10
33.0161004
20
117.160465
11
33.1174004
21
117.062865
0
LINE
8
DEFAULT_255_2_778
10
33.1174004
20
117.062865
11
33.3629004
21
116.963165
0
LINE
8
DEFAULT_255_2_778
10
33.3629004
20
116.963165
11
33.8461004
21
116.835065
0
LINE
8
DEFAULT_255_2_778
10
33.8461004
20
116.835065
11
33.9447004
21
116.763065
0
LINE
8
DEFAULT_255_2_778
10
33.9447004
20
116.763065
11
33.9757004
21
116.710465
0
LINE
8
DEFAULT_255_2_778
10
33.9757004
20
116.710465
11
33.9868004
21
116.669165
0
LINE
8
DEFAULT_255_2_778
10
33.9868004
20
116.669165
11
33.9855004
21
116.554865
0
LINE
8
DEFAULT_255_2_778
10
33.9855004
20
116.554865
11
33.9720004
21
116.507265
0
LINE
8
DEFAULT_255_2_778
10
33.9720004
20
116.507265
11
33.9395004
21
116.447165
0
LINE
8
DEFAULT_255_2_778
10
33.9395004
20
116.447165
11
33.8342004
21
116.360165
0
LINE
8
DEFAULT_255_2_778
10
33.8342004
20
116.360165
11
33.6368004
21
116.313065
0
LINE
8
DEFAULT_255_2_778
10
33.6368004
20
116.313065
11
33.4106004
21
116.329165
0
LINE
8
DEFAULT_255_2_778
10
33.4106004
20
116.329165
11
33.2288004
21
116.442965
0
LINE
8
DEFAULT_255_2_778
10
33.2288004
20
116.442965
11
33.1751004
21
116.540565
0
LINE
8
DEFAULT_255_2_778
10
33.1751004
20
116.540565
11
33.1653004
21
116.585065
0
LINE
8
DEFAULT_255_2_778
10
33.1653004
20
116.585065
11
33.1648004
21
116.645365
0
LINE
8
DEFAULT_255_2_778
10
33.1648004
20
116.645365
11
32.9311004
21
116.645365
0
LINE
8
DEFAULT_255_2_778
10
32.9311004
20
116.645365
11
32.9322004
21
116.595065
0
LINE
8
DEFAULT_255_2_778
10
32.9322004
20
116.595065
11
32.9338004
21
116.578465
0
LINE
8
DEFAULT_255_2_778
10
32.9338004
20
116.578465
11
32.9388004
21
116.545865
0
LINE
8
DEFAULT_255_2_778
10
32.9388004
20
116.545865
11
32.9507004
21
116.498265
0
LINE
8
DEFAULT_255_2_778
10
32.9507004
20
116.498265
11
32.9743004
21
116.437365
0
LINE
8
DEFAULT_255_2_778
10
32.9743004
20
116.437365
11
33.0243004
21
116.353265
0
LINE
8
DEFAULT_255_2_778
10
33.0243004
20
116.353265
11
33.1076004
21
116.262765
0
LINE
8
DEFAULT_255_2_778
10
33.1076004
20
116.262765
11
33.2243004
21
116.185265
0
LINE
8
DEFAULT_255_2_778
10
33.2243004
20
116.185265
11
33.3836004
21
116.134165
0
LINE
8
DEFAULT_255_2_778
10
33.3836004
20
116.134165
11
33.6537004
21
116.121765
0
LINE
8
DEFAULT_255_2_778
10
33.6537004
20
116.121765
11
33.8405004
21
116.152465
0
LINE
8
DEFAULT_255_2_778
10
33.8405004
20
116.152465
11
34.0000004
21
116.222065
0
LINE
8
DEFAULT_255_2_778
10
34.0000004
20
116.222065
11
34.0942004
21
116.297665
0
LINE
8
DEFAULT_255_2_778
10
34.0942004
20
116.297665
11
34.1472004
21
116.364065
0
LINE
8
DEFAULT_255_2_778
10
34.1472004
20
116.364065
11
34.1792004
21
116.423665
0
LINE
8
DEFAULT_255_2_778
10
34.1792004
20
116.423665
11
34.2022004
21
116.487365
0
LINE
8
DEFAULT_255_2_778
10
34.2022004
20
116.487365
11
34.2112004
21
116.523665
0
LINE
8
DEFAULT_255_2_778
10
34.2112004
20
116.523665
11
34.2178004
21
116.560465
0
LINE
8
DEFAULT_255_2_778
10
34.2178004
20
116.560465
11
34.2159004
21
116.743565
0
LINE
8
DEFAULT_255_2_778
10
34.2159004
20
116.743565
11
34.2032004
21
116.795065
0
LINE
8
DEFAULT_255_2_778
10
34.2032004
20
116.795065
11
34.1702004
21
116.869765
0
LINE
8
DEFAULT_255_2_778
10
34.1702004
20
116.869765
11
34.0913004
21
116.962565
0
LINE
8
DEFAULT_255_2_778
10
34.0913004
20
116.962565
11
33.9045004
21
117.063165
0
LINE
8
DEFAULT_255_2_778
10
33.9045004
20
117.063165
11
33.3174004
21
117.222965
0
LINE
8
DEFAULT_255_2_778
10
33.3174004
20
117.222965
11
33.2227004
21
117.298065
0
LINE
8
DEFAULT_255_2_778
10
33.2227004
20
117.298065
11
33.1973004
21
117.348365
0
LINE
8
DEFAULT_255_2_778
10
33.1973004
20
117.348365
11
33.1896004
21
117.380365
0
LINE
8
DEFAULT_255_2_778
10
33.1896004
20
117.380365
11
33.1920004
21
117.472165
0
LINE
8
DEFAULT_255_2_778
10
33.1920004
20
117.472165
11
33.2081004
21
117.520565
0
LINE
8
DEFAULT_255_2_778
10
33.2081004
20
117.520565
11
33.2526004
21
117.584865
0
LINE
8
DEFAULT_255_2_778
10
33.2526004
20
117.584865
11
33.3857004
21
117.661065
0
LINE
8
DEFAULT_255_2_778
10
33.3857004
20
117.661065
11
33.6328004
21
117.687565
0
LINE
8
DEFAULT_255_2_778
10
33.6328004
20
117.687565
11
33.8730004
21
117.588065
0
LINE
8
DEFAULT_255_2_778
10
33.8730004
20
117.588065
11
33.9320004
21
117.490665
0
LINE
8
DEFAULT_255_2_778
10
33.9320004
20
117.490665
11
33.9418004
21
117.445165
0
LINE
8
DEFAULT_255_2_778
10
33.9418004
20
117.445165
11
33.9432004
21
117.427765
0
LINE
8
DEFAULT_255_2_778
10
33.9432004
20
117.427765
11
34.1794004
21
117.427765
0
LINE
8
DEFAULT_255_2_778
10
34.1794004
20
117.427765
11
34.1768004
21
117.501565
0
LINE
8
DEFAULT_255_2_778
10
34.1768004
20
117.501565
11
34.1718004
21
117.529865
0
LINE
8
DEFAULT_255_2_778
10
34.1718004
20
117.529865
11
34.1601004
21
117.571165
0
LINE
8
DEFAULT_255_2_778
10
34.1601004
20
117.571165
11
34.1313004
21
117.635465
0
LINE
8
DEFAULT_255_2_778
10
34.1313004
20
117.635465
11
34.0792004
21
117.708765
0
LINE
8
DEFAULT_255_2_778
10
34.0792004
20
117.708765
11
33.9913004
21
117.786765
0
LINE
8
DEFAULT_255_2_778
10
33.9913004
20
117.786765
11
33.8836004
21
117.843665
0
LINE
8
DEFAULT_255_2_778
10
33.8836004
20
117.843665
11
33.8021004
21
117.867765
0
LINE
8
DEFAULT_255_2_778
10
34.5760004
20
117.852365
11
35.6230004
21
117.852365
0
LINE
8
DEFAULT_255_2_778
10
35.6230004
20
117.852365
11
35.6230004
21
117.659465
0
LINE
8
DEFAULT_255_2_778
10
35.6230004
20
117.659465
11
34.8086004
21
117.659465
0
LINE
8
DEFAULT_255_2_778
10
34.8086004
20
117.659465
11
34.8086004
21
117.123465
0
LINE
8
DEFAULT_255_2_778
10
34.8086004
20
117.123465
11
35.5809004
21
117.123465
0
LINE
8
DEFAULT_255_2_778
10
35.5809004
20
117.123465
11
35.5809004
21
116.930565
0
LINE
8
DEFAULT_255_2_778
10
35.5809004
20
116.930565
11
34.8086004
21
116.930565
0
LINE
8
DEFAULT_255_2_778
10
34.8086004
20
116.930565
11
34.8086004
21
116.152165
0
LINE
8
DEFAULT_255_2_778
10
34.8086004
20
116.152165
11
34.5760004
21
116.152165
0
LINE
8
DEFAULT_255_2_778
10
34.5760004
20
116.152165
11
34.5760004
21
117.852165
0
LINE
8
DEFAULT_255_2_778
10
6.4225004
20
2.263365
11
7.0080004
21
2.263365
0
LINE
8
DEFAULT_255_2_778
10
7.0080004
20
2.263365
11
7.0080004
21
2.102965
0
LINE
8
DEFAULT_255_2_778
10
7.0080004
20
2.102965
11
6.4225004
21
2.102965
0
LINE
8
DEFAULT_255_2_778
10
6.4225004
20
2.102965
11
6.4225004
21
2.263365
0
LINE
8
DEFAULT_255_2_778
10
14.4471004
20
3.260065
11
14.3166004
21
3.223765
0
LINE
8
DEFAULT_255_2_778
10
14.3166004
20
3.223765
11
14.2232004
21
3.172465
0
LINE
8
DEFAULT_255_2_778
10
14.2232004
20
3.172465
11
14.0997004
21
3.041165
0
LINE
8
DEFAULT_255_2_778
10
14.0997004
20
3.041165
11
14.0552004
21
2.936665
0
LINE
8
DEFAULT_255_2_778
10
14.0552004
20
2.936665
11
14.0415004
21
2.871365
0
LINE
8
DEFAULT_255_2_778
10
14.0415004
20
2.871365
11
14.0372004
21
2.832965
0
LINE
8
DEFAULT_255_2_778
10
14.0372004
20
2.832965
11
14.0359004
21
2.785065
0
LINE
8
DEFAULT_255_2_778
10
14.0359004
20
2.785065
11
14.2563004
21
2.785065
0
LINE
8
DEFAULT_255_2_778
10
14.2563004
20
2.785065
11
14.2584004
21
2.828465
0
LINE
8
DEFAULT_255_2_778
10
14.2584004
20
2.828465
11
14.2635004
21
2.861065
0
LINE
8
DEFAULT_255_2_778
10
14.2635004
20
2.861065
11
14.2793004
21
2.913665
0
LINE
8
DEFAULT_255_2_778
10
14.2793004
20
2.913665
11
14.3246004
21
2.986965
0
LINE
8
DEFAULT_255_2_778
10
14.3246004
20
2.986965
11
14.4243004
21
3.058965
0
LINE
8
DEFAULT_255_2_778
10
14.4243004
20
3.058965
11
14.6188004
21
3.083765
0
LINE
8
DEFAULT_255_2_778
10
14.6188004
20
3.083765
11
14.7767004
21
3.028465
0
LINE
8
DEFAULT_255_2_778
10
14.7767004
20
3.028465
11
14.8466004
21
2.954465
0
LINE
8
DEFAULT_255_2_778
10
14.8466004
20
2.954465
11
14.8728004
21
2.892265
0
LINE
8
DEFAULT_255_2_778
10
14.8728004
20
2.892265
11
14.8802004
21
2.855765
0
LINE
8
DEFAULT_255_2_778
10
14.8802004
20
2.855765
11
14.8775004
21
2.760765
0
LINE
8
DEFAULT_255_2_778
10
14.8775004
20
2.760765
11
14.8701004
21
2.728765
0
LINE
8
DEFAULT_255_2_778
10
14.8701004
20
2.728765
11
14.8482004
21
2.666565
0
LINE
8
DEFAULT_255_2_778
10
14.8482004
20
2.666565
11
14.8056004
21
2.582965
0
LINE
8
DEFAULT_255_2_778
10
14.8056004
20
2.582965
11
14.7177004
21
2.456265
0
LINE
8
DEFAULT_255_2_778
10
14.7177004
20
2.456265
11
14.5730004
21
2.287665
0
LINE
8
DEFAULT_255_2_778
10
14.5730004
20
2.287665
11
14.3428004
21
2.060965
0
LINE
8
DEFAULT_255_2_778
10
14.3428004
20
2.060965
11
14.0642004
21
1.823865
0
LINE
8
DEFAULT_255_2_778
10
14.0642004
20
1.823865
11
13.9658004
21
1.747665
0
LINE
8
DEFAULT_255_2_778
10
13.9658004
20
1.747665
11
13.9658004
21
1.543965
0
LINE
8
DEFAULT_255_2_778
10
13.9658004
20
1.543965
11
15.1382004
21
1.543965
0
LINE
8
DEFAULT_255_2_778
10
15.1382004
20
1.543965
11
15.1382004
21
1.729365
0
LINE
8
DEFAULT_255_2_778
10
15.1382004
20
1.729365
11
14.2431004
21
1.729365
0
LINE
8
DEFAULT_255_2_778
10
14.2431004
20
1.729365
11
14.6500004
21
2.065165
0
LINE
8
DEFAULT_255_2_778
10
14.6500004
20
2.065165
11
14.8140004
21
2.225765
0
LINE
8
DEFAULT_255_2_778
10
14.8140004
20
2.225765
11
14.9191004
21
2.353565
0
LINE
8
DEFAULT_255_2_778
10
14.9191004
20
2.353565
11
14.9916004
21
2.464665
0
LINE
8
DEFAULT_255_2_778
10
14.9916004
20
2.464665
11
15.0477004
21
2.576365
0
LINE
8
DEFAULT_255_2_778
10
15.0477004
20
2.576365
11
15.0720004
21
2.640665
0
LINE
8
DEFAULT_255_2_778
10
15.0720004
20
2.640665
11
15.0847004
21
2.684265
0
LINE
8
DEFAULT_255_2_778
10
15.0847004
20
2.684265
11
15.0945004
21
2.728465
0
LINE
8
DEFAULT_255_2_778
10
15.0945004
20
2.728465
11
15.0982004
21
2.750665
0
LINE
8
DEFAULT_255_2_778
10
15.0982004
20
2.750665
11
15.0982004
21
2.896765
0
LINE
8
DEFAULT_255_2_778
10
15.0982004
20
2.896765
11
15.0905004
21
2.935665
0
LINE
8
DEFAULT_255_2_778
10
15.0905004
20
2.935665
11
15.0800004
21
2.972165
0
LINE
8
DEFAULT_255_2_778
10
15.0800004
20
2.972165
11
15.0591004
21
3.022465
0
LINE
8
DEFAULT_255_2_778
10
15.0591004
20
3.022465
11
15.0207004
21
3.083765
0
LINE
8
DEFAULT_255_2_778
10
15.0207004
20
3.083765
11
14.9564004
21
3.149165
0
LINE
8
DEFAULT_255_2_778
10
14.9564004
20
3.149165
11
14.8553004
21
3.212665
0
LINE
8
DEFAULT_255_2_778
10
14.8553004
20
3.212665
11
14.7127004
21
3.257065
0
LINE
8
DEFAULT_255_2_778
10
14.7127004
20
3.257065
11
14.5204004
21
3.267665
0
LINE
8
DEFAULT_255_2_778
10
14.5204004
20
3.267665
11
14.4471004
21
3.259765
0
LINE
8
DEFAULT_255_2_778
10
15.4321004
20
2.263365
11
16.0176004
21
2.263365
0
LINE
8
DEFAULT_255_2_778
10
16.0176004
20
2.263365
11
16.0176004
21
2.102965
0
LINE
8
DEFAULT_255_2_778
10
16.0176004
20
2.102965
11
15.4321004
21
2.102965
0
LINE
8
DEFAULT_255_2_778
10
15.4321004
20
2.102965
11
15.4321004
21
2.263365
0
LINE
8
DEFAULT_255_2_778
10
5.5031004
20
3.081465
11
5.7198004
21
3.059765
0
LINE
8
DEFAULT_255_2_778
10
5.7198004
20
3.059765
11
5.8267004
21
2.982165
0
LINE
8
DEFAULT_255_2_778
10
5.8267004
20
2.982165
11
5.8643004
21
2.916565
0
LINE
8
DEFAULT_255_2_778
10
5.8643004
20
2.916565
11
5.8764004
21
2.874265
0
LINE
8
DEFAULT_255_2_778
10
5.8764004
20
2.874265
11
5.8807004
21
2.846465
0
LINE
8
DEFAULT_255_2_778
10
5.8807004
20
2.846465
11
5.8796004
21
2.776865
0
LINE
8
DEFAULT_255_2_778
10
5.8796004
20
2.776865
11
5.8738004
21
2.744865
0
LINE
8
DEFAULT_255_2_778
10
5.8738004
20
2.744865
11
5.8598004
21
2.697565
0
LINE
8
DEFAULT_255_2_778
10
5.8598004
20
2.697565
11
5.8299004
21
2.628465
0
LINE
8
DEFAULT_255_2_778
10
5.8299004
20
2.628465
11
5.7777004
21
2.539865
0
LINE
8
DEFAULT_255_2_778
10
5.7777004
20
2.539865
11
5.6896004
21
2.421865
0
LINE
8
DEFAULT_255_2_778
10
5.6896004
20
2.421865
11
5.5110004
21
2.223865
0
LINE
8
DEFAULT_255_2_778
10
5.5110004
20
2.223865
11
5.2523004
21
1.980765
0
LINE
8
DEFAULT_255_2_778
10
5.2523004
20
1.980765
11
4.9652004
21
1.747965
0
LINE
8
DEFAULT_255_2_778
10
4.9652004
20
1.747965
11
4.9652004
21
1.544165
0
LINE
8
DEFAULT_255_2_778
10
4.9652004
20
1.544165
11
6.1376004
21
1.544165
0
LINE
8
DEFAULT_255_2_778
10
6.1376004
20
1.544165
11
6.1376004
21
1.729665
0
LINE
8
DEFAULT_255_2_778
10
6.1376004
20
1.729665
11
5.2425004
21
1.729665
0
LINE
8
DEFAULT_255_2_778
10
5.2425004
20
1.729665
11
5.6494004
21
2.065465
0
LINE
8
DEFAULT_255_2_778
10
5.6494004
20
2.065465
11
5.8135004
21
2.226065
0
LINE
8
DEFAULT_255_2_778
10
5.8135004
20
2.226065
11
5.9185004
21
2.353865
0
LINE
8
DEFAULT_255_2_778
10
5.9185004
20
2.353865
11
5.9910004
21
2.464965
0
LINE
8
DEFAULT_255_2_778
10
5.9910004
20
2.464965
11
6.0471004
21
2.576565
0
LINE
8
DEFAULT_255_2_778
10
6.0471004
20
2.576565
11
6.0714004
21
2.640865
0
LINE
8
DEFAULT_255_2_778
10
6.0714004
20
2.640865
11
6.0841004
21
2.684565
0
LINE
8
DEFAULT_255_2_778
10
6.0841004
20
2.684565
11
6.0939004
21
2.728765
0
LINE
8
DEFAULT_255_2_778
10
6.0939004
20
2.728765
11
6.0976004
21
2.750965
0
LINE
8
DEFAULT_255_2_778
10
6.0976004
20
2.750965
11
6.0976004
21
2.896965
0
LINE
8
DEFAULT_255_2_778
10
6.0976004
20
2.896965
11
6.0899004
21
2.935865
0
LINE
8
DEFAULT_255_2_778
10
6.0899004
20
2.935865
11
6.0794004
21
2.972465
0
LINE
8
DEFAULT_255_2_778
10
6.0794004
20
2.972465
11
6.0585004
21
3.022665
0
LINE
8
DEFAULT_255_2_778
10
6.0585004
20
3.022665
11
6.0201004
21
3.084065
0
LINE
8
DEFAULT_255_2_778
10
6.0201004
20
3.084065
11
5.9558004
21
3.149465
0
LINE
8
DEFAULT_255_2_778
10
5.9558004
20
3.149465
11
5.8547004
21
3.212965
0
LINE
8
DEFAULT_255_2_778
10
5.8547004
20
3.212965
11
5.7121004
21
3.257365
0
LINE
8
DEFAULT_255_2_778
10
5.7121004
20
3.257365
11
5.5198004
21
3.267965
0
LINE
8
DEFAULT_255_2_778
10
5.5198004
20
3.267965
11
5.3578004
21
3.239165
0
LINE
8
DEFAULT_255_2_778
10
5.3578004
20
3.239165
11
5.2404004
21
3.184365
0
LINE
8
DEFAULT_255_2_778
10
5.2404004
20
3.184365
11
5.1038004
21
3.048665
0
LINE
8
DEFAULT_255_2_778
10
5.1038004
20
3.048665
11
5.0573004
21
2.945165
0
LINE
8
DEFAULT_255_2_778
10
5.0573004
20
2.945165
11
5.0425004
21
2.880865
0
LINE
8
DEFAULT_255_2_778
10
5.0425004
20
2.880865
11
5.0377004
21
2.842465
0
LINE
8
DEFAULT_255_2_778
10
5.0377004
20
2.842465
11
5.0356004
21
2.785065
0
LINE
8
DEFAULT_255_2_778
10
5.0356004
20
2.785065
11
5.2560004
21
2.785065
0
LINE
8
DEFAULT_255_2_778
10
5.2560004
20
2.785065
11
5.2581004
21
2.828465
0
LINE
8
DEFAULT_255_2_778
10
5.2581004
20
2.828465
11
5.2631004
21
2.861065
0
LINE
8
DEFAULT_255_2_778
10
5.2631004
20
2.861065
11
5.2790004
21
2.913665
0
LINE
8
DEFAULT_255_2_778
10
5.2790004
20
2.913665
11
5.3242004
21
2.986965
0
LINE
8
DEFAULT_255_2_778
10
5.3242004
20
2.986965
11
5.4240004
21
3.058965
0
LINE
8
DEFAULT_255_2_778
10
5.4240004
20
3.058965
11
5.5031004
21
3.081465
0
LINE
8
DEFAULT_255_2_778
10
3.8880406
20
3.2634041
11
3.6314406
21
3.1767041
0
LINE
8
DEFAULT_255_2_778
10
3.6314406
20
3.1767041
11
3.5110406
21
3.0639041
0
LINE
8
DEFAULT_255_2_778
10
3.5110406
20
3.0639041
11
3.4634406
21
2.9721041
0
LINE
8
DEFAULT_255_2_778
10
3.4634406
20
2.9721041
11
3.4451406
21
2.9076041
0
LINE
8
DEFAULT_255_2_778
10
3.4451406
20
2.9076041
11
3.4380406
21
2.8597041
0
LINE
8
DEFAULT_255_2_778
10
3.4380406
20
2.8597041
11
3.4356406
21
2.8023041
0
LINE
8
DEFAULT_255_2_778
10
3.4356406
20
2.8023041
11
3.6560406
21
2.8023041
0
LINE
8
DEFAULT_255_2_778
10
3.6560406
20
2.8023041
11
3.6578406
21
2.8404041
0
LINE
8
DEFAULT_255_2_778
10
3.6578406
20
2.8404041
11
3.6626406
21
2.8687041
0
LINE
8
DEFAULT_255_2_778
10
3.6626406
20
2.8687041
11
3.6801406
21
2.9205041
0
LINE
8
DEFAULT_255_2_778
10
3.6801406
20
2.9205041
11
3.7319406
21
2.9933041
0
LINE
8
DEFAULT_255_2_778
10
3.7319406
20
2.9933041
11
3.8486406
21
3.0642041
0
LINE
8
DEFAULT_255_2_778
10
3.8486406
20
3.0642041
11
4.0582406
21
3.0830041
0
LINE
8
DEFAULT_255_2_778
10
4.0582406
20
3.0830041
11
4.2217406
21
3.0227041
0
LINE
8
DEFAULT_255_2_778
10
4.2217406
20
3.0227041
11
4.2907406
21
2.9518041
0
LINE
8
DEFAULT_255_2_778
10
4.2907406
20
2.9518041
11
4.3169406
21
2.8954041
0
LINE
8
DEFAULT_255_2_778
10
4.3169406
20
2.8954041
11
4.3262406
21
2.8584041
0
LINE
8
DEFAULT_255_2_778
10
4.3262406
20
2.8584041
11
4.3246406
21
2.7425041
0
LINE
8
DEFAULT_255_2_778
10
4.3246406
20
2.7425041
11
4.3021406
21
2.6822041
0
LINE
8
DEFAULT_255_2_778
10
4.3021406
20
2.6822041
11
4.2021406
21
2.5798041
0
LINE
8
DEFAULT_255_2_778
10
4.2021406
20
2.5798041
11
3.9767406
21
2.5094041
0
LINE
8
DEFAULT_255_2_778
10
3.9767406
20
2.5094041
11
3.8695406
21
2.5086041
0
LINE
8
DEFAULT_255_2_778
10
3.8695406
20
2.5086041
11
3.8695406
21
2.3184041
0
LINE
8
DEFAULT_255_2_778
10
3.8695406
20
2.3184041
11
4.1640406
21
2.2877041
0
LINE
8
DEFAULT_255_2_778
10
4.1640406
20
2.2877041
11
4.2995406
21
2.2072041
0
LINE
8
DEFAULT_255_2_778
10
4.2995406
20
2.2072041
11
4.3444406
21
2.1424041
0
LINE
8
DEFAULT_255_2_778
10
4.3444406
20
2.1424041
11
4.3587406
21
2.1001041
0
LINE
8
DEFAULT_255_2_778
10
4.3587406
20
2.1001041
11
4.3566406
21
1.9474041
0
LINE
8
DEFAULT_255_2_778
10
4.3566406
20
1.9474041
11
4.3370406
21
1.8884041
0
LINE
8
DEFAULT_255_2_778
10
4.3370406
20
1.8884041
11
4.2936406
21
1.8199041
0
LINE
8
DEFAULT_255_2_778
10
4.2936406
20
1.8199041
11
4.1830406
21
1.7368041
0
LINE
8
DEFAULT_255_2_778
10
4.1830406
20
1.7368041
11
3.9325406
21
1.7029041
0
LINE
8
DEFAULT_255_2_778
10
3.9325406
20
1.7029041
11
3.7515406
21
1.7855041
0
LINE
8
DEFAULT_255_2_778
10
3.7515406
20
1.7855041
11
3.6637406
21
1.8953041
0
LINE
8
DEFAULT_255_2_778
10
3.6637406
20
1.8953041
11
3.6256406
21
1.9887041
0
LINE
8
DEFAULT_255_2_778
10
3.6256406
20
1.9887041
11
3.6203406
21
2.0085041
0
LINE
8
DEFAULT_255_2_778
10
3.6203406
20
2.0085041
11
3.3877406
21
2.0085041
0
LINE
8
DEFAULT_255_2_778
10
3.3877406
20
2.0085041
11
3.3940406
21
1.9720041
0
LINE
8
DEFAULT_255_2_778
10
3.3940406
20
1.9720041
11
3.4075406
21
1.9177041
0
LINE
8
DEFAULT_255_2_778
10
3.4075406
20
1.9177041
11
3.4327406
21
1.8487041
0
LINE
8
DEFAULT_255_2_778
10
3.4327406
20
1.8487041
11
3.4734406
21
1.7715041
0
LINE
8
DEFAULT_255_2_778
10
3.4734406
20
1.7715041
11
3.5377406
21
1.6892041
0
LINE
8
DEFAULT_255_2_778
10
3.5377406
20
1.6892041
11
3.6372406
21
1.6058041
0
LINE
8
DEFAULT_255_2_778
10
3.6372406
20
1.6058041
11
3.7629406
21
1.5431041
0
LINE
8
DEFAULT_255_2_778
10
3.7629406
20
1.5431041
11
3.9256406
21
1.5090041
0
LINE
8
DEFAULT_255_2_778
10
3.9256406
20
1.5090041
11
4.1296406
21
1.5159041
0
LINE
8
DEFAULT_255_2_778
10
4.1296406
20
1.5159041
11
4.3249406
21
1.5749041
0
LINE
8
DEFAULT_255_2_778
10
4.3249406
20
1.5749041
11
4.4500406
21
1.6600041
0
LINE
8
DEFAULT_255_2_778
10
4.4500406
20
1.6600041
11
4.5132406
21
1.7334041
0
LINE
8
DEFAULT_255_2_778
10
4.5132406
20
1.7334041
11
4.5519406
21
1.8032041
0
LINE
8
DEFAULT_255_2_778
10
4.5519406
20
1.8032041
11
4.5736406
21
1.8633041
0
LINE
8
DEFAULT_255_2_778
10
4.5736406
20
1.8633041
11
4.5820406
21
1.8971041
0
LINE
8
DEFAULT_255_2_778
10
4.5820406
20
1.8971041
11
4.5881406
21
1.9315041
0
LINE
8
DEFAULT_255_2_778
10
4.5881406
20
1.9315041
11
4.5918406
21
1.9662041
0
LINE
8
DEFAULT_255_2_778
10
4.5918406
20
1.9662041
11
4.5908406
21
2.0749041
0
LINE
8
DEFAULT_255_2_778
10
4.5908406
20
2.0749041
11
4.5841406
21
2.1189041
0
LINE
8
DEFAULT_255_2_778
10
4.5841406
20
2.1189041
11
4.5651406
21
2.1842041
0
LINE
8
DEFAULT_255_2_778
10
4.5651406
20
2.1842041
11
4.4952406
21
2.2930041
0
LINE
8
DEFAULT_255_2_778
10
4.4952406
20
2.2930041
11
4.3024406
21
2.4086041
0
LINE
8
DEFAULT_255_2_778
10
4.3024406
20
2.4086041
11
4.2780406
21
2.4141041
0
LINE
8
DEFAULT_255_2_778
10
4.2780406
20
2.4141041
11
4.4143406
21
2.4991041
0
LINE
8
DEFAULT_255_2_778
10
4.4143406
20
2.4991041
11
4.4794406
21
2.5689041
0
LINE
8
DEFAULT_255_2_778
10
4.4794406
20
2.5689041
11
4.5188406
21
2.6353041
0
LINE
8
DEFAULT_255_2_778
10
4.5188406
20
2.6353041
11
4.5405406
21
2.6927041
0
LINE
8
DEFAULT_255_2_778
10
4.5405406
20
2.6927041
11
4.5482406
21
2.7242041
0
LINE
8
DEFAULT_255_2_778
10
4.5482406
20
2.7242041
11
4.5535406
21
2.7562041
0
LINE
8
DEFAULT_255_2_778
10
4.5535406
20
2.7562041
11
4.5519406
21
2.8973041
0
LINE
8
DEFAULT_255_2_778
10
4.5519406
20
2.8973041
11
4.5460406
21
2.9272041
0
LINE
8
DEFAULT_255_2_778
10
4.5460406
20
2.9272041
11
4.5333406
21
2.9700041
0
LINE
8
DEFAULT_255_2_778
10
4.5333406
20
2.9700041
11
4.5029406
21
3.0348041
0
LINE
8
DEFAULT_255_2_778
10
4.5029406
20
3.0348041
11
4.4495406
21
3.1047041
0
LINE
8
DEFAULT_255_2_778
10
4.4495406
20
3.1047041
11
4.3503406
21
3.1825041
0
LINE
8
DEFAULT_255_2_778
10
4.3503406
20
3.1825041
11
4.1973406
21
3.2455041
0
LINE
8
DEFAULT_255_2_778
10
4.1973406
20
3.2455041
11
3.9745406
21
3.2690041
0
LINE
8
DEFAULT_255_2_778
10
3.9745406
20
3.2690041
11
3.8883406
21
3.2632041
0
LINE
8
DEFAULT_255_2_778
10
2.3410406
20
3.2634041
11
2.0844406
21
3.1767041
0
LINE
8
DEFAULT_255_2_778
10
2.0844406
20
3.1767041
11
1.9640406
21
3.0639041
0
LINE
8
DEFAULT_255_2_778
10
1.9640406
20
3.0639041
11
1.9164406
21
2.9721041
0
LINE
8
DEFAULT_255_2_778
10
1.9164406
20
2.9721041
11
1.8981406
21
2.9076041
0
LINE
8
DEFAULT_255_2_778
10
1.8981406
20
2.9076041
11
1.8910406
21
2.8597041
0
LINE
8
DEFAULT_255_2_778
10
1.8910406
20
2.8597041
11
1.8886406
21
2.8023041
0
LINE
8
DEFAULT_255_2_778
10
1.8886406
20
2.8023041
11
2.1090406
21
2.8023041
0
LINE
8
DEFAULT_255_2_778
10
2.1090406
20
2.8023041
11
2.1108406
21
2.8404041
0
LINE
8
DEFAULT_255_2_778
10
2.1108406
20
2.8404041
11
2.1156406
21
2.8687041
0
LINE
8
DEFAULT_255_2_778
10
2.1156406
20
2.8687041
11
2.1331406
21
2.9205041
0
LINE
8
DEFAULT_255_2_778
10
2.1331406
20
2.9205041
11
2.1849406
21
2.9933041
0
LINE
8
DEFAULT_255_2_778
10
2.1849406
20
2.9933041
11
2.3016406
21
3.0642041
0
LINE
8
DEFAULT_255_2_778
10
2.3016406
20
3.0642041
11
2.5112406
21
3.0830041
0
LINE
8
DEFAULT_255_2_778
10
2.5112406
20
3.0830041
11
2.6747406
21
3.0227041
0
LINE
8
DEFAULT_255_2_778
10
2.6747406
20
3.0227041
11
2.7437406
21
2.9518041
0
LINE
8
DEFAULT_255_2_778
10
2.7437406
20
2.9518041
11
2.7699406
21
2.8954041
0
LINE
8
DEFAULT_255_2_778
10
2.7699406
20
2.8954041
11
2.7792406
21
2.8584041
0
LINE
8
DEFAULT_255_2_778
10
2.7792406
20
2.8584041
11
2.7776406
21
2.7425041
0
LINE
8
DEFAULT_255_2_778
10
2.7776406
20
2.7425041
11
2.7551406
21
2.6822041
0
LINE
8
DEFAULT_255_2_778
10
2.7551406
20
2.6822041
11
2.6551406
21
2.5798041
0
LINE
8
DEFAULT_255_2_778
10
2.6551406
20
2.5798041
11
2.4297406
21
2.5094041
0
LINE
8
DEFAULT_255_2_778
10
2.4297406
20
2.5094041
11
2.3225406
21
2.5086041
0
LINE
8
DEFAULT_255_2_778
10
2.3225406
20
2.5086041
11
2.3225406
21
2.3184041
0
LINE
8
DEFAULT_255_2_778
10
2.3225406
20
2.3184041
11
2.6170406
21
2.2877041
0
LINE
8
DEFAULT_255_2_778
10
2.6170406
20
2.2877041
11
2.7525406
21
2.2072041
0
LINE
8
DEFAULT_255_2_778
10
2.7525406
20
2.2072041
11
2.7974406
21
2.1424041
0
LINE
8
DEFAULT_255_2_778
10
2.7974406
20
2.1424041
11
2.8117406
21
2.1001041
0
LINE
8
DEFAULT_255_2_778
10
2.8117406
20
2.1001041
11
2.8096406
21
1.9474041
0
LINE
8
DEFAULT_255_2_778
10
2.8096406
20
1.9474041
11
2.7900406
21
1.8884041
0
LINE
8
DEFAULT_255_2_778
10
2.7900406
20
1.8884041
11
2.7466406
21
1.8199041
0
LINE
8
DEFAULT_255_2_778
10
2.7466406
20
1.8199041
11
2.6360406
21
1.7368041
0
LINE
8
DEFAULT_255_2_778
10
2.6360406
20
1.7368041
11
2.3855406
21
1.7029041
0
LINE
8
DEFAULT_255_2_778
10
2.3855406
20
1.7029041
11
2.2045406
21
1.7855041
0
LINE
8
DEFAULT_255_2_778
10
2.2045406
20
1.7855041
11
2.1167406
21
1.8953041
0
LINE
8
DEFAULT_255_2_778
10
2.1167406
20
1.8953041
11
2.0786406
21
1.9887041
0
LINE
8
DEFAULT_255_2_778
10
2.0786406
20
1.9887041
11
2.0733406
21
2.0085041
0
LINE
8
DEFAULT_255_2_778
10
2.0733406
20
2.0085041
11
1.8407406
21
2.0085041
0
LINE
8
DEFAULT_255_2_778
10
1.8407406
20
2.0085041
11
1.8470406
21
1.9720041
0
LINE
8
DEFAULT_255_2_778
10
1.8470406
20
1.9720041
11
1.8605406
21
1.9177041
0
LINE
8
DEFAULT_255_2_778
10
1.8605406
20
1.9177041
11
1.8857406
21
1.8487041
0
LINE
8
DEFAULT_255_2_778
10
1.8857406
20
1.8487041
11
1.9264406
21
1.7715041
0
LINE
8
DEFAULT_255_2_778
10
1.9264406
20
1.7715041
11
1.9907406
21
1.6892041
0
LINE
8
DEFAULT_255_2_778
10
1.9907406
20
1.6892041
11
2.0902406
21
1.6058041
0
LINE
8
DEFAULT_255_2_778
10
2.0902406
20
1.6058041
11
2.2159406
21
1.5431041
0
LINE
8
DEFAULT_255_2_778
10
2.2159406
20
1.5431041
11
2.3786406
21
1.5090041
0
LINE
8
DEFAULT_255_2_778
10
2.3786406
20
1.5090041
11
2.5826406
21
1.5159041
0
LINE
8
DEFAULT_255_2_778
10
2.5826406
20
1.5159041
11
2.7779406
21
1.5749041
0
LINE
8
DEFAULT_255_2_778
10
2.7779406
20
1.5749041
11
2.9030406
21
1.6600041
0
LINE
8
DEFAULT_255_2_778
10
2.9030406
20
1.6600041
11
2.9662406
21
1.7334041
0
LINE
8
DEFAULT_255_2_778
10
2.9662406
20
1.7334041
11
3.0049406
21
1.8032041
0
LINE
8
DEFAULT_255_2_778
10
3.0049406
20
1.8032041
11
3.0266406
21
1.8633041
0
LINE
8
DEFAULT_255_2_778
10
3.0266406
20
1.8633041
11
3.0350406
21
1.8971041
0
LINE
8
DEFAULT_255_2_778
10
3.0350406
20
1.8971041
11
3.0411406
21
1.9315041
0
LINE
8
DEFAULT_255_2_778
10
3.0411406
20
1.9315041
11
3.0448406
21
1.9662041
0
LINE
8
DEFAULT_255_2_778
10
3.0448406
20
1.9662041
11
3.0438406
21
2.0749041
0
LINE
8
DEFAULT_255_2_778
10
3.0438406
20
2.0749041
11
3.0371406
21
2.1189041
0
LINE
8
DEFAULT_255_2_778
10
3.0371406
20
2.1189041
11
3.0181406
21
2.1842041
0
LINE
8
DEFAULT_255_2_778
10
3.0181406
20
2.1842041
11
2.9482406
21
2.2930041
0
LINE
8
DEFAULT_255_2_778
10
2.9482406
20
2.2930041
11
2.7554406
21
2.4086041
0
LINE
8
DEFAULT_255_2_778
10
2.7554406
20
2.4086041
11
2.7310406
21
2.4141041
0
LINE
8
DEFAULT_255_2_778
10
2.7310406
20
2.4141041
11
2.8673406
21
2.4991041
0
LINE
8
DEFAULT_255_2_778
10
2.8673406
20
2.4991041
11
2.9324406
21
2.5689041
0
LINE
8
DEFAULT_255_2_778
10
2.9324406
20
2.5689041
11
2.9718406
21
2.6353041
0
LINE
8
DEFAULT_255_2_778
10
2.9718406
20
2.6353041
11
2.9935406
21
2.6927041
0
LINE
8
DEFAULT_255_2_778
10
2.9935406
20
2.6927041
11
3.0012406
21
2.7242041
0
LINE
8
DEFAULT_255_2_778
10
3.0012406
20
2.7242041
11
3.0065406
21
2.7562041
0
LINE
8
DEFAULT_255_2_778
10
3.0065406
20
2.7562041
11
3.0049406
21
2.8973041
0
LINE
8
DEFAULT_255_2_778
10
3.0049406
20
2.8973041
11
2.9990406
21
2.9272041
0
LINE
8
DEFAULT_255_2_778
10
2.9990406
20
2.9272041
11
2.9863406
21
2.9700041
0
LINE
8
DEFAULT_255_2_778
10
2.9863406
20
2.9700041
11
2.9559406
21
3.0348041
0
LINE
8
DEFAULT_255_2_778
10
2.9559406
20
3.0348041
11
2.9025406
21
3.1047041
0
LINE
8
DEFAULT_255_2_778
10
2.9025406
20
3.1047041
11
2.8033406
21
3.1825041
0
LINE
8
DEFAULT_255_2_778
10
2.8033406
20
3.1825041
11
2.6503406
21
3.2455041
0
LINE
8
DEFAULT_255_2_778
10
2.6503406
20
3.2455041
11
2.4275406
21
3.2690041
0
LINE
8
DEFAULT_255_2_778
10
2.4275406
20
3.2690041
11
2.3413406
21
3.2632041
0
LINE
8
DEFAULT_255_2_778
10
10.0126824
20
3.2441739
11
10.2438824
21
3.2441739
0
LINE
8
DEFAULT_255_2_778
10
10.2438824
20
3.2441739
11
10.2438824
21
1.5442739
0
LINE
8
DEFAULT_255_2_778
10
10.2438824
20
1.5442739
11
9.9319824
21
1.5442739
0
LINE
8
DEFAULT_255_2_778
10
9.9319824
20
1.5442739
11
9.1114824
21
2.9539739
0
LINE
8
DEFAULT_255_2_778
10
9.1114824
20
2.9539739
11
9.1114824
21
1.5442739
0
LINE
8
DEFAULT_255_2_778
10
9.1114824
20
1.5442739
11
8.8802824
21
1.5442739
0
LINE
8
DEFAULT_255_2_778
10
8.8802824
20
1.5442739
11
8.8802824
21
3.2441739
0
LINE
8
DEFAULT_255_2_778
10
8.8802824
20
3.2441739
11
9.1826824
21
3.2441739
0
LINE
8
DEFAULT_255_2_778
10
9.1826824
20
3.2441739
11
10.0126824
21
1.8188739
0
LINE
8
DEFAULT_255_2_778
10
10.0126824
20
1.8188739
11
10.0126824
21
3.2441739
0
LINE
8
DEFAULT_255_2_778
10
7.3271824
20
3.2441739
11
8.4825824
21
3.2441739
0
LINE
8
DEFAULT_255_2_778
10
8.4825824
20
3.2441739
11
8.4825824
21
3.0356739
0
LINE
8
DEFAULT_255_2_778
10
8.4825824
20
3.0356739
11
7.8306824
21
1.5442739
0
LINE
8
DEFAULT_255_2_778
10
7.8306824
20
1.5442739
11
7.5570824
21
1.5442739
0
LINE
8
DEFAULT_255_2_778
10
7.5570824
20
1.5442739
11
8.2425824
21
3.0539739
0
LINE
8
DEFAULT_255_2_778
10
8.2425824
20
3.0539739
11
7.3268824
21
3.0539739
0
LINE
8
DEFAULT_255_2_778
10
7.3268824
20
3.0539739
11
7.3268824
21
3.2441739
0
LINE
8
DEFAULT_255_2_778
10
11.5313824
20
1.5709739
11
11.2598824
21
1.5442739
0
LINE
8
DEFAULT_255_2_778
10
11.2598824
20
1.5442739
11
10.6754824
21
1.5442739
0
LINE
8
DEFAULT_255_2_778
10
10.6754824
20
1.5442739
11
10.6754824
21
3.2441739
0
LINE
8
DEFAULT_255_2_778
10
10.6754824
20
3.2441739
11
11.3770824
21
3.2362739
0
LINE
8
DEFAULT_255_2_778
10
11.3770824
20
3.2362739
11
11.5641824
21
3.1989739
0
LINE
8
DEFAULT_255_2_778
10
11.5641824
20
3.1989739
11
11.7091824
21
3.1356739
0
LINE
8
DEFAULT_255_2_778
10
11.7091824
20
3.1356739
11
11.8202824
21
3.0541739
0
LINE
8
DEFAULT_255_2_778
10
11.8202824
20
3.0541739
11
11.8993824
21
2.9703739
0
LINE
8
DEFAULT_255_2_778
10
11.8993824
20
2.9703739
11
11.9520824
21
2.8951739
0
LINE
8
DEFAULT_255_2_778
10
11.9520824
20
2.8951739
11
11.9872824
21
2.8292739
0
LINE
8
DEFAULT_255_2_778
10
11.9872824
20
2.8292739
11
12.0097824
21
2.7755739
0
LINE
8
DEFAULT_255_2_778
10
12.0097824
20
2.7755739
11
12.0279824
21
2.7205739
0
LINE
8
DEFAULT_255_2_778
10
12.0279824
20
2.7205739
11
12.0422824
21
2.6641739
0
LINE
8
DEFAULT_255_2_778
10
12.0422824
20
2.6641739
11
12.0531824
21
2.6065739
0
LINE
8
DEFAULT_255_2_778
10
12.0531824
20
2.6065739
11
12.0573824
21
2.5774739
0
LINE
8
DEFAULT_255_2_778
10
12.0573824
20
2.5774739
11
12.0607824
21
2.5480739
0
LINE
8
DEFAULT_255_2_778
10
12.0607824
20
2.5480739
11
12.0636824
21
2.5186739
0
LINE
8
DEFAULT_255_2_778
10
12.0636824
20
2.5186739
11
12.0636824
21
2.2289739
0
LINE
8
DEFAULT_255_2_778
10
12.0636824
20
2.2289739
11
12.0610824
21
2.2011739
0
LINE
8
DEFAULT_255_2_778
10
12.0610824
20
2.2011739
11
12.0536824
21
2.1458739
0
LINE
8
DEFAULT_255_2_778
10
12.0536824
20
2.1458739
11
12.0433824
21
2.0916739
0
LINE
8
DEFAULT_255_2_778
10
12.0433824
20
2.0916739
11
12.0298824
21
2.0384739
0
LINE
8
DEFAULT_255_2_778
10
12.0298824
20
2.0384739
11
12.0126824
21
1.9863739
0
LINE
8
DEFAULT_255_2_778
10
12.0126824
20
1.9863739
11
11.9914824
21
1.9357739
0
LINE
8
DEFAULT_255_2_778
10
11.9914824
20
1.9357739
11
11.9567824
21
1.8714739
0
LINE
8
DEFAULT_255_2_778
10
11.9567824
20
1.8714739
11
11.9033824
21
1.7966739
0
LINE
8
DEFAULT_255_2_778
10
11.9033824
20
1.7966739
11
11.8226824
21
1.7140739
0
LINE
8
DEFAULT_255_2_778
10
11.8226824
20
1.7140739
11
11.7094824
21
1.6360739
0
LINE
8
DEFAULT_255_2_778
10
11.7094824
20
1.6360739
11
11.5837824
21
1.5846739
0
LINE
8
DEFAULT_255_2_778
10
11.5837824
20
1.5846739
11
11.5313824
21
1.5709739
0
LINE
8
DEFAULT_255_2_778
10
11.4517824
20
1.7571739
11
11.2609824
21
1.7370739
0
LINE
8
DEFAULT_255_2_778
10
11.2609824
20
1.7370739
11
10.9079824
21
1.7370739
0
LINE
8
DEFAULT_255_2_778
10
10.9079824
20
1.7370739
11
10.9079824
21
3.0515739
0
LINE
8
DEFAULT_255_2_778
10
10.9079824
20
3.0515739
11
11.3609824
21
3.0420739
0
LINE
8
DEFAULT_255_2_778
10
11.3609824
20
3.0420739
11
11.5032824
21
3.0057739
0
LINE
8
DEFAULT_255_2_778
10
11.5032824
20
3.0057739
11
11.6300824
21
2.9324739
0
LINE
8
DEFAULT_255_2_778
10
11.6300824
20
2.9324739
11
11.7133824
21
2.8480739
0
LINE
8
DEFAULT_255_2_778
10
11.7133824
20
2.8480739
11
11.7678824
21
2.7628739
0
LINE
8
DEFAULT_255_2_778
10
11.7678824
20
2.7628739
11
11.7935824
21
2.7030739
0
LINE
8
DEFAULT_255_2_778
10
11.7935824
20
2.7030739
11
11.8123824
21
2.6409739
0
LINE
8
DEFAULT_255_2_778
10
11.8123824
20
2.6409739
11
11.8213824
21
2.5983739
0
LINE
8
DEFAULT_255_2_778
10
11.8213824
20
2.5983739
11
11.8279824
21
2.5551739
0
LINE
8
DEFAULT_255_2_778
10
11.8279824
20
2.5551739
11
11.8271824
21
2.2318739
0
LINE
8
DEFAULT_255_2_778
10
11.8271824
20
2.2318739
11
11.8194824
21
2.1802739
0
LINE
8
DEFAULT_255_2_778
10
11.8194824
20
2.1802739
11
11.8099824
21
2.1336739
0
LINE
8
DEFAULT_255_2_778
10
11.8099824
20
2.1336739
11
11.7977824
21
2.0876739
0
LINE
8
DEFAULT_255_2_778
10
11.7977824
20
2.0876739
11
11.7760824
21
2.0260739
0
LINE
8
DEFAULT_255_2_778
10
11.7760824
20
2.0260739
11
11.7445824
21
1.9622739
0
LINE
8
DEFAULT_255_2_778
10
11.7445824
20
1.9622739
11
11.6932824
21
1.8923739
0
LINE
8
DEFAULT_255_2_778
10
11.6932824
20
1.8923739
11
11.6027824
21
1.8177739
0
LINE
8
DEFAULT_255_2_778
10
11.6027824
20
1.8177739
11
11.4517824
21
1.7571739
0
LINE
8
DEFAULT_255_2_778
10
12.885999
20
3.2600427
11
12.757899
21
3.2219427
0
LINE
8
DEFAULT_255_2_778
10
12.757899
20
3.2219427
11
12.646499
21
3.1563427
0
LINE
8
DEFAULT_255_2_778
10
12.646499
20
3.1563427
11
12.563499
21
3.0782427
0
LINE
8
DEFAULT_255_2_778
10
12.563499
20
3.0782427
11
12.490199
21
2.9782427
0
LINE
8
DEFAULT_255_2_778
10
12.490199
20
2.9782427
11
12.440699
21
2.8856427
0
LINE
8
DEFAULT_255_2_778
10
12.440699
20
2.8856427
11
12.410799
21
2.8129427
0
LINE
8
DEFAULT_255_2_778
10
12.410799
20
2.8129427
11
12.392499
21
2.7578427
0
LINE
8
DEFAULT_255_2_778
10
12.392499
20
2.7578427
11
12.377499
21
2.7020427
0
LINE
8
DEFAULT_255_2_778
10
12.377499
20
2.7020427
11
12.365299
21
2.6454427
0
LINE
8
DEFAULT_255_2_778
10
12.365299
20
2.6454427
11
12.360299
21
2.6168427
0
LINE
8
DEFAULT_255_2_778
10
12.360299
20
2.6168427
11
12.354999
21
2.5805427
0
LINE
8
DEFAULT_255_2_778
10
12.354999
20
2.5805427
11
12.350699
21
2.5441427
0
LINE
8
DEFAULT_255_2_778
10
12.350699
20
2.5441427
11
12.347599
21
2.5075427
0
LINE
8
DEFAULT_255_2_778
10
12.347599
20
2.5075427
11
12.347299
21
2.2855427
0
LINE
8
DEFAULT_255_2_778
10
12.347299
20
2.2855427
11
12.350499
21
2.2482427
0
LINE
8
DEFAULT_255_2_778
10
12.350499
20
2.2482427
11
12.354699
21
2.2112427
0
LINE
8
DEFAULT_255_2_778
10
12.354699
20
2.2112427
11
12.359999
21
2.1741427
0
LINE
8
DEFAULT_255_2_778
10
12.359999
20
2.1741427
11
12.370599
21
2.1165427
0
LINE
8
DEFAULT_255_2_778
10
12.370599
20
2.1165427
11
12.383799
21
2.0593427
0
LINE
8
DEFAULT_255_2_778
10
12.383799
20
2.0593427
11
12.400199
21
2.0030427
0
LINE
8
DEFAULT_255_2_778
10
12.400199
20
2.0030427
11
12.429299
21
1.9236427
0
LINE
8
DEFAULT_255_2_778
10
12.429299
20
1.9236427
11
12.464499
21
1.8484427
0
LINE
8
DEFAULT_255_2_778
10
12.464499
20
1.8484427
11
12.517699
21
1.7603427
0
LINE
8
DEFAULT_255_2_778
10
12.517699
20
1.7603427
11
12.576399
21
1.6863427
0
LINE
8
DEFAULT_255_2_778
10
12.576399
20
1.6863427
11
12.661599
21
1.6098427
0
LINE
8
DEFAULT_255_2_778
10
12.661599
20
1.6098427
11
12.775899
21
1.5466427
0
LINE
8
DEFAULT_255_2_778
10
12.775899
20
1.5466427
11
12.907399
21
1.5122427
0
LINE
8
DEFAULT_255_2_778
10
12.907399
20
1.5122427
11
13.067999
21
1.5095427
0
LINE
8
DEFAULT_255_2_778
10
13.067999
20
1.5095427
11
13.202199
21
1.5389427
0
LINE
8
DEFAULT_255_2_778
10
13.202199
20
1.5389427
11
13.319099
21
1.5974427
0
LINE
8
DEFAULT_255_2_778
10
13.319099
20
1.5974427
11
13.405899
21
1.6691427
0
LINE
8
DEFAULT_255_2_778
10
13.405899
20
1.6691427
11
13.480799
21
1.7603427
0
LINE
8
DEFAULT_255_2_778
10
13.480799
20
1.7603427
11
13.533699
21
1.8484427
0
LINE
8
DEFAULT_255_2_778
10
13.533699
20
1.8484427
11
13.568899
21
1.9239427
0
LINE
8
DEFAULT_255_2_778
10
13.568899
20
1.9239427
11
13.597999
21
2.0035427
0
LINE
8
DEFAULT_255_2_778
10
13.597999
20
2.0035427
11
13.614399
21
2.0598427
0
LINE
8
DEFAULT_255_2_778
10
13.614399
20
2.0598427
11
13.627599
21
2.1170427
0
LINE
8
DEFAULT_255_2_778
10
13.627599
20
2.1170427
11
13.638199
21
2.1747427
0
LINE
8
DEFAULT_255_2_778
10
13.638199
20
2.1747427
11
13.643499
21
2.2115427
0
LINE
8
DEFAULT_255_2_778
10
13.643499
20
2.2115427
11
13.647699
21
2.2485427
0
LINE
8
DEFAULT_255_2_778
10
13.647699
20
2.2485427
11
13.650899
21
2.2855427
0
LINE
8
DEFAULT_255_2_778
10
13.650899
20
2.2855427
11
13.650899
21
2.5073427
0
LINE
8
DEFAULT_255_2_778
10
13.650899
20
2.5073427
11
13.647699
21
2.5438427
0
LINE
8
DEFAULT_255_2_778
10
13.647699
20
2.5438427
11
13.643499
21
2.5803427
0
LINE
8
DEFAULT_255_2_778
10
13.643499
20
2.5803427
11
13.638199
21
2.6165427
0
LINE
8
DEFAULT_255_2_778
10
13.638199
20
2.6165427
11
13.627599
21
2.6734427
0
LINE
8
DEFAULT_255_2_778
10
13.627599
20
2.6734427
11
13.614099
21
2.7298427
0
LINE
8
DEFAULT_255_2_778
10
13.614099
20
2.7298427
11
13.597499
21
2.7853427
0
LINE
8
DEFAULT_255_2_778
10
13.597499
20
2.7853427
11
13.567799
21
2.8637427
0
LINE
8
DEFAULT_255_2_778
10
13.567799
20
2.8637427
11
13.532099
21
2.9377427
0
LINE
8
DEFAULT_255_2_778
10
13.532099
20
2.9377427
11
13.478699
21
3.0237427
0
LINE
8
DEFAULT_255_2_778
10
13.478699
20
3.0237427
11
13.403999
21
3.1121427
0
LINE
8
DEFAULT_255_2_778
10
13.403999
20
3.1121427
11
13.317499
21
3.1814427
0
LINE
8
DEFAULT_255_2_778
10
13.317499
20
3.1814427
11
13.201399
21
3.2380427
0
LINE
8
DEFAULT_255_2_778
10
13.201399
20
3.2380427
11
13.045299
21
3.2682427
0
LINE
8
DEFAULT_255_2_778
10
13.045299
20
3.2682427
11
12.885999
21
3.2600427
0
LINE
8
DEFAULT_255_2_778
10
12.912999
20
3.0674427
11
13.071499
21
3.0703427
0
LINE
8
DEFAULT_255_2_778
10
13.071499
20
3.0703427
11
13.178399
21
3.0311427
0
LINE
8
DEFAULT_255_2_778
10
13.178399
20
3.0311427
11
13.255899
21
2.9700427
0
LINE
8
DEFAULT_255_2_778
10
13.255899
20
2.9700427
11
13.310599
21
2.8997427
0
LINE
8
DEFAULT_255_2_778
10
13.310599
20
2.8997427
11
13.347699
21
2.8314427
0
LINE
8
DEFAULT_255_2_778
10
13.347699
20
2.8314427
11
13.380499
21
2.7491427
0
LINE
8
DEFAULT_255_2_778
10
13.380499
20
2.7491427
11
13.399799
21
2.6827427
0
LINE
8
DEFAULT_255_2_778
10
13.399799
20
2.6827427
11
13.410699
21
2.6338427
0
LINE
8
DEFAULT_255_2_778
10
13.410699
20
2.6338427
11
13.419099
21
2.5843427
0
LINE
8
DEFAULT_255_2_778
10
13.419099
20
2.5843427
11
13.425499
21
2.5321427
0
LINE
8
DEFAULT_255_2_778
10
13.425499
20
2.5321427
11
13.425499
21
2.2554427
0
LINE
8
DEFAULT_255_2_778
10
13.425499
20
2.2554427
11
13.419099
21
2.2025427
0
LINE
8
DEFAULT_255_2_778
10
13.419099
20
2.2025427
11
13.410899
21
2.1522427
0
LINE
8
DEFAULT_255_2_778
10
13.410899
20
2.1522427
11
13.400299
21
2.1024427
0
LINE
8
DEFAULT_255_2_778
10
13.400299
20
2.1024427
11
13.380799
21
2.0329427
0
LINE
8
DEFAULT_255_2_778
10
13.380799
20
2.0329427
11
13.356199
21
1.9670427
0
LINE
8
DEFAULT_255_2_778
10
13.356199
20
1.9670427
11
13.312199
21
1.8810427
0
LINE
8
DEFAULT_255_2_778
10
13.312199
20
1.8810427
11
13.247099
21
1.7982427
0
LINE
8
DEFAULT_255_2_778
10
13.247099
20
1.7982427
11
13.154499
21
1.7320427
0
LINE
8
DEFAULT_255_2_778
10
13.154499
20
1.7320427
11
13.028899
21
1.6998427
0
LINE
8
DEFAULT_255_2_778
10
13.028899
20
1.6998427
11
12.884899
21
1.7159427
0
LINE
8
DEFAULT_255_2_778
10
12.884899
20
1.7159427
11
12.784399
21
1.7699427
0
LINE
8
DEFAULT_255_2_778
10
12.784399
20
1.7699427
11
12.718199
21
1.8360427
0
LINE
8
DEFAULT_255_2_778
10
12.718199
20
1.8360427
11
12.668799
21
1.9128427
0
LINE
8
DEFAULT_255_2_778
10
12.668799
20
1.9128427
11
12.634099
21
1.9887427
0
LINE
8
DEFAULT_255_2_778
10
12.634099
20
1.9887427
11
12.611399
21
2.0554427
0
LINE
8
DEFAULT_255_2_778
10
12.611399
20
2.0554427
11
12.593099
21
2.1273427
0
LINE
8
DEFAULT_255_2_778
10
12.593099
20
2.1273427
11
12.583599
21
2.1773427
0
LINE
8
DEFAULT_255_2_778
10
12.583599
20
2.1773427
11
12.576399
21
2.2276427
0
LINE
8
DEFAULT_255_2_778
10
12.576399
20
2.2276427
11
12.573499
21
2.2554427
0
LINE
8
DEFAULT_255_2_778
10
12.573499
20
2.2554427
11
12.573499
21
2.5321427
0
LINE
8
DEFAULT_255_2_778
10
12.573499
20
2.5321427
11
12.579899
21
2.5843427
0
LINE
8
DEFAULT_255_2_778
10
12.579899
20
2.5843427
11
12.588299
21
2.6338427
0
LINE
8
DEFAULT_255_2_778
10
12.588299
20
2.6338427
11
12.599199
21
2.6827427
0
LINE
8
DEFAULT_255_2_778
10
12.599199
20
2.6827427
11
12.618999
21
2.7512427
0
LINE
8
DEFAULT_255_2_778
10
12.618999
20
2.7512427
11
12.643899
21
2.8160427
0
LINE
8
DEFAULT_255_2_778
10
12.643899
20
2.8160427
11
12.688099
21
2.8999427
0
LINE
8
DEFAULT_255_2_778
10
12.688099
20
2.8999427
11
12.752899
21
2.9803427
0
LINE
8
DEFAULT_255_2_778
10
12.752899
20
2.9803427
11
12.845199
21
3.0446427
0
LINE
8
DEFAULT_255_2_778
10
12.845199
20
3.0446427
11
12.912999
21
3.0674427
0
LINE
8
DEFAULT_255_2_778
10
16.799499
20
3.2600427
11
16.671399
21
3.2219427
0
LINE
8
DEFAULT_255_2_778
10
16.671399
20
3.2219427
11
16.559999
21
3.1563427
0
LINE
8
DEFAULT_255_2_778
10
16.559999
20
3.1563427
11
16.476999
21
3.0782427
0
LINE
8
DEFAULT_255_2_778
10
16.476999
20
3.0782427
11
16.403699
21
2.9782427
0
LINE
8
DEFAULT_255_2_778
10
16.403699
20
2.9782427
11
16.354199
21
2.8856427
0
LINE
8
DEFAULT_255_2_778
10
16.354199
20
2.8856427
11
16.324299
21
2.8129427
0
LINE
8
DEFAULT_255_2_778
10
16.324299
20
2.8129427
11
16.305999
21
2.7578427
0
LINE
8
DEFAULT_255_2_778
10
16.305999
20
2.7578427
11
16.290999
21
2.7020427
0
LINE
8
DEFAULT_255_2_778
10
16.290999
20
2.7020427
11
16.278799
21
2.6454427
0
LINE
8
DEFAULT_255_2_778
10
16.278799
20
2.6454427
11
16.273799
21
2.6168427
0
LINE
8
DEFAULT_255_2_778
10
16.273799
20
2.6168427
11
16.268499
21
2.5805427
0
LINE
8
DEFAULT_255_2_778
10
16.268499
20
2.5805427
11
16.264199
21
2.5441427
0
LINE
8
DEFAULT_255_2_778
10
16.264199
20
2.5441427
11
16.261099
21
2.5075427
0
LINE
8
DEFAULT_255_2_778
10
16.261099
20
2.5075427
11
16.260799
21
2.2855427
0
LINE
8
DEFAULT_255_2_778
10
16.260799
20
2.2855427
11
16.263999
21
2.2482427
0
LINE
8
DEFAULT_255_2_778
10
16.263999
20
2.2482427
11
16.268199
21
2.2112427
0
LINE
8
DEFAULT_255_2_778
10
16.268199
20
2.2112427
11
16.273499
21
2.1741427
0
LINE
8
DEFAULT_255_2_778
10
16.273499
20
2.1741427
11
16.284099
21
2.1165427
0
LINE
8
DEFAULT_255_2_778
10
16.284099
20
2.1165427
11
16.297299
21
2.0593427
0
LINE
8
DEFAULT_255_2_778
10
16.297299
20
2.0593427
11
16.313699
21
2.0030427
0
LINE
8
DEFAULT_255_2_778
10
16.313699
20
2.0030427
11
16.342799
21
1.9236427
0
LINE
8
DEFAULT_255_2_778
10
16.342799
20
1.9236427
11
16.377999
21
1.8484427
0
LINE
8
DEFAULT_255_2_778
10
16.377999
20
1.8484427
11
16.431199
21
1.7603427
0
LINE
8
DEFAULT_255_2_778
10
16.431199
20
1.7603427
11
16.489899
21
1.6863427
0
LINE
8
DEFAULT_255_2_778
10
16.489899
20
1.6863427
11
16.575099
21
1.6098427
0
LINE
8
DEFAULT_255_2_778
10
16.575099
20
1.6098427
11
16.689399
21
1.5466427
0
LINE
8
DEFAULT_255_2_778
10
16.689399
20
1.5466427
11
16.820899
21
1.5122427
0
LINE
8
DEFAULT_255_2_778
10
16.820899
20
1.5122427
11
16.981499
21
1.5095427
0
LINE
8
DEFAULT_255_2_778
10
16.981499
20
1.5095427
11
17.115699
21
1.5389427
0
LINE
8
DEFAULT_255_2_778
10
17.115699
20
1.5389427
11
17.232599
21
1.5974427
0
LINE
8
DEFAULT_255_2_778
10
17.232599
20
1.5974427
11
17.319399
21
1.6691427
0
LINE
8
DEFAULT_255_2_778
10
17.319399
20
1.6691427
11
17.394299
21
1.7603427
0
LINE
8
DEFAULT_255_2_778
10
17.394299
20
1.7603427
11
17.447199
21
1.8484427
0
LINE
8
DEFAULT_255_2_778
10
17.447199
20
1.8484427
11
17.482399
21
1.9239427
0
LINE
8
DEFAULT_255_2_778
10
17.482399
20
1.9239427
11
17.511499
21
2.0035427
0
LINE
8
DEFAULT_255_2_778
10
17.511499
20
2.0035427
11
17.527899
21
2.0598427
0
LINE
8
DEFAULT_255_2_778
10
17.527899
20
2.0598427
11
17.541099
21
2.1170427
0
LINE
8
DEFAULT_255_2_778
10
17.541099
20
2.1170427
11
17.551699
21
2.1747427
0
LINE
8
DEFAULT_255_2_778
10
17.551699
20
2.1747427
11
17.556999
21
2.2115427
0
LINE
8
DEFAULT_255_2_778
10
17.556999
20
2.2115427
11
17.561199
21
2.2485427
0
LINE
8
DEFAULT_255_2_778
10
17.561199
20
2.2485427
11
17.564399
21
2.2855427
0
LINE
8
DEFAULT_255_2_778
10
17.564399
20
2.2855427
11
17.564399
21
2.5073427
0
LINE
8
DEFAULT_255_2_778
10
17.564399
20
2.5073427
11
17.561199
21
2.5438427
0
LINE
8
DEFAULT_255_2_778
10
17.561199
20
2.5438427
11
17.556999
21
2.5803427
0
LINE
8
DEFAULT_255_2_778
10
17.556999
20
2.5803427
11
17.551699
21
2.6165427
0
LINE
8
DEFAULT_255_2_778
10
17.551699
20
2.6165427
11
17.541099
21
2.6734427
0
LINE
8
DEFAULT_255_2_778
10
17.541099
20
2.6734427
11
17.527599
21
2.7298427
0
LINE
8
DEFAULT_255_2_778
10
17.527599
20
2.7298427
11
17.510999
21
2.7853427
0
LINE
8
DEFAULT_255_2_778
10
17.510999
20
2.7853427
11
17.481299
21
2.8637427
0
LINE
8
DEFAULT_255_2_778
10
17.481299
20
2.8637427
11
17.445599
21
2.9377427
0
LINE
8
DEFAULT_255_2_778
10
17.445599
20
2.9377427
11
17.392199
21
3.0237427
0
LINE
8
DEFAULT_255_2_778
10
17.392199
20
3.0237427
11
17.317499
21
3.1121427
0
LINE
8
DEFAULT_255_2_778
10
17.317499
20
3.1121427
11
17.230999
21
3.1814427
0
LINE
8
DEFAULT_255_2_778
10
17.230999
20
3.1814427
11
17.114899
21
3.2380427
0
LINE
8
DEFAULT_255_2_778
10
17.114899
20
3.2380427
11
16.958799
21
3.2682427
0
LINE
8
DEFAULT_255_2_778
10
16.958799
20
3.2682427
11
16.799499
21
3.2600427
0
LINE
8
DEFAULT_255_2_778
10
16.826499
20
3.0674427
11
16.984999
21
3.0703427
0
LINE
8
DEFAULT_255_2_778
10
16.984999
20
3.0703427
11
17.091899
21
3.0311427
0
LINE
8
DEFAULT_255_2_778
10
17.091899
20
3.0311427
11
17.169399
21
2.9700427
0
LINE
8
DEFAULT_255_2_778
10
17.169399
20
2.9700427
11
17.224099
21
2.8997427
0
LINE
8
DEFAULT_255_2_778
10
17.224099
20
2.8997427
11
17.261199
21
2.8314427
0
LINE
8
DEFAULT_255_2_778
10
17.261199
20
2.8314427
11
17.293999
21
2.7491427
0
LINE
8
DEFAULT_255_2_778
10
17.293999
20
2.7491427
11
17.313299
21
2.6827427
0
LINE
8
DEFAULT_255_2_778
10
17.313299
20
2.6827427
11
17.324199
21
2.6338427
0
LINE
8
DEFAULT_255_2_778
10
17.324199
20
2.6338427
11
17.332599
21
2.5843427
0
LINE
8
DEFAULT_255_2_778
10
17.332599
20
2.5843427
11
17.338999
21
2.5321427
0
LINE
8
DEFAULT_255_2_778
10
17.338999
20
2.5321427
11
17.338999
21
2.2554427
0
LINE
8
DEFAULT_255_2_778
10
17.338999
20
2.2554427
11
17.332599
21
2.2025427
0
LINE
8
DEFAULT_255_2_778
10
17.332599
20
2.2025427
11
17.324399
21
2.1522427
0
LINE
8
DEFAULT_255_2_778
10
17.324399
20
2.1522427
11
17.313799
21
2.1024427
0
LINE
8
DEFAULT_255_2_778
10
17.313799
20
2.1024427
11
17.294299
21
2.0329427
0
LINE
8
DEFAULT_255_2_778
10
17.294299
20
2.0329427
11
17.269699
21
1.9670427
0
LINE
8
DEFAULT_255_2_778
10
17.269699
20
1.9670427
11
17.225699
21
1.8810427
0
LINE
8
DEFAULT_255_2_778
10
17.225699
20
1.8810427
11
17.160599
21
1.7982427
0
LINE
8
DEFAULT_255_2_778
10
17.160599
20
1.7982427
11
17.067999
21
1.7320427
0
LINE
8
DEFAULT_255_2_778
10
17.067999
20
1.7320427
11
16.942399
21
1.6998427
0
LINE
8
DEFAULT_255_2_778
10
16.942399
20
1.6998427
11
16.798399
21
1.7159427
0
LINE
8
DEFAULT_255_2_778
10
16.798399
20
1.7159427
11
16.697899
21
1.7699427
0
LINE
8
DEFAULT_255_2_778
10
16.697899
20
1.7699427
11
16.631699
21
1.8360427
0
LINE
8
DEFAULT_255_2_778
10
16.631699
20
1.8360427
11
16.582299
21
1.9128427
0
LINE
8
DEFAULT_255_2_778
10
16.582299
20
1.9128427
11
16.547599
21
1.9887427
0
LINE
8
DEFAULT_255_2_778
10
16.547599
20
1.9887427
11
16.524899
21
2.0554427
0
LINE
8
DEFAULT_255_2_778
10
16.524899
20
2.0554427
11
16.506599
21
2.1273427
0
LINE
8
DEFAULT_255_2_778
10
16.506599
20
2.1273427
11
16.497099
21
2.1773427
0
LINE
8
DEFAULT_255_2_778
10
16.497099
20
2.1773427
11
16.489899
21
2.2276427
0
LINE
8
DEFAULT_255_2_778
10
16.489899
20
2.2276427
11
16.486999
21
2.2554427
0
LINE
8
DEFAULT_255_2_778
10
16.486999
20
2.2554427
11
16.486999
21
2.5321427
0
LINE
8
DEFAULT_255_2_778
10
16.486999
20
2.5321427
11
16.493399
21
2.5843427
0
LINE
8
DEFAULT_255_2_778
10
16.493399
20
2.5843427
11
16.501799
21
2.6338427
0
LINE
8
DEFAULT_255_2_778
10
16.501799
20
2.6338427
11
16.512699
21
2.6827427
0
LINE
8
DEFAULT_255_2_778
10
16.512699
20
2.6827427
11
16.532499
21
2.7512427
0
LINE
8
DEFAULT_255_2_778
10
16.532499
20
2.7512427
11
16.557399
21
2.8160427
0
LINE
8
DEFAULT_255_2_778
10
16.557399
20
2.8160427
11
16.601599
21
2.8999427
0
LINE
8
DEFAULT_255_2_778
10
16.601599
20
2.8999427
11
16.666399
21
2.9803427
0
LINE
8
DEFAULT_255_2_778
10
16.666399
20
2.9803427
11
16.758699
21
3.0446427
0
LINE
8
DEFAULT_255_2_778
10
16.758699
20
3.0446427
11
16.826499
21
3.0674427
0
LINE
8
DEFAULT_255_2_778
10
18.4647178
20
3.2441427
11
18.7200178
21
3.2441427
0
LINE
8
DEFAULT_255_2_778
10
18.7200178
20
3.2441427
11
19.4177178
21
1.5441427
0
LINE
8
DEFAULT_255_2_778
10
19.4177178
20
1.5441427
11
19.1648178
21
1.5441427
0
LINE
8
DEFAULT_255_2_778
10
19.1648178
20
1.5441427
11
18.9936178
21
1.9876427
0
LINE
8
DEFAULT_255_2_778
10
18.9936178
20
1.9876427
11
18.1935178
21
1.9876427
0
LINE
8
DEFAULT_255_2_778
10
18.1935178
20
1.9876427
11
18.0247178
21
1.5441427
0
LINE
8
DEFAULT_255_2_778
10
18.0247178
20
1.5441427
11
17.7670178
21
1.5441427
0
LINE
8
DEFAULT_255_2_778
10
17.7670178
20
1.5441427
11
18.4647178
21
3.2441427
0
LINE
8
DEFAULT_255_2_778
10
18.2684178
20
2.1802427
11
18.9201178
21
2.1802427
0
LINE
8
DEFAULT_255_2_778
10
18.9201178
20
2.1802427
11
18.5936178
21
3.0248427
0
LINE
8
DEFAULT_255_2_778
10
18.5936178
20
3.0248427
11
18.2684178
21
2.1802427
0
LINE
8
DEFAULT_255_2_778
10
20.5957178
20
2.4405427
11
20.7298178
21
2.5012427
0
LINE
8
DEFAULT_255_2_778
10
20.7298178
20
2.5012427
11
20.8235178
21
2.5903427
0
LINE
8
DEFAULT_255_2_778
10
20.8235178
20
2.5903427
11
20.8621178
21
2.6549427
0
LINE
8
DEFAULT_255_2_778
10
20.8621178
20
2.6549427
11
20.8806178
21
2.7054427
0
LINE
8
DEFAULT_255_2_778
10
20.8806178
20
2.7054427
11
20.8893178
21
2.7451427
0
LINE
8
DEFAULT_255_2_778
10
20.8893178
20
2.7451427
11
20.8886178
21
2.9057427
0
LINE
8
DEFAULT_255_2_778
10
20.8886178
20
2.9057427
11
20.8766178
21
2.9565427
0
LINE
8
DEFAULT_255_2_778
10
20.8766178
20
2.9565427
11
20.8528178
21
3.0160427
0
LINE
8
DEFAULT_255_2_778
10
20.8528178
20
3.0160427
11
20.8097178
21
3.0793427
0
LINE
8
DEFAULT_255_2_778
10
20.8097178
20
3.0793427
11
20.6933178
21
3.1663427
0
LINE
8
DEFAULT_255_2_778
10
20.6933178
20
3.1663427
11
20.5184178
21
3.2248427
0
LINE
8
DEFAULT_255_2_778
10
20.5184178
20
3.2248427
11
20.2932178
21
3.2441427
0
LINE
8
DEFAULT_255_2_778
10
20.2932178
20
3.2441427
11
19.7220178
21
3.2441427
0
LINE
8
DEFAULT_255_2_778
10
19.7220178
20
3.2441427
11
19.7220178
21
1.5441427
0
LINE
8
DEFAULT_255_2_778
10
19.7220178
20
1.5441427
11
20.5380178
21
1.5550427
0
LINE
8
DEFAULT_255_2_778
10
20.5380178
20
1.5550427
11
20.7412178
21
1.6182427
0
LINE
8
DEFAULT_255_2_778
10
20.7412178
20
1.6182427
11
20.8497178
21
1.6976427
0
LINE
8
DEFAULT_255_2_778
10
20.8497178
20
1.6976427
11
20.8989178
21
1.7606427
0
LINE
8
DEFAULT_255_2_778
10
20.8989178
20
1.7606427
11
20.9288178
21
1.8233427
0
LINE
8
DEFAULT_255_2_778
10
20.9288178
20
1.8233427
11
20.9446178
21
1.8773427
0
LINE
8
DEFAULT_255_2_778
10
20.9446178
20
1.8773427
11
20.9523178
21
1.9193427
0
LINE
8
DEFAULT_255_2_778
10
20.9523178
20
1.9193427
11
20.9505178
21
2.1003427
0
LINE
8
DEFAULT_255_2_778
10
20.9505178
20
2.1003427
11
20.9399178
21
2.1469427
0
LINE
8
DEFAULT_255_2_778
10
20.9399178
20
2.1469427
11
20.9171178
21
2.2075427
0
LINE
8
DEFAULT_255_2_778
10
20.9171178
20
2.2075427
11
20.8772178
21
2.2741427
0
LINE
8
DEFAULT_255_2_778
10
20.8772178
20
2.2741427
11
20.7930178
21
2.3551427
0
LINE
8
DEFAULT_255_2_778
10
20.7930178
20
2.3551427
11
20.6682178
21
2.4194427
0
LINE
8
DEFAULT_255_2_778
10
20.6682178
20
2.4194427
11
20.5957178
21
2.4405427
0
LINE
8
DEFAULT_255_2_778
10
20.5965178
20
2.2691427
11
20.6787178
21
2.1985427
0
LINE
8
DEFAULT_255_2_778
10
20.6787178
20
2.1985427
11
20.7102178
21
2.1347427
0
LINE
8
DEFAULT_255_2_778
10
20.7102178
20
2.1347427
11
20.7208178
21
2.0905427
0
LINE
8
DEFAULT_255_2_778
10
20.7208178
20
2.0905427
11
20.7182178
21
1.9527427
0
LINE
8
DEFAULT_255_2_778
10
20.7182178
20
1.9527427
11
20.7015178
21
1.8984427
0
LINE
8
DEFAULT_255_2_778
10
20.7015178
20
1.8984427
11
20.6592178
21
1.8312427
0
LINE
8
DEFAULT_255_2_778
10
20.6592178
20
1.8312427
11
20.5419178
21
1.7619427
0
LINE
8
DEFAULT_255_2_778
10
20.5419178
20
1.7619427
11
20.3390178
21
1.7373427
0
LINE
8
DEFAULT_255_2_778
10
20.3390178
20
1.7373427
11
19.9546178
21
1.7373427
0
LINE
8
DEFAULT_255_2_778
10
19.9546178
20
1.7373427
11
19.9546178
21
2.3289427
0
LINE
8
DEFAULT_255_2_778
10
19.9546178
20
2.3289427
11
20.4792178
21
2.3130427
0
LINE
8
DEFAULT_255_2_778
10
20.4792178
20
2.3130427
11
20.5965178
21
2.2691427
0
LINE
8
DEFAULT_255_2_778
10
20.4631178
20
2.5461427
11
20.2866178
21
2.5260427
0
LINE
8
DEFAULT_255_2_778
10
20.2866178
20
2.5260427
11
19.9548178
21
2.5260427
0
LINE
8
DEFAULT_255_2_778
10
19.9548178
20
2.5260427
11
19.9548178
21
3.0512427
0
LINE
8
DEFAULT_255_2_778
10
19.9548178
20
3.0512427
11
20.4525178
21
3.0327427
0
LINE
8
DEFAULT_255_2_778
10
20.4525178
20
3.0327427
11
20.5983178
21
2.9557427
0
LINE
8
DEFAULT_255_2_778
10
20.5983178
20
2.9557427
11
20.6430178
21
2.8898427
0
LINE
8
DEFAULT_255_2_778
10
20.6430178
20
2.8898427
11
20.6573178
21
2.8443427
0
LINE
8
DEFAULT_255_2_778
10
20.6573178
20
2.8443427
11
20.6621178
21
2.8123427
0
LINE
8
DEFAULT_255_2_778
10
20.6621178
20
2.8123427
11
20.6602178
21
2.7396427
0
LINE
8
DEFAULT_255_2_778
10
20.6602178
20
2.7396427
11
20.6515178
21
2.7006427
0
LINE
8
DEFAULT_255_2_778
10
20.6515178
20
2.7006427
11
20.6248178
21
2.6448427
0
LINE
8
DEFAULT_255_2_778
10
20.6248178
20
2.6448427
11
20.4901178
21
2.5538427
0
LINE
8
DEFAULT_255_2_778
10
20.4901178
20
2.5538427
11
20.4631178
21
2.5461427
0
LINE
8
DEFAULT_255_2_778
10
21.6916178
20
3.2557427
11
21.5662178
21
3.2129427
0
LINE
8
DEFAULT_255_2_778
10
21.5662178
20
3.2129427
11
21.4577178
21
3.1428427
0
LINE
8
DEFAULT_255_2_778
10
21.4577178
20
3.1428427
11
21.3764178
21
3.0602427
0
LINE
8
DEFAULT_255_2_778
10
21.3764178
20
3.0602427
11
21.3182178
21
2.9779427
0
LINE
8
DEFAULT_255_2_778
10
21.3182178
20
2.9779427
11
21.2688178
21
2.8853427
0
LINE
8
DEFAULT_255_2_778
10
21.2688178
20
2.8853427
11
21.2389178
21
2.8126427
0
LINE
8
DEFAULT_255_2_778
10
21.2389178
20
2.8126427
11
21.2206178
21
2.7575427
0
LINE
8
DEFAULT_255_2_778
10
21.2206178
20
2.7575427
11
21.2055178
21
2.7017427
0
LINE
8
DEFAULT_255_2_778
10
21.2055178
20
2.7017427
11
21.1934178
21
2.6451427
0
LINE
8
DEFAULT_255_2_778
10
21.1934178
20
2.6451427
11
21.1883178
21
2.6165427
0
LINE
8
DEFAULT_255_2_778
10
21.1883178
20
2.6165427
11
21.1830178
21
2.5802427
0
LINE
8
DEFAULT_255_2_778
10
21.1830178
20
2.5802427
11
21.1788178
21
2.5437427
0
LINE
8
DEFAULT_255_2_778
10
21.1788178
20
2.5437427
11
21.1756178
21
2.5072427
0
LINE
8
DEFAULT_255_2_778
10
21.1756178
20
2.5072427
11
21.1754178
21
2.2852427
0
LINE
8
DEFAULT_255_2_778
10
21.1754178
20
2.2852427
11
21.1785178
21
2.2479427
0
LINE
8
DEFAULT_255_2_778
10
21.1785178
20
2.2479427
11
21.1828178
21
2.2109427
0
LINE
8
DEFAULT_255_2_778
10
21.1828178
20
2.2109427
11
21.1881178
21
2.1738427
0
LINE
8
DEFAULT_255_2_778
10
21.1881178
20
2.1738427
11
21.1986178
21
2.1162427
0
LINE
8
DEFAULT_255_2_778
10
21.1986178
20
2.1162427
11
21.2119178
21
2.0590427
0
LINE
8
DEFAULT_255_2_778
10
21.2119178
20
2.0590427
11
21.2283178
21
2.0027427
0
LINE
8
DEFAULT_255_2_778
10
21.2283178
20
2.0027427
11
21.2574178
21
1.9233427
0
LINE
8
DEFAULT_255_2_778
10
21.2574178
20
1.9233427
11
21.2926178
21
1.8481427
0
LINE
8
DEFAULT_255_2_778
10
21.2926178
20
1.8481427
11
21.3458178
21
1.7600427
0
LINE
8
DEFAULT_255_2_778
10
21.3458178
20
1.7600427
11
21.4045178
21
1.6860427
0
LINE
8
DEFAULT_255_2_778
10
21.4045178
20
1.6860427
11
21.4897178
21
1.6095427
0
LINE
8
DEFAULT_255_2_778
10
21.4897178
20
1.6095427
11
21.6040178
21
1.5463427
0
LINE
8
DEFAULT_255_2_778
10
21.6040178
20
1.5463427
11
21.7355178
21
1.5119427
0
LINE
8
DEFAULT_255_2_778
10
21.7355178
20
1.5119427
11
21.8961178
21
1.5092427
0
LINE
8
DEFAULT_255_2_778
10
21.8961178
20
1.5092427
11
22.0302178
21
1.5386427
0
LINE
8
DEFAULT_255_2_778
10
22.0302178
20
1.5386427
11
22.1472178
21
1.5971427
0
LINE
8
DEFAULT_255_2_778
10
22.1472178
20
1.5971427
11
22.2340178
21
1.6688427
0
LINE
8
DEFAULT_255_2_778
10
22.2340178
20
1.6688427
11
22.3088178
21
1.7600427
0
LINE
8
DEFAULT_255_2_778
10
22.3088178
20
1.7600427
11
22.3618178
21
1.8481427
0
LINE
8
DEFAULT_255_2_778
10
22.3618178
20
1.8481427
11
22.3969178
21
1.9236427
0
LINE
8
DEFAULT_255_2_778
10
22.3969178
20
1.9236427
11
22.4260178
21
2.0032427
0
LINE
8
DEFAULT_255_2_778
10
22.4260178
20
2.0032427
11
22.4425178
21
2.0595427
0
LINE
8
DEFAULT_255_2_778
10
22.4425178
20
2.0595427
11
22.4557178
21
2.1167427
0
LINE
8
DEFAULT_255_2_778
10
22.4557178
20
2.1167427
11
22.4663178
21
2.1744427
0
LINE
8
DEFAULT_255_2_778
10
22.4663178
20
2.1744427
11
22.4716178
21
2.2112427
0
LINE
8
DEFAULT_255_2_778
10
22.4716178
20
2.2112427
11
22.4758178
21
2.2482427
0
LINE
8
DEFAULT_255_2_778
10
22.4758178
20
2.2482427
11
22.4790178
21
2.2852427
0
LINE
8
DEFAULT_255_2_778
10
22.4790178
20
2.2852427
11
22.4790178
21
2.5070427
0
LINE
8
DEFAULT_255_2_778
10
22.4790178
20
2.5070427
11
22.4758178
21
2.5435427
0
LINE
8
DEFAULT_255_2_778
10
22.4758178
20
2.5435427
11
22.4716178
21
2.5800427
0
LINE
8
DEFAULT_255_2_778
10
22.4716178
20
2.5800427
11
22.4663178
21
2.6162427
0
LINE
8
DEFAULT_255_2_778
10
22.4663178
20
2.6162427
11
22.4557178
21
2.6731427
0
LINE
8
DEFAULT_255_2_778
10
22.4557178
20
2.6731427
11
22.4422178
21
2.7295427
0
LINE
8
DEFAULT_255_2_778
10
22.4422178
20
2.7295427
11
22.4255178
21
2.7850427
0
LINE
8
DEFAULT_255_2_778
10
22.4255178
20
2.7850427
11
22.3959178
21
2.8634427
0
LINE
8
DEFAULT_255_2_778
10
22.3959178
20
2.8634427
11
22.3602178
21
2.9374427
0
LINE
8
DEFAULT_255_2_778
10
22.3602178
20
2.9374427
11
22.3067178
21
3.0234427
0
LINE
8
DEFAULT_255_2_778
10
22.3067178
20
3.0234427
11
22.2321178
21
3.1118427
0
LINE
8
DEFAULT_255_2_778
10
22.2321178
20
3.1118427
11
22.1456178
21
3.1811427
0
LINE
8
DEFAULT_255_2_778
10
22.1456178
20
3.1811427
11
22.0294178
21
3.2377427
0
LINE
8
DEFAULT_255_2_778
10
22.0294178
20
3.2377427
11
21.8733178
21
3.2679427
0
LINE
8
DEFAULT_255_2_778
10
21.8733178
20
3.2679427
11
21.7143178
21
3.2600427
0
LINE
8
DEFAULT_255_2_778
10
21.7143178
20
3.2600427
11
21.6916178
21
3.2557427
0
LINE
8
DEFAULT_255_2_778
10
21.7268178
20
3.0639427
11
21.8850178
21
3.0726427
0
LINE
8
DEFAULT_255_2_778
10
21.8850178
20
3.0726427
11
22.0062178
21
3.0311427
0
LINE
8
DEFAULT_255_2_778
10
22.0062178
20
3.0311427
11
22.0837178
21
2.9700427
0
LINE
8
DEFAULT_255_2_778
10
22.0837178
20
2.9700427
11
22.1384178
21
2.8996427
0
LINE
8
DEFAULT_255_2_778
10
22.1384178
20
2.8996427
11
22.1755178
21
2.8313427
0
LINE
8
DEFAULT_255_2_778
10
22.1755178
20
2.8313427
11
22.2083178
21
2.7491427
0
LINE
8
DEFAULT_255_2_778
10
22.2083178
20
2.7491427
11
22.2276178
21
2.6826427
0
LINE
8
DEFAULT_255_2_778
10
22.2276178
20
2.6826427
11
22.2385178
21
2.6337427
0
LINE
8
DEFAULT_255_2_778
10
22.2385178
20
2.6337427
11
22.2469178
21
2.5842427
0
LINE
8
DEFAULT_255_2_778
10
22.2469178
20
2.5842427
11
22.2533178
21
2.5321427
0
LINE
8
DEFAULT_255_2_778
10
22.2533178
20
2.5321427
11
22.2533178
21
2.2553427
0
LINE
8
DEFAULT_255_2_778
10
22.2533178
20
2.2553427
11
22.2469178
21
2.2024427
0
LINE
8
DEFAULT_255_2_778
10
22.2469178
20
2.2024427
11
22.2387178
21
2.1522427
0
LINE
8
DEFAULT_255_2_778
10
22.2387178
20
2.1522427
11
22.2281178
21
2.1024427
0
LINE
8
DEFAULT_255_2_778
10
22.2281178
20
2.1024427
11
22.2086178
21
2.0328427
0
LINE
8
DEFAULT_255_2_778
10
22.2086178
20
2.0328427
11
22.1840178
21
1.9669427
0
LINE
8
DEFAULT_255_2_778
10
22.1840178
20
1.9669427
11
22.1400178
21
1.8810427
0
LINE
8
DEFAULT_255_2_778
10
22.1400178
20
1.8810427
11
22.0749178
21
1.7981427
0
LINE
8
DEFAULT_255_2_778
10
22.0749178
20
1.7981427
11
21.9823178
21
1.7320427
0
LINE
8
DEFAULT_255_2_778
10
21.9823178
20
1.7320427
11
21.8567178
21
1.6997427
0
LINE
8
DEFAULT_255_2_778
10
21.8567178
20
1.6997427
11
21.7127178
21
1.7159427
0
LINE
8
DEFAULT_255_2_778
10
21.7127178
20
1.7159427
11
21.6122178
21
1.7698427
0
LINE
8
DEFAULT_255_2_778
10
21.6122178
20
1.7698427
11
21.5460178
21
1.8360427
0
LINE
8
DEFAULT_255_2_778
10
21.5460178
20
1.8360427
11
21.4966178
21
1.9127427
0
LINE
8
DEFAULT_255_2_778
10
21.4966178
20
1.9127427
11
21.4619178
21
1.9886427
0
LINE
8
DEFAULT_255_2_778
10
21.4619178
20
1.9886427
11
21.4392178
21
2.0553427
0
LINE
8
DEFAULT_255_2_778
10
21.4392178
20
2.0553427
11
21.4209178
21
2.1273427
0
LINE
8
DEFAULT_255_2_778
10
21.4209178
20
2.1273427
11
21.4114178
21
2.1773427
0
LINE
8
DEFAULT_255_2_778
10
21.4114178
20
2.1773427
11
21.4042178
21
2.2276427
0
LINE
8
DEFAULT_255_2_778
10
21.4042178
20
2.2276427
11
21.4013178
21
2.2553427
0
LINE
8
DEFAULT_255_2_778
10
21.4013178
20
2.2553427
11
21.4013178
21
2.5321427
0
LINE
8
DEFAULT_255_2_778
10
21.4013178
20
2.5321427
11
21.4077178
21
2.5842427
0
LINE
8
DEFAULT_255_2_778
10
21.4077178
20
2.5842427
11
21.4161178
21
2.6337427
0
LINE
8
DEFAULT_255_2_778
10
21.4161178
20
2.6337427
11
21.4270178
21
2.6826427
0
LINE
8
DEFAULT_255_2_778
10
21.4270178
20
2.6826427
11
21.4468178
21
2.7512427
0
LINE
8
DEFAULT_255_2_778
10
21.4468178
20
2.7512427
11
21.4717178
21
2.8160427
0
LINE
8
DEFAULT_255_2_778
10
21.4717178
20
2.8160427
11
21.5159178
21
2.8999427
0
LINE
8
DEFAULT_255_2_778
10
21.5159178
20
2.8999427
11
21.5807178
21
2.9803427
0
LINE
8
DEFAULT_255_2_778
10
21.5807178
20
2.9803427
11
21.6730178
21
3.0446427
0
LINE
8
DEFAULT_255_2_778
10
21.6730178
20
3.0446427
11
21.7268178
21
3.0639427
0
ENDSEC
0
EOF