0
SECTION
2
HEADER
9
$MEASUREMENT
70
1
0
ENDSEC
0
SECTION
2
TABLES
0
TABLE
2
LTYPE
0
LTYPE
72
65
70
64
2
CONTINUOUS
3
______
73
0
40
0
0
ENDTAB
0
TABLE
2
LAYER
0
LAYER
2
DEFAULT_255_2_778
70
0
62
255
6
CONTINUOUS
0
LAYER
2
DEFAULT_255_1_234
70
0
62
255
6
CONTINUOUS
0
ENDTAB
0
ENDSEC
0
SECTION
2
ENTITIES
0
ARC
8
DEFAULT_255_2_778
10
3.5695693
20
139.3052021
40
0.7914215
50
129.1312896
51
180.1450914
0
ARC
8
DEFAULT_255_2_778
10
3.5698345
20
139.3056893
40
0.7912112
50
89.854026
51
129.1684493
0
ARC
8
DEFAULT_255_2_778
10
25.7988937
20
139.3053758
40
0.7915249
50
39.4792447
51
90.147911
0
ARC
8
DEFAULT_255_2_778
10
25.7994935
20
139.3052224
40
0.7911595
50
359.8533901
51
39.5154338
0
ARC
8
DEFAULT_255_2_778
10
25.7991693
20
-1.9863501
40
0.7914836
50
309.4761667
51
0.1482649
0
ARC
8
DEFAULT_255_2_778
10
25.798898
20
-1.9867812
40
0.7913235
50
269.8517415
51
309.511178
0
ARC
8
DEFAULT_255_2_778
10
3.569842
20
-1.986723
40
0.7913815
50
219.1282118
51
270.1454017
0
ARC
8
DEFAULT_255_2_778
10
3.5695247
20
-1.9863406
40
0.7913769
50
179.8524075
51
219.1641908
0
LINE
8
DEFAULT_255_2_778
10
3.5718503
20
140.096898
11
25.7968503
21
140.096898
0
LINE
8
DEFAULT_255_2_778
10
26.5906503
20
139.303198
11
26.5906503
21
-1.984302
0
LINE
8
DEFAULT_255_2_778
10
25.7968503
20
-2.778102
11
3.5718503
21
-2.778102
0
LINE
8
DEFAULT_255_2_778
10
2.7781503
20
-1.984302
11
2.7781503
21
139.303198
0
LINE
8
DEFAULT_255_1_234
10
8.7428835
20
0.5189243
11
8.7693882
21
0.5189243
0
LINE
8
DEFAULT_255_1_234
10
8.7693882
20
0.5189243
11
8.7693882
21
0.392826
0
LINE
8
DEFAULT_255_1_234
10
8.7693882
20
0.392826
11
8.7420803
21
0.392826
0
LINE
8
DEFAULT_255_1_234
10
8.1951189
20
-0.2063417
11
8.1951189
21
-0.1493164
0
LINE
8
DEFAULT_255_1_234
10
8.3445093
20
-0.1685925
11
8.3445093
21
-0.2232083
0
ARC
8
DEFAULT_255_1_234
10
8.7473151
20
-0.1069545
40
0.4998079
50
90.6001036
51
104.514704
0
ARC
8
DEFAULT_255_1_234
10
8.7084667
20
0.0375131
40
0.3502176
50
104.2855254
51
133.862935
0
ARC
8
DEFAULT_255_1_234
10
8.7248424
20
0.026683
40
0.3693984
50
134.5302688
51
161.6210873
0
ARC
8
DEFAULT_255_1_234
10
8.8901613
20
-0.0316105
40
0.5446739
50
161.2849839
51
174.2076652
0
ARC
8
DEFAULT_255_1_234
10
9.030855
20
-0.0510213
40
0.6866274
50
173.7810589
51
174.9254635
0
ARC
8
DEFAULT_255_1_234
10
8.5758382
20
-0.1893161
40
0.3033419
50
95.8330959
51
138.9954921
0
ARC
8
DEFAULT_255_1_234
10
8.5981738
20
-0.3171625
40
0.4328947
50
89.8753725
51
97.0544009
0
ARC
8
DEFAULT_255_1_234
10
8.6029204
20
-0.2336252
40
0.3493769
50
71.6407809
51
90.6240094
0
ARC
8
DEFAULT_255_1_234
10
8.6179777
20
-0.1781918
40
0.2920396
50
39.6367836
51
71.019018
0
ARC
8
DEFAULT_255_1_234
10
8.554325
20
-0.2332002
40
0.3761538
50
10.658731
51
39.9043955
0
ARC
8
DEFAULT_255_1_234
10
8.3995333
20
-0.2668314
40
0.5345136
50
359.682601
51
11.132623
0
ARC
8
DEFAULT_255_1_234
10
8.3955464
20
-0.273899
40
0.5385081
50
347.2486944
51
0.4369317
0
ARC
8
DEFAULT_255_1_234
10
8.5622941
20
-0.3140193
40
0.3670249
50
318.1409698
51
347.6118597
0
ARC
8
DEFAULT_255_1_234
10
8.5947934
20
-0.3407298
40
0.3250007
50
275.6342139
51
317.8248465
0
ARC
8
DEFAULT_255_1_234
10
8.5727045
20
-0.2107781
40
0.4565864
50
269.8874292
51
276.7917694
0
ARC
8
DEFAULT_255_1_234
10
8.5672116
20
-0.3133257
40
0.3540676
50
246.9140195
51
270.7437342
0
ARC
8
DEFAULT_255_1_234
10
8.5678506
20
-0.3275616
40
0.3412781
50
218.1665114
51
245.878116
0
ARC
8
DEFAULT_255_1_234
10
8.6557967
20
-0.2539721
40
0.455911
50
191.4115814
51
218.6077802
0
ARC
8
DEFAULT_255_1_234
10
8.8496056
20
-0.2105167
40
0.6545001
50
179.6345085
51
191.7836486
0
ARC
8
DEFAULT_255_1_234
10
9.4078393
20
-0.1426303
40
1.2127388
50
171.4525249
51
180.3158839
0
ARC
8
DEFAULT_255_1_234
10
8.9683269
20
-0.0742392
40
0.7679464
50
157.9802646
51
171.6246686
0
ARC
8
DEFAULT_255_1_234
10
8.746929
20
0.0140421
40
0.5296008
50
141.4298019
51
157.854097
0
ARC
8
DEFAULT_255_1_234
10
8.682761
20
0.0594381
40
0.4511509
50
102.8715806
51
140.8564722
0
ARC
8
DEFAULT_255_1_234
10
8.7475226
20
-0.1845448
40
0.7034845
50
90.3778349
51
103.5869322
0
ARC
8
DEFAULT_255_1_234
10
8.5737002
20
-0.245027
40
0.2370698
50
89.8751008
51
126.2071704
0
ARC
8
DEFAULT_255_1_234
10
8.5782792
20
-0.2604697
40
0.2522934
50
124.9745049
51
144.895901
0
ARC
8
DEFAULT_255_1_234
10
8.5606982
20
-0.246144
40
0.2296779
50
145.2974905
51
160.2660252
0
ARC
8
DEFAULT_255_1_234
10
8.8679521
20
-0.2263929
40
0.5234525
50
179.6514266
51
190.2855912
0
ARC
8
DEFAULT_255_1_234
10
8.6985658
20
-0.2583214
40
0.3510893
50
190.0945431
51
207.5098196
0
ARC
8
DEFAULT_255_1_234
10
8.6419928
20
-0.2852377
40
0.288489
50
207.9583163
51
216.3251085
0
ARC
8
DEFAULT_255_1_234
10
8.6080036
20
-0.3131895
40
0.2445587
50
215.7661442
51
232.5456785
0
ARC
8
DEFAULT_255_1_234
10
8.5697019
20
-0.3618518
40
0.1826382
50
232.8005391
51
270.6605633
0
ARC
8
DEFAULT_255_1_234
10
8.574272
20
-0.3254388
40
0.2190529
50
269.35537
51
288.4744281
0
ARC
8
DEFAULT_255_1_234
10
8.5835617
20
-0.3603882
40
0.1829749
50
289.1833337
51
322.9683818
0
ARC
8
DEFAULT_255_1_234
10
8.5224139
20
-0.3121609
40
0.2608399
50
322.6007884
51
346.5182367
0
ARC
8
DEFAULT_255_1_234
10
8.4066735
20
-0.2826384
40
0.3802777
50
346.2582162
51
358.7741648
0
ARC
8
DEFAULT_255_1_234
10
8.3048404
20
-0.2771035
40
0.4822176
50
358.3755224
51
0.0098023
0
ARC
8
DEFAULT_255_1_234
10
8.3804591
20
-0.2743343
40
0.4066078
50
359.6214041
51
11.2839074
0
ARC
8
DEFAULT_255_1_234
10
8.5081738
20
-0.2476934
40
0.2761514
50
11.0482309
51
31.8146458
0
ARC
8
DEFAULT_255_1_234
10
8.5390781
20
-0.2309416
40
0.2410679
50
32.3035391
51
38.082671
0
ARC
8
DEFAULT_255_1_234
10
8.5811441
20
-0.1928338
40
0.1844966
50
36.825067
51
85.7415724
0
ARC
8
DEFAULT_255_1_234
10
8.5744274
20
-0.2428699
40
0.2349122
50
85.0140713
51
90.0513278
0
LINE
8
DEFAULT_255_1_234
10
10.0118981
20
-0.068999
11
10.0118981
21
-0.4978938
0
LINE
8
DEFAULT_255_1_234
10
9.1107371
20
-0.1228116
11
9.1107371
21
-0.0208085
0
LINE
8
DEFAULT_255_1_234
10
10.0118981
20
0.1751659
11
9.8576888
21
0.1751659
0
LINE
8
DEFAULT_255_1_234
10
9.2657497
20
-0.0167927
11
9.2657497
21
-0.1123704
0
LINE
8
DEFAULT_255_1_234
10
9.8584919
20
-0.4569319
11
9.8584919
21
-0.1942941
0
LINE
8
DEFAULT_255_1_234
10
9.8584919
20
-0.1942941
11
9.5878224
21
-0.1942941
0
LINE
8
DEFAULT_255_1_234
10
9.5878224
20
-0.1942941
11
9.5878224
21
-0.068999
0
LINE
8
DEFAULT_255_1_234
10
9.5878224
20
-0.068999
11
10.0118981
21
-0.068999
0
ARC
8
DEFAULT_255_1_234
10
9.7287488
20
-0.2985604
40
0.3462765
50
295.8437914
51
324.8549609
0
ARC
8
DEFAULT_255_1_234
10
9.6871455
20
-0.2232433
40
0.4322211
50
291.5695085
51
296.4549398
0
ARC
8
DEFAULT_255_1_234
10
9.6360706
20
-0.0867725
40
0.5779178
50
278.6622409
51
291.3045483
0
ARC
8
DEFAULT_255_1_234
10
9.6021198
20
0.1280408
40
0.7953952
50
270.020006
51
278.7494541
0
ARC
8
DEFAULT_255_1_234
10
9.5983122
20
0.2597036
40
0.927067
50
269.9969998
51
270.2524872
0
ARC
8
DEFAULT_255_1_234
10
9.5944835
20
-0.1486411
40
0.5187361
50
253.5786322
51
270.4175299
0
ARC
8
DEFAULT_255_1_234
10
9.5771491
20
-0.2157764
40
0.4494451
50
238.8203306
51
253.2788235
0
ARC
8
DEFAULT_255_1_234
10
9.5751864
20
-0.2208769
40
0.4440665
50
206.7883783
51
238.6962764
0
ARC
8
DEFAULT_255_1_234
10
9.6525774
20
-0.1744595
40
0.5341121
50
206.1129412
51
207.4916643
0
ARC
8
DEFAULT_255_1_234
10
9.7122689
20
-0.1490512
40
0.5989041
50
188.6921119
51
205.7821245
0
ARC
8
DEFAULT_255_1_234
10
9.8979051
20
-0.117477
40
0.7871862
50
180.3882829
51
188.9219216
0
ARC
8
DEFAULT_255_1_234
10
10.0206865
20
-0.0151536
40
0.909967
50
170.2024264
51
180.3560651
0
ARC
8
DEFAULT_255_1_234
10
9.7043383
20
0.0414237
40
0.5886083
50
154.2857445
51
170.3893044
0
ARC
8
DEFAULT_255_1_234
10
9.5761586
20
0.100095
40
0.4476743
50
139.8401567
51
153.9332699
0
ARC
8
DEFAULT_255_1_234
10
9.5402322
20
0.1288577
40
0.4016697
50
98.4190291
51
139.6707122
0
ARC
8
DEFAULT_255_1_234
10
9.578184
20
-0.0556672
40
0.5898566
50
89.7659205
51
99.4415478
0
ARC
8
DEFAULT_255_1_234
10
9.5847089
20
-0.0491156
40
0.5833147
50
78.0551672
51
90.4042112
0
ARC
8
DEFAULT_255_1_234
10
9.6251599
20
0.1327644
40
0.3970055
50
54.6380464
51
78.3339173
0
ARC
8
DEFAULT_255_1_234
10
9.6441655
20
0.1647795
40
0.3599102
50
50.031736
51
54.1558201
0
ARC
8
DEFAULT_255_1_234
10
9.6334443
20
0.1551766
40
0.3741624
50
18.1092409
51
49.7180913
0
ARC
8
DEFAULT_255_1_234
10
9.4877643
20
0.1018089
40
0.5292424
50
7.9672797
51
18.6984571
0
ARC
8
DEFAULT_255_1_234
10
9.5028121
20
0.1141504
40
0.3600838
50
9.7557294
51
27.3215714
0
ARC
8
DEFAULT_255_1_234
10
9.6155593
20
0.1704912
40
0.2340608
50
27.7361077
51
84.5257964
0
ARC
8
DEFAULT_255_1_234
10
9.582798
20
0.006164
40
0.4011215
50
82.106034
51
90.2001166
0
ARC
8
DEFAULT_255_1_234
10
9.5778197
20
0.0569215
40
0.3503799
50
89.4150119
51
105.5823402
0
ARC
8
DEFAULT_255_1_234
10
9.5521195
20
0.1504867
40
0.2533503
50
105.6678618
51
144.2648758
0
ARC
8
DEFAULT_255_1_234
10
9.641445
20
0.0869289
40
0.3629787
50
144.3561283
51
162.8564086
0
ARC
8
DEFAULT_255_1_234
10
9.8498359
20
0.0200017
40
0.5818441
50
162.6076014
51
173.6780284
0
ARC
8
DEFAULT_255_1_234
10
10.1559503
20
-0.017211
40
0.8902007
50
173.4670142
51
179.9730753
0
ARC
8
DEFAULT_255_1_234
10
9.9651174
20
-0.116574
40
0.6993804
50
179.6556203
51
190.0080463
0
ARC
8
DEFAULT_255_1_234
10
9.7335003
20
-0.1590625
40
0.4639066
50
189.8116607
51
206.6796816
0
ARC
8
DEFAULT_255_1_234
10
9.6490155
20
-0.1984497
40
0.3707421
50
207.1031645
51
217.7074368
0
ARC
8
DEFAULT_255_1_234
10
9.5855844
20
-0.2536441
40
0.2868417
50
216.7345547
51
265.6812148
0
ARC
8
DEFAULT_255_1_234
10
9.5986635
20
-0.1632145
40
0.3780509
50
264.7366618
51
270.0611241
0
ARC
8
DEFAULT_255_1_234
10
9.6009898
20
0.1208111
40
0.662079
50
269.8335834
51
276.0539546
0
ARC
8
DEFAULT_255_1_234
10
9.6216903
20
-0.069344
40
0.4708016
50
275.9894168
51
284.4615085
0
ARC
8
DEFAULT_255_1_234
10
9.641491
20
-0.1526337
40
0.3852094
50
284.7034461
51
286.4953897
0
ARC
8
DEFAULT_255_1_234
10
9.6821923
20
-0.2837035
40
0.2479842
50
286.0770838
51
304.2625829
0
ARC
8
DEFAULT_255_1_234
10
9.6955337
20
-0.3055406
40
0.2224291
50
304.5891602
51
317.1073298
0
LINE
8
DEFAULT_255_1_234
10
11.0769066
20
0.5181211
11
11.0769066
21
0.3912196
0
LINE
8
DEFAULT_255_1_234
10
11.0769066
20
0.3912196
11
10.7010213
21
0.3912196
0
LINE
8
DEFAULT_255_1_234
10
10.7010213
20
0.3912196
11
10.7010213
21
-0.6513
0
LINE
8
DEFAULT_255_1_234
10
10.7010213
20
-0.6513
11
10.5476151
21
-0.6513
0
LINE
8
DEFAULT_255_1_234
10
10.5476151
20
-0.6513
11
10.5476151
21
0.3912196
0
LINE
8
DEFAULT_255_1_234
10
10.5476151
20
0.3912196
11
10.1725329
21
0.3912196
0
LINE
8
DEFAULT_255_1_234
10
10.1725329
20
0.3912196
11
10.1725329
21
0.5181211
0
LINE
8
DEFAULT_255_1_234
10
10.1725329
20
0.5181211
11
11.0769066
21
0.5181211
0
LINE
8
DEFAULT_255_1_234
10
11.9780677
20
-0.5300208
11
11.9780677
21
-0.6513
0
LINE
8
DEFAULT_255_1_234
10
11.9780677
20
-0.6513
11
11.2118398
21
-0.6513
0
LINE
8
DEFAULT_255_1_234
10
11.2118398
20
-0.6513
11
11.2118398
21
-0.5444779
0
LINE
8
DEFAULT_255_1_234
10
11.2118398
20
-0.5444779
11
11.6166395
21
-0.0947005
0
LINE
8
DEFAULT_255_1_234
10
11.3379381
20
0.1735595
11
11.189351
21
0.1735595
0
LINE
8
DEFAULT_255_1_234
10
11.7041854
20
-0.1902782
11
11.3909476
21
-0.5300208
0
LINE
8
DEFAULT_255_1_234
10
11.3909476
20
-0.5300208
11
11.9780677
21
-0.5300208
0
ARC
8
DEFAULT_255_1_234
10
10.2676228
20
1.0982527
40
1.8008286
50
318.5132453
51
320.7828378
0
ARC
8
DEFAULT_255_1_234
10
10.7963202
20
0.6679426
40
1.1191493
50
320.7372736
51
323.9737074
0
ARC
8
DEFAULT_255_1_234
10
11.1883059
20
0.3839361
40
0.6350923
50
323.8961724
51
328.6421089
0
ARC
8
DEFAULT_255_1_234
10
11.3929654
20
0.2577031
40
0.3946393
50
328.8299013
51
331.789948
0
ARC
8
DEFAULT_255_1_234
10
11.4926833
20
0.2062509
40
0.2824501
50
331.4255242
51
352.9364833
0
ARC
8
DEFAULT_255_1_234
10
11.5063333
20
0.2031976
40
0.2685315
50
353.2248685
51
0.0169286
0
ARC
8
DEFAULT_255_1_234
10
11.527321
20
0.205495
40
0.2475536
50
359.4866256
51
15.9339782
0
ARC
8
DEFAULT_255_1_234
10
11.5780195
20
0.2191286
40
0.1950618
50
16.1714718
51
43.5284424
0
ARC
8
DEFAULT_255_1_234
10
11.5857504
20
0.2268573
40
0.184134
50
43.4415429
51
83.1661404
0
ARC
8
DEFAULT_255_1_234
10
11.5723422
20
0.1531771
40
0.258926
50
82.160215
51
90.1505798
0
ARC
8
DEFAULT_255_1_234
10
11.5691849
20
0.0994865
40
0.3126255
50
89.5460705
51
102.5418777
0
ARC
8
DEFAULT_255_1_234
10
11.5448936
20
0.2025665
40
0.2067346
50
102.1739365
51
129.2061916
0
ARC
8
DEFAULT_255_1_234
10
11.5370007
20
0.2150094
40
0.1921118
50
129.7279328
51
135.7542026
0
ARC
8
DEFAULT_255_1_234
10
11.5491535
20
0.2053045
40
0.2075944
50
136.175737
51
166.3674722
0
ARC
8
DEFAULT_255_1_234
10
11.6498454
20
0.1783182
40
0.3118201
50
165.9092917
51
178.8683903
0
ARC
8
DEFAULT_255_1_234
10
11.7363316
20
0.1736179
40
0.3983935
50
178.438168
51
180.0083905
0
ARC
8
DEFAULT_255_1_234
10
11.5961918
20
0.1775231
40
0.4068601
50
163.2878735
51
180.5581814
0
ARC
8
DEFAULT_255_1_234
10
11.5160179
20
0.199584
40
0.3237344
50
133.454115
51
162.9470031
0
ARC
8
DEFAULT_255_1_234
10
11.533872
20
0.1806
40
0.349795
50
100.7869394
51
133.4384016
0
ARC
8
DEFAULT_255_1_234
10
11.5686492
20
0.0257319
40
0.5084616
50
89.6605301
51
101.3704185
0
ARC
8
DEFAULT_255_1_234
10
11.5752831
20
0.0318496
40
0.502348
50
78.2171172
51
90.4130393
0
ARC
8
DEFAULT_255_1_234
10
11.6107909
20
0.1942637
40
0.3361092
50
55.9268222
51
78.4888551
0
ARC
8
DEFAULT_255_1_234
10
11.6304349
20
0.2281324
40
0.2970617
50
47.9292255
51
55.4054003
0
ARC
8
DEFAULT_255_1_234
10
11.640591
20
0.2384502
40
0.2825983
50
4.3347696
51
48.0560701
0
ARC
8
DEFAULT_255_1_234
10
11.5310303
20
0.2214601
40
0.393225
50
359.925209
51
5.5967654
0
ARC
8
DEFAULT_255_1_234
10
11.5739195
20
0.2270816
40
0.3503892
50
337.8914096
51
358.9967724
0
ARC
8
DEFAULT_255_1_234
10
11.3025607
20
0.3317706
40
0.6412172
50
326.9135351
51
338.3505194
0
ARC
8
DEFAULT_255_1_234
10
10.9039911
20
0.5872284
40
1.1146189
50
319.6472867
51
327.095818
0
ARC
8
DEFAULT_255_1_234
10
10.5206914
20
0.9034
40
1.6114559
50
317.2586784
51
319.9046139
0
LINE
8
DEFAULT_255_1_234
10
12.8687875
20
0.0402327
11
12.8687875
21
-0.1525291
0
LINE
8
DEFAULT_255_1_234
10
12.1306707
20
-0.1726084
11
12.1306707
21
0.0257755
0
LINE
8
DEFAULT_255_1_234
10
12.7202003
20
-0.1926877
11
12.7202003
21
0.0506739
0
LINE
8
DEFAULT_255_1_234
10
12.2792579
20
0.0619184
11
12.2792579
21
-0.1758211
0
ARC
8
DEFAULT_255_1_234
10
11.6440764
20
-0.1574195
40
1.2247208
50
353.8441951
51
0.2287902
0
ARC
8
DEFAULT_255_1_234
10
12.1080268
20
-0.2092194
40
0.7578929
50
344.4934747
51
353.9765454
0
ARC
8
DEFAULT_255_1_234
10
12.4072858
20
-0.2943019
40
0.4467846
50
329.2803592
51
344.7472793
0
ARC
8
DEFAULT_255_1_234
10
12.5065683
20
-0.3487982
40
0.3336173
50
324.9352394
51
328.6160465
0
ARC
8
DEFAULT_255_1_234
10
12.5442792
20
-0.3751573
40
0.2876076
50
280.580143
51
324.9173126
0
ARC
8
DEFAULT_255_1_234
10
12.5041584
20
-0.2080901
40
0.4592847
50
269.5977311
51
281.6734359
0
ARC
8
DEFAULT_255_1_234
10
12.496949
20
-0.2200827
40
0.4472986
50
256.6228859
51
270.51044
0
ARC
8
DEFAULT_255_1_234
10
12.4567468
20
-0.3749123
40
0.2873874
50
215.8618325
51
257.2788573
0
ARC
8
DEFAULT_255_1_234
10
12.5588499
20
-0.3064023
40
0.4102928
50
197.9693508
51
215.2623606
0
ARC
8
DEFAULT_255_1_234
10
12.8073615
20
-0.2225291
40
0.6725652
50
187.8816417
51
198.2346507
0
ARC
8
DEFAULT_255_1_234
10
13.2031823
20
-0.1653921
40
1.0724845
50
180.8976217
51
188.0055519
0
ARC
8
DEFAULT_255_1_234
10
13.4832011
20
-0.1550223
40
1.3526448
50
180.7449369
51
181.1510016
0
ARC
8
DEFAULT_255_1_234
10
13.325474
20
0.0306042
40
1.1948131
50
173.7675579
51
180.231553
0
ARC
8
DEFAULT_255_1_234
10
12.8736887
20
0.0816666
40
0.7401564
50
164.3058563
51
173.9002247
0
ARC
8
DEFAULT_255_1_234
10
12.5824956
20
0.1655656
40
0.4371288
50
148.7922025
51
164.568378
0
ARC
8
DEFAULT_255_1_234
10
12.4873408
20
0.2186929
40
0.3282386
50
144.5883898
51
148.1176286
0
ARC
8
DEFAULT_255_1_234
10
12.4530306
20
0.2426315
40
0.2864044
50
101.6440918
51
144.514236
0
ARC
8
DEFAULT_255_1_234
10
12.4955373
20
0.0737069
40
0.4604934
50
89.5284041
51
102.5819763
0
ARC
8
DEFAULT_255_1_234
10
12.503446
20
0.0698018
40
0.464401
50
77.0437873
51
90.5081339
0
ARC
8
DEFAULT_255_1_234
10
12.5436462
20
0.2340615
40
0.2953195
50
48.2778575
51
77.4994676
0
ARC
8
DEFAULT_255_1_234
10
12.5509093
20
0.2469746
40
0.2808655
50
36.3142134
51
47.6305865
0
ARC
8
DEFAULT_255_1_234
10
12.46404
20
0.1884515
40
0.3855453
50
18.2931786
51
35.6769206
0
ARC
8
DEFAULT_255_1_234
10
12.2097159
20
0.1011593
40
0.654423
50
8.024666
51
18.5605216
0
ARC
8
DEFAULT_255_1_234
10
11.7934079
20
0.0396792
40
1.0752407
50
1.1274072
51
8.1718305
0
ARC
8
DEFAULT_255_1_234
10
11.469827
20
0.0269885
40
1.3990231
50
0.5424119
51
1.3863029
0
ARC
8
DEFAULT_255_1_234
10
11.6519648
20
0.0542342
40
1.0682415
50
359.8090433
51
4.9407866
0
ARC
8
DEFAULT_255_1_234
10
12.0729662
20
0.0918113
40
0.6455691
50
4.8362157
51
12.2904523
0
ARC
8
DEFAULT_255_1_234
10
12.3484776
20
0.1531965
40
0.3633074
50
12.0805627
51
23.8173984
0
ARC
8
DEFAULT_255_1_234
10
12.4658482
20
0.2028919
40
0.2358723
50
24.2871213
51
31.3935614
0
ARC
8
DEFAULT_255_1_234
10
12.5183179
20
0.2372233
40
0.1732111
50
30.7407893
51
82.4657128
0
ARC
8
DEFAULT_255_1_234
10
12.5003313
20
0.1488691
40
0.263235
50
81.1060089
51
90.2184952
0
ARC
8
DEFAULT_255_1_234
10
12.4967612
20
0.1746924
40
0.2374236
50
89.3806855
51
105.6762551
0
ARC
8
DEFAULT_255_1_234
10
12.4784243
20
0.2413567
40
0.1682847
50
105.7981136
51
149.7388061
0
ARC
8
DEFAULT_255_1_234
10
12.5848321
20
0.177395
40
0.2924306
50
149.4208916
51
163.6286378
0
ARC
8
DEFAULT_255_1_234
10
12.7939209
20
0.113625
40
0.5110213
50
163.3763315
51
172.1410975
0
ARC
8
DEFAULT_255_1_234
10
13.1239928
20
0.0663518
40
0.8444586
50
172.0259487
51
178.0703232
0
ARC
8
DEFAULT_255_1_234
10
13.4270018
20
0.0519906
40
1.1477868
50
177.8631668
51
179.5044149
0
ARC
8
DEFAULT_255_1_234
10
13.3197422
20
-0.1794611
40
1.0404907
50
179.7995573
51
185.2460446
0
ARC
8
DEFAULT_255_1_234
10
12.9154461
20
-0.2177487
40
0.6343885
50
185.1411642
51
193.0079639
0
ARC
8
DEFAULT_255_1_234
10
12.6510934
20
-0.2802359
40
0.3627568
50
192.7897626
51
205.2507664
0
ARC
8
DEFAULT_255_1_234
10
12.5464481
20
-0.3269585
40
0.2481908
50
205.8005384
51
211.2537509
0
ARC
8
DEFAULT_255_1_234
10
12.4940921
20
-0.362042
40
0.1852521
50
210.3789793
51
238.4008143
0
ARC
8
DEFAULT_255_1_234
10
12.4921443
20
-0.3573624
40
0.1882621
50
239.6520629
51
265.9793761
0
ARC
8
DEFAULT_255_1_234
10
12.5006643
20
-0.2901573
40
0.2559272
50
265.1315437
51
270.060332
0
ARC
8
DEFAULT_255_1_234
10
12.5035422
20
-0.3225466
40
0.2235528
50
269.3314664
51
287.2178029
0
ARC
8
DEFAULT_255_1_234
10
12.5173274
20
-0.3728721
40
0.1714108
50
287.7958004
51
329.080874
0
ARC
8
DEFAULT_255_1_234
10
12.4215731
20
-0.313107
40
0.2842745
50
328.6634704
51
343.3325132
0
ARC
8
DEFAULT_255_1_234
10
12.2042751
20
-0.2454137
40
0.5118644
50
343.0499468
51
351.9393422
0
ARC
8
DEFAULT_255_1_234
10
11.8576051
20
-0.1943051
40
0.8622784
50
351.8069023
51
357.7959224
0
ARC
8
DEFAULT_255_1_234
10
11.5340607
20
-0.1775279
40
1.1862365
50
357.5871873
51
359.2677531
0
LINE
8
DEFAULT_255_1_234
10
13.7924374
20
0.0402327
11
13.7924374
21
-0.1525291
0
LINE
8
DEFAULT_255_1_234
10
13.0543206
20
-0.1726084
11
13.0543206
21
0.0257755
0
LINE
8
DEFAULT_255_1_234
10
13.6438502
20
-0.1926877
11
13.6438502
21
0.0506739
0
LINE
8
DEFAULT_255_1_234
10
13.2029078
20
0.0619184
11
13.2029078
21
-0.1758211
0
ARC
8
DEFAULT_255_1_234
10
12.5677263
20
-0.1574195
40
1.2247208
50
353.8441951
51
0.2287902
0
ARC
8
DEFAULT_255_1_234
10
13.0316767
20
-0.2092194
40
0.7578929
50
344.4934747
51
353.9765454
0
ARC
8
DEFAULT_255_1_234
10
13.3309357
20
-0.2943019
40
0.4467846
50
329.2803592
51
344.7472793
0
ARC
8
DEFAULT_255_1_234
10
13.4302182
20
-0.3487982
40
0.3336173
50
324.9352394
51
328.6160465
0
ARC
8
DEFAULT_255_1_234
10
13.4679291
20
-0.3751573
40
0.2876076
50
280.580143
51
324.9173126
0
ARC
8
DEFAULT_255_1_234
10
13.4278083
20
-0.2080901
40
0.4592847
50
269.5977311
51
281.6734359
0
ARC
8
DEFAULT_255_1_234
10
13.4205989
20
-0.2200827
40
0.4472986
50
256.6228859
51
270.51044
0
ARC
8
DEFAULT_255_1_234
10
13.3803967
20
-0.3749123
40
0.2873874
50
215.8618325
51
257.2788573
0
ARC
8
DEFAULT_255_1_234
10
13.4824998
20
-0.3064023
40
0.4102928
50
197.9693508
51
215.2623606
0
ARC
8
DEFAULT_255_1_234
10
13.7310114
20
-0.2225291
40
0.6725652
50
187.8816417
51
198.2346507
0
ARC
8
DEFAULT_255_1_234
10
14.1268322
20
-0.1653921
40
1.0724845
50
180.8976217
51
188.0055519
0
ARC
8
DEFAULT_255_1_234
10
14.406851
20
-0.1550223
40
1.3526448
50
180.7449369
51
181.1510016
0
ARC
8
DEFAULT_255_1_234
10
14.2491239
20
0.0306042
40
1.1948131
50
173.7675579
51
180.231553
0
ARC
8
DEFAULT_255_1_234
10
13.7973386
20
0.0816666
40
0.7401564
50
164.3058563
51
173.9002247
0
ARC
8
DEFAULT_255_1_234
10
13.5061455
20
0.1655656
40
0.4371288
50
148.7922025
51
164.568378
0
ARC
8
DEFAULT_255_1_234
10
13.4109907
20
0.2186929
40
0.3282386
50
144.5883898
51
148.1176286
0
ARC
8
DEFAULT_255_1_234
10
13.3766805
20
0.2426315
40
0.2864044
50
101.6440918
51
144.514236
0
ARC
8
DEFAULT_255_1_234
10
13.4191872
20
0.0737069
40
0.4604934
50
89.5284041
51
102.5819763
0
ARC
8
DEFAULT_255_1_234
10
13.4270959
20
0.0698018
40
0.464401
50
77.0437873
51
90.5081339
0
ARC
8
DEFAULT_255_1_234
10
13.4672961
20
0.2340615
40
0.2953195
50
48.2778575
51
77.4994676
0
ARC
8
DEFAULT_255_1_234
10
13.4745592
20
0.2469746
40
0.2808655
50
36.3142134
51
47.6305865
0
ARC
8
DEFAULT_255_1_234
10
13.3876899
20
0.1884515
40
0.3855453
50
18.2931786
51
35.6769206
0
ARC
8
DEFAULT_255_1_234
10
13.1333658
20
0.1011593
40
0.654423
50
8.024666
51
18.5605216
0
ARC
8
DEFAULT_255_1_234
10
12.7170578
20
0.0396792
40
1.0752407
50
1.1274072
51
8.1718305
0
ARC
8
DEFAULT_255_1_234
10
12.3934769
20
0.0269885
40
1.3990231
50
0.5424119
51
1.3863029
0
ARC
8
DEFAULT_255_1_234
10
12.5756147
20
0.0542342
40
1.0682415
50
359.8090433
51
4.9407866
0
ARC
8
DEFAULT_255_1_234
10
12.9966161
20
0.0918113
40
0.6455691
50
4.8362157
51
12.2904523
0
ARC
8
DEFAULT_255_1_234
10
13.2721275
20
0.1531965
40
0.3633074
50
12.0805627
51
23.8173984
0
ARC
8
DEFAULT_255_1_234
10
13.3894981
20
0.2028919
40
0.2358723
50
24.2871213
51
31.3935614
0
ARC
8
DEFAULT_255_1_234
10
13.4419678
20
0.2372233
40
0.1732111
50
30.7407893
51
82.4657128
0
ARC
8
DEFAULT_255_1_234
10
13.4239812
20
0.1488691
40
0.263235
50
81.1060089
51
90.2184952
0
ARC
8
DEFAULT_255_1_234
10
13.4204111
20
0.1746924
40
0.2374236
50
89.3806855
51
105.6762551
0
ARC
8
DEFAULT_255_1_234
10
13.4020742
20
0.2413567
40
0.1682847
50
105.7981136
51
149.7388061
0
ARC
8
DEFAULT_255_1_234
10
13.508482
20
0.177395
40
0.2924306
50
149.4208916
51
163.6286378
0
ARC
8
DEFAULT_255_1_234
10
13.7175708
20
0.113625
40
0.5110213
50
163.3763315
51
172.1410975
0
ARC
8
DEFAULT_255_1_234
10
14.0476427
20
0.0663518
40
0.8444586
50
172.0259487
51
178.0703232
0
ARC
8
DEFAULT_255_1_234
10
14.3506517
20
0.0519906
40
1.1477868
50
177.8631668
51
179.5044149
0
ARC
8
DEFAULT_255_1_234
10
14.2433921
20
-0.1794611
40
1.0404907
50
179.7995573
51
185.2460446
0
ARC
8
DEFAULT_255_1_234
10
13.839096
20
-0.2177487
40
0.6343885
50
185.1411642
51
193.0079639
0
ARC
8
DEFAULT_255_1_234
10
13.5747433
20
-0.2802359
40
0.3627568
50
192.7897626
51
205.2507664
0
ARC
8
DEFAULT_255_1_234
10
13.470098
20
-0.3269585
40
0.2481908
50
205.8005384
51
211.2537509
0
ARC
8
DEFAULT_255_1_234
10
13.417742
20
-0.362042
40
0.1852521
50
210.3789793
51
238.4008143
0
ARC
8
DEFAULT_255_1_234
10
13.4157942
20
-0.3573624
40
0.1882621
50
239.6520629
51
265.9793761
0
ARC
8
DEFAULT_255_1_234
10
13.4243143
20
-0.2901573
40
0.2559272
50
265.1315437
51
270.060332
0
ARC
8
DEFAULT_255_1_234
10
13.4271921
20
-0.3225466
40
0.2235528
50
269.3314664
51
287.2178029
0
ARC
8
DEFAULT_255_1_234
10
13.4409773
20
-0.3728721
40
0.1714108
50
287.7958004
51
329.080874
0
ARC
8
DEFAULT_255_1_234
10
13.345223
20
-0.313107
40
0.2842745
50
328.6634704
51
343.3325132
0
ARC
8
DEFAULT_255_1_234
10
13.127925
20
-0.2454137
40
0.5118644
50
343.0499468
51
351.9393422
0
ARC
8
DEFAULT_255_1_234
10
12.781255
20
-0.1943051
40
0.8622784
50
351.8069023
51
357.7959224
0
ARC
8
DEFAULT_255_1_234
10
12.4577106
20
-0.1775279
40
1.1862365
50
357.5871873
51
359.2677531
0
LINE
8
DEFAULT_255_1_234
10
14.7490174
20
-0.5300208
11
14.7490174
21
-0.6513
0
LINE
8
DEFAULT_255_1_234
10
14.7490174
20
-0.6513
11
13.9827896
21
-0.6513
0
LINE
8
DEFAULT_255_1_234
10
13.9827896
20
-0.6513
11
13.9827896
21
-0.5444779
0
LINE
8
DEFAULT_255_1_234
10
13.9827896
20
-0.5444779
11
14.3875892
21
-0.0947005
0
LINE
8
DEFAULT_255_1_234
10
14.1088878
20
0.1735595
11
13.9603007
21
0.1735595
0
LINE
8
DEFAULT_255_1_234
10
14.4751351
20
-0.1902782
11
14.1618973
21
-0.5300208
0
LINE
8
DEFAULT_255_1_234
10
14.1618973
20
-0.5300208
11
14.7490174
21
-0.5300208
0
ARC
8
DEFAULT_255_1_234
10
13.0385725
20
1.0982527
40
1.8008286
50
318.5132453
51
320.7828378
0
ARC
8
DEFAULT_255_1_234
10
13.5672699
20
0.6679426
40
1.1191493
50
320.7372736
51
323.9737074
0
ARC
8
DEFAULT_255_1_234
10
13.9592556
20
0.3839361
40
0.6350923
50
323.8961724
51
328.6421089
0
ARC
8
DEFAULT_255_1_234
10
14.1639151
20
0.2577031
40
0.3946393
50
328.8299013
51
331.789948
0
ARC
8
DEFAULT_255_1_234
10
14.263633
20
0.2062509
40
0.2824501
50
331.4255242
51
352.9364833
0
ARC
8
DEFAULT_255_1_234
10
14.277283
20
0.2031976
40
0.2685315
50
353.2248685
51
0.0169286
0
ARC
8
DEFAULT_255_1_234
10
14.2982707
20
0.205495
40
0.2475536
50
359.4866256
51
15.9339782
0
ARC
8
DEFAULT_255_1_234
10
14.3489692
20
0.2191286
40
0.1950618
50
16.1714718
51
43.5284424
0
ARC
8
DEFAULT_255_1_234
10
14.3567001
20
0.2268573
40
0.184134
50
43.4415429
51
83.1661404
0
ARC
8
DEFAULT_255_1_234
10
14.3432919
20
0.1531771
40
0.258926
50
82.160215
51
90.1505798
0
ARC
8
DEFAULT_255_1_234
10
14.3401347
20
0.0994865
40
0.3126255
50
89.5460705
51
102.5418777
0
ARC
8
DEFAULT_255_1_234
10
14.3158433
20
0.2025665
40
0.2067346
50
102.1739365
51
129.2061916
0
ARC
8
DEFAULT_255_1_234
10
14.3079504
20
0.2150094
40
0.1921118
50
129.7279328
51
135.7542026
0
ARC
8
DEFAULT_255_1_234
10
14.3201032
20
0.2053045
40
0.2075944
50
136.175737
51
166.3674722
0
ARC
8
DEFAULT_255_1_234
10
14.4207951
20
0.1783182
40
0.3118201
50
165.9092917
51
178.8683903
0
ARC
8
DEFAULT_255_1_234
10
14.5072813
20
0.1736179
40
0.3983935
50
178.438168
51
180.0083905
0
ARC
8
DEFAULT_255_1_234
10
14.3671415
20
0.1775231
40
0.4068601
50
163.2878735
51
180.5581814
0
ARC
8
DEFAULT_255_1_234
10
14.2869676
20
0.199584
40
0.3237344
50
133.454115
51
162.9470031
0
ARC
8
DEFAULT_255_1_234
10
14.3048218
20
0.1806
40
0.349795
50
100.7869394
51
133.4384016
0
ARC
8
DEFAULT_255_1_234
10
14.3395989
20
0.0257319
40
0.5084616
50
89.6605301
51
101.3704185
0
ARC
8
DEFAULT_255_1_234
10
14.3462328
20
0.0318496
40
0.502348
50
78.2171172
51
90.4130393
0
ARC
8
DEFAULT_255_1_234
10
14.3817406
20
0.1942637
40
0.3361092
50
55.9268222
51
78.4888551
0
ARC
8
DEFAULT_255_1_234
10
14.4013846
20
0.2281324
40
0.2970617
50
47.9292255
51
55.4054003
0
ARC
8
DEFAULT_255_1_234
10
14.4115407
20
0.2384502
40
0.2825983
50
4.3347696
51
48.0560701
0
ARC
8
DEFAULT_255_1_234
10
14.3019801
20
0.2214601
40
0.393225
50
359.925209
51
5.5967654
0
ARC
8
DEFAULT_255_1_234
10
14.3448692
20
0.2270816
40
0.3503892
50
337.8914096
51
358.9967724
0
ARC
8
DEFAULT_255_1_234
10
14.0735104
20
0.3317706
40
0.6412172
50
326.9135351
51
338.3505194
0
ARC
8
DEFAULT_255_1_234
10
13.6749408
20
0.5872284
40
1.1146189
50
319.6472867
51
327.095818
0
ARC
8
DEFAULT_255_1_234
10
13.2916411
20
0.9034
40
1.6114559
50
317.2586784
51
319.9046139
0
LINE
8
DEFAULT_255_1_234
10
15.2309217
20
-0.0938974
11
15.2309217
21
-0.2151766
0
LINE
8
DEFAULT_255_1_234
10
15.2309217
20
-0.2151766
11
14.8389729
21
-0.2151766
0
LINE
8
DEFAULT_255_1_234
10
14.8389729
20
-0.2151766
11
14.8389729
21
-0.0938974
0
LINE
8
DEFAULT_255_1_234
10
14.8389729
20
-0.0938974
11
15.2309217
21
-0.0938974
0
LINE
8
DEFAULT_255_1_234
10
16.0935304
20
0.0402327
11
16.0935304
21
-0.1525291
0
LINE
8
DEFAULT_255_1_234
10
15.3554136
20
-0.1726084
11
15.3554136
21
0.0257755
0
LINE
8
DEFAULT_255_1_234
10
15.9449432
20
-0.1926877
11
15.9449432
21
0.0506739
0
LINE
8
DEFAULT_255_1_234
10
15.5040008
20
0.0619184
11
15.5040008
21
-0.1758211
0
ARC
8
DEFAULT_255_1_234
10
14.8688193
20
-0.1574195
40
1.2247208
50
353.8441951
51
0.2287902
0
ARC
8
DEFAULT_255_1_234
10
15.3327697
20
-0.2092194
40
0.7578929
50
344.4934747
51
353.9765454
0
ARC
8
DEFAULT_255_1_234
10
15.6320287
20
-0.2943019
40
0.4467846
50
329.2803592
51
344.7472793
0
ARC
8
DEFAULT_255_1_234
10
15.7313112
20
-0.3487982
40
0.3336173
50
324.9352394
51
328.6160465
0
ARC
8
DEFAULT_255_1_234
10
15.7690221
20
-0.3751573
40
0.2876076
50
280.580143
51
324.9173126
0
ARC
8
DEFAULT_255_1_234
10
15.7289013
20
-0.2080901
40
0.4592847
50
269.5977311
51
281.6734359
0
ARC
8
DEFAULT_255_1_234
10
15.7216919
20
-0.2200827
40
0.4472986
50
256.6228859
51
270.51044
0
ARC
8
DEFAULT_255_1_234
10
15.6814897
20
-0.3749123
40
0.2873874
50
215.8618325
51
257.2788573
0
ARC
8
DEFAULT_255_1_234
10
15.7835928
20
-0.3064023
40
0.4102928
50
197.9693508
51
215.2623606
0
ARC
8
DEFAULT_255_1_234
10
16.0321044
20
-0.2225291
40
0.6725652
50
187.8816417
51
198.2346507
0
ARC
8
DEFAULT_255_1_234
10
16.4279252
20
-0.1653921
40
1.0724845
50
180.8976217
51
188.0055519
0
ARC
8
DEFAULT_255_1_234
10
16.707944
20
-0.1550223
40
1.3526448
50
180.7449369
51
181.1510016
0
ARC
8
DEFAULT_255_1_234
10
16.5502169
20
0.0306042
40
1.1948131
50
173.7675579
51
180.231553
0
ARC
8
DEFAULT_255_1_234
10
16.0984316
20
0.0816666
40
0.7401564
50
164.3058563
51
173.9002247
0
ARC
8
DEFAULT_255_1_234
10
15.8072385
20
0.1655656
40
0.4371288
50
148.7922025
51
164.568378
0
ARC
8
DEFAULT_255_1_234
10
15.7120837
20
0.2186929
40
0.3282386
50
144.5883898
51
148.1176286
0
ARC
8
DEFAULT_255_1_234
10
15.6777735
20
0.2426315
40
0.2864044
50
101.6440918
51
144.514236
0
ARC
8
DEFAULT_255_1_234
10
15.7202802
20
0.0737069
40
0.4604934
50
89.5284041
51
102.5819763
0
ARC
8
DEFAULT_255_1_234
10
15.7281889
20
0.0698018
40
0.464401
50
77.0437873
51
90.5081339
0
ARC
8
DEFAULT_255_1_234
10
15.7683891
20
0.2340615
40
0.2953195
50
48.2778575
51
77.4994676
0
ARC
8
DEFAULT_255_1_234
10
15.7756523
20
0.2469746
40
0.2808655
50
36.3142134
51
47.6305865
0
ARC
8
DEFAULT_255_1_234
10
15.688783
20
0.1884515
40
0.3855453
50
18.2931786
51
35.6769206
0
ARC
8
DEFAULT_255_1_234
10
15.4344588
20
0.1011593
40
0.654423
50
8.024666
51
18.5605216
0
ARC
8
DEFAULT_255_1_234
10
15.0181508
20
0.0396792
40
1.0752407
50
1.1274072
51
8.1718305
0
ARC
8
DEFAULT_255_1_234
10
14.6945699
20
0.0269885
40
1.3990231
50
0.5424119
51
1.3863029
0
ARC
8
DEFAULT_255_1_234
10
14.8767077
20
0.0542342
40
1.0682415
50
359.8090433
51
4.9407866
0
ARC
8
DEFAULT_255_1_234
10
15.2977091
20
0.0918113
40
0.6455691
50
4.8362157
51
12.2904523
0
ARC
8
DEFAULT_255_1_234
10
15.5732206
20
0.1531965
40
0.3633074
50
12.0805627
51
23.8173984
0
ARC
8
DEFAULT_255_1_234
10
15.6905911
20
0.2028919
40
0.2358723
50
24.2871213
51
31.3935614
0
ARC
8
DEFAULT_255_1_234
10
15.7430608
20
0.2372233
40
0.1732111
50
30.7407893
51
82.4657128
0
ARC
8
DEFAULT_255_1_234
10
15.7250742
20
0.1488691
40
0.263235
50
81.1060089
51
90.2184952
0
ARC
8
DEFAULT_255_1_234
10
15.7215041
20
0.1746924
40
0.2374236
50
89.3806855
51
105.6762551
0
ARC
8
DEFAULT_255_1_234
10
15.7031672
20
0.2413567
40
0.1682847
50
105.7981136
51
149.7388061
0
ARC
8
DEFAULT_255_1_234
10
15.809575
20
0.177395
40
0.2924306
50
149.4208916
51
163.6286378
0
ARC
8
DEFAULT_255_1_234
10
16.0186638
20
0.113625
40
0.5110213
50
163.3763315
51
172.1410975
0
ARC
8
DEFAULT_255_1_234
10
16.3487357
20
0.0663518
40
0.8444586
50
172.0259487
51
178.0703232
0
ARC
8
DEFAULT_255_1_234
10
16.6517447
20
0.0519906
40
1.1477868
50
177.8631668
51
179.5044149
0
ARC
8
DEFAULT_255_1_234
10
16.5444851
20
-0.1794611
40
1.0404907
50
179.7995573
51
185.2460446
0
ARC
8
DEFAULT_255_1_234
10
16.1401891
20
-0.2177487
40
0.6343885
50
185.1411642
51
193.0079639
0
ARC
8
DEFAULT_255_1_234
10
15.8758363
20
-0.2802359
40
0.3627568
50
192.7897626
51
205.2507664
0
ARC
8
DEFAULT_255_1_234
10
15.771191
20
-0.3269585
40
0.2481908
50
205.8005384
51
211.2537509
0
ARC
8
DEFAULT_255_1_234
10
15.7188351
20
-0.362042
40
0.1852521
50
210.3789793
51
238.4008143
0
ARC
8
DEFAULT_255_1_234
10
15.7168872
20
-0.3573624
40
0.1882621
50
239.6520629
51
265.9793761
0
ARC
8
DEFAULT_255_1_234
10
15.7254073
20
-0.2901573
40
0.2559272
50
265.1315437
51
270.060332
0
ARC
8
DEFAULT_255_1_234
10
15.7282851
20
-0.3225466
40
0.2235528
50
269.3314664
51
287.2178029
0
ARC
8
DEFAULT_255_1_234
10
15.7420703
20
-0.3728721
40
0.1714108
50
287.7958004
51
329.080874
0
ARC
8
DEFAULT_255_1_234
10
15.646316
20
-0.313107
40
0.2842745
50
328.6634704
51
343.3325132
0
ARC
8
DEFAULT_255_1_234
10
15.429018
20
-0.2454137
40
0.5118644
50
343.0499468
51
351.9393422
0
ARC
8
DEFAULT_255_1_234
10
15.082348
20
-0.1943051
40
0.8622784
50
351.8069023
51
357.7959224
0
ARC
8
DEFAULT_255_1_234
10
14.7588036
20
-0.1775279
40
1.1862365
50
357.5871873
51
359.2677531
0
LINE
8
DEFAULT_255_1_234
10
17.1858468
20
-0.068999
11
17.1858468
21
-0.4978938
0
LINE
8
DEFAULT_255_1_234
10
16.2846857
20
-0.1228116
11
16.2846857
21
-0.0208085
0
LINE
8
DEFAULT_255_1_234
10
17.1858468
20
0.1751659
11
17.0316374
21
0.1751659
0
LINE
8
DEFAULT_255_1_234
10
16.4396983
20
-0.0167927
11
16.4396983
21
-0.1123704
0
LINE
8
DEFAULT_255_1_234
10
17.0324406
20
-0.4569319
11
17.0324406
21
-0.1942941
0
LINE
8
DEFAULT_255_1_234
10
17.0324406
20
-0.1942941
11
16.761771
21
-0.1942941
0
LINE
8
DEFAULT_255_1_234
10
16.761771
20
-0.1942941
11
16.761771
21
-0.068999
0
LINE
8
DEFAULT_255_1_234
10
16.761771
20
-0.068999
11
17.1858468
21
-0.068999
0
ARC
8
DEFAULT_255_1_234
10
16.9026974
20
-0.2985604
40
0.3462765
50
295.8437914
51
324.8549609
0
ARC
8
DEFAULT_255_1_234
10
16.8610941
20
-0.2232433
40
0.4322211
50
291.5695085
51
296.4549398
0
ARC
8
DEFAULT_255_1_234
10
16.8100193
20
-0.0867725
40
0.5779178
50
278.6622409
51
291.3045483
0
ARC
8
DEFAULT_255_1_234
10
16.7760684
20
0.1280408
40
0.7953952
50
270.020006
51
278.7494541
0
ARC
8
DEFAULT_255_1_234
10
16.7722608
20
0.2597036
40
0.927067
50
269.9969998
51
270.2524872
0
ARC
8
DEFAULT_255_1_234
10
16.7684321
20
-0.1486411
40
0.5187361
50
253.5786322
51
270.4175299
0
ARC
8
DEFAULT_255_1_234
10
16.7510977
20
-0.2157764
40
0.4494451
50
238.8203306
51
253.2788235
0
ARC
8
DEFAULT_255_1_234
10
16.749135
20
-0.2208769
40
0.4440665
50
206.7883783
51
238.6962764
0
ARC
8
DEFAULT_255_1_234
10
16.8265261
20
-0.1744595
40
0.5341121
50
206.1129412
51
207.4916643
0
ARC
8
DEFAULT_255_1_234
10
16.8862176
20
-0.1490512
40
0.5989041
50
188.6921119
51
205.7821245
0
ARC
8
DEFAULT_255_1_234
10
17.0718537
20
-0.117477
40
0.7871862
50
180.3882829
51
188.9219216
0
ARC
8
DEFAULT_255_1_234
10
17.1946352
20
-0.0151536
40
0.909967
50
170.2024264
51
180.3560651
0
ARC
8
DEFAULT_255_1_234
10
16.8782869
20
0.0414237
40
0.5886083
50
154.2857445
51
170.3893044
0
ARC
8
DEFAULT_255_1_234
10
16.7501073
20
0.100095
40
0.4476743
50
139.8401567
51
153.9332699
0
ARC
8
DEFAULT_255_1_234
10
16.7141808
20
0.1288577
40
0.4016697
50
98.4190291
51
139.6707122
0
ARC
8
DEFAULT_255_1_234
10
16.7521326
20
-0.0556672
40
0.5898566
50
89.7659205
51
99.4415478
0
ARC
8
DEFAULT_255_1_234
10
16.7586576
20
-0.0491156
40
0.5833147
50
78.0551672
51
90.4042112
0
ARC
8
DEFAULT_255_1_234
10
16.7991086
20
0.1327644
40
0.3970055
50
54.6380464
51
78.3339173
0
ARC
8
DEFAULT_255_1_234
10
16.8181141
20
0.1647795
40
0.3599102
50
50.031736
51
54.1558201
0
ARC
8
DEFAULT_255_1_234
10
16.8073929
20
0.1551766
40
0.3741624
50
18.1092409
51
49.7180913
0
ARC
8
DEFAULT_255_1_234
10
16.6617129
20
0.1018089
40
0.5292424
50
7.9672797
51
18.6984571
0
ARC
8
DEFAULT_255_1_234
10
16.6767607
20
0.1141504
40
0.3600838
50
9.7557294
51
27.3215714
0
ARC
8
DEFAULT_255_1_234
10
16.7895079
20
0.1704912
40
0.2340608
50
27.7361077
51
84.5257964
0
ARC
8
DEFAULT_255_1_234
10
16.7567466
20
0.006164
40
0.4011215
50
82.106034
51
90.2001166
0
ARC
8
DEFAULT_255_1_234
10
16.7517683
20
0.0569215
40
0.3503799
50
89.4150119
51
105.5823402
0
ARC
8
DEFAULT_255_1_234
10
16.7260681
20
0.1504867
40
0.2533503
50
105.6678618
51
144.2648758
0
ARC
8
DEFAULT_255_1_234
10
16.8153937
20
0.0869289
40
0.3629787
50
144.3561283
51
162.8564086
0
ARC
8
DEFAULT_255_1_234
10
17.0237846
20
0.0200017
40
0.5818441
50
162.6076014
51
173.6780284
0
ARC
8
DEFAULT_255_1_234
10
17.3298989
20
-0.017211
40
0.8902007
50
173.4670142
51
179.9730753
0
ARC
8
DEFAULT_255_1_234
10
17.139066
20
-0.116574
40
0.6993804
50
179.6556203
51
190.0080463
0
ARC
8
DEFAULT_255_1_234
10
16.9074489
20
-0.1590625
40
0.4639066
50
189.8116607
51
206.6796816
0
ARC
8
DEFAULT_255_1_234
10
16.8229642
20
-0.1984497
40
0.3707421
50
207.1031645
51
217.7074368
0
ARC
8
DEFAULT_255_1_234
10
16.759533
20
-0.2536441
40
0.2868417
50
216.7345547
51
265.6812148
0
ARC
8
DEFAULT_255_1_234
10
16.7726121
20
-0.1632145
40
0.3780509
50
264.7366618
51
270.0611241
0
ARC
8
DEFAULT_255_1_234
10
16.7749384
20
0.1208111
40
0.662079
50
269.8335834
51
276.0539546
0
ARC
8
DEFAULT_255_1_234
10
16.7956389
20
-0.069344
40
0.4708016
50
275.9894168
51
284.4615085
0
ARC
8
DEFAULT_255_1_234
10
16.8154396
20
-0.1526337
40
0.3852094
50
284.7034461
51
286.4953897
0
ARC
8
DEFAULT_255_1_234
10
16.8561409
20
-0.2837035
40
0.2479842
50
286.0770838
51
304.2625829
0
ARC
8
DEFAULT_255_1_234
10
16.8694823
20
-0.3055406
40
0.2224291
50
304.5891602
51
317.1073298
0
LINE
8
DEFAULT_255_1_234
10
18.2002553
20
-0.6513
11
18.0886142
21
-0.3460939
0
LINE
8
DEFAULT_255_1_234
10
18.0886142
20
-0.3460939
11
17.5986781
21
-0.3460939
0
LINE
8
DEFAULT_255_1_234
10
17.5986781
20
-0.3460939
11
17.4886433
21
-0.6513
0
LINE
8
DEFAULT_255_1_234
10
17.4886433
20
-0.6513
11
17.3296149
21
-0.6513
0
LINE
8
DEFAULT_255_1_234
10
17.3296149
20
-0.6513
11
17.7761795
21
0.5181211
0
LINE
8
DEFAULT_255_1_234
10
17.7761795
20
0.5181211
11
17.9111127
21
0.5181211
0
LINE
8
DEFAULT_255_1_234
10
17.9111127
20
0.5181211
11
18.3584806
21
-0.6513
0
LINE
8
DEFAULT_255_1_234
10
18.3584806
20
-0.6513
11
18.2002553
21
-0.6513
0
LINE
8
DEFAULT_255_1_234
10
17.8436461
20
0.3277689
11
17.6452622
21
-0.2191925
0
LINE
8
DEFAULT_255_1_234
10
17.6452622
20
-0.2191925
11
18.0428333
21
-0.2191925
0
LINE
8
DEFAULT_255_1_234
10
18.0428333
20
-0.2191925
11
17.8436461
21
0.3277689
0
LINE
8
DEFAULT_255_1_234
10
18.96568
20
0.5237433
11
18.96568
21
-0.6513
0
LINE
8
DEFAULT_255_1_234
10
18.96568
20
-0.6513
11
18.8162896
21
-0.6513
0
LINE
8
DEFAULT_255_1_234
10
18.8162896
20
-0.6513
11
18.8162896
21
0.3390133
0
LINE
8
DEFAULT_255_1_234
10
18.8162896
20
0.3390133
11
18.5167058
21
0.2289785
0
LINE
8
DEFAULT_255_1_234
10
18.5167058
20
0.2289785
11
18.5167058
21
0.3639117
0
LINE
8
DEFAULT_255_1_234
10
18.5167058
20
0.3639117
11
18.9423879
21
0.5237433
0
LINE
8
DEFAULT_255_1_234
10
18.9423879
20
0.5237433
11
18.96568
21
0.5237433
0
LINE
8
DEFAULT_255_1_234
10
20.1342979
20
0.0402327
11
20.1342979
21
-0.1525291
0
LINE
8
DEFAULT_255_1_234
10
19.3961812
20
-0.1726084
11
19.3961812
21
0.0257755
0
LINE
8
DEFAULT_255_1_234
10
19.9857107
20
-0.1926877
11
19.9857107
21
0.0506739
0
LINE
8
DEFAULT_255_1_234
10
19.5447683
20
0.0619184
11
19.5447683
21
-0.1758211
0
ARC
8
DEFAULT_255_1_234
10
18.9095869
20
-0.1574195
40
1.2247208
50
353.8441951
51
0.2287902
0
ARC
8
DEFAULT_255_1_234
10
19.3735372
20
-0.2092194
40
0.7578929
50
344.4934747
51
353.9765454
0
ARC
8
DEFAULT_255_1_234
10
19.6727962
20
-0.2943019
40
0.4467846
50
329.2803592
51
344.7472793
0
ARC
8
DEFAULT_255_1_234
10
19.7720787
20
-0.3487982
40
0.3336173
50
324.9352394
51
328.6160465
0
ARC
8
DEFAULT_255_1_234
10
19.8097896
20
-0.3751573
40
0.2876076
50
280.580143
51
324.9173126
0
ARC
8
DEFAULT_255_1_234
10
19.7696689
20
-0.2080901
40
0.4592847
50
269.5977311
51
281.6734359
0
ARC
8
DEFAULT_255_1_234
10
19.7624594
20
-0.2200827
40
0.4472986
50
256.6228859
51
270.51044
0
ARC
8
DEFAULT_255_1_234
10
19.7222572
20
-0.3749123
40
0.2873874
50
215.8618325
51
257.2788573
0
ARC
8
DEFAULT_255_1_234
10
19.8243604
20
-0.3064023
40
0.4102928
50
197.9693508
51
215.2623606
0
ARC
8
DEFAULT_255_1_234
10
20.0728719
20
-0.2225291
40
0.6725652
50
187.8816417
51
198.2346507
0
ARC
8
DEFAULT_255_1_234
10
20.4686928
20
-0.1653921
40
1.0724845
50
180.8976217
51
188.0055519
0
ARC
8
DEFAULT_255_1_234
10
20.7487116
20
-0.1550223
40
1.3526448
50
180.7449369
51
181.1510016
0
ARC
8
DEFAULT_255_1_234
10
20.5909845
20
0.0306042
40
1.1948131
50
173.7675579
51
180.231553
0
ARC
8
DEFAULT_255_1_234
10
20.1391991
20
0.0816666
40
0.7401564
50
164.3058563
51
173.9002247
0
ARC
8
DEFAULT_255_1_234
10
19.848006
20
0.1655656
40
0.4371288
50
148.7922025
51
164.568378
0
ARC
8
DEFAULT_255_1_234
10
19.7528512
20
0.2186929
40
0.3282386
50
144.5883898
51
148.1176286
0
ARC
8
DEFAULT_255_1_234
10
19.718541
20
0.2426315
40
0.2864044
50
101.6440918
51
144.514236
0
ARC
8
DEFAULT_255_1_234
10
19.7610477
20
0.0737069
40
0.4604934
50
89.5284041
51
102.5819763
0
ARC
8
DEFAULT_255_1_234
10
19.7689565
20
0.0698018
40
0.464401
50
77.0437873
51
90.5081339
0
ARC
8
DEFAULT_255_1_234
10
19.8091566
20
0.2340615
40
0.2953195
50
48.2778575
51
77.4994676
0
ARC
8
DEFAULT_255_1_234
10
19.8164198
20
0.2469746
40
0.2808655
50
36.3142134
51
47.6305865
0
ARC
8
DEFAULT_255_1_234
10
19.7295505
20
0.1884515
40
0.3855453
50
18.2931786
51
35.6769206
0
ARC
8
DEFAULT_255_1_234
10
19.4752264
20
0.1011593
40
0.654423
50
8.024666
51
18.5605216
0
ARC
8
DEFAULT_255_1_234
10
19.0589184
20
0.0396792
40
1.0752407
50
1.1274072
51
8.1718305
0
ARC
8
DEFAULT_255_1_234
10
18.7353374
20
0.0269885
40
1.3990231
50
0.5424119
51
1.3863029
0
ARC
8
DEFAULT_255_1_234
10
18.9174752
20
0.0542342
40
1.0682415
50
359.8090433
51
4.9407866
0
ARC
8
DEFAULT_255_1_234
10
19.3384766
20
0.0918113
40
0.6455691
50
4.8362157
51
12.2904523
0
ARC
8
DEFAULT_255_1_234
10
19.6139881
20
0.1531965
40
0.3633074
50
12.0805627
51
23.8173984
0
ARC
8
DEFAULT_255_1_234
10
19.7313586
20
0.2028919
40
0.2358723
50
24.2871213
51
31.3935614
0
ARC
8
DEFAULT_255_1_234
10
19.7838283
20
0.2372233
40
0.1732111
50
30.7407893
51
82.4657128
0
ARC
8
DEFAULT_255_1_234
10
19.7658418
20
0.1488691
40
0.263235
50
81.1060089
51
90.2184952
0
ARC
8
DEFAULT_255_1_234
10
19.7622717
20
0.1746924
40
0.2374236
50
89.3806855
51
105.6762551
0
ARC
8
DEFAULT_255_1_234
10
19.7439347
20
0.2413567
40
0.1682847
50
105.7981136
51
149.7388061
0
ARC
8
DEFAULT_255_1_234
10
19.8503426
20
0.177395
40
0.2924306
50
149.4208916
51
163.6286378
0
ARC
8
DEFAULT_255_1_234
10
20.0594314
20
0.113625
40
0.5110213
50
163.3763315
51
172.1410975
0
ARC
8
DEFAULT_255_1_234
10
20.3895033
20
0.0663518
40
0.8444586
50
172.0259487
51
178.0703232
0
ARC
8
DEFAULT_255_1_234
10
20.6925122
20
0.0519906
40
1.1477868
50
177.8631668
51
179.5044149
0
ARC
8
DEFAULT_255_1_234
10
20.5852526
20
-0.1794611
40
1.0404907
50
179.7995573
51
185.2460446
0
ARC
8
DEFAULT_255_1_234
10
20.1809566
20
-0.2177487
40
0.6343885
50
185.1411642
51
193.0079639
0
ARC
8
DEFAULT_255_1_234
10
19.9166038
20
-0.2802359
40
0.3627568
50
192.7897626
51
205.2507664
0
ARC
8
DEFAULT_255_1_234
10
19.8119585
20
-0.3269585
40
0.2481908
50
205.8005384
51
211.2537509
0
ARC
8
DEFAULT_255_1_234
10
19.7596026
20
-0.362042
40
0.1852521
50
210.3789793
51
238.4008143
0
ARC
8
DEFAULT_255_1_234
10
19.7576548
20
-0.3573624
40
0.1882621
50
239.6520629
51
265.9793761
0
ARC
8
DEFAULT_255_1_234
10
19.7661748
20
-0.2901573
40
0.2559272
50
265.1315437
51
270.060332
0
ARC
8
DEFAULT_255_1_234
10
19.7690527
20
-0.3225466
40
0.2235528
50
269.3314664
51
287.2178029
0
ARC
8
DEFAULT_255_1_234
10
19.7828379
20
-0.3728721
40
0.1714108
50
287.7958004
51
329.080874
0
ARC
8
DEFAULT_255_1_234
10
19.6870835
20
-0.313107
40
0.2842745
50
328.6634704
51
343.3325132
0
ARC
8
DEFAULT_255_1_234
10
19.4697855
20
-0.2454137
40
0.5118644
50
343.0499468
51
351.9393422
0
ARC
8
DEFAULT_255_1_234
10
19.1231155
20
-0.1943051
40
0.8622784
50
351.8069023
51
357.7959224
0
ARC
8
DEFAULT_255_1_234
10
18.7995711
20
-0.1775279
40
1.1862365
50
357.5871873
51
359.2677531
0
ARC
8
DEFAULT_255_2_778
10
7.7537338
20
139.6512992
40
3.0484709
50
251.6854144
51
258.6071955
0
ARC
8
DEFAULT_255_2_778
10
7.539521
20
138.5696738
40
1.9458471
50
258.4992492
51
268.3986479
0
ARC
8
DEFAULT_255_2_778
10
7.5172314
20
138.1394206
40
1.5151737
50
268.7865272
51
269.9950384
0
ARC
8
DEFAULT_255_2_778
10
7.5277432
20
137.6882355
40
1.0640417
50
269.426895
51
279.6711067
0
ARC
8
DEFAULT_255_2_778
10
7.6417753
20
137.0586746
40
0.4243233
50
278.7731084
51
300.3324923
0
ARC
8
DEFAULT_255_2_778
10
7.760746
20
136.8560552
40
0.1893587
50
300.2240287
51
1.9041213
0
ARC
8
DEFAULT_255_2_778
10
7.7452705
20
136.8652089
40
0.2047497
50
359.1991369
51
359.99965
0
ARC
8
DEFAULT_255_2_778
10
7.7523233
20
136.8660378
40
0.1976988
50
359.7594145
51
47.1793976
0
ARC
8
DEFAULT_255_2_778
10
7.6187277
20
136.717431
40
0.3975169
50
47.6144502
51
60.8366176
0
ARC
8
DEFAULT_255_2_778
10
7.0190958
20
135.7014865
40
1.5771337
50
59.799464
51
64.8885807
0
ARC
8
DEFAULT_255_2_778
10
6.0948833
20
133.7724682
40
3.7160912
50
64.6076081
51
66.8386974
0
ARC
8
DEFAULT_255_2_778
10
9.6419609
20
142.1355052
40
5.368109
50
244.3032309
51
247.1393781
0
ARC
8
DEFAULT_255_2_778
10
8.5507088
20
139.875518
40
2.8584574
50
240.2323579
51
244.3709759
0
ARC
8
DEFAULT_255_2_778
10
7.7800475
20
138.5386591
40
1.315392
50
233.2209971
51
240.4606284
0
ARC
8
DEFAULT_255_2_778
10
7.3561477
20
137.9675187
40
0.6041399
50
225.6990744
51
232.9899679
0
ARC
8
DEFAULT_255_2_778
10
7.3965073
20
137.9919214
40
0.6499005
50
178.2783416
51
224.6550883
0
ARC
8
DEFAULT_255_2_778
10
7.5059624
20
138.0252974
40
0.7591885
50
157.033673
51
181.0453383
0
ARC
8
DEFAULT_255_2_778
10
7.378439
20
138.0661396
40
0.6259551
50
124.9113017
51
155.9211516
0
ARC
8
DEFAULT_255_2_778
10
7.5960466
20
137.7575681
40
1.0035357
50
100.4079723
51
125.0168617
0
ARC
8
DEFAULT_255_2_778
10
7.6991199
20
137.2635046
40
1.5081396
50
89.6483922
51
100.8684975
0
ARC
8
DEFAULT_255_2_778
10
7.7083242
20
136.9112988
40
1.8603169
50
89.5079487
51
89.9984402
0
ARC
8
DEFAULT_255_2_778
10
7.7099573
20
136.8460694
40
1.9255311
50
83.9170631
51
89.5732113
0
ARC
8
DEFAULT_255_2_778
10
7.5071517
20
134.8384957
40
3.9433074
50
80.7325723
51
84.0779772
0
ARC
8
DEFAULT_255_2_778
10
7.0208457
20
131.815582
40
7.0050837
50
78.5086351
51
80.7886813
0
ARC
8
DEFAULT_255_2_778
10
7.6620177
20
136.4150544
40
1.9415426
50
67.135818
51
78.0934208
0
ARC
8
DEFAULT_255_2_778
10
7.7851814
20
136.9854809
40
1.3579807
50
78.2126325
51
89.7333975
0
ARC
8
DEFAULT_255_2_778
10
7.7793853
20
137.4006211
40
0.9429038
50
89.2638155
51
100.5666868
0
ARC
8
DEFAULT_255_2_778
10
7.6660949
20
137.9704419
40
0.362036
50
99.4784875
51
124.329414
0
ARC
8
DEFAULT_255_2_778
10
7.5705593
20
138.118551
40
0.1859067
50
125.7571195
51
182.2824883
0
ARC
8
DEFAULT_255_2_778
10
7.5493239
20
138.1118629
40
0.1645253
50
180.2492993
51
239.8144161
0
ARC
8
DEFAULT_255_2_778
10
7.932718
20
138.7119128
40
0.876484
50
237.8725734
51
242.8068846
0
ARC
8
DEFAULT_255_2_778
10
9.4175857
20
141.5284958
40
4.0604642
50
242.3328458
51
244.031083
0
ARC
8
DEFAULT_255_2_778
10
12.3804066
20
147.5769314
40
10.7955807
50
243.950624
51
244.8024316
0
ARC
8
DEFAULT_255_2_778
10
15.4009918
20
153.9609175
40
17.8580926
50
244.7535425
51
244.9563234
0
ARC
8
DEFAULT_255_2_778
10
5.8652927
20
133.4593264
40
4.7527588
50
62.2505456
51
65.4301556
0
ARC
8
DEFAULT_255_2_778
10
6.9275435
20
135.4674172
40
2.4810291
50
57.2951304
51
62.3684211
0
ARC
8
DEFAULT_255_2_778
10
7.6807233
20
136.6307235
40
1.0952081
50
48.7345704
51
57.5685367
0
ARC
8
DEFAULT_255_2_778
10
8.0117486
20
137.0182722
40
0.5856147
50
44.3236031
51
48.0704418
0
ARC
8
DEFAULT_255_2_778
10
7.9783002
20
136.9982468
40
0.6236013
50
1.3523843
51
43.4925744
0
ARC
8
DEFAULT_255_2_778
10
7.7103531
20
136.9653151
40
0.8926473
50
359.9763756
51
3.0599076
0
ARC
8
DEFAULT_255_2_778
10
7.8645343
20
136.9502407
40
0.7386124
50
333.0361889
51
1.1408766
0
ARC
8
DEFAULT_255_2_778
10
7.8947908
20
136.9571919
40
0.7150741
50
300.8430083
51
331.4403095
0
ARC
8
DEFAULT_255_2_778
10
7.694568
20
137.2707162
40
1.0869673
50
281.4258583
51
301.4316118
0
ARC
8
DEFAULT_255_2_778
10
7.5632666
20
137.8789414
40
1.7091691
50
270.2273513
51
281.7010805
0
ARC
8
DEFAULT_255_2_778
10
7.5453797
20
138.3556043
40
2.1859577
50
269.9983113
51
270.6466065
0
LINE
8
DEFAULT_255_2_778
10
7.5453153
20
136.1696465
11
7.5438002
21
136.169647
0
ARC
8
DEFAULT_255_2_778
10
7.5509161
20
139.3525969
40
3.1829579
50
256.2431122
51
269.871909
0
ARC
8
DEFAULT_255_2_778
10
21.7538511
20
139.5771629
40
2.9720345
50
251.5709223
51
258.7508181
0
ARC
8
DEFAULT_255_2_778
10
21.5538128
20
138.5539385
40
1.9294488
50
258.6495077
51
268.8281511
0
ARC
8
DEFAULT_255_2_778
10
21.5355488
20
138.1591193
40
1.5343723
50
269.2085037
51
269.9981866
0
ARC
8
DEFAULT_255_2_778
10
21.5473849
20
137.6907184
40
1.0660376
50
269.3612297
51
279.5899087
0
ARC
8
DEFAULT_255_2_778
10
21.6608439
20
137.0592324
40
0.424527
50
278.6895227
51
300.2363944
0
ARC
8
DEFAULT_255_2_778
10
21.7799083
20
136.8557793
40
0.188796
50
300.1108484
51
1.9024905
0
ARC
8
DEFAULT_255_2_778
10
21.7439577
20
136.8664221
40
0.2246851
50
358.8842611
51
0.0019649
0
ARC
8
DEFAULT_255_2_778
10
21.7769791
20
136.8703385
40
0.1917038
50
358.831716
51
47.0900458
0
ARC
8
DEFAULT_255_2_778
10
21.6364654
20
136.710984
40
0.4041259
50
47.8812665
51
61.174665
0
ARC
8
DEFAULT_255_2_778
10
21.0418848
20
135.6910117
40
1.5846568
50
60.1210877
51
65.1917015
0
ARC
8
DEFAULT_255_2_778
10
20.1415278
20
133.7854122
40
3.6922188
50
64.9168629
51
67.1565628
0
ARC
8
DEFAULT_255_2_778
10
23.6275467
20
142.0569888
40
5.2839333
50
244.2656926
51
247.1407051
0
ARC
8
DEFAULT_255_2_778
10
22.5594997
20
139.848765
40
2.8309849
50
240.1545061
51
244.3326325
0
ARC
8
DEFAULT_255_2_778
10
21.7856548
20
138.5127346
40
1.2870531
50
232.697515
51
240.4357497
0
ARC
8
DEFAULT_255_2_778
10
21.3705506
20
137.9617218
40
0.5972006
50
225.5850892
51
232.3393736
0
ARC
8
DEFAULT_255_2_778
10
21.4133941
20
137.9912933
40
0.6483829
50
178.7795739
51
224.7095916
0
ARC
8
DEFAULT_255_2_778
10
21.6669319
20
138.0153135
40
0.9018316
50
179.997867
51
180.6487041
0
ARC
8
DEFAULT_255_2_778
10
21.5167738
20
138.0291249
40
0.7517998
50
156.9195758
51
181.050088
0
ARC
8
DEFAULT_255_2_778
10
21.3928482
20
138.0685712
40
0.6224513
50
124.7111133
51
155.7879672
0
ARC
8
DEFAULT_255_2_778
10
21.6055459
20
137.7766942
40
0.9835402
50
101.7934503
51
125.2143527
0
ARC
8
DEFAULT_255_2_778
10
21.729848
20
137.2241326
40
1.5498677
50
89.5248728
51
102.1166783
0
ARC
8
DEFAULT_255_2_778
10
21.7283109
20
136.6705834
40
2.1034129
50
83.2889725
51
89.6080411
0
ARC
8
DEFAULT_255_2_778
10
21.529975
20
134.9027668
40
3.8823067
50
79.4764054
51
83.4308492
0
ARC
8
DEFAULT_255_2_778
10
21.2186357
20
133.1495673
40
5.6628977
50
78.2224868
51
79.6190915
0
ARC
8
DEFAULT_255_2_778
10
21.6838473
20
136.4270715
40
1.9311543
50
67.1323814
51
78.3148813
0
ARC
8
DEFAULT_255_2_778
10
21.801359
20
136.9785614
40
1.3672981
50
78.4565774
51
89.7552271
0
ARC
8
DEFAULT_255_2_778
10
21.7951366
20
137.409447
40
0.9364778
50
89.2619009
51
100.5950934
0
ARC
8
DEFAULT_255_2_778
10
21.6824182
20
137.9749169
40
0.3599879
50
99.5087086
51
124.406715
0
ARC
8
DEFAULT_255_2_778
10
21.5878565
20
138.121343
40
0.1858061
50
125.8630185
51
182.2986975
0
ARC
8
DEFAULT_255_2_778
10
21.5497296
20
138.1138047
40
0.1475296
50
179.9666559
51
180.100057
0
ARC
8
DEFAULT_255_2_778
10
21.566185
20
138.113793
40
0.163985
50
180.0859454
51
239.8819968
0
ARC
8
DEFAULT_255_2_778
10
21.9379018
20
138.7005619
40
0.8584853
50
238.072871
51
243.0442008
0
ARC
8
DEFAULT_255_2_778
10
23.4872034
20
141.6655845
40
4.2038426
50
242.5409111
51
244.1884903
0
ARC
8
DEFAULT_255_2_778
10
26.6463384
20
148.160196
40
11.4260319
50
244.1076525
51
244.9219574
0
ARC
8
DEFAULT_255_2_778
10
29.9038827
20
155.083855
40
19.0777309
50
244.8743531
51
245.066969
0
ARC
8
DEFAULT_255_2_778
10
19.8865272
20
133.4916274
40
4.7250654
50
62.0340028
51
65.293009
0
ARC
8
DEFAULT_255_2_778
10
20.9507744
20
135.4865758
40
2.464003
50
57.1127289
51
62.13736
0
ARC
8
DEFAULT_255_2_778
10
21.7037139
20
136.6402906
40
1.0863604
50
48.3695509
51
57.4197129
0
ARC
8
DEFAULT_255_2_778
10
22.0286268
20
137.0170419
40
0.5889589
50
44.472493
51
47.6467012
0
ARC
8
DEFAULT_255_2_778
10
21.9979457
20
136.9999032
40
0.6229283
50
1.2061613
51
43.6203607
0
ARC
8
DEFAULT_255_2_778
10
21.7312413
20
136.9674903
40
0.890659
50
359.9779196
51
2.9299178
0
ARC
8
DEFAULT_255_2_778
10
21.8802547
20
136.9523837
40
0.7417924
50
333.172934
51
1.140392
0
ARC
8
DEFAULT_255_2_778
10
21.9146167
20
136.9570736
40
0.7135172
50
300.9808035
51
331.5913995
0
ARC
8
DEFAULT_255_2_778
10
21.7182603
20
137.2669862
40
1.0803281
50
281.9040909
51
301.4483918
0
ARC
8
DEFAULT_255_2_778
10
21.5848425
20
137.8655518
40
1.6935565
50
270.5796874
51
282.1436175
0
ARC
8
DEFAULT_255_2_778
10
21.5636722
20
138.3604735
40
2.1887267
50
269.9959074
51
271.0027751
0
LINE
8
DEFAULT_255_2_778
10
21.5635158
20
136.1717468
11
21.5625002
21
136.171747
0
ARC
8
DEFAULT_255_2_778
10
21.5700221
20
139.3605174
40
3.1887792
50
256.2556596
51
269.8648469
0
LINE
8
DEFAULT_255_2_778
10
6.7958002
20
136.262547
11
6.7958002
21
136.757247
0
LINE
8
DEFAULT_255_2_778
10
8.4164002
20
138.680247
11
8.4164002
21
138.204047
0
LINE
8
DEFAULT_255_2_778
10
6.7940002
20
136.260947
11
6.7958002
21
136.262547
0
LINE
8
DEFAULT_255_2_778
10
8.9866002
20
138.729747
11
9.6629002
21
138.729747
0
LINE
8
DEFAULT_255_2_778
10
9.6629002
20
138.729747
11
9.6629002
21
136.222347
0
LINE
8
DEFAULT_255_2_778
10
9.6629002
20
136.222347
11
8.9866002
21
136.222347
0
LINE
8
DEFAULT_255_2_778
10
8.9866002
20
136.222347
11
8.9866002
21
138.729747
0
LINE
8
DEFAULT_255_2_778
10
10.2809002
20
136.222347
11
10.2809002
21
138.729747
0
LINE
8
DEFAULT_255_2_778
10
10.2809002
20
138.729747
11
12.0132002
21
138.729747
0
LINE
8
DEFAULT_255_2_778
10
12.0132002
20
138.729747
11
12.0132002
21
138.276047
0
LINE
8
DEFAULT_255_2_778
10
12.0132002
20
138.276047
11
10.9321002
21
138.276047
0
LINE
8
DEFAULT_255_2_778
10
10.9321002
20
138.276047
11
10.9321002
21
137.709747
0
LINE
8
DEFAULT_255_2_778
10
10.9321002
20
137.709747
11
11.8735002
21
137.709747
0
LINE
8
DEFAULT_255_2_778
10
11.8735002
20
137.709747
11
11.8735002
21
137.296247
0
LINE
8
DEFAULT_255_2_778
10
11.8735002
20
137.296247
11
10.9321002
21
137.296247
0
LINE
8
DEFAULT_255_2_778
10
10.9321002
20
137.296247
11
10.9321002
21
136.700947
0
LINE
8
DEFAULT_255_2_778
10
10.9321002
20
136.700947
11
12.0412002
21
136.700947
0
LINE
8
DEFAULT_255_2_778
10
12.0412002
20
136.700947
11
12.0412002
21
136.220747
0
LINE
8
DEFAULT_255_2_778
10
12.0412002
20
136.220747
11
10.2809002
21
136.222347
0
LINE
8
DEFAULT_255_2_778
10
12.4817002
20
136.222347
11
12.4817002
21
138.729747
0
LINE
8
DEFAULT_255_2_778
10
12.4817002
20
138.729747
11
13.3575002
21
138.729747
0
LINE
8
DEFAULT_255_2_778
10
13.3575002
20
138.729747
11
13.9671002
21
137.127447
0
LINE
8
DEFAULT_255_2_778
10
13.9671002
20
137.127447
11
14.5897002
21
138.729747
0
LINE
8
DEFAULT_255_2_778
10
14.5897002
20
138.729747
11
15.4215002
21
138.729747
0
LINE
8
DEFAULT_255_2_778
10
15.4215002
20
138.729747
11
15.4215002
21
136.222347
0
LINE
8
DEFAULT_255_2_778
10
15.4215002
20
136.222347
11
14.7812002
21
136.222347
0
LINE
8
DEFAULT_255_2_778
10
14.7812002
20
136.222347
11
14.7812002
21
137.998147
0
LINE
8
DEFAULT_255_2_778
10
14.7812002
20
137.998147
11
14.0724002
21
136.197947
0
LINE
8
DEFAULT_255_2_778
10
14.0724002
20
136.197947
11
13.6515002
21
136.197947
0
LINE
8
DEFAULT_255_2_778
10
13.6515002
20
136.197947
11
12.9559002
21
137.998147
0
LINE
8
DEFAULT_255_2_778
10
12.9559002
20
137.998147
11
12.9559002
21
136.222047
0
LINE
8
DEFAULT_255_2_778
10
12.9559002
20
136.222047
11
12.4817002
21
136.222347
0
LINE
8
DEFAULT_255_2_778
10
16.0409002
20
136.222347
11
16.0409002
21
138.729747
0
LINE
8
DEFAULT_255_2_778
10
16.0409002
20
138.729747
11
17.7731002
21
138.729747
0
LINE
8
DEFAULT_255_2_778
10
17.7731002
20
138.729747
11
17.7731002
21
138.276047
0
LINE
8
DEFAULT_255_2_778
10
17.7731002
20
138.276047
11
16.6921002
21
138.276047
0
LINE
8
DEFAULT_255_2_778
10
16.6921002
20
138.276047
11
16.6921002
21
137.709747
0
LINE
8
DEFAULT_255_2_778
10
16.6921002
20
137.709747
11
17.6334002
21
137.709747
0
LINE
8
DEFAULT_255_2_778
10
17.6334002
20
137.709747
11
17.6334002
21
137.296247
0
LINE
8
DEFAULT_255_2_778
10
17.6334002
20
137.296247
11
16.6921002
21
137.296247
0
LINE
8
DEFAULT_255_2_778
10
16.6921002
20
137.296247
11
16.6921002
21
136.700947
0
LINE
8
DEFAULT_255_2_778
10
16.6921002
20
136.700947
11
17.8030002
21
136.700947
0
LINE
8
DEFAULT_255_2_778
10
17.8030002
20
136.700947
11
17.8030002
21
136.220747
0
LINE
8
DEFAULT_255_2_778
10
17.8030002
20
136.220747
11
16.0409002
21
136.222347
0
LINE
8
DEFAULT_255_2_778
10
18.2454002
20
136.222347
11
18.2454002
21
138.729747
0
LINE
8
DEFAULT_255_2_778
10
18.2454002
20
138.729747
11
19.0283002
21
138.729747
0
LINE
8
DEFAULT_255_2_778
10
19.0283002
20
138.729747
11
19.8586002
21
137.050947
0
LINE
8
DEFAULT_255_2_778
10
19.8586002
20
137.050947
11
19.8586002
21
138.729747
0
LINE
8
DEFAULT_255_2_778
10
19.8586002
20
138.729747
11
20.3343002
21
138.729747
0
LINE
8
DEFAULT_255_2_778
10
20.3343002
20
138.729747
11
20.3343002
21
136.222347
0
LINE
8
DEFAULT_255_2_778
10
20.3343002
20
136.222347
11
19.5739002
21
136.222347
0
LINE
8
DEFAULT_255_2_778
10
19.5739002
20
136.222347
11
18.7214002
21
137.923547
0
LINE
8
DEFAULT_255_2_778
10
18.7214002
20
137.923547
11
18.7214002
21
136.222347
0
LINE
8
DEFAULT_255_2_778
10
18.7214002
20
136.222347
11
18.2454002
21
136.222347
0
LINE
8
DEFAULT_255_2_778
10
20.8143002
20
136.262747
11
20.8143002
21
136.757547
0
LINE
8
DEFAULT_255_2_778
10
22.3745002
20
138.693247
11
22.4343002
21
138.682647
0
LINE
8
DEFAULT_255_2_778
10
22.4343002
20
138.682647
11
22.4343002
21
138.206447
0
LINE
8
DEFAULT_255_2_778
10
20.8124002
20
136.263047
11
20.8143002
21
136.262747
0
LINE
8
DEFAULT_255_1_234
10
9.1330023
20
134.4559849
11
8.9779897
21
134.4559849
0
LINE
8
DEFAULT_255_1_234
10
8.2856539
20
133.9636394
11
8.4406665
21
133.9636394
0
ARC
8
DEFAULT_255_1_234
10
9.043871
20
135.3506768
40
1.252368
50
248.9199003
51
254.1439814
0
ARC
8
DEFAULT_255_1_234
10
8.8758205
20
134.9180234
40
0.788226
50
241.633709
51
249.0064503
0
ARC
8
DEFAULT_255_1_234
10
8.72296
20
134.6379317
40
0.4691427
50
230.498225
51
241.8087113
0
ARC
8
DEFAULT_255_1_234
10
8.6445174
20
134.5379906
40
0.3421437
50
227.4064532
51
229.9881192
0
ARC
8
DEFAULT_255_1_234
10
8.5957694
20
134.4904088
40
0.2741476
50
200.6781896
51
228.1763934
0
ARC
8
DEFAULT_255_1_234
10
8.6030005
20
134.4889077
40
0.2804109
50
179.5061581
51
199.8694617
0
ARC
8
DEFAULT_255_1_234
10
8.6020757
20
134.496321
40
0.2795204
50
132.4834203
51
181.0242172
0
ARC
8
DEFAULT_255_1_234
10
8.6616339
20
134.4400704
40
0.3612768
50
129.2532479
51
133.4242687
0
ARC
8
DEFAULT_255_1_234
10
8.6762789
20
134.4180965
40
0.3875675
50
101.98776
51
128.8742646
0
ARC
8
DEFAULT_255_1_234
10
8.7161399
20
134.2459741
40
0.5642249
50
89.5906553
51
102.3169264
0
ARC
8
DEFAULT_255_1_234
10
8.7231891
20
134.2778148
40
0.5323783
50
77.2360837
51
90.3248275
0
ARC
8
DEFAULT_255_1_234
10
8.7438971
20
134.37454
40
0.4334697
50
63.837784
51
77.0809408
0
ARC
8
DEFAULT_255_1_234
10
8.7716732
20
134.4262911
40
0.3747796
50
45.9864267
51
64.1607727
0
ARC
8
DEFAULT_255_1_234
10
8.7977614
20
134.4560866
40
0.3352302
50
32.2747395
51
45.6547121
0
ARC
8
DEFAULT_255_1_234
10
8.8044054
20
134.457988
40
0.328603
50
359.6507365
51
32.6130309
0
ARC
8
DEFAULT_255_1_234
10
8.710115
20
134.458466
40
0.2678863
50
359.469343
51
14.9832209
0
ARC
8
DEFAULT_255_1_234
10
8.7806212
20
134.4773539
40
0.1948938
50
14.9781179
51
48.2004265
0
ARC
8
DEFAULT_255_1_234
10
8.7641856
20
134.4566983
40
0.2212521
50
48.5927837
51
74.1241538
0
ARC
8
DEFAULT_255_1_234
10
8.7308346
20
134.3466248
40
0.3362561
50
73.7888341
51
86.6652678
0
ARC
8
DEFAULT_255_1_234
10
8.7205911
20
134.2258881
40
0.4573953
50
86.2640471
51
90.0526343
0
ARC
8
DEFAULT_255_1_234
10
8.7177624
20
134.2654192
40
0.4178709
50
89.6697524
51
99.2309573
0
ARC
8
DEFAULT_255_1_234
10
8.6935075
20
134.4098964
40
0.2713749
50
99.069534
51
113.7658566
0
ARC
8
DEFAULT_255_1_234
10
8.6661266
20
134.4744677
40
0.2012469
50
114.0401004
51
127.9850673
0
ARC
8
DEFAULT_255_1_234
10
8.642083
20
134.504073
40
0.1631167
50
127.7287463
51
176.7105154
0
ARC
8
DEFAULT_255_1_234
10
8.7099547
20
134.4939693
40
0.2315392
50
175.1779447
51
180.0581938
0
ARC
8
DEFAULT_255_1_234
10
8.6256394
20
134.4927428
40
0.1472271
50
179.6142195
51
228.1246017
0
ARC
8
DEFAULT_255_1_234
10
8.6698063
20
134.5336308
40
0.2072299
50
226.5779593
51
230.8800004
0
ARC
8
DEFAULT_255_1_234
10
8.7169141
20
134.5961636
40
0.2854818
50
231.4635071
51
241.9260842
0
ARC
8
DEFAULT_255_1_234
10
8.8366319
20
134.81648
40
0.53622
50
241.7178533
51
248.3259551
0
ARC
8
DEFAULT_255_1_234
10
8.9751691
20
135.1597064
40
0.9063478
50
248.2007737
51
252.4528373
0
ARC
8
DEFAULT_255_1_234
10
9.0955416
20
135.5318441
40
1.2974635
50
252.3391078
51
254.3469452
0
ARC
8
DEFAULT_255_1_234
10
8.3413119
20
132.8341148
40
1.5037162
50
71.0197183
51
74.4087047
0
ARC
8
DEFAULT_255_1_234
10
8.5107804
20
133.3233111
40
0.9859993
50
66.1847285
51
71.086374
0
ARC
8
DEFAULT_255_1_234
10
8.6664116
20
133.67372
40
0.6025855
50
59.3536294
51
66.2691831
0
ARC
8
DEFAULT_255_1_234
10
8.7552769
20
133.8240609
40
0.4279449
50
49.1020879
51
59.3293958
0
ARC
8
DEFAULT_255_1_234
10
8.8371509
20
133.9173834
40
0.3038015
50
32.7919921
51
49.2505539
0
ARC
8
DEFAULT_255_1_234
10
8.8692599
20
133.9402191
40
0.264448
50
31.1181161
51
32.4005348
0
ARC
8
DEFAULT_255_1_234
10
8.8604136
20
133.9366779
40
0.2738556
50
8.1116974
51
30.7958831
0
ARC
8
DEFAULT_255_1_234
10
8.7793804
20
133.9228753
40
0.3560327
50
359.8389159
51
8.4706516
0
ARC
8
DEFAULT_255_1_234
10
8.8419596
20
133.9180137
40
0.2934776
50
337.4731098
51
0.7537279
0
ARC
8
DEFAULT_255_1_234
10
8.8598291
20
133.9160387
40
0.2762607
50
307.5917067
51
336.4315538
0
ARC
8
DEFAULT_255_1_234
10
8.8138119
20
133.9673102
40
0.3449979
50
307.6551545
51
308.4529766
0
ARC
8
DEFAULT_255_1_234
10
8.7907838
20
134.002825
40
0.3871988
50
284.3734338
51
307.1424381
0
ARC
8
DEFAULT_255_1_234
10
8.7412668
20
134.1849932
40
0.5759636
50
272.4382747
51
284.646547
0
ARC
8
DEFAULT_255_1_234
10
8.7285876
20
134.3649893
40
0.7563528
50
269.9708387
51
272.8178037
0
ARC
8
DEFAULT_255_1_234
10
8.7242916
20
134.1611716
40
0.5525489
50
248.2707594
51
270.4055579
0
ARC
8
DEFAULT_255_1_234
10
8.7188657
20
134.1421192
40
0.5328452
50
246.1383403
51
248.0542782
0
ARC
8
DEFAULT_255_1_234
10
8.6770036
20
134.0541843
40
0.4355005
50
233.1670131
51
246.4950969
0
ARC
8
DEFAULT_255_1_234
10
8.6215941
20
133.9793812
40
0.3424126
50
215.3403242
51
233.0843104
0
ARC
8
DEFAULT_255_1_234
10
8.5943372
20
133.9595549
40
0.3087104
50
179.2419209
51
215.2648451
0
ARC
8
DEFAULT_255_1_234
10
8.6710966
20
133.9609666
40
0.2304457
50
179.335461
51
199.1045811
0
ARC
8
DEFAULT_255_1_234
10
8.6378643
20
133.9522766
40
0.1962176
50
199.8828939
51
232.7063202
0
ARC
8
DEFAULT_255_1_234
10
8.6850911
20
134.0116788
40
0.2720938
50
232.3738199
51
255.5136649
0
ARC
8
DEFAULT_255_1_234
10
8.7191778
20
134.1360835
40
0.4010747
50
255.2446292
51
267.5320849
0
ARC
8
DEFAULT_255_1_234
10
8.7279401
20
134.2593702
40
0.5246356
50
267.1557994
51
270.0286766
0
ARC
8
DEFAULT_255_1_234
10
8.7307173
20
134.214995
40
0.4802668
50
269.7000017
51
278.1660162
0
ARC
8
DEFAULT_255_1_234
10
8.7563178
20
134.0419515
40
0.3053425
50
278.0231263
51
290.625471
0
ARC
8
DEFAULT_255_1_234
10
8.7910865
20
133.9492025
40
0.206291
50
290.6619762
51
307.0370976
0
ARC
8
DEFAULT_255_1_234
10
8.8211254
20
133.9123504
40
0.1587906
50
306.3943566
51
355.3030547
0
ARC
8
DEFAULT_255_1_234
10
8.7699186
20
133.9200113
40
0.2104809
50
354.3660432
51
0.0698737
0
ARC
8
DEFAULT_255_1_234
10
8.7841531
20
133.9222617
40
0.1962563
50
359.417946
51
16.1971788
0
ARC
8
DEFAULT_255_1_234
10
8.8296841
20
133.9347418
40
0.149053
50
16.4723299
51
52.6262157
0
ARC
8
DEFAULT_255_1_234
10
8.7475895
20
133.8263433
40
0.2850296
50
52.7386432
51
62.4979148
0
ARC
8
DEFAULT_255_1_234
10
8.6090972
20
133.5657283
40
0.5801521
50
62.2515216
51
68.1220564
0
ARC
8
DEFAULT_255_1_234
10
8.4370883
20
133.1429872
40
1.0365451
50
68.0062803
51
71.8053402
0
ARC
8
DEFAULT_255_1_234
10
8.2575255
20
132.6044758
40
1.6042013
50
71.7183119
51
73.9258742
0
LINE
8
DEFAULT_255_1_234
10
9.4984464
20
134.7941211
11
9.4984464
21
133.6247
0
LINE
8
DEFAULT_255_1_234
10
9.4984464
20
133.6247
11
9.344237
21
133.6247
0
LINE
8
DEFAULT_255_1_234
10
9.344237
20
133.6247
11
9.344237
21
134.7941211
0
LINE
8
DEFAULT_255_1_234
10
9.344237
20
134.7941211
11
9.4984464
21
134.7941211
0
LINE
8
DEFAULT_255_1_234
10
9.7803604
20
134.7941211
11
9.9795475
21
134.7941211
0
LINE
8
DEFAULT_255_1_234
10
9.9795475
20
134.7941211
11
10.3618583
21
133.8399506
0
LINE
8
DEFAULT_255_1_234
10
10.3618583
20
133.8399506
11
10.744169
21
134.7941211
0
LINE
8
DEFAULT_255_1_234
10
10.744169
20
134.7941211
11
10.9441593
21
134.7941211
0
LINE
8
DEFAULT_255_1_234
10
10.9441593
20
134.7941211
11
10.9441593
21
133.6247
0
LINE
8
DEFAULT_255_1_234
10
10.9441593
20
133.6247
11
10.7899499
21
133.6247
0
LINE
8
DEFAULT_255_1_234
10
10.7899499
20
133.6247
11
10.7899499
21
134.0800996
0
LINE
8
DEFAULT_255_1_234
10
10.7899499
20
134.0800996
11
10.804407
21
134.5716419
0
LINE
8
DEFAULT_255_1_234
10
10.804407
20
134.5716419
11
10.4204899
21
133.6247
0
LINE
8
DEFAULT_255_1_234
10
10.4204899
20
133.6247
11
10.3024234
21
133.6247
0
LINE
8
DEFAULT_255_1_234
10
10.3024234
20
133.6247
11
9.9193095
21
134.5692324
0
LINE
8
DEFAULT_255_1_234
10
9.9193095
20
134.5692324
11
9.9345698
21
134.0800996
0
LINE
8
DEFAULT_255_1_234
10
9.9345698
20
134.0800996
11
9.9345698
21
133.6247
0
LINE
8
DEFAULT_255_1_234
10
9.9345698
20
133.6247
11
9.7803604
21
133.6247
0
LINE
8
DEFAULT_255_1_234
10
9.7803604
20
133.6247
11
9.7803604
21
134.7941211
0
LINE
8
DEFAULT_255_1_234
10
11.9882853
20
133.6247
11
11.8766441
21
133.9299061
0
LINE
8
DEFAULT_255_1_234
10
11.8766441
20
133.9299061
11
11.3867081
21
133.9299061
0
LINE
8
DEFAULT_255_1_234
10
11.3867081
20
133.9299061
11
11.2766732
21
133.6247
0
LINE
8
DEFAULT_255_1_234
10
11.2766732
20
133.6247
11
11.1176448
21
133.6247
0
LINE
8
DEFAULT_255_1_234
10
11.1176448
20
133.6247
11
11.5642095
21
134.7941211
0
LINE
8
DEFAULT_255_1_234
10
11.5642095
20
134.7941211
11
11.6991427
21
134.7941211
0
LINE
8
DEFAULT_255_1_234
10
11.6991427
20
134.7941211
11
12.1465105
21
133.6247
0
LINE
8
DEFAULT_255_1_234
10
12.1465105
20
133.6247
11
11.9882853
21
133.6247
0
LINE
8
DEFAULT_255_1_234
10
11.6316761
20
134.6037689
11
11.4332921
21
134.0568075
0
LINE
8
DEFAULT_255_1_234
10
11.4332921
20
134.0568075
11
11.8308632
21
134.0568075
0
LINE
8
DEFAULT_255_1_234
10
11.8308632
20
134.0568075
11
11.6316761
21
134.6037689
0
LINE
8
DEFAULT_255_1_234
10
13.008316
20
134.7941211
11
13.008316
21
134.6672196
0
LINE
8
DEFAULT_255_1_234
10
13.008316
20
134.6672196
11
12.6324307
21
134.6672196
0
LINE
8
DEFAULT_255_1_234
10
12.6324307
20
134.6672196
11
12.6324307
21
133.6247
0
LINE
8
DEFAULT_255_1_234
10
12.6324307
20
133.6247
11
12.4790245
21
133.6247
0
LINE
8
DEFAULT_255_1_234
10
12.4790245
20
133.6247
11
12.4790245
21
134.6672196
0
LINE
8
DEFAULT_255_1_234
10
12.4790245
20
134.6672196
11
12.1039423
21
134.6672196
0
LINE
8
DEFAULT_255_1_234
10
12.1039423
20
134.6672196
11
12.1039423
21
134.7941211
0
LINE
8
DEFAULT_255_1_234
10
12.1039423
20
134.7941211
11
13.008316
21
134.7941211
0
LINE
8
DEFAULT_255_1_234
10
13.3472554
20
134.7941211
11
13.3472554
21
133.6247
0
LINE
8
DEFAULT_255_1_234
10
13.3472554
20
133.6247
11
13.193046
21
133.6247
0
LINE
8
DEFAULT_255_1_234
10
13.193046
20
133.6247
11
13.193046
21
134.7941211
0
LINE
8
DEFAULT_255_1_234
10
13.193046
20
134.7941211
11
13.3472554
21
134.7941211
0
LINE
8
DEFAULT_255_1_234
10
14.334356
20
133.9957663
11
14.4893686
21
133.9957663
0
LINE
8
DEFAULT_255_1_234
10
13.5890107
20
134.1547947
11
13.5890107
21
134.2672391
0
LINE
8
DEFAULT_255_1_234
10
14.4893686
20
134.4182357
11
14.334356
21
134.4182357
0
LINE
8
DEFAULT_255_1_234
10
13.7440232
20
134.2632232
11
13.7440232
21
134.1499757
0
ARC
8
DEFAULT_255_1_234
10
13.9413072
20
134.0554846
40
0.5513052
50
340.1774281
51
353.7814284
0
ARC
8
DEFAULT_255_1_234
10
14.0984425
20
133.9969582
40
0.3836379
50
311.4558989
51
340.4421614
0
ARC
8
DEFAULT_255_1_234
10
14.0951093
20
134.0080528
40
0.3941894
50
282.4333181
51
310.7513653
0
ARC
8
DEFAULT_255_1_234
10
14.0511832
20
134.1895679
40
0.5809175
50
269.9358511
51
282.809604
0
ARC
8
DEFAULT_255_1_234
10
14.0459899
20
134.3353212
40
0.7266847
50
270.0021091
51
270.3581957
0
ARC
8
DEFAULT_255_1_234
10
14.0407315
20
134.0752585
40
0.4666519
50
250.7884749
51
270.6489167
0
ARC
8
DEFAULT_255_1_234
10
14.023915
20
134.0115319
40
0.4009729
50
219.3627325
51
250.0611886
0
ARC
8
DEFAULT_255_1_234
10
14.1068361
20
134.0820042
40
0.5097822
50
193.5479632
51
219.5756669
0
ARC
8
DEFAULT_255_1_234
10
14.3439982
20
134.1435919
40
0.7547848
50
181.1218675
51
193.87563
0
ARC
8
DEFAULT_255_1_234
10
14.5510163
20
134.154658
40
0.9620055
50
179.9918545
51
181.5394234
0
ARC
8
DEFAULT_255_1_234
10
14.3659265
20
134.2709788
40
0.7769248
50
169.5837241
51
180.2757934
0
ARC
8
DEFAULT_255_1_234
10
14.1822203
20
134.3049229
40
0.590109
50
155.0365899
51
169.6003176
0
ARC
8
DEFAULT_255_1_234
10
14.0686667
20
134.3596677
40
0.4640625
50
136.783148
51
155.2472683
0
ARC
8
DEFAULT_255_1_234
10
14.0297144
20
134.3927562
40
0.4130255
50
121.7633186
51
136.428115
0
ARC
8
DEFAULT_255_1_234
10
14.0432106
20
134.3678227
40
0.4413323
50
95.6459699
51
121.5490577
0
ARC
8
DEFAULT_255_1_234
10
14.0589388
20
134.2569949
40
0.55319
50
89.924208
51
96.1377933
0
ARC
8
DEFAULT_255_1_234
10
14.0639821
20
134.2688542
40
0.5413475
50
76.6779277
51
90.4563316
0
ARC
8
DEFAULT_255_1_234
10
14.1033444
20
134.4279114
40
0.3775041
50
47.485847
51
76.9287264
0
ARC
8
DEFAULT_255_1_234
10
14.0886417
20
134.4179159
40
0.3948286
50
16.5424086
51
46.8933463
0
ARC
8
DEFAULT_255_1_234
10
13.9278574
20
134.3650861
40
0.564021
50
5.4072051
51
17.0365086
0
ARC
8
DEFAULT_255_1_234
10
13.7839591
20
134.3419679
40
0.5556559
50
7.8891745
51
15.9239216
0
ARC
8
DEFAULT_255_1_234
10
13.9826605
20
134.3996631
40
0.3487515
50
15.7653144
51
27.9410532
0
ARC
8
DEFAULT_255_1_234
10
14.0930822
20
134.458779
40
0.2235026
50
27.8166557
51
46.4008329
0
ARC
8
DEFAULT_255_1_234
10
14.0980465
20
134.4582082
40
0.2205286
50
47.4371857
51
75.0698205
0
ARC
8
DEFAULT_255_1_234
10
14.067186
20
134.3507765
40
0.3322915
50
74.7008593
51
87.8124495
0
ARC
8
DEFAULT_255_1_234
10
14.0598547
20
134.2451844
40
0.4380987
50
87.3814673
51
90.0240855
0
ARC
8
DEFAULT_255_1_234
10
14.0560091
20
134.3629291
40
0.3203749
50
89.3451631
51
108.5745436
0
ARC
8
DEFAULT_255_1_234
10
14.0423196
20
134.4142908
40
0.2673494
50
109.2998449
51
143.3037509
0
ARC
8
DEFAULT_255_1_234
10
14.1185268
20
134.3556881
40
0.3634757
50
143.0753173
51
163.1916937
0
ARC
8
DEFAULT_255_1_234
10
14.3136996
20
134.2940967
40
0.5681262
50
162.9373603
51
174.6208611
0
ARC
8
DEFAULT_255_1_234
10
14.5763038
20
134.265301
40
0.8322832
50
174.3419979
51
180.1430411
0
ARC
8
DEFAULT_255_1_234
10
14.4832194
20
134.1458698
40
0.7392076
50
179.6817502
51
189.150529
0
ARC
8
DEFAULT_255_1_234
10
14.2331443
20
134.104219
40
0.4856932
50
188.9910863
51
203.5773039
0
ARC
8
DEFAULT_255_1_234
10
14.1251775
20
134.0594211
40
0.3688271
50
203.9077269
51
215.1312379
0
ARC
8
DEFAULT_255_1_234
10
14.0328869
20
133.9878941
40
0.2522457
50
213.9071664
51
263.8849284
0
ARC
8
DEFAULT_255_1_234
10
14.0454198
20
134.0663518
40
0.3316174
50
263.1758525
51
270.1031083
0
ARC
8
DEFAULT_255_1_234
10
14.048629
20
134.1910365
40
0.4563091
50
269.6719807
51
279.0609165
0
ARC
8
DEFAULT_255_1_234
10
14.0753058
20
134.0297907
40
0.2928759
50
278.8750225
51
293.6346586
0
ARC
8
DEFAULT_255_1_234
10
14.1073266
20
133.95459
40
0.2111472
50
293.8553404
51
310.0518804
0
ARC
8
DEFAULT_255_1_234
10
14.107812
20
133.9483516
40
0.2060917
50
311.0646779
51
332.0108348
0
ARC
8
DEFAULT_255_1_234
10
13.9885847
20
134.0140978
40
0.3422352
50
331.6588543
51
343.2878891
0
ARC
8
DEFAULT_255_1_234
10
13.7823362
20
134.0774798
40
0.5580003
50
343.1446044
51
351.010618
0
ARC
8
DEFAULT_255_1_234
10
13.6282008
20
134.1055871
40
0.7146438
50
350.7157277
51
351.1602153
0
LINE
8
DEFAULT_255_1_234
10
15.8828751
20
134.4559849
11
15.7278626
21
134.4559849
0
LINE
8
DEFAULT_255_1_234
10
15.0355268
20
133.9636394
11
15.1905393
21
133.9636394
0
ARC
8
DEFAULT_255_1_234
10
15.7937439
20
135.3506768
40
1.252368
50
248.9199003
51
254.1439814
0
ARC
8
DEFAULT_255_1_234
10
15.6256934
20
134.9180234
40
0.788226
50
241.633709
51
249.0064503
0
ARC
8
DEFAULT_255_1_234
10
15.4728328
20
134.6379317
40
0.4691427
50
230.498225
51
241.8087113
0
ARC
8
DEFAULT_255_1_234
10
15.3943902
20
134.5379906
40
0.3421437
50
227.4064532
51
229.9881192
0
ARC
8
DEFAULT_255_1_234
10
15.3456423
20
134.4904088
40
0.2741476
50
200.6781896
51
228.1763934
0
ARC
8
DEFAULT_255_1_234
10
15.3528734
20
134.4889077
40
0.2804109
50
179.5061581
51
199.8694617
0
ARC
8
DEFAULT_255_1_234
10
15.3519485
20
134.496321
40
0.2795204
50
132.4834203
51
181.0242172
0
ARC
8
DEFAULT_255_1_234
10
15.4115068
20
134.4400704
40
0.3612768
50
129.2532479
51
133.4242687
0
ARC
8
DEFAULT_255_1_234
10
15.4261517
20
134.4180965
40
0.3875675
50
101.98776
51
128.8742646
0
ARC
8
DEFAULT_255_1_234
10
15.4660128
20
134.2459741
40
0.5642249
50
89.5906553
51
102.3169264
0
ARC
8
DEFAULT_255_1_234
10
15.473062
20
134.2778148
40
0.5323783
50
77.2360837
51
90.3248275
0
ARC
8
DEFAULT_255_1_234
10
15.4937699
20
134.37454
40
0.4334697
50
63.837784
51
77.0809408
0
ARC
8
DEFAULT_255_1_234
10
15.5215461
20
134.4262911
40
0.3747796
50
45.9864267
51
64.1607727
0
ARC
8
DEFAULT_255_1_234
10
15.5476342
20
134.4560866
40
0.3352302
50
32.2747395
51
45.6547121
0
ARC
8
DEFAULT_255_1_234
10
15.5542783
20
134.457988
40
0.328603
50
359.6507365
51
32.6130309
0
ARC
8
DEFAULT_255_1_234
10
15.4599878
20
134.458466
40
0.2678863
50
359.469343
51
14.9832209
0
ARC
8
DEFAULT_255_1_234
10
15.5304941
20
134.4773539
40
0.1948938
50
14.9781179
51
48.2004265
0
ARC
8
DEFAULT_255_1_234
10
15.5140585
20
134.4566983
40
0.2212521
50
48.5927837
51
74.1241538
0
ARC
8
DEFAULT_255_1_234
10
15.4807074
20
134.3466248
40
0.3362561
50
73.7888341
51
86.6652678
0
ARC
8
DEFAULT_255_1_234
10
15.470464
20
134.2258881
40
0.4573953
50
86.2640471
51
90.0526343
0
ARC
8
DEFAULT_255_1_234
10
15.4676352
20
134.2654192
40
0.4178709
50
89.6697524
51
99.2309573
0
ARC
8
DEFAULT_255_1_234
10
15.4433803
20
134.4098964
40
0.2713749
50
99.069534
51
113.7658566
0
ARC
8
DEFAULT_255_1_234
10
15.4159994
20
134.4744677
40
0.2012469
50
114.0401004
51
127.9850673
0
ARC
8
DEFAULT_255_1_234
10
15.3919558
20
134.504073
40
0.1631167
50
127.7287463
51
176.7105154
0
ARC
8
DEFAULT_255_1_234
10
15.4598276
20
134.4939693
40
0.2315392
50
175.1779447
51
180.0581938
0
ARC
8
DEFAULT_255_1_234
10
15.3755123
20
134.4927428
40
0.1472271
50
179.6142195
51
228.1246017
0
ARC
8
DEFAULT_255_1_234
10
15.4196791
20
134.5336308
40
0.2072299
50
226.5779593
51
230.8800004
0
ARC
8
DEFAULT_255_1_234
10
15.466787
20
134.5961636
40
0.2854818
50
231.4635071
51
241.9260842
0
ARC
8
DEFAULT_255_1_234
10
15.5865048
20
134.81648
40
0.53622
50
241.7178533
51
248.3259551
0
ARC
8
DEFAULT_255_1_234
10
15.725042
20
135.1597064
40
0.9063478
50
248.2007737
51
252.4528373
0
ARC
8
DEFAULT_255_1_234
10
15.8454145
20
135.5318441
40
1.2974635
50
252.3391078
51
254.3469452
0
ARC
8
DEFAULT_255_1_234
10
15.0911847
20
132.8341148
40
1.5037162
50
71.0197183
51
74.4087047
0
ARC
8
DEFAULT_255_1_234
10
15.2606532
20
133.3233111
40
0.9859993
50
66.1847285
51
71.086374
0
ARC
8
DEFAULT_255_1_234
10
15.4162845
20
133.67372
40
0.6025855
50
59.3536294
51
66.2691831
0
ARC
8
DEFAULT_255_1_234
10
15.5051497
20
133.8240609
40
0.4279449
50
49.1020879
51
59.3293958
0
ARC
8
DEFAULT_255_1_234
10
15.5870237
20
133.9173834
40
0.3038015
50
32.7919921
51
49.2505539
0
ARC
8
DEFAULT_255_1_234
10
15.6191327
20
133.9402191
40
0.264448
50
31.1181161
51
32.4005348
0
ARC
8
DEFAULT_255_1_234
10
15.6102865
20
133.9366779
40
0.2738556
50
8.1116974
51
30.7958831
0
ARC
8
DEFAULT_255_1_234
10
15.5292533
20
133.9228753
40
0.3560327
50
359.8389159
51
8.4706516
0
ARC
8
DEFAULT_255_1_234
10
15.5918324
20
133.9180137
40
0.2934776
50
337.4731098
51
0.7537279
0
ARC
8
DEFAULT_255_1_234
10
15.6097019
20
133.9160387
40
0.2762607
50
307.5917067
51
336.4315538
0
ARC
8
DEFAULT_255_1_234
10
15.5636847
20
133.9673102
40
0.3449979
50
307.6551545
51
308.4529766
0
ARC
8
DEFAULT_255_1_234
10
15.5406566
20
134.002825
40
0.3871988
50
284.3734338
51
307.1424381
0
ARC
8
DEFAULT_255_1_234
10
15.4911396
20
134.1849932
40
0.5759636
50
272.4382747
51
284.646547
0
ARC
8
DEFAULT_255_1_234
10
15.4784605
20
134.3649893
40
0.7563528
50
269.9708387
51
272.8178037
0
ARC
8
DEFAULT_255_1_234
10
15.4741645
20
134.1611716
40
0.5525489
50
248.2707594
51
270.4055579
0
ARC
8
DEFAULT_255_1_234
10
15.4687386
20
134.1421192
40
0.5328452
50
246.1383403
51
248.0542782
0
ARC
8
DEFAULT_255_1_234
10
15.4268765
20
134.0541843
40
0.4355005
50
233.1670131
51
246.4950969
0
ARC
8
DEFAULT_255_1_234
10
15.371467
20
133.9793812
40
0.3424126
50
215.3403242
51
233.0843104
0
ARC
8
DEFAULT_255_1_234
10
15.3442101
20
133.9595549
40
0.3087104
50
179.2419209
51
215.2648451
0
ARC
8
DEFAULT_255_1_234
10
15.4209695
20
133.9609666
40
0.2304457
50
179.335461
51
199.1045811
0
ARC
8
DEFAULT_255_1_234
10
15.3877371
20
133.9522766
40
0.1962176
50
199.8828939
51
232.7063202
0
ARC
8
DEFAULT_255_1_234
10
15.434964
20
134.0116788
40
0.2720938
50
232.3738199
51
255.5136649
0
ARC
8
DEFAULT_255_1_234
10
15.4690506
20
134.1360835
40
0.4010747
50
255.2446292
51
267.5320849
0
ARC
8
DEFAULT_255_1_234
10
15.477813
20
134.2593702
40
0.5246356
50
267.1557994
51
270.0286766
0
ARC
8
DEFAULT_255_1_234
10
15.4805902
20
134.214995
40
0.4802668
50
269.7000017
51
278.1660162
0
ARC
8
DEFAULT_255_1_234
10
15.5061907
20
134.0419515
40
0.3053425
50
278.0231263
51
290.625471
0
ARC
8
DEFAULT_255_1_234
10
15.5409594
20
133.9492025
40
0.206291
50
290.6619762
51
307.0370976
0
ARC
8
DEFAULT_255_1_234
10
15.5709983
20
133.9123504
40
0.1587906
50
306.3943566
51
355.3030547
0
ARC
8
DEFAULT_255_1_234
10
15.5197914
20
133.9200113
40
0.2104809
50
354.3660432
51
0.0698737
0
ARC
8
DEFAULT_255_1_234
10
15.534026
20
133.9222617
40
0.1962563
50
359.417946
51
16.1971788
0
ARC
8
DEFAULT_255_1_234
10
15.579557
20
133.9347418
40
0.149053
50
16.4723299
51
52.6262157
0
ARC
8
DEFAULT_255_1_234
10
15.4974624
20
133.8263433
40
0.2850296
50
52.7386432
51
62.4979148
0
ARC
8
DEFAULT_255_1_234
10
15.3589701
20
133.5657283
40
0.5801521
50
62.2515216
51
68.1220564
0
ARC
8
DEFAULT_255_1_234
10
15.1869612
20
133.1429872
40
1.0365451
50
68.0062803
51
71.8053402
0
ARC
8
DEFAULT_255_1_234
10
15.0073983
20
132.6044758
40
1.6042013
50
71.7183119
51
73.9258742
0
LINE
8
DEFAULT_255_1_234
10
16.7992965
20
134.7941211
11
16.7992965
21
134.710591
0
LINE
8
DEFAULT_255_1_234
10
16.7992965
20
134.710591
11
16.3149827
21
133.6247
0
LINE
8
DEFAULT_255_1_234
10
16.3149827
20
133.6247
11
16.1591669
21
133.6247
0
LINE
8
DEFAULT_255_1_234
10
16.1591669
20
133.6247
11
16.6418744
21
134.6720387
0
LINE
8
DEFAULT_255_1_234
10
16.6418744
20
134.6720387
11
16.0089734
21
134.6720387
0
LINE
8
DEFAULT_255_1_234
10
16.0089734
20
134.6720387
11
16.0089734
21
134.7941211
0
LINE
8
DEFAULT_255_1_234
10
16.0089734
20
134.7941211
11
16.7992965
21
134.7941211
0
LINE
8
DEFAULT_255_1_234
10
17.2924452
20
134.1821026
11
17.2924452
21
134.0608234
0
LINE
8
DEFAULT_255_1_234
10
17.2924452
20
134.0608234
11
16.9004964
21
134.0608234
0
LINE
8
DEFAULT_255_1_234
10
16.9004964
20
134.0608234
11
16.9004964
21
134.1821026
0
LINE
8
DEFAULT_255_1_234
10
16.9004964
20
134.1821026
11
17.2924452
21
134.1821026
0
LINE
8
DEFAULT_255_1_234
10
17.63781
20
134.1604169
11
17.63781
21
134.2816962
0
LINE
8
DEFAULT_255_1_234
10
17.63781
20
134.2816962
11
17.7494511
21
134.2816962
0
LINE
8
DEFAULT_255_1_234
10
17.5590989
20
134.4873087
11
17.4105118
21
134.4873087
0
LINE
8
DEFAULT_255_1_234
10
17.4000705
20
133.9331188
11
17.5494608
21
133.9331188
0
LINE
8
DEFAULT_255_1_234
10
17.7494511
20
134.1604169
11
17.63781
21
134.1604169
0
ARC
8
DEFAULT_255_1_234
10
17.7465378
20
134.6209713
40
0.3392876
50
270.4919872
51
281.8951556
0
ARC
8
DEFAULT_255_1_234
10
17.7706639
20
134.5107702
40
0.2264817
50
281.6691735
51
301.2943132
0
ARC
8
DEFAULT_255_1_234
10
17.787685
20
134.4796304
40
0.1910381
50
301.7833094
51
311.7545298
0
ARC
8
DEFAULT_255_1_234
10
17.7968425
20
134.4694748
40
0.1773635
50
311.7323931
51
354.2802411
0
ARC
8
DEFAULT_255_1_234
10
17.7242051
20
134.4819722
40
0.2509385
50
353.0937916
51
0.1181479
0
ARC
8
DEFAULT_255_1_234
10
17.6780835
20
134.4867386
40
0.2970898
50
359.1805295
51
15.0453146
0
ARC
8
DEFAULT_255_1_234
10
17.8126672
20
134.5259992
40
0.1569564
50
13.9577229
51
77.6713066
0
ARC
8
DEFAULT_255_1_234
10
17.7740202
20
134.3874949
40
0.3006298
50
76.1116566
51
90.7026153
0
ARC
8
DEFAULT_255_1_234
10
17.768104
20
134.4148545
40
0.2732568
50
89.5324876
51
103.531937
0
ARC
8
DEFAULT_255_1_234
10
17.7480484
20
134.4947884
40
0.1908508
50
103.2931773
51
133.5619022
0
ARC
8
DEFAULT_255_1_234
10
17.7435972
20
134.5007375
40
0.1834746
50
133.8349307
51
173.5344437
0
ARC
8
DEFAULT_255_1_234
10
17.8159015
20
134.4879213
40
0.2568033
50
172.5096846
51
180.1366907
0
ARC
8
DEFAULT_255_1_234
10
17.7207909
20
134.4913622
40
0.3103056
50
155.3484492
51
180.7484736
0
ARC
8
DEFAULT_255_1_234
10
17.7158998
20
134.4884846
40
0.3070957
50
131.5744599
51
154.4798489
0
ARC
8
DEFAULT_255_1_234
10
17.7472146
20
134.456831
40
0.3515643
50
96.9875458
51
131.9690667
0
ARC
8
DEFAULT_255_1_234
10
17.7691626
20
134.3322636
40
0.4779224
50
89.8596053
51
97.7825159
0
ARC
8
DEFAULT_255_1_234
10
17.7739689
20
134.3060616
40
0.5041361
50
78.3655447
51
90.4131539
0
ARC
8
DEFAULT_255_1_234
10
17.8097607
20
134.4719887
40
0.3344039
50
56.6229102
51
78.638727
0
ARC
8
DEFAULT_255_1_234
10
17.831255
20
134.5095805
40
0.2912001
50
47.0253525
51
56.0854072
0
ARC
8
DEFAULT_255_1_234
10
17.833233
20
134.5135223
40
0.2869704
50
10.9208013
51
46.7778124
0
ARC
8
DEFAULT_255_1_234
10
17.6968397
20
134.4819857
40
0.426899
50
359.6364486
51
11.6087304
0
ARC
8
DEFAULT_255_1_234
10
17.8803241
20
134.4804752
40
0.243409
50
332.3549906
51
359.7179418
0
ARC
8
DEFAULT_255_1_234
10
17.8152842
20
134.5113142
40
0.3153459
50
325.2333722
51
332.8745602
0
ARC
8
DEFAULT_255_1_234
10
17.8305466
20
134.5006828
40
0.2967456
50
292.9802137
51
325.2392345
0
ARC
8
DEFAULT_255_1_234
10
17.803084
20
134.5540863
40
0.3566604
50
292.5402179
51
293.6924929
0
ARC
8
DEFAULT_255_1_234
10
17.8423436
20
133.9086091
40
0.3307468
50
57.6435486
51
72.8625112
0
ARC
8
DEFAULT_255_1_234
10
17.8777936
20
133.9660549
40
0.2632492
50
36.7248896
51
57.4697979
0
ARC
8
DEFAULT_255_1_234
10
17.8766568
20
133.967322
40
0.2634081
50
8.0545065
51
36.356114
0
ARC
8
DEFAULT_255_1_234
10
17.7903754
20
133.9518174
40
0.3510261
50
359.8320645
51
8.5869982
0
ARC
8
DEFAULT_255_1_234
10
17.752853
20
133.9470101
40
0.3885653
50
343.9829931
51
0.5571613
0
ARC
8
DEFAULT_255_1_234
10
17.8414727
20
133.9227438
40
0.2966924
50
311.6359546
51
343.7651759
0
ARC
8
DEFAULT_255_1_234
10
17.8036296
20
133.9654102
40
0.3537231
50
279.7829875
51
311.6255694
0
ARC
8
DEFAULT_255_1_234
10
17.7735072
20
134.109128
40
0.5004971
50
269.7286406
51
280.3856417
0
ARC
8
DEFAULT_255_1_234
10
17.7673145
20
134.1049996
40
0.4963778
50
256.6828919
51
270.4412052
0
ARC
8
DEFAULT_255_1_234
10
17.7334441
20
133.9665394
40
0.3538406
50
229.4223008
51
256.8556159
0
ARC
8
DEFAULT_255_1_234
10
17.6919834
20
133.9198736
40
0.2914296
50
181.818294
51
229.6455059
0
ARC
8
DEFAULT_255_1_234
10
17.795979
20
133.9329496
40
0.3959084
50
179.9755256
51
183.2323064
0
ARC
8
DEFAULT_255_1_234
10
17.7787536
20
133.9309037
40
0.2293034
50
179.4465117
51
196.2869258
0
ARC
8
DEFAULT_255_1_234
10
17.7299944
20
133.9175651
40
0.1787621
50
196.5661473
51
227.705904
0
ARC
8
DEFAULT_255_1_234
10
17.7464038
20
133.9359155
40
0.2033784
50
227.7652068
51
257.8762805
0
ARC
8
DEFAULT_255_1_234
10
17.7689009
20
134.0302156
40
0.3003081
50
257.4584385
51
270.426602
0
ARC
8
DEFAULT_255_1_234
10
17.7734575
20
134.0591996
40
0.329292
50
269.5962073
51
280.8789248
0
ARC
8
DEFAULT_255_1_234
10
17.7964104
20
133.9445685
40
0.2123908
50
280.6346389
51
299.8595945
0
ARC
8
DEFAULT_255_1_234
10
17.815501
20
133.9083212
40
0.171457
50
300.3576302
51
314.5517981
0
ARC
8
DEFAULT_255_1_234
10
17.807207
20
133.9143919
40
0.1816095
50
315.0728369
51
345.0431014
0
ARC
8
DEFAULT_255_1_234
10
17.7148885
20
133.9412841
40
0.2777492
50
344.5986631
51
357.9269593
0
ARC
8
DEFAULT_255_1_234
10
17.6253211
20
133.9474276
40
0.3674917
50
357.4748886
51
0.0231117
0
ARC
8
DEFAULT_255_1_234
10
17.727632
20
133.9498679
40
0.2651907
50
359.5047933
51
13.4239635
0
ARC
8
DEFAULT_255_1_234
10
17.8142964
20
133.9720478
40
0.1757509
50
12.9498199
51
48.7551375
0
ARC
8
DEFAULT_255_1_234
10
17.7960698
20
133.94714
40
0.2065134
50
49.5088623
51
72.1836453
0
ARC
8
DEFAULT_255_1_234
10
17.760285
20
133.8409291
40
0.3185836
50
71.9010081
51
84.3554254
0
ARC
8
DEFAULT_255_1_234
10
17.7441482
20
133.7048326
40
0.4556151
50
84.0193428
51
89.333121
0
LINE
8
DEFAULT_255_1_234
10
19.0787038
20
134.3162327
11
19.0787038
21
134.1234709
0
LINE
8
DEFAULT_255_1_234
10
18.3405871
20
134.1033916
11
18.3405871
21
134.3017755
0
LINE
8
DEFAULT_255_1_234
10
18.9301167
20
134.0833123
11
18.9301167
21
134.3266739
0
LINE
8
DEFAULT_255_1_234
10
18.4891742
20
134.3379184
11
18.4891742
21
134.1001789
0
ARC
8
DEFAULT_255_1_234
10
17.8539928
20
134.1185805
40
1.2247208
50
353.8441951
51
0.2287902
0
ARC
8
DEFAULT_255_1_234
10
18.3179431
20
134.0667806
40
0.7578929
50
344.4934747
51
353.9765454
0
ARC
8
DEFAULT_255_1_234
10
18.6172022
20
133.9816981
40
0.4467846
50
329.2803592
51
344.7472793
0
ARC
8
DEFAULT_255_1_234
10
18.7164846
20
133.9272018
40
0.3336173
50
324.9352394
51
328.6160465
0
ARC
8
DEFAULT_255_1_234
10
18.7541955
20
133.9008427
40
0.2876076
50
280.580143
51
324.9173126
0
ARC
8
DEFAULT_255_1_234
10
18.7140748
20
134.0679099
40
0.4592847
50
269.5977311
51
281.6734359
0
ARC
8
DEFAULT_255_1_234
10
18.7068653
20
134.0559173
40
0.4472986
50
256.6228859
51
270.51044
0
ARC
8
DEFAULT_255_1_234
10
18.6666631
20
133.9010877
40
0.2873874
50
215.8618325
51
257.2788573
0
ARC
8
DEFAULT_255_1_234
10
18.7687663
20
133.9695977
40
0.4102928
50
197.9693508
51
215.2623606
0
ARC
8
DEFAULT_255_1_234
10
19.0172778
20
134.0534709
40
0.6725652
50
187.8816417
51
198.2346507
0
ARC
8
DEFAULT_255_1_234
10
19.4130987
20
134.1106079
40
1.0724845
50
180.8976217
51
188.0055519
0
ARC
8
DEFAULT_255_1_234
10
19.6931175
20
134.1209777
40
1.3526448
50
180.7449369
51
181.1510016
0
ARC
8
DEFAULT_255_1_234
10
19.5353904
20
134.3066042
40
1.1948131
50
173.7675579
51
180.231553
0
ARC
8
DEFAULT_255_1_234
10
19.083605
20
134.3576666
40
0.7401564
50
164.3058563
51
173.9002247
0
ARC
8
DEFAULT_255_1_234
10
18.7924119
20
134.4415656
40
0.4371288
50
148.7922025
51
164.568378
0
ARC
8
DEFAULT_255_1_234
10
18.6972571
20
134.4946929
40
0.3282386
50
144.5883898
51
148.1176286
0
ARC
8
DEFAULT_255_1_234
10
18.6629469
20
134.5186315
40
0.2864044
50
101.6440918
51
144.514236
0
ARC
8
DEFAULT_255_1_234
10
18.7054536
20
134.3497069
40
0.4604934
50
89.5284041
51
102.5819763
0
ARC
8
DEFAULT_255_1_234
10
18.7133624
20
134.3458018
40
0.464401
50
77.0437873
51
90.5081339
0
ARC
8
DEFAULT_255_1_234
10
18.7535626
20
134.5100615
40
0.2953195
50
48.2778575
51
77.4994676
0
ARC
8
DEFAULT_255_1_234
10
18.7608257
20
134.5229746
40
0.2808655
50
36.3142134
51
47.6305865
0
ARC
8
DEFAULT_255_1_234
10
18.6739564
20
134.4644515
40
0.3855453
50
18.2931786
51
35.6769206
0
ARC
8
DEFAULT_255_1_234
10
18.4196323
20
134.3771593
40
0.654423
50
8.024666
51
18.5605216
0
ARC
8
DEFAULT_255_1_234
10
18.0033243
20
134.3156792
40
1.0752407
50
1.1274072
51
8.1718305
0
ARC
8
DEFAULT_255_1_234
10
17.6797433
20
134.3029885
40
1.3990231
50
0.5424119
51
1.3863029
0
ARC
8
DEFAULT_255_1_234
10
17.8618811
20
134.3302342
40
1.0682415
50
359.8090433
51
4.9407866
0
ARC
8
DEFAULT_255_1_234
10
18.2828825
20
134.3678113
40
0.6455691
50
4.8362157
51
12.2904523
0
ARC
8
DEFAULT_255_1_234
10
18.558394
20
134.4291965
40
0.3633074
50
12.0805627
51
23.8173984
0
ARC
8
DEFAULT_255_1_234
10
18.6757645
20
134.4788919
40
0.2358723
50
24.2871213
51
31.3935614
0
ARC
8
DEFAULT_255_1_234
10
18.7282342
20
134.5132233
40
0.1732111
50
30.7407893
51
82.4657128
0
ARC
8
DEFAULT_255_1_234
10
18.7102477
20
134.4248691
40
0.263235
50
81.1060089
51
90.2184952
0
ARC
8
DEFAULT_255_1_234
10
18.7066776
20
134.4506924
40
0.2374236
50
89.3806855
51
105.6762551
0
ARC
8
DEFAULT_255_1_234
10
18.6883406
20
134.5173567
40
0.1682847
50
105.7981136
51
149.7388061
0
ARC
8
DEFAULT_255_1_234
10
18.7947485
20
134.453395
40
0.2924306
50
149.4208916
51
163.6286378
0
ARC
8
DEFAULT_255_1_234
10
19.0038373
20
134.389625
40
0.5110213
50
163.3763315
51
172.1410975
0
ARC
8
DEFAULT_255_1_234
10
19.3339092
20
134.3423518
40
0.8444586
50
172.0259487
51
178.0703232
0
ARC
8
DEFAULT_255_1_234
10
19.6369181
20
134.3279906
40
1.1477868
50
177.8631668
51
179.5044149
0
ARC
8
DEFAULT_255_1_234
10
19.5296586
20
134.0965389
40
1.0404907
50
179.7995573
51
185.2460446
0
ARC
8
DEFAULT_255_1_234
10
19.1253625
20
134.0582513
40
0.6343885
50
185.1411642
51
193.0079639
0
ARC
8
DEFAULT_255_1_234
10
18.8610097
20
133.9957641
40
0.3627568
50
192.7897626
51
205.2507664
0
ARC
8
DEFAULT_255_1_234
10
18.7563644
20
133.9490415
40
0.2481908
50
205.8005384
51
211.2537509
0
ARC
8
DEFAULT_255_1_234
10
18.7040085
20
133.913958
40
0.1852521
50
210.3789793
51
238.4008143
0
ARC
8
DEFAULT_255_1_234
10
18.7020607
20
133.9186376
40
0.1882621
50
239.6520629
51
265.9793761
0
ARC
8
DEFAULT_255_1_234
10
18.7105807
20
133.9858427
40
0.2559272
50
265.1315437
51
270.060332
0
ARC
8
DEFAULT_255_1_234
10
18.7134586
20
133.9534534
40
0.2235528
50
269.3314664
51
287.2178029
0
ARC
8
DEFAULT_255_1_234
10
18.7272438
20
133.9031279
40
0.1714108
50
287.7958004
51
329.080874
0
ARC
8
DEFAULT_255_1_234
10
18.6314894
20
133.962893
40
0.2842745
50
328.6634704
51
343.3325132
0
ARC
8
DEFAULT_255_1_234
10
18.4141915
20
134.0305863
40
0.5118644
50
343.0499468
51
351.9393422
0
ARC
8
DEFAULT_255_1_234
10
18.0675215
20
134.0816949
40
0.8622784
50
351.8069023
51
357.7959224
0
ARC
8
DEFAULT_255_1_234
10
17.7439771
20
134.0984721
40
1.1862365
50
357.5871873
51
359.2677531
0
LINE
8
DEFAULT_255_1_234
10
20.0023537
20
134.3162327
11
20.0023537
21
134.1234709
0
LINE
8
DEFAULT_255_1_234
10
19.264237
20
134.1033916
11
19.264237
21
134.3017755
0
LINE
8
DEFAULT_255_1_234
10
19.8537666
20
134.0833123
11
19.8537666
21
134.3266739
0
LINE
8
DEFAULT_255_1_234
10
19.4128241
20
134.3379184
11
19.4128241
21
134.1001789
0
ARC
8
DEFAULT_255_1_234
10
18.7776427
20
134.1185805
40
1.2247208
50
353.8441951
51
0.2287902
0
ARC
8
DEFAULT_255_1_234
10
19.241593
20
134.0667806
40
0.7578929
50
344.4934747
51
353.9765454
0
ARC
8
DEFAULT_255_1_234
10
19.5408521
20
133.9816981
40
0.4467846
50
329.2803592
51
344.7472793
0
ARC
8
DEFAULT_255_1_234
10
19.6401345
20
133.9272018
40
0.3336173
50
324.9352394
51
328.6160465
0
ARC
8
DEFAULT_255_1_234
10
19.6778454
20
133.9008427
40
0.2876076
50
280.580143
51
324.9173126
0
ARC
8
DEFAULT_255_1_234
10
19.6377247
20
134.0679099
40
0.4592847
50
269.5977311
51
281.6734359
0
ARC
8
DEFAULT_255_1_234
10
19.6305152
20
134.0559173
40
0.4472986
50
256.6228859
51
270.51044
0
ARC
8
DEFAULT_255_1_234
10
19.590313
20
133.9010877
40
0.2873874
50
215.8618325
51
257.2788573
0
ARC
8
DEFAULT_255_1_234
10
19.6924162
20
133.9695977
40
0.4102928
50
197.9693508
51
215.2623606
0
ARC
8
DEFAULT_255_1_234
10
19.9409277
20
134.0534709
40
0.6725652
50
187.8816417
51
198.2346507
0
ARC
8
DEFAULT_255_1_234
10
20.3367486
20
134.1106079
40
1.0724845
50
180.8976217
51
188.0055519
0
ARC
8
DEFAULT_255_1_234
10
20.6167674
20
134.1209777
40
1.3526448
50
180.7449369
51
181.1510016
0
ARC
8
DEFAULT_255_1_234
10
20.4590403
20
134.3066042
40
1.1948131
50
173.7675579
51
180.231553
0
ARC
8
DEFAULT_255_1_234
10
20.0072549
20
134.3576666
40
0.7401564
50
164.3058563
51
173.9002247
0
ARC
8
DEFAULT_255_1_234
10
19.7160618
20
134.4415656
40
0.4371288
50
148.7922025
51
164.568378
0
ARC
8
DEFAULT_255_1_234
10
19.620907
20
134.4946929
40
0.3282386
50
144.5883898
51
148.1176286
0
ARC
8
DEFAULT_255_1_234
10
19.5865968
20
134.5186315
40
0.2864044
50
101.6440918
51
144.514236
0
ARC
8
DEFAULT_255_1_234
10
19.6291035
20
134.3497069
40
0.4604934
50
89.5284041
51
102.5819763
0
ARC
8
DEFAULT_255_1_234
10
19.6370123
20
134.3458018
40
0.464401
50
77.0437873
51
90.5081339
0
ARC
8
DEFAULT_255_1_234
10
19.6772125
20
134.5100615
40
0.2953195
50
48.2778575
51
77.4994676
0
ARC
8
DEFAULT_255_1_234
10
19.6844756
20
134.5229746
40
0.2808655
50
36.3142134
51
47.6305865
0
ARC
8
DEFAULT_255_1_234
10
19.5976063
20
134.4644515
40
0.3855453
50
18.2931786
51
35.6769206
0
ARC
8
DEFAULT_255_1_234
10
19.3432822
20
134.3771593
40
0.654423
50
8.024666
51
18.5605216
0
ARC
8
DEFAULT_255_1_234
10
18.9269742
20
134.3156792
40
1.0752407
50
1.1274072
51
8.1718305
0
ARC
8
DEFAULT_255_1_234
10
18.6033932
20
134.3029885
40
1.3990231
50
0.5424119
51
1.3863029
0
ARC
8
DEFAULT_255_1_234
10
18.785531
20
134.3302342
40
1.0682415
50
359.8090433
51
4.9407866
0
ARC
8
DEFAULT_255_1_234
10
19.2065324
20
134.3678113
40
0.6455691
50
4.8362157
51
12.2904523
0
ARC
8
DEFAULT_255_1_234
10
19.4820439
20
134.4291965
40
0.3633074
50
12.0805627
51
23.8173984
0
ARC
8
DEFAULT_255_1_234
10
19.5994144
20
134.4788919
40
0.2358723
50
24.2871213
51
31.3935614
0
ARC
8
DEFAULT_255_1_234
10
19.6518841
20
134.5132233
40
0.1732111
50
30.7407893
51
82.4657128
0
ARC
8
DEFAULT_255_1_234
10
19.6338976
20
134.4248691
40
0.263235
50
81.1060089
51
90.2184952
0
ARC
8
DEFAULT_255_1_234
10
19.6303275
20
134.4506924
40
0.2374236
50
89.3806855
51
105.6762551
0
ARC
8
DEFAULT_255_1_234
10
19.6119905
20
134.5173567
40
0.1682847
50
105.7981136
51
149.7388061
0
ARC
8
DEFAULT_255_1_234
10
19.7183984
20
134.453395
40
0.2924306
50
149.4208916
51
163.6286378
0
ARC
8
DEFAULT_255_1_234
10
19.9274872
20
134.389625
40
0.5110213
50
163.3763315
51
172.1410975
0
ARC
8
DEFAULT_255_1_234
10
20.2575591
20
134.3423518
40
0.8444586
50
172.0259487
51
178.0703232
0
ARC
8
DEFAULT_255_1_234
10
20.560568
20
134.3279906
40
1.1477868
50
177.8631668
51
179.5044149
0
ARC
8
DEFAULT_255_1_234
10
20.4533085
20
134.0965389
40
1.0404907
50
179.7995573
51
185.2460446
0
ARC
8
DEFAULT_255_1_234
10
20.0490124
20
134.0582513
40
0.6343885
50
185.1411642
51
193.0079639
0
ARC
8
DEFAULT_255_1_234
10
19.7846596
20
133.9957641
40
0.3627568
50
192.7897626
51
205.2507664
0
ARC
8
DEFAULT_255_1_234
10
19.6800143
20
133.9490415
40
0.2481908
50
205.8005384
51
211.2537509
0
ARC
8
DEFAULT_255_1_234
10
19.6276584
20
133.913958
40
0.1852521
50
210.3789793
51
238.4008143
0
ARC
8
DEFAULT_255_1_234
10
19.6257106
20
133.9186376
40
0.1882621
50
239.6520629
51
265.9793761
0
ARC
8
DEFAULT_255_1_234
10
19.6342306
20
133.9858427
40
0.2559272
50
265.1315437
51
270.060332
0
ARC
8
DEFAULT_255_1_234
10
19.6371085
20
133.9534534
40
0.2235528
50
269.3314664
51
287.2178029
0
ARC
8
DEFAULT_255_1_234
10
19.6508937
20
133.9031279
40
0.1714108
50
287.7958004
51
329.080874
0
ARC
8
DEFAULT_255_1_234
10
19.5551394
20
133.962893
40
0.2842745
50
328.6634704
51
343.3325132
0
ARC
8
DEFAULT_255_1_234
10
19.3378414
20
134.0305863
40
0.5118644
50
343.0499468
51
351.9393422
0
ARC
8
DEFAULT_255_1_234
10
18.9911714
20
134.0816949
40
0.8622784
50
351.8069023
51
357.7959224
0
ARC
8
DEFAULT_255_1_234
10
18.667627
20
134.0984721
40
1.1862365
50
357.5871873
51
359.2677531
0
LINE
8
DEFAULT_255_1_234
10
4.2454489
20
132.8098211
11
4.2454489
21
131.7664983
0
LINE
8
DEFAULT_255_1_234
10
4.2454489
20
131.7664983
11
4.7996389
21
131.7664983
0
LINE
8
DEFAULT_255_1_234
10
4.7996389
20
131.7664983
11
4.7996389
21
131.6404
0
LINE
8
DEFAULT_255_1_234
10
4.7996389
20
131.6404
11
4.0904364
21
131.6404
0
LINE
8
DEFAULT_255_1_234
10
4.0904364
20
131.6404
11
4.0904364
21
132.8098211
0
LINE
8
DEFAULT_255_1_234
10
4.0904364
20
132.8098211
11
4.2454489
21
132.8098211
0
LINE
8
DEFAULT_255_1_234
10
5.377924
20
132.6090276
11
5.377924
21
132.2676788
0
LINE
8
DEFAULT_255_1_234
10
5.377924
20
132.2676788
11
5.7040126
21
132.2676788
0
LINE
8
DEFAULT_255_1_234
10
5.7040126
20
132.2676788
11
5.7040126
21
132.1271233
0
LINE
8
DEFAULT_255_1_234
10
5.7040126
20
132.1271233
11
5.377924
21
132.1271233
0
LINE
8
DEFAULT_255_1_234
10
5.377924
20
132.1271233
11
5.377924
21
131.7576634
0
LINE
8
DEFAULT_255_1_234
10
5.377924
20
131.7576634
11
5.2285337
21
131.7576634
0
LINE
8
DEFAULT_255_1_234
10
5.2285337
20
131.7576634
11
5.2285337
21
132.1271233
0
LINE
8
DEFAULT_255_1_234
10
5.2285337
20
132.1271233
11
4.9024451
21
132.1271233
0
LINE
8
DEFAULT_255_1_234
10
4.9024451
20
132.1271233
11
4.9024451
21
132.2676788
0
LINE
8
DEFAULT_255_1_234
10
4.9024451
20
132.2676788
11
5.2285337
21
132.2676788
0
LINE
8
DEFAULT_255_1_234
10
5.2285337
20
132.2676788
11
5.2285337
21
132.6090276
0
LINE
8
DEFAULT_255_1_234
10
5.2285337
20
132.6090276
11
5.377924
21
132.6090276
0
LINE
8
DEFAULT_255_1_234
10
4.5741137
20
5.8154433
11
4.5741137
21
4.6404
0
LINE
8
DEFAULT_255_1_234
10
4.5741137
20
4.6404
11
4.4247234
21
4.6404
0
LINE
8
DEFAULT_255_1_234
10
4.4247234
20
4.6404
11
4.4247234
21
5.6307133
0
LINE
8
DEFAULT_255_1_234
10
4.4247234
20
5.6307133
11
4.1251396
21
5.5206785
0
LINE
8
DEFAULT_255_1_234
10
4.1251396
20
5.5206785
11
4.1251396
21
5.6556117
0
LINE
8
DEFAULT_255_1_234
10
4.1251396
20
5.6556117
11
4.5508217
21
5.8154433
0
LINE
8
DEFAULT_255_1_234
10
4.5508217
20
5.8154433
11
4.5741137
21
5.8154433
0
ARC
8
DEFAULT_255_1_234
10
5.1349384
20
4.7192565
40
0.1070357
50
163.5417914
51
180.5078233
0
ARC
8
DEFAULT_255_1_234
10
5.1157202
20
4.7244421
40
0.0871371
50
138.1647447
51
163.2316401
0
ARC
8
DEFAULT_255_1_234
10
5.1044981
20
4.7339534
40
0.0724329
50
105.6856465
51
137.8494928
0
ARC
8
DEFAULT_255_1_234
10
5.1163413
20
4.6955129
40
0.1126485
50
92.6088068
51
106.1990587
0
ARC
8
DEFAULT_255_1_234
10
5.1193786
20
4.6559774
40
0.1522861
50
89.9660831
51
93.0733434
0
ARC
8
DEFAULT_255_1_234
10
5.1204481
20
4.678132
40
0.130135
50
78.4379222
51
90.4311858
0
ARC
8
DEFAULT_255_1_234
10
5.1301061
20
4.7231588
40
0.0840873
50
56.8960528
51
78.7359558
0
ARC
8
DEFAULT_255_1_234
10
5.1364288
20
4.7341877
40
0.0713991
50
42.6499553
51
56.3125067
0
ARC
8
DEFAULT_255_1_234
10
5.1236175
20
4.7224146
40
0.0887984
50
3.8142714
51
42.6365749
0
ARC
8
DEFAULT_255_1_234
10
5.0949976
20
4.7184153
40
0.1176392
50
359.9476902
51
4.8305927
0
ARC
8
DEFAULT_255_1_234
10
5.1176135
20
4.7173541
40
0.0950282
50
340.9376387
51
0.5750546
0
ARC
8
DEFAULT_255_1_234
10
5.1288631
20
4.7143192
40
0.0834082
50
316.0805399
51
340.3842391
0
ARC
8
DEFAULT_255_1_234
10
5.134671
20
4.7089809
40
0.0755219
50
285.8514865
51
315.9414755
0
ARC
8
DEFAULT_255_1_234
10
5.1229281
20
4.7469349
40
0.115244
50
273.1292529
51
286.3135479
0
ARC
8
DEFAULT_255_1_234
10
5.119598
20
4.7871049
40
0.1555398
50
269.9524064
51
273.5463789
0
ARC
8
DEFAULT_255_1_234
10
5.1184932
20
4.7652792
40
0.1337177
50
259.0490813
51
270.4180302
0
ARC
8
DEFAULT_255_1_234
10
5.1088595
20
4.7175393
40
0.0850178
50
239.7587791
51
259.311372
0
ARC
8
DEFAULT_255_1_234
10
5.1007626
20
4.7024482
40
0.0679053
50
222.6244131
51
239.247817
0
ARC
8
DEFAULT_255_1_234
10
5.1142001
20
4.7147619
40
0.0861314
50
182.9227855
51
222.598345
0
ARC
8
DEFAULT_255_1_234
10
5.141062
20
4.7182373
40
0.113155
50
179.9642935
51
183.9868025
0
LINE
8
DEFAULT_255_1_234
10
6.197328
20
5.8098211
11
6.197328
21
5.726291
0
LINE
8
DEFAULT_255_1_234
10
6.197328
20
5.726291
11
5.7130142
21
4.6404
0
LINE
8
DEFAULT_255_1_234
10
5.7130142
20
4.6404
11
5.5571985
21
4.6404
0
LINE
8
DEFAULT_255_1_234
10
5.5571985
20
4.6404
11
6.039906
21
5.6877387
0
LINE
8
DEFAULT_255_1_234
10
6.039906
20
5.6877387
11
5.407005
21
5.6877387
0
LINE
8
DEFAULT_255_1_234
10
5.407005
20
5.6877387
11
5.407005
21
5.8098211
0
LINE
8
DEFAULT_255_1_234
10
5.407005
20
5.8098211
11
6.197328
21
5.8098211
0
LINE
8
DEFAULT_255_1_234
10
4.5741137
20
13.7529433
11
4.5741137
21
12.5779
0
LINE
8
DEFAULT_255_1_234
10
4.5741137
20
12.5779
11
4.4247234
21
12.5779
0
LINE
8
DEFAULT_255_1_234
10
4.4247234
20
12.5779
11
4.4247234
21
13.5682133
0
LINE
8
DEFAULT_255_1_234
10
4.4247234
20
13.5682133
11
4.1251396
21
13.4581785
0
LINE
8
DEFAULT_255_1_234
10
4.1251396
20
13.4581785
11
4.1251396
21
13.5931117
0
LINE
8
DEFAULT_255_1_234
10
4.1251396
20
13.5931117
11
4.5508217
21
13.7529433
0
LINE
8
DEFAULT_255_1_234
10
4.5508217
20
13.7529433
11
4.5741137
21
13.7529433
0
ARC
8
DEFAULT_255_1_234
10
5.1349384
20
12.6567565
40
0.1070357
50
163.5417914
51
180.5078233
0
ARC
8
DEFAULT_255_1_234
10
5.1157202
20
12.6619421
40
0.0871371
50
138.1647447
51
163.2316401
0
ARC
8
DEFAULT_255_1_234
10
5.1044981
20
12.6714534
40
0.0724329
50
105.6856465
51
137.8494928
0
ARC
8
DEFAULT_255_1_234
10
5.1163413
20
12.6330129
40
0.1126485
50
92.6088068
51
106.1990587
0
ARC
8
DEFAULT_255_1_234
10
5.1193786
20
12.5934774
40
0.1522861
50
89.9660831
51
93.0733434
0
ARC
8
DEFAULT_255_1_234
10
5.1204481
20
12.615632
40
0.130135
50
78.4379222
51
90.4311858
0
ARC
8
DEFAULT_255_1_234
10
5.1301061
20
12.6606588
40
0.0840873
50
56.8960528
51
78.7359558
0
ARC
8
DEFAULT_255_1_234
10
5.1364288
20
12.6716877
40
0.0713991
50
42.6499553
51
56.3125067
0
ARC
8
DEFAULT_255_1_234
10
5.1236175
20
12.6599146
40
0.0887984
50
3.8142714
51
42.6365749
0
ARC
8
DEFAULT_255_1_234
10
5.0949976
20
12.6559153
40
0.1176392
50
359.9476902
51
4.8305927
0
ARC
8
DEFAULT_255_1_234
10
5.1176135
20
12.6548541
40
0.0950282
50
340.9376387
51
0.5750546
0
ARC
8
DEFAULT_255_1_234
10
5.1288631
20
12.6518192
40
0.0834082
50
316.0805399
51
340.3842391
0
ARC
8
DEFAULT_255_1_234
10
5.134671
20
12.6464809
40
0.0755219
50
285.8514865
51
315.9414755
0
ARC
8
DEFAULT_255_1_234
10
5.1229281
20
12.6844349
40
0.115244
50
273.1292529
51
286.3135479
0
ARC
8
DEFAULT_255_1_234
10
5.119598
20
12.7246049
40
0.1555398
50
269.9524064
51
273.5463789
0
ARC
8
DEFAULT_255_1_234
10
5.1184932
20
12.7027792
40
0.1337177
50
259.0490813
51
270.4180302
0
ARC
8
DEFAULT_255_1_234
10
5.1088595
20
12.6550393
40
0.0850178
50
239.7587791
51
259.311372
0
ARC
8
DEFAULT_255_1_234
10
5.1007626
20
12.6399482
40
0.0679053
50
222.6244131
51
239.247817
0
ARC
8
DEFAULT_255_1_234
10
5.1142001
20
12.6522619
40
0.0861314
50
182.9227855
51
222.598345
0
ARC
8
DEFAULT_255_1_234
10
5.141062
20
12.6557373
40
0.113155
50
179.9642935
51
183.9868025
0
LINE
8
DEFAULT_255_1_234
10
5.9989441
20
13.7481243
11
6.0254488
21
13.7481243
0
LINE
8
DEFAULT_255_1_234
10
6.0254488
20
13.7481243
11
6.0254488
21
13.622026
0
LINE
8
DEFAULT_255_1_234
10
6.0254488
20
13.622026
11
5.9981409
21
13.622026
0
LINE
8
DEFAULT_255_1_234
10
5.4511795
20
13.0228583
11
5.4511795
21
13.0798836
0
LINE
8
DEFAULT_255_1_234
10
5.6005699
20
13.0606075
11
5.6005699
21
13.0059917
0
ARC
8
DEFAULT_255_1_234
10
6.0033757
20
13.1222455
40
0.4998079
50
90.6001036
51
104.514704
0
ARC
8
DEFAULT_255_1_234
10
5.9645273
20
13.2667131
40
0.3502176
50
104.2855254
51
133.862935
0
ARC
8
DEFAULT_255_1_234
10
5.980903
20
13.255883
40
0.3693984
50
134.5302688
51
161.6210873
0
ARC
8
DEFAULT_255_1_234
10
6.1462219
20
13.1975895
40
0.5446739
50
161.2849839
51
174.2076652
0
ARC
8
DEFAULT_255_1_234
10
6.2869156
20
13.1781787
40
0.6866274
50
173.7810589
51
174.9254635
0
ARC
8
DEFAULT_255_1_234
10
5.8318988
20
13.0398839
40
0.3033419
50
95.8330959
51
138.9954921
0
ARC
8
DEFAULT_255_1_234
10
5.8542344
20
12.9120375
40
0.4328947
50
89.8753725
51
97.0544009
0
ARC
8
DEFAULT_255_1_234
10
5.858981
20
12.9955748
40
0.3493769
50
71.6407809
51
90.6240094
0
ARC
8
DEFAULT_255_1_234
10
5.8740383
20
13.0510082
40
0.2920396
50
39.6367836
51
71.019018
0
ARC
8
DEFAULT_255_1_234
10
5.8103856
20
12.9959998
40
0.3761538
50
10.658731
51
39.9043955
0
ARC
8
DEFAULT_255_1_234
10
5.6555939
20
12.9623686
40
0.5345136
50
359.682601
51
11.132623
0
ARC
8
DEFAULT_255_1_234
10
5.651607
20
12.955301
40
0.5385081
50
347.2486944
51
0.4369317
0
ARC
8
DEFAULT_255_1_234
10
5.8183547
20
12.9151807
40
0.3670249
50
318.1409698
51
347.6118597
0
ARC
8
DEFAULT_255_1_234
10
5.850854
20
12.8884702
40
0.3250007
50
275.6342139
51
317.8248465
0
ARC
8
DEFAULT_255_1_234
10
5.8287651
20
13.0184219
40
0.4565864
50
269.8874292
51
276.7917694
0
ARC
8
DEFAULT_255_1_234
10
5.8232722
20
12.9158743
40
0.3540676
50
246.9140195
51
270.7437342
0
ARC
8
DEFAULT_255_1_234
10
5.8239112
20
12.9016384
40
0.3412781
50
218.1665114
51
245.878116
0
ARC
8
DEFAULT_255_1_234
10
5.9118573
20
12.9752279
40
0.455911
50
191.4115814
51
218.6077802
0
ARC
8
DEFAULT_255_1_234
10
6.1056662
20
13.0186833
40
0.6545001
50
179.6345085
51
191.7836486
0
ARC
8
DEFAULT_255_1_234
10
6.6638999
20
13.0865697
40
1.2127388
50
171.4525249
51
180.3158839
0
ARC
8
DEFAULT_255_1_234
10
6.2243875
20
13.1549608
40
0.7679464
50
157.9802646
51
171.6246686
0
ARC
8
DEFAULT_255_1_234
10
6.0029896
20
13.2432421
40
0.5296008
50
141.4298019
51
157.854097
0
ARC
8
DEFAULT_255_1_234
10
5.9388216
20
13.2886381
40
0.4511509
50
102.8715806
51
140.8564722
0
ARC
8
DEFAULT_255_1_234
10
6.0035832
20
13.0446552
40
0.7034845
50
90.3778349
51
103.5869322
0
ARC
8
DEFAULT_255_1_234
10
5.8297608
20
12.984173
40
0.2370698
50
89.8751008
51
126.2071704
0
ARC
8
DEFAULT_255_1_234
10
5.8343398
20
12.9687303
40
0.2522934
50
124.9745049
51
144.895901
0
ARC
8
DEFAULT_255_1_234
10
5.8167588
20
12.983056
40
0.2296779
50
145.2974905
51
160.2660252
0
ARC
8
DEFAULT_255_1_234
10
6.1240127
20
13.0028071
40
0.5234525
50
179.6514266
51
190.2855912
0
ARC
8
DEFAULT_255_1_234
10
5.9546264
20
12.9708786
40
0.3510893
50
190.0945431
51
207.5098196
0
ARC
8
DEFAULT_255_1_234
10
5.8980534
20
12.9439623
40
0.288489
50
207.9583163
51
216.3251085
0
ARC
8
DEFAULT_255_1_234
10
5.8640642
20
12.9160105
40
0.2445587
50
215.7661442
51
232.5456785
0
ARC
8
DEFAULT_255_1_234
10
5.8257625
20
12.8673482
40
0.1826382
50
232.8005391
51
270.6605633
0
ARC
8
DEFAULT_255_1_234
10
5.8303326
20
12.9037612
40
0.2190529
50
269.35537
51
288.4744281
0
ARC
8
DEFAULT_255_1_234
10
5.8396223
20
12.8688118
40
0.1829749
50
289.1833337
51
322.9683818
0
ARC
8
DEFAULT_255_1_234
10
5.7784745
20
12.9170391
40
0.2608399
50
322.6007884
51
346.5182367
0
ARC
8
DEFAULT_255_1_234
10
5.6627341
20
12.9465616
40
0.3802777
50
346.2582162
51
358.7741648
0
ARC
8
DEFAULT_255_1_234
10
5.560901
20
12.9520965
40
0.4822176
50
358.3755224
51
0.0098023
0
ARC
8
DEFAULT_255_1_234
10
5.6365197
20
12.9548657
40
0.4066078
50
359.6214041
51
11.2839074
0
ARC
8
DEFAULT_255_1_234
10
5.7642344
20
12.9815066
40
0.2761514
50
11.0482309
51
31.8146458
0
ARC
8
DEFAULT_255_1_234
10
5.7951387
20
12.9982584
40
0.2410679
50
32.3035391
51
38.082671
0
ARC
8
DEFAULT_255_1_234
10
5.8372047
20
13.0363662
40
0.1844966
50
36.825067
51
85.7415724
0
ARC
8
DEFAULT_255_1_234
10
5.830488
20
12.9863301
40
0.2349122
50
85.0140713
51
90.0513278
0
LINE
8
DEFAULT_255_1_234
10
4.5741137
20
21.6904433
11
4.5741137
21
20.5154
0
LINE
8
DEFAULT_255_1_234
10
4.5741137
20
20.5154
11
4.4247234
21
20.5154
0
LINE
8
DEFAULT_255_1_234
10
4.4247234
20
20.5154
11
4.4247234
21
21.5057133
0
LINE
8
DEFAULT_255_1_234
10
4.4247234
20
21.5057133
11
4.1251396
21
21.3956785
0
LINE
8
DEFAULT_255_1_234
10
4.1251396
20
21.3956785
11
4.1251396
21
21.5306117
0
LINE
8
DEFAULT_255_1_234
10
4.1251396
20
21.5306117
11
4.5508217
21
21.6904433
0
LINE
8
DEFAULT_255_1_234
10
4.5508217
20
21.6904433
11
4.5741137
21
21.6904433
0
ARC
8
DEFAULT_255_1_234
10
5.1349384
20
20.5942565
40
0.1070357
50
163.5417914
51
180.5078233
0
ARC
8
DEFAULT_255_1_234
10
5.1157202
20
20.5994421
40
0.0871371
50
138.1647447
51
163.2316401
0
ARC
8
DEFAULT_255_1_234
10
5.1044981
20
20.6089534
40
0.0724329
50
105.6856465
51
137.8494928
0
ARC
8
DEFAULT_255_1_234
10
5.1163413
20
20.5705129
40
0.1126485
50
92.6088068
51
106.1990587
0
ARC
8
DEFAULT_255_1_234
10
5.1193786
20
20.5309774
40
0.1522861
50
89.9660831
51
93.0733434
0
ARC
8
DEFAULT_255_1_234
10
5.1204481
20
20.553132
40
0.130135
50
78.4379222
51
90.4311858
0
ARC
8
DEFAULT_255_1_234
10
5.1301061
20
20.5981588
40
0.0840873
50
56.8960528
51
78.7359558
0
ARC
8
DEFAULT_255_1_234
10
5.1364288
20
20.6091877
40
0.0713991
50
42.6499553
51
56.3125067
0
ARC
8
DEFAULT_255_1_234
10
5.1236175
20
20.5974146
40
0.0887984
50
3.8142714
51
42.6365749
0
ARC
8
DEFAULT_255_1_234
10
5.0949976
20
20.5934153
40
0.1176392
50
359.9476902
51
4.8305927
0
ARC
8
DEFAULT_255_1_234
10
5.1176135
20
20.5923541
40
0.0950282
50
340.9376387
51
0.5750546
0
ARC
8
DEFAULT_255_1_234
10
5.1288631
20
20.5893192
40
0.0834082
50
316.0805399
51
340.3842391
0
ARC
8
DEFAULT_255_1_234
10
5.134671
20
20.5839809
40
0.0755219
50
285.8514865
51
315.9414755
0
ARC
8
DEFAULT_255_1_234
10
5.1229281
20
20.6219349
40
0.115244
50
273.1292529
51
286.3135479
0
ARC
8
DEFAULT_255_1_234
10
5.119598
20
20.6621049
40
0.1555398
50
269.9524064
51
273.5463789
0
ARC
8
DEFAULT_255_1_234
10
5.1184932
20
20.6402792
40
0.1337177
50
259.0490813
51
270.4180302
0
ARC
8
DEFAULT_255_1_234
10
5.1088595
20
20.5925393
40
0.0850178
50
239.7587791
51
259.311372
0
ARC
8
DEFAULT_255_1_234
10
5.1007626
20
20.5774482
40
0.0679053
50
222.6244131
51
239.247817
0
ARC
8
DEFAULT_255_1_234
10
5.1142001
20
20.5897619
40
0.0861314
50
182.9227855
51
222.598345
0
ARC
8
DEFAULT_255_1_234
10
5.141062
20
20.5932373
40
0.113155
50
179.9642935
51
183.9868025
0
LINE
8
DEFAULT_255_1_234
10
5.6294841
20
21.0711963
11
5.5106144
21
21.1017169
0
LINE
8
DEFAULT_255_1_234
10
5.5106144
20
21.1017169
11
5.5700493
21
21.6848211
0
LINE
8
DEFAULT_255_1_234
10
5.5700493
20
21.6848211
11
6.1692169
21
21.6848211
0
LINE
8
DEFAULT_255_1_234
10
6.1692169
20
21.6848211
11
6.1692169
21
21.5474784
0
LINE
8
DEFAULT_255_1_234
10
6.1692169
20
21.5474784
11
5.6961476
21
21.5474784
0
LINE
8
DEFAULT_255_1_234
10
5.6961476
20
21.5474784
11
5.6608079
21
21.2286184
0
LINE
8
DEFAULT_255_1_234
10
5.4688494
20
20.8230156
11
5.6094048
21
20.8230156
0
LINE
8
DEFAULT_255_1_234
10
5.6688396
20
21.1033232
11
5.6294841
21
21.0711963
0
ARC
8
DEFAULT_255_1_234
10
5.8462863
20
20.910623
40
0.3681349
50
93.7182161
51
120.2538958
0
ARC
8
DEFAULT_255_1_234
10
5.8557126
20
20.8298394
40
0.449379
50
89.9660152
51
94.2496022
0
ARC
8
DEFAULT_255_1_234
10
5.859786
20
20.8887549
40
0.390482
50
73.8043271
51
90.5585896
0
ARC
8
DEFAULT_255_1_234
10
5.8832757
20
20.9745602
40
0.3015334
50
41.3071453
51
73.5430202
0
ARC
8
DEFAULT_255_1_234
10
5.8416584
20
20.9387324
40
0.3564457
50
13.5075983
51
41.2174222
0
ARC
8
DEFAULT_255_1_234
10
5.6774788
20
20.8957486
40
0.5261351
50
1.1331335
51
13.8829381
0
ARC
8
DEFAULT_255_1_234
10
5.5363157
20
20.8881665
40
0.6674378
50
359.9919444
51
1.544251
0
ARC
8
DEFAULT_255_1_234
10
5.6639983
20
20.884028
40
0.5397702
50
347.8572367
51
0.4293338
0
ARC
8
DEFAULT_255_1_234
10
5.8390301
20
20.8443736
40
0.3603188
50
323.673004
51
348.1672506
0
ARC
8
DEFAULT_255_1_234
10
5.8684809
20
20.8264168
40
0.3259678
50
316.8171152
51
323.1492751
0
ARC
8
DEFAULT_255_1_234
10
5.8745998
20
20.822746
40
0.3189975
50
281.8396411
51
316.5457803
0
ARC
8
DEFAULT_255_1_234
10
5.8370262
20
20.9782762
40
0.4789527
50
269.5770101
51
282.4214771
0
ARC
8
DEFAULT_255_1_234
10
5.8299073
20
20.9569125
40
0.45759
50
256.2427136
51
270.4486331
0
ARC
8
DEFAULT_255_1_234
10
5.7999975
20
20.8369229
40
0.3339303
50
228.9023911
51
256.3314342
0
ARC
8
DEFAULT_255_1_234
10
5.7926208
20
20.8252746
40
0.32031
50
193.753695
51
228.5271154
0
ARC
8
DEFAULT_255_1_234
10
5.9164162
20
20.86158
40
0.4492253
50
184.924711
51
194.497588
0
ARC
8
DEFAULT_255_1_234
10
5.9356729
20
20.8651591
40
0.3289787
50
187.3600538
51
198.6732863
0
ARC
8
DEFAULT_255_1_234
10
5.8307023
20
20.8287674
40
0.217884
50
198.4451669
51
217.794479
0
ARC
8
DEFAULT_255_1_234
10
5.8011198
20
20.8078085
40
0.1816698
50
218.2887171
51
228.5612368
0
ARC
8
DEFAULT_255_1_234
10
5.8108985
20
20.8209963
40
0.1980329
50
228.9654866
51
258.1234728
0
ARC
8
DEFAULT_255_1_234
10
5.8314695
20
20.9090833
40
0.2884748
50
257.7258293
51
270.401361
0
ARC
8
DEFAULT_255_1_234
10
5.8359581
20
20.8645821
40
0.2439788
50
269.4204404
51
286.4209037
0
ARC
8
DEFAULT_255_1_234
10
5.8508069
20
20.8106657
40
0.1880666
50
286.7251356
51
320.600362
0
ARC
8
DEFAULT_255_1_234
10
5.8124894
20
20.8417595
40
0.2374121
50
320.6712579
51
344.5441685
0
ARC
8
DEFAULT_255_1_234
10
5.696822
20
20.8757045
40
0.3579479
50
344.2412205
51
356.7357071
0
ARC
8
DEFAULT_255_1_234
10
5.5719369
20
20.8860444
40
0.4832297
50
356.3548756
51
0.0500261
0
ARC
8
DEFAULT_255_1_234
10
5.7055878
20
20.889165
40
0.3495889
50
359.5576869
51
12.953486
0
ARC
8
DEFAULT_255_1_234
10
5.8110775
20
20.9147434
40
0.2410532
50
12.6490276
51
41.6081334
0
ARC
8
DEFAULT_255_1_234
10
5.8341146
20
20.9343321
40
0.2108218
50
41.7850273
51
85.9892764
0
ARC
8
DEFAULT_255_1_234
10
5.8217883
20
20.8530462
40
0.2928454
50
84.6957577
51
90.0676183
0
ARC
8
DEFAULT_255_1_234
10
5.8194367
20
20.7861716
40
0.3597255
50
89.6804936
51
99.1614436
0
ARC
8
DEFAULT_255_1_234
10
5.7988998
20
20.9089131
40
0.235281
50
98.9830931
51
113.8908934
0
ARC
8
DEFAULT_255_1_234
10
5.7759408
20
20.9630587
40
0.176479
50
114.1950727
51
127.3641004
0
LINE
8
DEFAULT_255_1_234
10
4.6799137
20
29.6279433
11
4.6799137
21
28.4529
0
LINE
8
DEFAULT_255_1_234
10
4.6799137
20
28.4529
11
4.5305234
21
28.4529
0
LINE
8
DEFAULT_255_1_234
10
4.5305234
20
28.4529
11
4.5305234
21
29.4432133
0
LINE
8
DEFAULT_255_1_234
10
4.5305234
20
29.4432133
11
4.2309396
21
29.3331785
0
LINE
8
DEFAULT_255_1_234
10
4.2309396
20
29.3331785
11
4.2309396
21
29.4681117
0
LINE
8
DEFAULT_255_1_234
10
4.2309396
20
29.4681117
11
4.6566217
21
29.6279433
0
LINE
8
DEFAULT_255_1_234
10
4.6566217
20
29.6279433
11
4.6799137
21
29.6279433
0
ARC
8
DEFAULT_255_1_234
10
5.2407384
20
28.5317565
40
0.1070357
50
163.5417914
51
180.5078233
0
ARC
8
DEFAULT_255_1_234
10
5.2215202
20
28.5369421
40
0.0871371
50
138.1647447
51
163.2316401
0
ARC
8
DEFAULT_255_1_234
10
5.2102981
20
28.5464534
40
0.0724329
50
105.6856465
51
137.8494928
0
ARC
8
DEFAULT_255_1_234
10
5.2221413
20
28.5080129
40
0.1126485
50
92.6088068
51
106.1990587
0
ARC
8
DEFAULT_255_1_234
10
5.2251786
20
28.4684774
40
0.1522861
50
89.9660831
51
93.0733434
0
ARC
8
DEFAULT_255_1_234
10
5.2262481
20
28.490632
40
0.130135
50
78.4379222
51
90.4311858
0
ARC
8
DEFAULT_255_1_234
10
5.2359061
20
28.5356588
40
0.0840873
50
56.8960528
51
78.7359558
0
ARC
8
DEFAULT_255_1_234
10
5.2422288
20
28.5466877
40
0.0713991
50
42.6499553
51
56.3125067
0
ARC
8
DEFAULT_255_1_234
10
5.2294175
20
28.5349146
40
0.0887984
50
3.8142714
51
42.6365749
0
ARC
8
DEFAULT_255_1_234
10
5.2007976
20
28.5309153
40
0.1176392
50
359.9476902
51
4.8305927
0
ARC
8
DEFAULT_255_1_234
10
5.2234135
20
28.5298541
40
0.0950282
50
340.9376387
51
0.5750546
0
ARC
8
DEFAULT_255_1_234
10
5.2346631
20
28.5268192
40
0.0834082
50
316.0805399
51
340.3842391
0
ARC
8
DEFAULT_255_1_234
10
5.240471
20
28.5214809
40
0.0755219
50
285.8514865
51
315.9414755
0
ARC
8
DEFAULT_255_1_234
10
5.2287281
20
28.5594349
40
0.115244
50
273.1292529
51
286.3135479
0
ARC
8
DEFAULT_255_1_234
10
5.225398
20
28.5996049
40
0.1555398
50
269.9524064
51
273.5463789
0
ARC
8
DEFAULT_255_1_234
10
5.2242932
20
28.5777792
40
0.1337177
50
259.0490813
51
270.4180302
0
ARC
8
DEFAULT_255_1_234
10
5.2146595
20
28.5300393
40
0.0850178
50
239.7587791
51
259.311372
0
ARC
8
DEFAULT_255_1_234
10
5.2065626
20
28.5149482
40
0.0679053
50
222.6244131
51
239.247817
0
ARC
8
DEFAULT_255_1_234
10
5.2200001
20
28.5272619
40
0.0861314
50
182.9227855
51
222.598345
0
ARC
8
DEFAULT_255_1_234
10
5.246862
20
28.5307373
40
0.113155
50
179.9642935
51
183.9868025
0
LINE
8
DEFAULT_255_1_234
10
6.1754234
20
29.6223211
11
6.1754234
21
28.845652
0
LINE
8
DEFAULT_255_1_234
10
6.1754234
20
28.845652
11
6.3376645
21
28.845652
0
LINE
8
DEFAULT_255_1_234
10
6.3376645
20
28.845652
11
6.3376645
21
28.7243728
0
LINE
8
DEFAULT_255_1_234
10
6.3376645
20
28.7243728
11
6.1754234
21
28.7243728
0
LINE
8
DEFAULT_255_1_234
10
6.1754234
20
28.7243728
11
6.1754234
21
28.4529
0
LINE
8
DEFAULT_255_1_234
10
6.1754234
20
28.4529
11
6.0260331
21
28.4529
0
LINE
8
DEFAULT_255_1_234
10
6.0260331
20
28.4529
11
6.0260331
21
28.7243728
0
LINE
8
DEFAULT_255_1_234
10
6.0260331
20
28.7243728
11
5.4935288
21
28.7243728
0
LINE
8
DEFAULT_255_1_234
10
5.4935288
20
28.7243728
11
5.4935288
21
28.8119187
0
LINE
8
DEFAULT_255_1_234
10
5.4935288
20
28.8119187
11
6.0171981
21
29.6223211
0
LINE
8
DEFAULT_255_1_234
10
6.0171981
20
29.6223211
11
6.1754234
21
29.6223211
0
LINE
8
DEFAULT_255_1_234
10
6.0083632
20
29.3869912
11
5.6621953
21
28.845652
0
LINE
8
DEFAULT_255_1_234
10
5.6621953
20
28.845652
11
6.0260331
21
28.845652
0
LINE
8
DEFAULT_255_1_234
10
6.0260331
20
28.845652
11
6.0260331
21
29.4191181
0
LINE
8
DEFAULT_255_1_234
10
6.0260331
20
29.4191181
11
6.0083632
21
29.3869912
0
LINE
8
DEFAULT_255_1_234
10
4.5741137
20
37.5654433
11
4.5741137
21
36.3904
0
LINE
8
DEFAULT_255_1_234
10
4.5741137
20
36.3904
11
4.4247234
21
36.3904
0
LINE
8
DEFAULT_255_1_234
10
4.4247234
20
36.3904
11
4.4247234
21
37.3807133
0
LINE
8
DEFAULT_255_1_234
10
4.4247234
20
37.3807133
11
4.1251396
21
37.2706785
0
LINE
8
DEFAULT_255_1_234
10
4.1251396
20
37.2706785
11
4.1251396
21
37.4056117
0
LINE
8
DEFAULT_255_1_234
10
4.1251396
20
37.4056117
11
4.5508217
21
37.5654433
0
LINE
8
DEFAULT_255_1_234
10
4.5508217
20
37.5654433
11
4.5741137
21
37.5654433
0
ARC
8
DEFAULT_255_1_234
10
5.1349384
20
36.4692565
40
0.1070357
50
163.5417914
51
180.5078233
0
ARC
8
DEFAULT_255_1_234
10
5.1157202
20
36.4744421
40
0.0871371
50
138.1647447
51
163.2316401
0
ARC
8
DEFAULT_255_1_234
10
5.1044981
20
36.4839534
40
0.0724329
50
105.6856465
51
137.8494928
0
ARC
8
DEFAULT_255_1_234
10
5.1163413
20
36.4455129
40
0.1126485
50
92.6088068
51
106.1990587
0
ARC
8
DEFAULT_255_1_234
10
5.1193786
20
36.4059774
40
0.1522861
50
89.9660831
51
93.0733434
0
ARC
8
DEFAULT_255_1_234
10
5.1204481
20
36.428132
40
0.130135
50
78.4379222
51
90.4311858
0
ARC
8
DEFAULT_255_1_234
10
5.1301061
20
36.4731588
40
0.0840873
50
56.8960528
51
78.7359558
0
ARC
8
DEFAULT_255_1_234
10
5.1364288
20
36.4841877
40
0.0713991
50
42.6499553
51
56.3125067
0
ARC
8
DEFAULT_255_1_234
10
5.1236175
20
36.4724146
40
0.0887984
50
3.8142714
51
42.6365749
0
ARC
8
DEFAULT_255_1_234
10
5.0949976
20
36.4684153
40
0.1176392
50
359.9476902
51
4.8305927
0
ARC
8
DEFAULT_255_1_234
10
5.1176135
20
36.4673541
40
0.0950282
50
340.9376387
51
0.5750546
0
ARC
8
DEFAULT_255_1_234
10
5.1288631
20
36.4643192
40
0.0834082
50
316.0805399
51
340.3842391
0
ARC
8
DEFAULT_255_1_234
10
5.134671
20
36.4589809
40
0.0755219
50
285.8514865
51
315.9414755
0
ARC
8
DEFAULT_255_1_234
10
5.1229281
20
36.4969349
40
0.115244
50
273.1292529
51
286.3135479
0
ARC
8
DEFAULT_255_1_234
10
5.119598
20
36.5371049
40
0.1555398
50
269.9524064
51
273.5463789
0
ARC
8
DEFAULT_255_1_234
10
5.1184932
20
36.5152792
40
0.1337177
50
259.0490813
51
270.4180302
0
ARC
8
DEFAULT_255_1_234
10
5.1088595
20
36.4675393
40
0.0850178
50
239.7587791
51
259.311372
0
ARC
8
DEFAULT_255_1_234
10
5.1007626
20
36.4524482
40
0.0679053
50
222.6244131
51
239.247817
0
ARC
8
DEFAULT_255_1_234
10
5.1142001
20
36.4647619
40
0.0861314
50
182.9227855
51
222.598345
0
ARC
8
DEFAULT_255_1_234
10
5.141062
20
36.4682373
40
0.113155
50
179.9642935
51
183.9868025
0
LINE
8
DEFAULT_255_1_234
10
5.6583984
20
36.9261169
11
5.6583984
21
37.0473962
0
LINE
8
DEFAULT_255_1_234
10
5.6583984
20
37.0473962
11
5.7700396
21
37.0473962
0
LINE
8
DEFAULT_255_1_234
10
5.5796874
20
37.2530087
11
5.4311002
21
37.2530087
0
LINE
8
DEFAULT_255_1_234
10
5.4206589
20
36.6988188
11
5.5700493
21
36.6988188
0
LINE
8
DEFAULT_255_1_234
10
5.7700396
20
36.9261169
11
5.6583984
21
36.9261169
0
ARC
8
DEFAULT_255_1_234
10
5.7671262
20
37.3866713
40
0.3392876
50
270.4919872
51
281.8951556
0
ARC
8
DEFAULT_255_1_234
10
5.7912524
20
37.2764702
40
0.2264817
50
281.6691735
51
301.2943132
0
ARC
8
DEFAULT_255_1_234
10
5.8082734
20
37.2453304
40
0.1910381
50
301.7833094
51
311.7545298
0
ARC
8
DEFAULT_255_1_234
10
5.817431
20
37.2351748
40
0.1773635
50
311.7323931
51
354.2802411
0
ARC
8
DEFAULT_255_1_234
10
5.7447935
20
37.2476722
40
0.2509385
50
353.0937916
51
0.1181479
0
ARC
8
DEFAULT_255_1_234
10
5.698672
20
37.2524386
40
0.2970898
50
359.1805295
51
15.0453146
0
ARC
8
DEFAULT_255_1_234
10
5.8332557
20
37.2916992
40
0.1569564
50
13.9577229
51
77.6713066
0
ARC
8
DEFAULT_255_1_234
10
5.7946086
20
37.1531949
40
0.3006298
50
76.1116566
51
90.7026153
0
ARC
8
DEFAULT_255_1_234
10
5.7886924
20
37.1805545
40
0.2732568
50
89.5324876
51
103.531937
0
ARC
8
DEFAULT_255_1_234
10
5.7686368
20
37.2604884
40
0.1908508
50
103.2931773
51
133.5619022
0
ARC
8
DEFAULT_255_1_234
10
5.7641857
20
37.2664375
40
0.1834746
50
133.8349307
51
173.5344437
0
ARC
8
DEFAULT_255_1_234
10
5.83649
20
37.2536213
40
0.2568033
50
172.5096846
51
180.1366907
0
ARC
8
DEFAULT_255_1_234
10
5.7413794
20
37.2570622
40
0.3103056
50
155.3484492
51
180.7484736
0
ARC
8
DEFAULT_255_1_234
10
5.7364883
20
37.2541846
40
0.3070957
50
131.5744599
51
154.4798489
0
ARC
8
DEFAULT_255_1_234
10
5.767803
20
37.222531
40
0.3515643
50
96.9875458
51
131.9690667
0
ARC
8
DEFAULT_255_1_234
10
5.789751
20
37.0979636
40
0.4779224
50
89.8596053
51
97.7825159
0
ARC
8
DEFAULT_255_1_234
10
5.7945573
20
37.0717616
40
0.5041361
50
78.3655447
51
90.4131539
0
ARC
8
DEFAULT_255_1_234
10
5.8303491
20
37.2376887
40
0.3344039
50
56.6229102
51
78.638727
0
ARC
8
DEFAULT_255_1_234
10
5.8518435
20
37.2752805
40
0.2912001
50
47.0253525
51
56.0854072
0
ARC
8
DEFAULT_255_1_234
10
5.8538215
20
37.2792223
40
0.2869704
50
10.9208013
51
46.7778124
0
ARC
8
DEFAULT_255_1_234
10
5.7174281
20
37.2476857
40
0.426899
50
359.6364486
51
11.6087304
0
ARC
8
DEFAULT_255_1_234
10
5.9009125
20
37.2461752
40
0.243409
50
332.3549906
51
359.7179418
0
ARC
8
DEFAULT_255_1_234
10
5.8358727
20
37.2770142
40
0.3153459
50
325.2333722
51
332.8745602
0
ARC
8
DEFAULT_255_1_234
10
5.851135
20
37.2663828
40
0.2967456
50
292.9802137
51
325.2392345
0
ARC
8
DEFAULT_255_1_234
10
5.8236724
20
37.3197863
40
0.3566604
50
292.5402179
51
293.6924929
0
ARC
8
DEFAULT_255_1_234
10
5.862932
20
36.6743091
40
0.3307468
50
57.6435486
51
72.8625112
0
ARC
8
DEFAULT_255_1_234
10
5.898382
20
36.7317549
40
0.2632492
50
36.7248896
51
57.4697979
0
ARC
8
DEFAULT_255_1_234
10
5.8972452
20
36.733022
40
0.2634081
50
8.0545065
51
36.356114
0
ARC
8
DEFAULT_255_1_234
10
5.8109638
20
36.7175174
40
0.3510261
50
359.8320645
51
8.5869982
0
ARC
8
DEFAULT_255_1_234
10
5.7734414
20
36.7127101
40
0.3885653
50
343.9829931
51
0.5571613
0
ARC
8
DEFAULT_255_1_234
10
5.8620611
20
36.6884438
40
0.2966924
50
311.6359546
51
343.7651759
0
ARC
8
DEFAULT_255_1_234
10
5.824218
20
36.7311102
40
0.3537231
50
279.7829875
51
311.6255694
0
ARC
8
DEFAULT_255_1_234
10
5.7940956
20
36.874828
40
0.5004971
50
269.7286406
51
280.3856417
0
ARC
8
DEFAULT_255_1_234
10
5.7879029
20
36.8706996
40
0.4963778
50
256.6828919
51
270.4412052
0
ARC
8
DEFAULT_255_1_234
10
5.7540325
20
36.7322394
40
0.3538406
50
229.4223008
51
256.8556159
0
ARC
8
DEFAULT_255_1_234
10
5.7125718
20
36.6855736
40
0.2914296
50
181.818294
51
229.6455059
0
ARC
8
DEFAULT_255_1_234
10
5.8165674
20
36.6986496
40
0.3959084
50
179.9755256
51
183.2323064
0
ARC
8
DEFAULT_255_1_234
10
5.799342
20
36.6966037
40
0.2293034
50
179.4465117
51
196.2869258
0
ARC
8
DEFAULT_255_1_234
10
5.7505828
20
36.6832651
40
0.1787621
50
196.5661473
51
227.705904
0
ARC
8
DEFAULT_255_1_234
10
5.7669923
20
36.7016155
40
0.2033784
50
227.7652068
51
257.8762805
0
ARC
8
DEFAULT_255_1_234
10
5.7894893
20
36.7959156
40
0.3003081
50
257.4584385
51
270.426602
0
ARC
8
DEFAULT_255_1_234
10
5.7940459
20
36.8248996
40
0.329292
50
269.5962073
51
280.8789248
0
ARC
8
DEFAULT_255_1_234
10
5.8169988
20
36.7102685
40
0.2123908
50
280.6346389
51
299.8595945
0
ARC
8
DEFAULT_255_1_234
10
5.8360894
20
36.6740212
40
0.171457
50
300.3576302
51
314.5517981
0
ARC
8
DEFAULT_255_1_234
10
5.8277955
20
36.6800919
40
0.1816095
50
315.0728369
51
345.0431014
0
ARC
8
DEFAULT_255_1_234
10
5.7354769
20
36.7069841
40
0.2777492
50
344.5986631
51
357.9269593
0
ARC
8
DEFAULT_255_1_234
10
5.6459095
20
36.7131276
40
0.3674917
50
357.4748886
51
0.0231117
0
ARC
8
DEFAULT_255_1_234
10
5.7482205
20
36.7155679
40
0.2651907
50
359.5047933
51
13.4239635
0
ARC
8
DEFAULT_255_1_234
10
5.8348848
20
36.7377478
40
0.1757509
50
12.9498199
51
48.7551375
0
ARC
8
DEFAULT_255_1_234
10
5.8166582
20
36.71284
40
0.2065134
50
49.5088623
51
72.1836453
0
ARC
8
DEFAULT_255_1_234
10
5.7808735
20
36.6066291
40
0.3185836
50
71.9010081
51
84.3554254
0
ARC
8
DEFAULT_255_1_234
10
5.7647367
20
36.4705326
40
0.4556151
50
84.0193428
51
89.333121
0
LINE
8
DEFAULT_255_1_234
10
4.5741137
20
45.5029433
11
4.5741137
21
44.3279
0
LINE
8
DEFAULT_255_1_234
10
4.5741137
20
44.3279
11
4.4247234
21
44.3279
0
LINE
8
DEFAULT_255_1_234
10
4.4247234
20
44.3279
11
4.4247234
21
45.3182133
0
LINE
8
DEFAULT_255_1_234
10
4.4247234
20
45.3182133
11
4.1251396
21
45.2081785
0
LINE
8
DEFAULT_255_1_234
10
4.1251396
20
45.2081785
11
4.1251396
21
45.3431117
0
LINE
8
DEFAULT_255_1_234
10
4.1251396
20
45.3431117
11
4.5508217
21
45.5029433
0
LINE
8
DEFAULT_255_1_234
10
4.5508217
20
45.5029433
11
4.5741137
21
45.5029433
0
ARC
8
DEFAULT_255_1_234
10
5.1349384
20
44.4067565
40
0.1070357
50
163.5417914
51
180.5078233
0
ARC
8
DEFAULT_255_1_234
10
5.1157202
20
44.4119421
40
0.0871371
50
138.1647447
51
163.2316401
0
ARC
8
DEFAULT_255_1_234
10
5.1044981
20
44.4214534
40
0.0724329
50
105.6856465
51
137.8494928
0
ARC
8
DEFAULT_255_1_234
10
5.1163413
20
44.3830129
40
0.1126485
50
92.6088068
51
106.1990587
0
ARC
8
DEFAULT_255_1_234
10
5.1193786
20
44.3434774
40
0.1522861
50
89.9660831
51
93.0733434
0
ARC
8
DEFAULT_255_1_234
10
5.1204481
20
44.365632
40
0.130135
50
78.4379222
51
90.4311858
0
ARC
8
DEFAULT_255_1_234
10
5.1301061
20
44.4106588
40
0.0840873
50
56.8960528
51
78.7359558
0
ARC
8
DEFAULT_255_1_234
10
5.1364288
20
44.4216877
40
0.0713991
50
42.6499553
51
56.3125067
0
ARC
8
DEFAULT_255_1_234
10
5.1236175
20
44.4099146
40
0.0887984
50
3.8142714
51
42.6365749
0
ARC
8
DEFAULT_255_1_234
10
5.0949976
20
44.4059153
40
0.1176392
50
359.9476902
51
4.8305927
0
ARC
8
DEFAULT_255_1_234
10
5.1176135
20
44.4048541
40
0.0950282
50
340.9376387
51
0.5750546
0
ARC
8
DEFAULT_255_1_234
10
5.1288631
20
44.4018192
40
0.0834082
50
316.0805399
51
340.3842391
0
ARC
8
DEFAULT_255_1_234
10
5.134671
20
44.3964809
40
0.0755219
50
285.8514865
51
315.9414755
0
ARC
8
DEFAULT_255_1_234
10
5.1229281
20
44.4344349
40
0.115244
50
273.1292529
51
286.3135479
0
ARC
8
DEFAULT_255_1_234
10
5.119598
20
44.4746049
40
0.1555398
50
269.9524064
51
273.5463789
0
ARC
8
DEFAULT_255_1_234
10
5.1184932
20
44.4527792
40
0.1337177
50
259.0490813
51
270.4180302
0
ARC
8
DEFAULT_255_1_234
10
5.1088595
20
44.4050393
40
0.0850178
50
239.7587791
51
259.311372
0
ARC
8
DEFAULT_255_1_234
10
5.1007626
20
44.3899482
40
0.0679053
50
222.6244131
51
239.247817
0
ARC
8
DEFAULT_255_1_234
10
5.1142001
20
44.4022619
40
0.0861314
50
182.9227855
51
222.598345
0
ARC
8
DEFAULT_255_1_234
10
5.141062
20
44.4057373
40
0.113155
50
179.9642935
51
183.9868025
0
LINE
8
DEFAULT_255_1_234
10
6.2085725
20
44.4491792
11
6.2085725
21
44.3279
0
LINE
8
DEFAULT_255_1_234
10
6.2085725
20
44.3279
11
5.4423446
21
44.3279
0
LINE
8
DEFAULT_255_1_234
10
5.4423446
20
44.3279
11
5.4423446
21
44.4347221
0
LINE
8
DEFAULT_255_1_234
10
5.4423446
20
44.4347221
11
5.8471442
21
44.8844995
0
LINE
8
DEFAULT_255_1_234
10
5.5684429
20
45.1527595
11
5.4198558
21
45.1527595
0
LINE
8
DEFAULT_255_1_234
10
5.9346902
20
44.7889218
11
5.6214524
21
44.4491792
0
LINE
8
DEFAULT_255_1_234
10
5.6214524
20
44.4491792
11
6.2085725
21
44.4491792
0
ARC
8
DEFAULT_255_1_234
10
4.4981276
20
46.0774527
40
1.8008286
50
318.5132453
51
320.7828378
0
ARC
8
DEFAULT_255_1_234
10
5.026825
20
45.6471426
40
1.1191493
50
320.7372736
51
323.9737074
0
ARC
8
DEFAULT_255_1_234
10
5.4188106
20
45.3631361
40
0.6350923
50
323.8961724
51
328.6421089
0
ARC
8
DEFAULT_255_1_234
10
5.6234702
20
45.2369031
40
0.3946393
50
328.8299013
51
331.789948
0
ARC
8
DEFAULT_255_1_234
10
5.723188
20
45.1854509
40
0.2824501
50
331.4255242
51
352.9364833
0
ARC
8
DEFAULT_255_1_234
10
5.7368381
20
45.1823976
40
0.2685315
50
353.2248685
51
0.0169286
0
ARC
8
DEFAULT_255_1_234
10
5.7578258
20
45.184695
40
0.2475536
50
359.4866256
51
15.9339782
0
ARC
8
DEFAULT_255_1_234
10
5.8085243
20
45.1983286
40
0.1950618
50
16.1714718
51
43.5284424
0
ARC
8
DEFAULT_255_1_234
10
5.8162552
20
45.2060573
40
0.184134
50
43.4415429
51
83.1661404
0
ARC
8
DEFAULT_255_1_234
10
5.802847
20
45.1323771
40
0.258926
50
82.160215
51
90.1505798
0
ARC
8
DEFAULT_255_1_234
10
5.7996897
20
45.0786865
40
0.3126255
50
89.5460705
51
102.5418777
0
ARC
8
DEFAULT_255_1_234
10
5.7753983
20
45.1817665
40
0.2067346
50
102.1739365
51
129.2061916
0
ARC
8
DEFAULT_255_1_234
10
5.7675055
20
45.1942094
40
0.1921118
50
129.7279328
51
135.7542026
0
ARC
8
DEFAULT_255_1_234
10
5.7796583
20
45.1845045
40
0.2075944
50
136.175737
51
166.3674722
0
ARC
8
DEFAULT_255_1_234
10
5.8803502
20
45.1575182
40
0.3118201
50
165.9092917
51
178.8683903
0
ARC
8
DEFAULT_255_1_234
10
5.9668363
20
45.1528179
40
0.3983935
50
178.438168
51
180.0083905
0
ARC
8
DEFAULT_255_1_234
10
5.8266965
20
45.1567231
40
0.4068601
50
163.2878735
51
180.5581814
0
ARC
8
DEFAULT_255_1_234
10
5.7465227
20
45.178784
40
0.3237344
50
133.454115
51
162.9470031
0
ARC
8
DEFAULT_255_1_234
10
5.7643768
20
45.1598
40
0.349795
50
100.7869394
51
133.4384016
0
ARC
8
DEFAULT_255_1_234
10
5.799154
20
45.0049319
40
0.5084616
50
89.6605301
51
101.3704185
0
ARC
8
DEFAULT_255_1_234
10
5.8057878
20
45.0110496
40
0.502348
50
78.2171172
51
90.4130393
0
ARC
8
DEFAULT_255_1_234
10
5.8412957
20
45.1734637
40
0.3361092
50
55.9268222
51
78.4888551
0
ARC
8
DEFAULT_255_1_234
10
5.8609397
20
45.2073324
40
0.2970617
50
47.9292255
51
55.4054003
0
ARC
8
DEFAULT_255_1_234
10
5.8710957
20
45.2176502
40
0.2825983
50
4.3347696
51
48.0560701
0
ARC
8
DEFAULT_255_1_234
10
5.7615351
20
45.2006601
40
0.393225
50
359.925209
51
5.5967654
0
ARC
8
DEFAULT_255_1_234
10
5.8044243
20
45.2062816
40
0.3503892
50
337.8914096
51
358.9967724
0
ARC
8
DEFAULT_255_1_234
10
5.5330655
20
45.3109706
40
0.6412172
50
326.9135351
51
338.3505194
0
ARC
8
DEFAULT_255_1_234
10
5.1344959
20
45.5664284
40
1.1146189
50
319.6472867
51
327.095818
0
ARC
8
DEFAULT_255_1_234
10
4.7511962
20
45.8826
40
1.6114559
50
317.2586784
51
319.9046139
0
LINE
8
DEFAULT_255_1_234
10
4.5661137
20
53.4404433
11
4.5661137
21
52.2654
0
LINE
8
DEFAULT_255_1_234
10
4.5661137
20
52.2654
11
4.4167234
21
52.2654
0
LINE
8
DEFAULT_255_1_234
10
4.4167234
20
52.2654
11
4.4167234
21
53.2557133
0
LINE
8
DEFAULT_255_1_234
10
4.4167234
20
53.2557133
11
4.1171396
21
53.1456785
0
LINE
8
DEFAULT_255_1_234
10
4.1171396
20
53.1456785
11
4.1171396
21
53.2806117
0
LINE
8
DEFAULT_255_1_234
10
4.1171396
20
53.2806117
11
4.5428217
21
53.4404433
0
LINE
8
DEFAULT_255_1_234
10
4.5428217
20
53.4404433
11
4.5661137
21
53.4404433
0
ARC
8
DEFAULT_255_1_234
10
5.1269384
20
52.3442565
40
0.1070357
50
163.5417914
51
180.5078233
0
ARC
8
DEFAULT_255_1_234
10
5.1077202
20
52.3494421
40
0.0871371
50
138.1647447
51
163.2316401
0
ARC
8
DEFAULT_255_1_234
10
5.0964981
20
52.3589534
40
0.0724329
50
105.6856465
51
137.8494928
0
ARC
8
DEFAULT_255_1_234
10
5.1083413
20
52.3205129
40
0.1126485
50
92.6088068
51
106.1990587
0
ARC
8
DEFAULT_255_1_234
10
5.1113786
20
52.2809774
40
0.1522861
50
89.9660831
51
93.0733434
0
ARC
8
DEFAULT_255_1_234
10
5.1124481
20
52.303132
40
0.130135
50
78.4379222
51
90.4311858
0
ARC
8
DEFAULT_255_1_234
10
5.1221061
20
52.3481588
40
0.0840873
50
56.8960528
51
78.7359558
0
ARC
8
DEFAULT_255_1_234
10
5.1284288
20
52.3591877
40
0.0713991
50
42.6499553
51
56.3125067
0
ARC
8
DEFAULT_255_1_234
10
5.1156175
20
52.3474146
40
0.0887984
50
3.8142714
51
42.6365749
0
ARC
8
DEFAULT_255_1_234
10
5.0869976
20
52.3434153
40
0.1176392
50
359.9476902
51
4.8305927
0
ARC
8
DEFAULT_255_1_234
10
5.1096135
20
52.3423541
40
0.0950282
50
340.9376387
51
0.5750546
0
ARC
8
DEFAULT_255_1_234
10
5.1208631
20
52.3393192
40
0.0834082
50
316.0805399
51
340.3842391
0
ARC
8
DEFAULT_255_1_234
10
5.126671
20
52.3339809
40
0.0755219
50
285.8514865
51
315.9414755
0
ARC
8
DEFAULT_255_1_234
10
5.1149281
20
52.3719349
40
0.115244
50
273.1292529
51
286.3135479
0
ARC
8
DEFAULT_255_1_234
10
5.111598
20
52.4121049
40
0.1555398
50
269.9524064
51
273.5463789
0
ARC
8
DEFAULT_255_1_234
10
5.1104932
20
52.3902792
40
0.1337177
50
259.0490813
51
270.4180302
0
ARC
8
DEFAULT_255_1_234
10
5.1008595
20
52.3425393
40
0.0850178
50
239.7587791
51
259.311372
0
ARC
8
DEFAULT_255_1_234
10
5.0927626
20
52.3274482
40
0.0679053
50
222.6244131
51
239.247817
0
ARC
8
DEFAULT_255_1_234
10
5.1062001
20
52.3397619
40
0.0861314
50
182.9227855
51
222.598345
0
ARC
8
DEFAULT_255_1_234
10
5.133062
20
52.3432373
40
0.113155
50
179.9642935
51
183.9868025
0
LINE
8
DEFAULT_255_1_234
10
5.9226743
20
53.4404433
11
5.9226743
21
52.2654
0
LINE
8
DEFAULT_255_1_234
10
5.9226743
20
52.2654
11
5.773284
21
52.2654
0
LINE
8
DEFAULT_255_1_234
10
5.773284
20
52.2654
11
5.773284
21
53.2557133
0
LINE
8
DEFAULT_255_1_234
10
5.773284
20
53.2557133
11
5.4737001
21
53.1456785
0
LINE
8
DEFAULT_255_1_234
10
5.4737001
20
53.1456785
11
5.4737001
21
53.2806117
0
LINE
8
DEFAULT_255_1_234
10
5.4737001
20
53.2806117
11
5.8993823
21
53.4404433
0
LINE
8
DEFAULT_255_1_234
10
5.8993823
20
53.4404433
11
5.9226743
21
53.4404433
0
LINE
8
DEFAULT_255_1_234
10
4.5741137
20
61.3779433
11
4.5741137
21
60.2029
0
LINE
8
DEFAULT_255_1_234
10
4.5741137
20
60.2029
11
4.4247234
21
60.2029
0
LINE
8
DEFAULT_255_1_234
10
4.4247234
20
60.2029
11
4.4247234
21
61.1932133
0
LINE
8
DEFAULT_255_1_234
10
4.4247234
20
61.1932133
11
4.1251396
21
61.0831785
0
LINE
8
DEFAULT_255_1_234
10
4.1251396
20
61.0831785
11
4.1251396
21
61.2181117
0
LINE
8
DEFAULT_255_1_234
10
4.1251396
20
61.2181117
11
4.5508217
21
61.3779433
0
LINE
8
DEFAULT_255_1_234
10
4.5508217
20
61.3779433
11
4.5741137
21
61.3779433
0
ARC
8
DEFAULT_255_1_234
10
5.1349384
20
60.2817565
40
0.1070357
50
163.5417914
51
180.5078233
0
ARC
8
DEFAULT_255_1_234
10
5.1157202
20
60.2869421
40
0.0871371
50
138.1647447
51
163.2316401
0
ARC
8
DEFAULT_255_1_234
10
5.1044981
20
60.2964534
40
0.0724329
50
105.6856465
51
137.8494928
0
ARC
8
DEFAULT_255_1_234
10
5.1163413
20
60.2580129
40
0.1126485
50
92.6088068
51
106.1990587
0
ARC
8
DEFAULT_255_1_234
10
5.1193786
20
60.2184774
40
0.1522861
50
89.9660831
51
93.0733434
0
ARC
8
DEFAULT_255_1_234
10
5.1204481
20
60.240632
40
0.130135
50
78.4379222
51
90.4311858
0
ARC
8
DEFAULT_255_1_234
10
5.1301061
20
60.2856588
40
0.0840873
50
56.8960528
51
78.7359558
0
ARC
8
DEFAULT_255_1_234
10
5.1364288
20
60.2966877
40
0.0713991
50
42.6499553
51
56.3125067
0
ARC
8
DEFAULT_255_1_234
10
5.1236175
20
60.2849146
40
0.0887984
50
3.8142714
51
42.6365749
0
ARC
8
DEFAULT_255_1_234
10
5.0949976
20
60.2809153
40
0.1176392
50
359.9476902
51
4.8305927
0
ARC
8
DEFAULT_255_1_234
10
5.1176135
20
60.2798541
40
0.0950282
50
340.9376387
51
0.5750546
0
ARC
8
DEFAULT_255_1_234
10
5.1288631
20
60.2768192
40
0.0834082
50
316.0805399
51
340.3842391
0
ARC
8
DEFAULT_255_1_234
10
5.134671
20
60.2714809
40
0.0755219
50
285.8514865
51
315.9414755
0
ARC
8
DEFAULT_255_1_234
10
5.1229281
20
60.3094349
40
0.115244
50
273.1292529
51
286.3135479
0
ARC
8
DEFAULT_255_1_234
10
5.119598
20
60.3496049
40
0.1555398
50
269.9524064
51
273.5463789
0
ARC
8
DEFAULT_255_1_234
10
5.1184932
20
60.3277792
40
0.1337177
50
259.0490813
51
270.4180302
0
ARC
8
DEFAULT_255_1_234
10
5.1088595
20
60.2800393
40
0.0850178
50
239.7587791
51
259.311372
0
ARC
8
DEFAULT_255_1_234
10
5.1007626
20
60.2649482
40
0.0679053
50
222.6244131
51
239.247817
0
ARC
8
DEFAULT_255_1_234
10
5.1142001
20
60.2772619
40
0.0861314
50
182.9227855
51
222.598345
0
ARC
8
DEFAULT_255_1_234
10
5.141062
20
60.2807373
40
0.113155
50
179.9642935
51
183.9868025
0
LINE
8
DEFAULT_255_1_234
10
6.1756423
20
60.8944327
11
6.1756423
21
60.7016709
0
LINE
8
DEFAULT_255_1_234
10
5.4375256
20
60.6815916
11
5.4375256
21
60.8799755
0
LINE
8
DEFAULT_255_1_234
10
6.0270552
20
60.6615123
11
6.0270552
21
60.9048739
0
LINE
8
DEFAULT_255_1_234
10
5.5861127
20
60.9161184
11
5.5861127
21
60.6783789
0
ARC
8
DEFAULT_255_1_234
10
4.9509313
20
60.6967805
40
1.2247208
50
353.8441951
51
0.2287902
0
ARC
8
DEFAULT_255_1_234
10
5.4148817
20
60.6449806
40
0.7578929
50
344.4934747
51
353.9765454
0
ARC
8
DEFAULT_255_1_234
10
5.7141407
20
60.5598981
40
0.4467846
50
329.2803592
51
344.7472793
0
ARC
8
DEFAULT_255_1_234
10
5.8134232
20
60.5054018
40
0.3336173
50
324.9352394
51
328.6160465
0
ARC
8
DEFAULT_255_1_234
10
5.851134
20
60.4790427
40
0.2876076
50
280.580143
51
324.9173126
0
ARC
8
DEFAULT_255_1_234
10
5.8110133
20
60.6461099
40
0.4592847
50
269.5977311
51
281.6734359
0
ARC
8
DEFAULT_255_1_234
10
5.8038039
20
60.6341173
40
0.4472986
50
256.6228859
51
270.51044
0
ARC
8
DEFAULT_255_1_234
10
5.7636016
20
60.4792877
40
0.2873874
50
215.8618325
51
257.2788573
0
ARC
8
DEFAULT_255_1_234
10
5.8657048
20
60.5477977
40
0.4102928
50
197.9693508
51
215.2623606
0
ARC
8
DEFAULT_255_1_234
10
6.1142164
20
60.6316709
40
0.6725652
50
187.8816417
51
198.2346507
0
ARC
8
DEFAULT_255_1_234
10
6.5100372
20
60.6888079
40
1.0724845
50
180.8976217
51
188.0055519
0
ARC
8
DEFAULT_255_1_234
10
6.790056
20
60.6991777
40
1.3526448
50
180.7449369
51
181.1510016
0
ARC
8
DEFAULT_255_1_234
10
6.6323289
20
60.8848042
40
1.1948131
50
173.7675579
51
180.231553
0
ARC
8
DEFAULT_255_1_234
10
6.1805436
20
60.9358666
40
0.7401564
50
164.3058563
51
173.9002247
0
ARC
8
DEFAULT_255_1_234
10
5.8893505
20
61.0197656
40
0.4371288
50
148.7922025
51
164.568378
0
ARC
8
DEFAULT_255_1_234
10
5.7941957
20
61.0728929
40
0.3282386
50
144.5883898
51
148.1176286
0
ARC
8
DEFAULT_255_1_234
10
5.7598855
20
61.0968315
40
0.2864044
50
101.6440918
51
144.514236
0
ARC
8
DEFAULT_255_1_234
10
5.8023921
20
60.9279069
40
0.4604934
50
89.5284041
51
102.5819763
0
ARC
8
DEFAULT_255_1_234
10
5.8103009
20
60.9240018
40
0.464401
50
77.0437873
51
90.5081339
0
ARC
8
DEFAULT_255_1_234
10
5.8505011
20
61.0882615
40
0.2953195
50
48.2778575
51
77.4994676
0
ARC
8
DEFAULT_255_1_234
10
5.8577642
20
61.1011746
40
0.2808655
50
36.3142134
51
47.6305865
0
ARC
8
DEFAULT_255_1_234
10
5.7708949
20
61.0426515
40
0.3855453
50
18.2931786
51
35.6769206
0
ARC
8
DEFAULT_255_1_234
10
5.5165708
20
60.9553593
40
0.654423
50
8.024666
51
18.5605216
0
ARC
8
DEFAULT_255_1_234
10
5.1002628
20
60.8938792
40
1.0752407
50
1.1274072
51
8.1718305
0
ARC
8
DEFAULT_255_1_234
10
4.7766818
20
60.8811885
40
1.3990231
50
0.5424119
51
1.3863029
0
ARC
8
DEFAULT_255_1_234
10
4.9588196
20
60.9084342
40
1.0682415
50
359.8090433
51
4.9407866
0
ARC
8
DEFAULT_255_1_234
10
5.379821
20
60.9460113
40
0.6455691
50
4.8362157
51
12.2904523
0
ARC
8
DEFAULT_255_1_234
10
5.6553325
20
61.0073965
40
0.3633074
50
12.0805627
51
23.8173984
0
ARC
8
DEFAULT_255_1_234
10
5.772703
20
61.0570919
40
0.2358723
50
24.2871213
51
31.3935614
0
ARC
8
DEFAULT_255_1_234
10
5.8251728
20
61.0914233
40
0.1732111
50
30.7407893
51
82.4657128
0
ARC
8
DEFAULT_255_1_234
10
5.8071862
20
61.0030691
40
0.263235
50
81.1060089
51
90.2184952
0
ARC
8
DEFAULT_255_1_234
10
5.8036161
20
61.0288924
40
0.2374236
50
89.3806855
51
105.6762551
0
ARC
8
DEFAULT_255_1_234
10
5.7852792
20
61.0955567
40
0.1682847
50
105.7981136
51
149.7388061
0
ARC
8
DEFAULT_255_1_234
10
5.891687
20
61.031595
40
0.2924306
50
149.4208916
51
163.6286378
0
ARC
8
DEFAULT_255_1_234
10
6.1007758
20
60.967825
40
0.5110213
50
163.3763315
51
172.1410975
0
ARC
8
DEFAULT_255_1_234
10
6.4308477
20
60.9205518
40
0.8444586
50
172.0259487
51
178.0703232
0
ARC
8
DEFAULT_255_1_234
10
6.7338566
20
60.9061906
40
1.1477868
50
177.8631668
51
179.5044149
0
ARC
8
DEFAULT_255_1_234
10
6.6265971
20
60.6747389
40
1.0404907
50
179.7995573
51
185.2460446
0
ARC
8
DEFAULT_255_1_234
10
6.222301
20
60.6364513
40
0.6343885
50
185.1411642
51
193.0079639
0
ARC
8
DEFAULT_255_1_234
10
5.9579483
20
60.5739641
40
0.3627568
50
192.7897626
51
205.2507664
0
ARC
8
DEFAULT_255_1_234
10
5.853303
20
60.5272415
40
0.2481908
50
205.8005384
51
211.2537509
0
ARC
8
DEFAULT_255_1_234
10
5.800947
20
60.492158
40
0.1852521
50
210.3789793
51
238.4008143
0
ARC
8
DEFAULT_255_1_234
10
5.7989992
20
60.4968376
40
0.1882621
50
239.6520629
51
265.9793761
0
ARC
8
DEFAULT_255_1_234
10
5.8075192
20
60.5640427
40
0.2559272
50
265.1315437
51
270.060332
0
ARC
8
DEFAULT_255_1_234
10
5.8103971
20
60.5316534
40
0.2235528
50
269.3314664
51
287.2178029
0
ARC
8
DEFAULT_255_1_234
10
5.8241823
20
60.4813279
40
0.1714108
50
287.7958004
51
329.080874
0
ARC
8
DEFAULT_255_1_234
10
5.728428
20
60.541093
40
0.2842745
50
328.6634704
51
343.3325132
0
ARC
8
DEFAULT_255_1_234
10
5.51113
20
60.6087863
40
0.5118644
50
343.0499468
51
351.9393422
0
ARC
8
DEFAULT_255_1_234
10
5.16446
20
60.6598949
40
0.8622784
50
351.8069023
51
357.7959224
0
ARC
8
DEFAULT_255_1_234
10
4.8409156
20
60.6766721
40
1.1862365
50
357.5871873
51
359.2677531
0
LINE
8
DEFAULT_255_1_234
10
4.8190817
20
68.8319327
11
4.8190817
21
68.6391709
0
LINE
8
DEFAULT_255_1_234
10
4.080965
20
68.6190916
11
4.080965
21
68.8174755
0
LINE
8
DEFAULT_255_1_234
10
4.6704946
20
68.5990123
11
4.6704946
21
68.8423739
0
LINE
8
DEFAULT_255_1_234
10
4.2295521
20
68.8536184
11
4.2295521
21
68.6158789
0
ARC
8
DEFAULT_255_1_234
10
3.5943707
20
68.6342805
40
1.2247208
50
353.8441951
51
0.2287902
0
ARC
8
DEFAULT_255_1_234
10
4.0583211
20
68.5824806
40
0.7578929
50
344.4934747
51
353.9765454
0
ARC
8
DEFAULT_255_1_234
10
4.3575801
20
68.4973981
40
0.4467846
50
329.2803592
51
344.7472793
0
ARC
8
DEFAULT_255_1_234
10
4.4568626
20
68.4429018
40
0.3336173
50
324.9352394
51
328.6160465
0
ARC
8
DEFAULT_255_1_234
10
4.4945734
20
68.4165427
40
0.2876076
50
280.580143
51
324.9173126
0
ARC
8
DEFAULT_255_1_234
10
4.4544527
20
68.5836099
40
0.4592847
50
269.5977311
51
281.6734359
0
ARC
8
DEFAULT_255_1_234
10
4.4472433
20
68.5716173
40
0.4472986
50
256.6228859
51
270.51044
0
ARC
8
DEFAULT_255_1_234
10
4.407041
20
68.4167877
40
0.2873874
50
215.8618325
51
257.2788573
0
ARC
8
DEFAULT_255_1_234
10
4.5091442
20
68.4852977
40
0.4102928
50
197.9693508
51
215.2623606
0
ARC
8
DEFAULT_255_1_234
10
4.7576558
20
68.5691709
40
0.6725652
50
187.8816417
51
198.2346507
0
ARC
8
DEFAULT_255_1_234
10
5.1534766
20
68.6263079
40
1.0724845
50
180.8976217
51
188.0055519
0
ARC
8
DEFAULT_255_1_234
10
5.4334954
20
68.6366777
40
1.3526448
50
180.7449369
51
181.1510016
0
ARC
8
DEFAULT_255_1_234
10
5.2757683
20
68.8223042
40
1.1948131
50
173.7675579
51
180.231553
0
ARC
8
DEFAULT_255_1_234
10
4.823983
20
68.8733666
40
0.7401564
50
164.3058563
51
173.9002247
0
ARC
8
DEFAULT_255_1_234
10
4.5327899
20
68.9572656
40
0.4371288
50
148.7922025
51
164.568378
0
ARC
8
DEFAULT_255_1_234
10
4.4376351
20
69.0103929
40
0.3282386
50
144.5883898
51
148.1176286
0
ARC
8
DEFAULT_255_1_234
10
4.4033249
20
69.0343315
40
0.2864044
50
101.6440918
51
144.514236
0
ARC
8
DEFAULT_255_1_234
10
4.4458315
20
68.8654069
40
0.4604934
50
89.5284041
51
102.5819763
0
ARC
8
DEFAULT_255_1_234
10
4.4537403
20
68.8615018
40
0.464401
50
77.0437873
51
90.5081339
0
ARC
8
DEFAULT_255_1_234
10
4.4939405
20
69.0257615
40
0.2953195
50
48.2778575
51
77.4994676
0
ARC
8
DEFAULT_255_1_234
10
4.5012036
20
69.0386746
40
0.2808655
50
36.3142134
51
47.6305865
0
ARC
8
DEFAULT_255_1_234
10
4.4143343
20
68.9801515
40
0.3855453
50
18.2931786
51
35.6769206
0
ARC
8
DEFAULT_255_1_234
10
4.1600102
20
68.8928593
40
0.654423
50
8.024666
51
18.5605216
0
ARC
8
DEFAULT_255_1_234
10
3.7437022
20
68.8313792
40
1.0752407
50
1.1274072
51
8.1718305
0
ARC
8
DEFAULT_255_1_234
10
3.4201213
20
68.8186885
40
1.3990231
50
0.5424119
51
1.3863029
0
ARC
8
DEFAULT_255_1_234
10
3.602259
20
68.8459342
40
1.0682415
50
359.8090433
51
4.9407866
0
ARC
8
DEFAULT_255_1_234
10
4.0232604
20
68.8835113
40
0.6455691
50
4.8362157
51
12.2904523
0
ARC
8
DEFAULT_255_1_234
10
4.2987719
20
68.9448965
40
0.3633074
50
12.0805627
51
23.8173984
0
ARC
8
DEFAULT_255_1_234
10
4.4161425
20
68.9945919
40
0.2358723
50
24.2871213
51
31.3935614
0
ARC
8
DEFAULT_255_1_234
10
4.4686122
20
69.0289233
40
0.1732111
50
30.7407893
51
82.4657128
0
ARC
8
DEFAULT_255_1_234
10
4.4506256
20
68.9405691
40
0.263235
50
81.1060089
51
90.2184952
0
ARC
8
DEFAULT_255_1_234
10
4.4470555
20
68.9663924
40
0.2374236
50
89.3806855
51
105.6762551
0
ARC
8
DEFAULT_255_1_234
10
4.4287186
20
69.0330567
40
0.1682847
50
105.7981136
51
149.7388061
0
ARC
8
DEFAULT_255_1_234
10
4.5351264
20
68.969095
40
0.2924306
50
149.4208916
51
163.6286378
0
ARC
8
DEFAULT_255_1_234
10
4.7442152
20
68.905325
40
0.5110213
50
163.3763315
51
172.1410975
0
ARC
8
DEFAULT_255_1_234
10
5.0742871
20
68.8580518
40
0.8444586
50
172.0259487
51
178.0703232
0
ARC
8
DEFAULT_255_1_234
10
5.377296
20
68.8436906
40
1.1477868
50
177.8631668
51
179.5044149
0
ARC
8
DEFAULT_255_1_234
10
5.2700365
20
68.6122389
40
1.0404907
50
179.7995573
51
185.2460446
0
ARC
8
DEFAULT_255_1_234
10
4.8657404
20
68.5739513
40
0.6343885
50
185.1411642
51
193.0079639
0
ARC
8
DEFAULT_255_1_234
10
4.6013877
20
68.5114641
40
0.3627568
50
192.7897626
51
205.2507664
0
ARC
8
DEFAULT_255_1_234
10
4.4967424
20
68.4647415
40
0.2481908
50
205.8005384
51
211.2537509
0
ARC
8
DEFAULT_255_1_234
10
4.4443864
20
68.429658
40
0.1852521
50
210.3789793
51
238.4008143
0
ARC
8
DEFAULT_255_1_234
10
4.4424386
20
68.4343376
40
0.1882621
50
239.6520629
51
265.9793761
0
ARC
8
DEFAULT_255_1_234
10
4.4509586
20
68.5015427
40
0.2559272
50
265.1315437
51
270.060332
0
ARC
8
DEFAULT_255_1_234
10
4.4538365
20
68.4691534
40
0.2235528
50
269.3314664
51
287.2178029
0
ARC
8
DEFAULT_255_1_234
10
4.4676217
20
68.4188279
40
0.1714108
50
287.7958004
51
329.080874
0
ARC
8
DEFAULT_255_1_234
10
4.3718674
20
68.478593
40
0.2842745
50
328.6634704
51
343.3325132
0
ARC
8
DEFAULT_255_1_234
10
4.1545694
20
68.5462863
40
0.5118644
50
343.0499468
51
351.9393422
0
ARC
8
DEFAULT_255_1_234
10
3.8078994
20
68.5973949
40
0.8622784
50
351.8069023
51
357.7959224
0
ARC
8
DEFAULT_255_1_234
10
3.484355
20
68.6141721
40
1.1862365
50
357.5871873
51
359.2677531
0
ARC
8
DEFAULT_255_1_234
10
5.1349384
20
68.2192565
40
0.1070357
50
163.5417914
51
180.5078233
0
ARC
8
DEFAULT_255_1_234
10
5.1157202
20
68.2244421
40
0.0871371
50
138.1647447
51
163.2316401
0
ARC
8
DEFAULT_255_1_234
10
5.1044981
20
68.2339534
40
0.0724329
50
105.6856465
51
137.8494928
0
ARC
8
DEFAULT_255_1_234
10
5.1163413
20
68.1955129
40
0.1126485
50
92.6088068
51
106.1990587
0
ARC
8
DEFAULT_255_1_234
10
5.1193786
20
68.1559774
40
0.1522861
50
89.9660831
51
93.0733434
0
ARC
8
DEFAULT_255_1_234
10
5.1204481
20
68.178132
40
0.130135
50
78.4379222
51
90.4311858
0
ARC
8
DEFAULT_255_1_234
10
5.1301061
20
68.2231588
40
0.0840873
50
56.8960528
51
78.7359558
0
ARC
8
DEFAULT_255_1_234
10
5.1364288
20
68.2341877
40
0.0713991
50
42.6499553
51
56.3125067
0
ARC
8
DEFAULT_255_1_234
10
5.1236175
20
68.2224146
40
0.0887984
50
3.8142714
51
42.6365749
0
ARC
8
DEFAULT_255_1_234
10
5.0949976
20
68.2184153
40
0.1176392
50
359.9476902
51
4.8305927
0
ARC
8
DEFAULT_255_1_234
10
5.1176135
20
68.2173541
40
0.0950282
50
340.9376387
51
0.5750546
0
ARC
8
DEFAULT_255_1_234
10
5.1288631
20
68.2143192
40
0.0834082
50
316.0805399
51
340.3842391
0
ARC
8
DEFAULT_255_1_234
10
5.134671
20
68.2089809
40
0.0755219
50
285.8514865
51
315.9414755
0
ARC
8
DEFAULT_255_1_234
10
5.1229281
20
68.2469349
40
0.115244
50
273.1292529
51
286.3135479
0
ARC
8
DEFAULT_255_1_234
10
5.119598
20
68.2871049
40
0.1555398
50
269.9524064
51
273.5463789
0
ARC
8
DEFAULT_255_1_234
10
5.1184932
20
68.2652792
40
0.1337177
50
259.0490813
51
270.4180302
0
ARC
8
DEFAULT_255_1_234
10
5.1088595
20
68.2175393
40
0.0850178
50
239.7587791
51
259.311372
0
ARC
8
DEFAULT_255_1_234
10
5.1007626
20
68.2024482
40
0.0679053
50
222.6244131
51
239.247817
0
ARC
8
DEFAULT_255_1_234
10
5.1142001
20
68.2147619
40
0.0861314
50
182.9227855
51
222.598345
0
ARC
8
DEFAULT_255_1_234
10
5.141062
20
68.2182373
40
0.113155
50
179.9642935
51
183.9868025
0
LINE
8
DEFAULT_255_1_234
10
6.197328
20
69.3098211
11
6.197328
21
69.226291
0
LINE
8
DEFAULT_255_1_234
10
6.197328
20
69.226291
11
5.7130142
21
68.1404
0
LINE
8
DEFAULT_255_1_234
10
5.7130142
20
68.1404
11
5.5571985
21
68.1404
0
LINE
8
DEFAULT_255_1_234
10
5.5571985
20
68.1404
11
6.039906
21
69.1877387
0
LINE
8
DEFAULT_255_1_234
10
6.039906
20
69.1877387
11
5.407005
21
69.1877387
0
LINE
8
DEFAULT_255_1_234
10
5.407005
20
69.1877387
11
5.407005
21
69.3098211
0
LINE
8
DEFAULT_255_1_234
10
5.407005
20
69.3098211
11
6.197328
21
69.3098211
0
LINE
8
DEFAULT_255_1_234
10
4.8190817
20
76.7694327
11
4.8190817
21
76.5766709
0
LINE
8
DEFAULT_255_1_234
10
4.080965
20
76.5565916
11
4.080965
21
76.7549755
0
LINE
8
DEFAULT_255_1_234
10
4.6704946
20
76.5365123
11
4.6704946
21
76.7798739
0
LINE
8
DEFAULT_255_1_234
10
4.2295521
20
76.7911184
11
4.2295521
21
76.5533789
0
ARC
8
DEFAULT_255_1_234
10
3.5943707
20
76.5717805
40
1.2247208
50
353.8441951
51
0.2287902
0
ARC
8
DEFAULT_255_1_234
10
4.0583211
20
76.5199806
40
0.7578929
50
344.4934747
51
353.9765454
0
ARC
8
DEFAULT_255_1_234
10
4.3575801
20
76.4348981
40
0.4467846
50
329.2803592
51
344.7472793
0
ARC
8
DEFAULT_255_1_234
10
4.4568626
20
76.3804018
40
0.3336173
50
324.9352394
51
328.6160465
0
ARC
8
DEFAULT_255_1_234
10
4.4945734
20
76.3540427
40
0.2876076
50
280.580143
51
324.9173126
0
ARC
8
DEFAULT_255_1_234
10
4.4544527
20
76.5211099
40
0.4592847
50
269.5977311
51
281.6734359
0
ARC
8
DEFAULT_255_1_234
10
4.4472433
20
76.5091173
40
0.4472986
50
256.6228859
51
270.51044
0
ARC
8
DEFAULT_255_1_234
10
4.407041
20
76.3542877
40
0.2873874
50
215.8618325
51
257.2788573
0
ARC
8
DEFAULT_255_1_234
10
4.5091442
20
76.4227977
40
0.4102928
50
197.9693508
51
215.2623606
0
ARC
8
DEFAULT_255_1_234
10
4.7576558
20
76.5066709
40
0.6725652
50
187.8816417
51
198.2346507
0
ARC
8
DEFAULT_255_1_234
10
5.1534766
20
76.5638079
40
1.0724845
50
180.8976217
51
188.0055519
0
ARC
8
DEFAULT_255_1_234
10
5.4334954
20
76.5741777
40
1.3526448
50
180.7449369
51
181.1510016
0
ARC
8
DEFAULT_255_1_234
10
5.2757683
20
76.7598042
40
1.1948131
50
173.7675579
51
180.231553
0
ARC
8
DEFAULT_255_1_234
10
4.823983
20
76.8108666
40
0.7401564
50
164.3058563
51
173.9002247
0
ARC
8
DEFAULT_255_1_234
10
4.5327899
20
76.8947656
40
0.4371288
50
148.7922025
51
164.568378
0
ARC
8
DEFAULT_255_1_234
10
4.4376351
20
76.9478929
40
0.3282386
50
144.5883898
51
148.1176286
0
ARC
8
DEFAULT_255_1_234
10
4.4033249
20
76.9718315
40
0.2864044
50
101.6440918
51
144.514236
0
ARC
8
DEFAULT_255_1_234
10
4.4458315
20
76.8029069
40
0.4604934
50
89.5284041
51
102.5819763
0
ARC
8
DEFAULT_255_1_234
10
4.4537403
20
76.7990018
40
0.464401
50
77.0437873
51
90.5081339
0
ARC
8
DEFAULT_255_1_234
10
4.4939405
20
76.9632615
40
0.2953195
50
48.2778575
51
77.4994676
0
ARC
8
DEFAULT_255_1_234
10
4.5012036
20
76.9761746
40
0.2808655
50
36.3142134
51
47.6305865
0
ARC
8
DEFAULT_255_1_234
10
4.4143343
20
76.9176515
40
0.3855453
50
18.2931786
51
35.6769206
0
ARC
8
DEFAULT_255_1_234
10
4.1600102
20
76.8303593
40
0.654423
50
8.024666
51
18.5605216
0
ARC
8
DEFAULT_255_1_234
10
3.7437022
20
76.7688792
40
1.0752407
50
1.1274072
51
8.1718305
0
ARC
8
DEFAULT_255_1_234
10
3.4201213
20
76.7561885
40
1.3990231
50
0.5424119
51
1.3863029
0
ARC
8
DEFAULT_255_1_234
10
3.602259
20
76.7834342
40
1.0682415
50
359.8090433
51
4.9407866
0
ARC
8
DEFAULT_255_1_234
10
4.0232604
20
76.8210113
40
0.6455691
50
4.8362157
51
12.2904523
0
ARC
8
DEFAULT_255_1_234
10
4.2987719
20
76.8823965
40
0.3633074
50
12.0805627
51
23.8173984
0
ARC
8
DEFAULT_255_1_234
10
4.4161425
20
76.9320919
40
0.2358723
50
24.2871213
51
31.3935614
0
ARC
8
DEFAULT_255_1_234
10
4.4686122
20
76.9664233
40
0.1732111
50
30.7407893
51
82.4657128
0
ARC
8
DEFAULT_255_1_234
10
4.4506256
20
76.8780691
40
0.263235
50
81.1060089
51
90.2184952
0
ARC
8
DEFAULT_255_1_234
10
4.4470555
20
76.9038924
40
0.2374236
50
89.3806855
51
105.6762551
0
ARC
8
DEFAULT_255_1_234
10
4.4287186
20
76.9705567
40
0.1682847
50
105.7981136
51
149.7388061
0
ARC
8
DEFAULT_255_1_234
10
4.5351264
20
76.906595
40
0.2924306
50
149.4208916
51
163.6286378
0
ARC
8
DEFAULT_255_1_234
10
4.7442152
20
76.842825
40
0.5110213
50
163.3763315
51
172.1410975
0
ARC
8
DEFAULT_255_1_234
10
5.0742871
20
76.7955518
40
0.8444586
50
172.0259487
51
178.0703232
0
ARC
8
DEFAULT_255_1_234
10
5.377296
20
76.7811906
40
1.1477868
50
177.8631668
51
179.5044149
0
ARC
8
DEFAULT_255_1_234
10
5.2700365
20
76.5497389
40
1.0404907
50
179.7995573
51
185.2460446
0
ARC
8
DEFAULT_255_1_234
10
4.8657404
20
76.5114513
40
0.6343885
50
185.1411642
51
193.0079639
0
ARC
8
DEFAULT_255_1_234
10
4.6013877
20
76.4489641
40
0.3627568
50
192.7897626
51
205.2507664
0
ARC
8
DEFAULT_255_1_234
10
4.4967424
20
76.4022415
40
0.2481908
50
205.8005384
51
211.2537509
0
ARC
8
DEFAULT_255_1_234
10
4.4443864
20
76.367158
40
0.1852521
50
210.3789793
51
238.4008143
0
ARC
8
DEFAULT_255_1_234
10
4.4424386
20
76.3718376
40
0.1882621
50
239.6520629
51
265.9793761
0
ARC
8
DEFAULT_255_1_234
10
4.4509586
20
76.4390427
40
0.2559272
50
265.1315437
51
270.060332
0
ARC
8
DEFAULT_255_1_234
10
4.4538365
20
76.4066534
40
0.2235528
50
269.3314664
51
287.2178029
0
ARC
8
DEFAULT_255_1_234
10
4.4676217
20
76.3563279
40
0.1714108
50
287.7958004
51
329.080874
0
ARC
8
DEFAULT_255_1_234
10
4.3718674
20
76.416093
40
0.2842745
50
328.6634704
51
343.3325132
0
ARC
8
DEFAULT_255_1_234
10
4.1545694
20
76.4837863
40
0.5118644
50
343.0499468
51
351.9393422
0
ARC
8
DEFAULT_255_1_234
10
3.8078994
20
76.5348949
40
0.8622784
50
351.8069023
51
357.7959224
0
ARC
8
DEFAULT_255_1_234
10
3.484355
20
76.5516721
40
1.1862365
50
357.5871873
51
359.2677531
0
ARC
8
DEFAULT_255_1_234
10
5.1349384
20
76.1567565
40
0.1070357
50
163.5417914
51
180.5078233
0
ARC
8
DEFAULT_255_1_234
10
5.1157202
20
76.1619421
40
0.0871371
50
138.1647447
51
163.2316401
0
ARC
8
DEFAULT_255_1_234
10
5.1044981
20
76.1714534
40
0.0724329
50
105.6856465
51
137.8494928
0
ARC
8
DEFAULT_255_1_234
10
5.1163413
20
76.1330129
40
0.1126485
50
92.6088068
51
106.1990587
0
ARC
8
DEFAULT_255_1_234
10
5.1193786
20
76.0934774
40
0.1522861
50
89.9660831
51
93.0733434
0
ARC
8
DEFAULT_255_1_234
10
5.1204481
20
76.115632
40
0.130135
50
78.4379222
51
90.4311858
0
ARC
8
DEFAULT_255_1_234
10
5.1301061
20
76.1606588
40
0.0840873
50
56.8960528
51
78.7359558
0
ARC
8
DEFAULT_255_1_234
10
5.1364288
20
76.1716877
40
0.0713991
50
42.6499553
51
56.3125067
0
ARC
8
DEFAULT_255_1_234
10
5.1236175
20
76.1599146
40
0.0887984
50
3.8142714
51
42.6365749
0
ARC
8
DEFAULT_255_1_234
10
5.0949976
20
76.1559153
40
0.1176392
50
359.9476902
51
4.8305927
0
ARC
8
DEFAULT_255_1_234
10
5.1176135
20
76.1548541
40
0.0950282
50
340.9376387
51
0.5750546
0
ARC
8
DEFAULT_255_1_234
10
5.1288631
20
76.1518192
40
0.0834082
50
316.0805399
51
340.3842391
0
ARC
8
DEFAULT_255_1_234
10
5.134671
20
76.1464809
40
0.0755219
50
285.8514865
51
315.9414755
0
ARC
8
DEFAULT_255_1_234
10
5.1229281
20
76.1844349
40
0.115244
50
273.1292529
51
286.3135479
0
ARC
8
DEFAULT_255_1_234
10
5.119598
20
76.2246049
40
0.1555398
50
269.9524064
51
273.5463789
0
ARC
8
DEFAULT_255_1_234
10
5.1184932
20
76.2027792
40
0.1337177
50
259.0490813
51
270.4180302
0
ARC
8
DEFAULT_255_1_234
10
5.1088595
20
76.1550393
40
0.0850178
50
239.7587791
51
259.311372
0
ARC
8
DEFAULT_255_1_234
10
5.1007626
20
76.1399482
40
0.0679053
50
222.6244131
51
239.247817
0
ARC
8
DEFAULT_255_1_234
10
5.1142001
20
76.1522619
40
0.0861314
50
182.9227855
51
222.598345
0
ARC
8
DEFAULT_255_1_234
10
5.141062
20
76.1557373
40
0.113155
50
179.9642935
51
183.9868025
0
LINE
8
DEFAULT_255_1_234
10
5.9989441
20
77.2481243
11
6.0254488
21
77.2481243
0
LINE
8
DEFAULT_255_1_234
10
6.0254488
20
77.2481243
11
6.0254488
21
77.122026
0
LINE
8
DEFAULT_255_1_234
10
6.0254488
20
77.122026
11
5.9981409
21
77.122026
0
LINE
8
DEFAULT_255_1_234
10
5.4511795
20
76.5228583
11
5.4511795
21
76.5798836
0
LINE
8
DEFAULT_255_1_234
10
5.6005699
20
76.5606075
11
5.6005699
21
76.5059917
0
ARC
8
DEFAULT_255_1_234
10
6.0033757
20
76.6222455
40
0.4998079
50
90.6001036
51
104.514704
0
ARC
8
DEFAULT_255_1_234
10
5.9645273
20
76.7667131
40
0.3502176
50
104.2855254
51
133.862935
0
ARC
8
DEFAULT_255_1_234
10
5.980903
20
76.755883
40
0.3693984
50
134.5302688
51
161.6210873
0
ARC
8
DEFAULT_255_1_234
10
6.1462219
20
76.6975895
40
0.5446739
50
161.2849839
51
174.2076652
0
ARC
8
DEFAULT_255_1_234
10
6.2869156
20
76.6781787
40
0.6866274
50
173.7810589
51
174.9254635
0
ARC
8
DEFAULT_255_1_234
10
5.8318988
20
76.5398839
40
0.3033419
50
95.8330959
51
138.9954921
0
ARC
8
DEFAULT_255_1_234
10
5.8542344
20
76.4120375
40
0.4328947
50
89.8753725
51
97.0544009
0
ARC
8
DEFAULT_255_1_234
10
5.858981
20
76.4955748
40
0.3493769
50
71.6407809
51
90.6240094
0
ARC
8
DEFAULT_255_1_234
10
5.8740383
20
76.5510082
40
0.2920396
50
39.6367836
51
71.019018
0
ARC
8
DEFAULT_255_1_234
10
5.8103856
20
76.4959998
40
0.3761538
50
10.658731
51
39.9043955
0
ARC
8
DEFAULT_255_1_234
10
5.6555939
20
76.4623686
40
0.5345136
50
359.682601
51
11.132623
0
ARC
8
DEFAULT_255_1_234
10
5.651607
20
76.455301
40
0.5385081
50
347.2486944
51
0.4369317
0
ARC
8
DEFAULT_255_1_234
10
5.8183547
20
76.4151807
40
0.3670249
50
318.1409698
51
347.6118597
0
ARC
8
DEFAULT_255_1_234
10
5.850854
20
76.3884702
40
0.3250007
50
275.6342139
51
317.8248465
0
ARC
8
DEFAULT_255_1_234
10
5.8287651
20
76.5184219
40
0.4565864
50
269.8874292
51
276.7917694
0
ARC
8
DEFAULT_255_1_234
10
5.8232722
20
76.4158743
40
0.3540676
50
246.9140195
51
270.7437342
0
ARC
8
DEFAULT_255_1_234
10
5.8239112
20
76.4016384
40
0.3412781
50
218.1665114
51
245.878116
0
ARC
8
DEFAULT_255_1_234
10
5.9118573
20
76.4752279
40
0.455911
50
191.4115814
51
218.6077802
0
ARC
8
DEFAULT_255_1_234
10
6.1056662
20
76.5186833
40
0.6545001
50
179.6345085
51
191.7836486
0
ARC
8
DEFAULT_255_1_234
10
6.6638999
20
76.5865697
40
1.2127388
50
171.4525249
51
180.3158839
0
ARC
8
DEFAULT_255_1_234
10
6.2243875
20
76.6549608
40
0.7679464
50
157.9802646
51
171.6246686
0
ARC
8
DEFAULT_255_1_234
10
6.0029896
20
76.7432421
40
0.5296008
50
141.4298019
51
157.854097
0
ARC
8
DEFAULT_255_1_234
10
5.9388216
20
76.7886381
40
0.4511509
50
102.8715806
51
140.8564722
0
ARC
8
DEFAULT_255_1_234
10
6.0035832
20
76.5446552
40
0.7034845
50
90.3778349
51
103.5869322
0
ARC
8
DEFAULT_255_1_234
10
5.8297608
20
76.484173
40
0.2370698
50
89.8751008
51
126.2071704
0
ARC
8
DEFAULT_255_1_234
10
5.8343398
20
76.4687303
40
0.2522934
50
124.9745049
51
144.895901
0
ARC
8
DEFAULT_255_1_234
10
5.8167588
20
76.483056
40
0.2296779
50
145.2974905
51
160.2660252
0
ARC
8
DEFAULT_255_1_234
10
6.1240127
20
76.5028071
40
0.5234525
50
179.6514266
51
190.2855912
0
ARC
8
DEFAULT_255_1_234
10
5.9546264
20
76.4708786
40
0.3510893
50
190.0945431
51
207.5098196
0
ARC
8
DEFAULT_255_1_234
10
5.8980534
20
76.4439623
40
0.288489
50
207.9583163
51
216.3251085
0
ARC
8
DEFAULT_255_1_234
10
5.8640642
20
76.4160105
40
0.2445587
50
215.7661442
51
232.5456785
0
ARC
8
DEFAULT_255_1_234
10
5.8257625
20
76.3673482
40
0.1826382
50
232.8005391
51
270.6605633
0
ARC
8
DEFAULT_255_1_234
10
5.8303326
20
76.4037612
40
0.2190529
50
269.35537
51
288.4744281
0
ARC
8
DEFAULT_255_1_234
10
5.8396223
20
76.3688118
40
0.1829749
50
289.1833337
51
322.9683818
0
ARC
8
DEFAULT_255_1_234
10
5.7784745
20
76.4170391
40
0.2608399
50
322.6007884
51
346.5182367
0
ARC
8
DEFAULT_255_1_234
10
5.6627341
20
76.4465616
40
0.3802777
50
346.2582162
51
358.7741648
0
ARC
8
DEFAULT_255_1_234
10
5.560901
20
76.4520965
40
0.4822176
50
358.3755224
51
0.0098023
0
ARC
8
DEFAULT_255_1_234
10
5.6365197
20
76.4548657
40
0.4066078
50
359.6214041
51
11.2839074
0
ARC
8
DEFAULT_255_1_234
10
5.7642344
20
76.4815066
40
0.2761514
50
11.0482309
51
31.8146458
0
ARC
8
DEFAULT_255_1_234
10
5.7951387
20
76.4982584
40
0.2410679
50
32.3035391
51
38.082671
0
ARC
8
DEFAULT_255_1_234
10
5.8372047
20
76.5363662
40
0.1844966
50
36.825067
51
85.7415724
0
ARC
8
DEFAULT_255_1_234
10
5.830488
20
76.4863301
40
0.2349122
50
85.0140713
51
90.0513278
0
LINE
8
DEFAULT_255_1_234
10
4.8190817
20
84.7069327
11
4.8190817
21
84.5141709
0
LINE
8
DEFAULT_255_1_234
10
4.080965
20
84.4940916
11
4.080965
21
84.6924755
0
LINE
8
DEFAULT_255_1_234
10
4.6704946
20
84.4740123
11
4.6704946
21
84.7173739
0
LINE
8
DEFAULT_255_1_234
10
4.2295521
20
84.7286184
11
4.2295521
21
84.4908789
0
ARC
8
DEFAULT_255_1_234
10
3.5943707
20
84.5092805
40
1.2247208
50
353.8441951
51
0.2287902
0
ARC
8
DEFAULT_255_1_234
10
4.0583211
20
84.4574806
40
0.7578929
50
344.4934747
51
353.9765454
0
ARC
8
DEFAULT_255_1_234
10
4.3575801
20
84.3723981
40
0.4467846
50
329.2803592
51
344.7472793
0
ARC
8
DEFAULT_255_1_234
10
4.4568626
20
84.3179018
40
0.3336173
50
324.9352394
51
328.6160465
0
ARC
8
DEFAULT_255_1_234
10
4.4945734
20
84.2915427
40
0.2876076
50
280.580143
51
324.9173126
0
ARC
8
DEFAULT_255_1_234
10
4.4544527
20
84.4586099
40
0.4592847
50
269.5977311
51
281.6734359
0
ARC
8
DEFAULT_255_1_234
10
4.4472433
20
84.4466173
40
0.4472986
50
256.6228859
51
270.51044
0
ARC
8
DEFAULT_255_1_234
10
4.407041
20
84.2917877
40
0.2873874
50
215.8618325
51
257.2788573
0
ARC
8
DEFAULT_255_1_234
10
4.5091442
20
84.3602977
40
0.4102928
50
197.9693508
51
215.2623606
0
ARC
8
DEFAULT_255_1_234
10
4.7576558
20
84.4441709
40
0.6725652
50
187.8816417
51
198.2346507
0
ARC
8
DEFAULT_255_1_234
10
5.1534766
20
84.5013079
40
1.0724845
50
180.8976217
51
188.0055519
0
ARC
8
DEFAULT_255_1_234
10
5.4334954
20
84.5116777
40
1.3526448
50
180.7449369
51
181.1510016
0
ARC
8
DEFAULT_255_1_234
10
5.2757683
20
84.6973042
40
1.1948131
50
173.7675579
51
180.231553
0
ARC
8
DEFAULT_255_1_234
10
4.823983
20
84.7483666
40
0.7401564
50
164.3058563
51
173.9002247
0
ARC
8
DEFAULT_255_1_234
10
4.5327899
20
84.8322656
40
0.4371288
50
148.7922025
51
164.568378
0
ARC
8
DEFAULT_255_1_234
10
4.4376351
20
84.8853929
40
0.3282386
50
144.5883898
51
148.1176286
0
ARC
8
DEFAULT_255_1_234
10
4.4033249
20
84.9093315
40
0.2864044
50
101.6440918
51
144.514236
0
ARC
8
DEFAULT_255_1_234
10
4.4458315
20
84.7404069
40
0.4604934
50
89.5284041
51
102.5819763
0
ARC
8
DEFAULT_255_1_234
10
4.4537403
20
84.7365018
40
0.464401
50
77.0437873
51
90.5081339
0
ARC
8
DEFAULT_255_1_234
10
4.4939405
20
84.9007615
40
0.2953195
50
48.2778575
51
77.4994676
0
ARC
8
DEFAULT_255_1_234
10
4.5012036
20
84.9136746
40
0.2808655
50
36.3142134
51
47.6305865
0
ARC
8
DEFAULT_255_1_234
10
4.4143343
20
84.8551515
40
0.3855453
50
18.2931786
51
35.6769206
0
ARC
8
DEFAULT_255_1_234
10
4.1600102
20
84.7678593
40
0.654423
50
8.024666
51
18.5605216
0
ARC
8
DEFAULT_255_1_234
10
3.7437022
20
84.7063792
40
1.0752407
50
1.1274072
51
8.1718305
0
ARC
8
DEFAULT_255_1_234
10
3.4201213
20
84.6936885
40
1.3990231
50
0.5424119
51
1.3863029
0
ARC
8
DEFAULT_255_1_234
10
3.602259
20
84.7209342
40
1.0682415
50
359.8090433
51
4.9407866
0
ARC
8
DEFAULT_255_1_234
10
4.0232604
20
84.7585113
40
0.6455691
50
4.8362157
51
12.2904523
0
ARC
8
DEFAULT_255_1_234
10
4.2987719
20
84.8198965
40
0.3633074
50
12.0805627
51
23.8173984
0
ARC
8
DEFAULT_255_1_234
10
4.4161425
20
84.8695919
40
0.2358723
50
24.2871213
51
31.3935614
0
ARC
8
DEFAULT_255_1_234
10
4.4686122
20
84.9039233
40
0.1732111
50
30.7407893
51
82.4657128
0
ARC
8
DEFAULT_255_1_234
10
4.4506256
20
84.8155691
40
0.263235
50
81.1060089
51
90.2184952
0
ARC
8
DEFAULT_255_1_234
10
4.4470555
20
84.8413924
40
0.2374236
50
89.3806855
51
105.6762551
0
ARC
8
DEFAULT_255_1_234
10
4.4287186
20
84.9080567
40
0.1682847
50
105.7981136
51
149.7388061
0
ARC
8
DEFAULT_255_1_234
10
4.5351264
20
84.844095
40
0.2924306
50
149.4208916
51
163.6286378
0
ARC
8
DEFAULT_255_1_234
10
4.7442152
20
84.780325
40
0.5110213
50
163.3763315
51
172.1410975
0
ARC
8
DEFAULT_255_1_234
10
5.0742871
20
84.7330518
40
0.8444586
50
172.0259487
51
178.0703232
0
ARC
8
DEFAULT_255_1_234
10
5.377296
20
84.7186906
40
1.1477868
50
177.8631668
51
179.5044149
0
ARC
8
DEFAULT_255_1_234
10
5.2700365
20
84.4872389
40
1.0404907
50
179.7995573
51
185.2460446
0
ARC
8
DEFAULT_255_1_234
10
4.8657404
20
84.4489513
40
0.6343885
50
185.1411642
51
193.0079639
0
ARC
8
DEFAULT_255_1_234
10
4.6013877
20
84.3864641
40
0.3627568
50
192.7897626
51
205.2507664
0
ARC
8
DEFAULT_255_1_234
10
4.4967424
20
84.3397415
40
0.2481908
50
205.8005384
51
211.2537509
0
ARC
8
DEFAULT_255_1_234
10
4.4443864
20
84.304658
40
0.1852521
50
210.3789793
51
238.4008143
0
ARC
8
DEFAULT_255_1_234
10
4.4424386
20
84.3093376
40
0.1882621
50
239.6520629
51
265.9793761
0
ARC
8
DEFAULT_255_1_234
10
4.4509586
20
84.3765427
40
0.2559272
50
265.1315437
51
270.060332
0
ARC
8
DEFAULT_255_1_234
10
4.4538365
20
84.3441534
40
0.2235528
50
269.3314664
51
287.2178029
0
ARC
8
DEFAULT_255_1_234
10
4.4676217
20
84.2938279
40
0.1714108
50
287.7958004
51
329.080874
0
ARC
8
DEFAULT_255_1_234
10
4.3718674
20
84.353593
40
0.2842745
50
328.6634704
51
343.3325132
0
ARC
8
DEFAULT_255_1_234
10
4.1545694
20
84.4212863
40
0.5118644
50
343.0499468
51
351.9393422
0
ARC
8
DEFAULT_255_1_234
10
3.8078994
20
84.4723949
40
0.8622784
50
351.8069023
51
357.7959224
0
ARC
8
DEFAULT_255_1_234
10
3.484355
20
84.4891721
40
1.1862365
50
357.5871873
51
359.2677531
0
ARC
8
DEFAULT_255_1_234
10
5.1349384
20
84.0942565
40
0.1070357
50
163.5417914
51
180.5078233
0
ARC
8
DEFAULT_255_1_234
10
5.1157202
20
84.0994421
40
0.0871371
50
138.1647447
51
163.2316401
0
ARC
8
DEFAULT_255_1_234
10
5.1044981
20
84.1089534
40
0.0724329
50
105.6856465
51
137.8494928
0
ARC
8
DEFAULT_255_1_234
10
5.1163413
20
84.0705129
40
0.1126485
50
92.6088068
51
106.1990587
0
ARC
8
DEFAULT_255_1_234
10
5.1193786
20
84.0309774
40
0.1522861
50
89.9660831
51
93.0733434
0
ARC
8
DEFAULT_255_1_234
10
5.1204481
20
84.053132
40
0.130135
50
78.4379222
51
90.4311858
0
ARC
8
DEFAULT_255_1_234
10
5.1301061
20
84.0981588
40
0.0840873
50
56.8960528
51
78.7359558
0
ARC
8
DEFAULT_255_1_234
10
5.1364288
20
84.1091877
40
0.0713991
50
42.6499553
51
56.3125067
0
ARC
8
DEFAULT_255_1_234
10
5.1236175
20
84.0974146
40
0.0887984
50
3.8142714
51
42.6365749
0
ARC
8
DEFAULT_255_1_234
10
5.0949976
20
84.0934153
40
0.1176392
50
359.9476902
51
4.8305927
0
ARC
8
DEFAULT_255_1_234
10
5.1176135
20
84.0923541
40
0.0950282
50
340.9376387
51
0.5750546
0
ARC
8
DEFAULT_255_1_234
10
5.1288631
20
84.0893192
40
0.0834082
50
316.0805399
51
340.3842391
0
ARC
8
DEFAULT_255_1_234
10
5.134671
20
84.0839809
40
0.0755219
50
285.8514865
51
315.9414755
0
ARC
8
DEFAULT_255_1_234
10
5.1229281
20
84.1219349
40
0.115244
50
273.1292529
51
286.3135479
0
ARC
8
DEFAULT_255_1_234
10
5.119598
20
84.1621049
40
0.1555398
50
269.9524064
51
273.5463789
0
ARC
8
DEFAULT_255_1_234
10
5.1184932
20
84.1402792
40
0.1337177
50
259.0490813
51
270.4180302
0
ARC
8
DEFAULT_255_1_234
10
5.1088595
20
84.0925393
40
0.0850178
50
239.7587791
51
259.311372
0
ARC
8
DEFAULT_255_1_234
10
5.1007626
20
84.0774482
40
0.0679053
50
222.6244131
51
239.247817
0
ARC
8
DEFAULT_255_1_234
10
5.1142001
20
84.0897619
40
0.0861314
50
182.9227855
51
222.598345
0
ARC
8
DEFAULT_255_1_234
10
5.141062
20
84.0932373
40
0.113155
50
179.9642935
51
183.9868025
0
LINE
8
DEFAULT_255_1_234
10
5.6294841
20
84.5711963
11
5.5106144
21
84.6017169
0
LINE
8
DEFAULT_255_1_234
10
5.5106144
20
84.6017169
11
5.5700493
21
85.1848211
0
LINE
8
DEFAULT_255_1_234
10
5.5700493
20
85.1848211
11
6.1692169
21
85.1848211
0
LINE
8
DEFAULT_255_1_234
10
6.1692169
20
85.1848211
11
6.1692169
21
85.0474784
0
LINE
8
DEFAULT_255_1_234
10
6.1692169
20
85.0474784
11
5.6961476
21
85.0474784
0
LINE
8
DEFAULT_255_1_234
10
5.6961476
20
85.0474784
11
5.6608079
21
84.7286184
0
LINE
8
DEFAULT_255_1_234
10
5.4688494
20
84.3230156
11
5.6094048
21
84.3230156
0
LINE
8
DEFAULT_255_1_234
10
5.6688396
20
84.6033232
11
5.6294841
21
84.5711963
0
ARC
8
DEFAULT_255_1_234
10
5.8462863
20
84.410623
40
0.3681349
50
93.7182161
51
120.2538958
0
ARC
8
DEFAULT_255_1_234
10
5.8557126
20
84.3298394
40
0.449379
50
89.9660152
51
94.2496022
0
ARC
8
DEFAULT_255_1_234
10
5.859786
20
84.3887549
40
0.390482
50
73.8043271
51
90.5585896
0
ARC
8
DEFAULT_255_1_234
10
5.8832757
20
84.4745602
40
0.3015334
50
41.3071453
51
73.5430202
0
ARC
8
DEFAULT_255_1_234
10
5.8416584
20
84.4387324
40
0.3564457
50
13.5075983
51
41.2174222
0
ARC
8
DEFAULT_255_1_234
10
5.6774788
20
84.3957486
40
0.5261351
50
1.1331335
51
13.8829381
0
ARC
8
DEFAULT_255_1_234
10
5.5363157
20
84.3881665
40
0.6674378
50
359.9919444
51
1.544251
0
ARC
8
DEFAULT_255_1_234
10
5.6639983
20
84.384028
40
0.5397702
50
347.8572367
51
0.4293338
0
ARC
8
DEFAULT_255_1_234
10
5.8390301
20
84.3443736
40
0.3603188
50
323.673004
51
348.1672506
0
ARC
8
DEFAULT_255_1_234
10
5.8684809
20
84.3264168
40
0.3259678
50
316.8171152
51
323.1492751
0
ARC
8
DEFAULT_255_1_234
10
5.8745998
20
84.322746
40
0.3189975
50
281.8396411
51
316.5457803
0
ARC
8
DEFAULT_255_1_234
10
5.8370262
20
84.4782762
40
0.4789527
50
269.5770101
51
282.4214771
0
ARC
8
DEFAULT_255_1_234
10
5.8299073
20
84.4569125
40
0.45759
50
256.2427136
51
270.4486331
0
ARC
8
DEFAULT_255_1_234
10
5.7999975
20
84.3369229
40
0.3339303
50
228.9023911
51
256.3314342
0
ARC
8
DEFAULT_255_1_234
10
5.7926208
20
84.3252746
40
0.32031
50
193.753695
51
228.5271154
0
ARC
8
DEFAULT_255_1_234
10
5.9164162
20
84.36158
40
0.4492253
50
184.924711
51
194.497588
0
ARC
8
DEFAULT_255_1_234
10
5.9356729
20
84.3651591
40
0.3289787
50
187.3600538
51
198.6732863
0
ARC
8
DEFAULT_255_1_234
10
5.8307023
20
84.3287674
40
0.217884
50
198.4451669
51
217.794479
0
ARC
8
DEFAULT_255_1_234
10
5.8011198
20
84.3078085
40
0.1816698
50
218.2887171
51
228.5612368
0
ARC
8
DEFAULT_255_1_234
10
5.8108985
20
84.3209963
40
0.1980329
50
228.9654866
51
258.1234728
0
ARC
8
DEFAULT_255_1_234
10
5.8314695
20
84.4090833
40
0.2884748
50
257.7258293
51
270.401361
0
ARC
8
DEFAULT_255_1_234
10
5.8359581
20
84.3645821
40
0.2439788
50
269.4204404
51
286.4209037
0
ARC
8
DEFAULT_255_1_234
10
5.8508069
20
84.3106657
40
0.1880666
50
286.7251356
51
320.600362
0
ARC
8
DEFAULT_255_1_234
10
5.8124894
20
84.3417595
40
0.2374121
50
320.6712579
51
344.5441685
0
ARC
8
DEFAULT_255_1_234
10
5.696822
20
84.3757045
40
0.3579479
50
344.2412205
51
356.7357071
0
ARC
8
DEFAULT_255_1_234
10
5.5719369
20
84.3860444
40
0.4832297
50
356.3548756
51
0.0500261
0
ARC
8
DEFAULT_255_1_234
10
5.7055878
20
84.389165
40
0.3495889
50
359.5576869
51
12.953486
0
ARC
8
DEFAULT_255_1_234
10
5.8110775
20
84.4147434
40
0.2410532
50
12.6490276
51
41.6081334
0
ARC
8
DEFAULT_255_1_234
10
5.8341146
20
84.4343321
40
0.2108218
50
41.7850273
51
85.9892764
0
ARC
8
DEFAULT_255_1_234
10
5.8217883
20
84.3530462
40
0.2928454
50
84.6957577
51
90.0676183
0
ARC
8
DEFAULT_255_1_234
10
5.8194367
20
84.2861716
40
0.3597255
50
89.6804936
51
99.1614436
0
ARC
8
DEFAULT_255_1_234
10
5.7988998
20
84.4089131
40
0.235281
50
98.9830931
51
113.8908934
0
ARC
8
DEFAULT_255_1_234
10
5.7759408
20
84.4630587
40
0.176479
50
114.1950727
51
127.3641004
0
LINE
8
DEFAULT_255_1_234
10
4.9248817
20
92.6444327
11
4.9248817
21
92.4516709
0
LINE
8
DEFAULT_255_1_234
10
4.186765
20
92.4315916
11
4.186765
21
92.6299755
0
LINE
8
DEFAULT_255_1_234
10
4.7762946
20
92.4115123
11
4.7762946
21
92.6548739
0
LINE
8
DEFAULT_255_1_234
10
4.3353521
20
92.6661184
11
4.3353521
21
92.4283789
0
ARC
8
DEFAULT_255_1_234
10
3.7001707
20
92.4467805
40
1.2247208
50
353.8441951
51
0.2287902
0
ARC
8
DEFAULT_255_1_234
10
4.1641211
20
92.3949806
40
0.7578929
50
344.4934747
51
353.9765454
0
ARC
8
DEFAULT_255_1_234
10
4.4633801
20
92.3098981
40
0.4467846
50
329.2803592
51
344.7472793
0
ARC
8
DEFAULT_255_1_234
10
4.5626626
20
92.2554018
40
0.3336173
50
324.9352394
51
328.6160465
0
ARC
8
DEFAULT_255_1_234
10
4.6003734
20
92.2290427
40
0.2876076
50
280.580143
51
324.9173126
0
ARC
8
DEFAULT_255_1_234
10
4.5602527
20
92.3961099
40
0.4592847
50
269.5977311
51
281.6734359
0
ARC
8
DEFAULT_255_1_234
10
4.5530433
20
92.3841173
40
0.4472986
50
256.6228859
51
270.51044
0
ARC
8
DEFAULT_255_1_234
10
4.512841
20
92.2292877
40
0.2873874
50
215.8618325
51
257.2788573
0
ARC
8
DEFAULT_255_1_234
10
4.6149442
20
92.2977977
40
0.4102928
50
197.9693508
51
215.2623606
0
ARC
8
DEFAULT_255_1_234
10
4.8634558
20
92.3816709
40
0.6725652
50
187.8816417
51
198.2346507
0
ARC
8
DEFAULT_255_1_234
10
5.2592766
20
92.4388079
40
1.0724845
50
180.8976217
51
188.0055519
0
ARC
8
DEFAULT_255_1_234
10
5.5392954
20
92.4491777
40
1.3526448
50
180.7449369
51
181.1510016
0
ARC
8
DEFAULT_255_1_234
10
5.3815683
20
92.6348042
40
1.1948131
50
173.7675579
51
180.231553
0
ARC
8
DEFAULT_255_1_234
10
4.929783
20
92.6858666
40
0.7401564
50
164.3058563
51
173.9002247
0
ARC
8
DEFAULT_255_1_234
10
4.6385899
20
92.7697656
40
0.4371288
50
148.7922025
51
164.568378
0
ARC
8
DEFAULT_255_1_234
10
4.5434351
20
92.8228929
40
0.3282386
50
144.5883898
51
148.1176286
0
ARC
8
DEFAULT_255_1_234
10
4.5091249
20
92.8468315
40
0.2864044
50
101.6440918
51
144.514236
0
ARC
8
DEFAULT_255_1_234
10
4.5516315
20
92.6779069
40
0.4604934
50
89.5284041
51
102.5819763
0
ARC
8
DEFAULT_255_1_234
10
4.5595403
20
92.6740018
40
0.464401
50
77.0437873
51
90.5081339
0
ARC
8
DEFAULT_255_1_234
10
4.5997405
20
92.8382615
40
0.2953195
50
48.2778575
51
77.4994676
0
ARC
8
DEFAULT_255_1_234
10
4.6070036
20
92.8511746
40
0.2808655
50
36.3142134
51
47.6305865
0
ARC
8
DEFAULT_255_1_234
10
4.5201343
20
92.7926515
40
0.3855453
50
18.2931786
51
35.6769206
0
ARC
8
DEFAULT_255_1_234
10
4.2658102
20
92.7053593
40
0.654423
50
8.024666
51
18.5605216
0
ARC
8
DEFAULT_255_1_234
10
3.8495022
20
92.6438792
40
1.0752407
50
1.1274072
51
8.1718305
0
ARC
8
DEFAULT_255_1_234
10
3.5259213
20
92.6311885
40
1.3990231
50
0.5424119
51
1.3863029
0
ARC
8
DEFAULT_255_1_234
10
3.708059
20
92.6584342
40
1.0682415
50
359.8090433
51
4.9407866
0
ARC
8
DEFAULT_255_1_234
10
4.1290604
20
92.6960113
40
0.6455691
50
4.8362157
51
12.2904523
0
ARC
8
DEFAULT_255_1_234
10
4.4045719
20
92.7573965
40
0.3633074
50
12.0805627
51
23.8173984
0
ARC
8
DEFAULT_255_1_234
10
4.5219425
20
92.8070919
40
0.2358723
50
24.2871213
51
31.3935614
0
ARC
8
DEFAULT_255_1_234
10
4.5744122
20
92.8414233
40
0.1732111
50
30.7407893
51
82.4657128
0
ARC
8
DEFAULT_255_1_234
10
4.5564256
20
92.7530691
40
0.263235
50
81.1060089
51
90.2184952
0
ARC
8
DEFAULT_255_1_234
10
4.5528555
20
92.7788924
40
0.2374236
50
89.3806855
51
105.6762551
0
ARC
8
DEFAULT_255_1_234
10
4.5345186
20
92.8455567
40
0.1682847
50
105.7981136
51
149.7388061
0
ARC
8
DEFAULT_255_1_234
10
4.6409264
20
92.781595
40
0.2924306
50
149.4208916
51
163.6286378
0
ARC
8
DEFAULT_255_1_234
10
4.8500152
20
92.717825
40
0.5110213
50
163.3763315
51
172.1410975
0
ARC
8
DEFAULT_255_1_234
10
5.1800871
20
92.6705518
40
0.8444586
50
172.0259487
51
178.0703232
0
ARC
8
DEFAULT_255_1_234
10
5.483096
20
92.6561906
40
1.1477868
50
177.8631668
51
179.5044149
0
ARC
8
DEFAULT_255_1_234
10
5.3758365
20
92.4247389
40
1.0404907
50
179.7995573
51
185.2460446
0
ARC
8
DEFAULT_255_1_234
10
4.9715404
20
92.3864513
40
0.6343885
50
185.1411642
51
193.0079639
0
ARC
8
DEFAULT_255_1_234
10
4.7071877
20
92.3239641
40
0.3627568
50
192.7897626
51
205.2507664
0
ARC
8
DEFAULT_255_1_234
10
4.6025424
20
92.2772415
40
0.2481908
50
205.8005384
51
211.2537509
0
ARC
8
DEFAULT_255_1_234
10
4.5501864
20
92.242158
40
0.1852521
50
210.3789793
51
238.4008143
0
ARC
8
DEFAULT_255_1_234
10
4.5482386
20
92.2468376
40
0.1882621
50
239.6520629
51
265.9793761
0
ARC
8
DEFAULT_255_1_234
10
4.5567586
20
92.3140427
40
0.2559272
50
265.1315437
51
270.060332
0
ARC
8
DEFAULT_255_1_234
10
4.5596365
20
92.2816534
40
0.2235528
50
269.3314664
51
287.2178029
0
ARC
8
DEFAULT_255_1_234
10
4.5734217
20
92.2313279
40
0.1714108
50
287.7958004
51
329.080874
0
ARC
8
DEFAULT_255_1_234
10
4.4776674
20
92.291093
40
0.2842745
50
328.6634704
51
343.3325132
0
ARC
8
DEFAULT_255_1_234
10
4.2603694
20
92.3587863
40
0.5118644
50
343.0499468
51
351.9393422
0
ARC
8
DEFAULT_255_1_234
10
3.9136994
20
92.4098949
40
0.8622784
50
351.8069023
51
357.7959224
0
ARC
8
DEFAULT_255_1_234
10
3.590155
20
92.4266721
40
1.1862365
50
357.5871873
51
359.2677531
0
ARC
8
DEFAULT_255_1_234
10
5.2407384
20
92.0317565
40
0.1070357
50
163.5417914
51
180.5078233
0
ARC
8
DEFAULT_255_1_234
10
5.2215202
20
92.0369421
40
0.0871371
50
138.1647447
51
163.2316401
0
ARC
8
DEFAULT_255_1_234
10
5.2102981
20
92.0464534
40
0.0724329
50
105.6856465
51
137.8494928
0
ARC
8
DEFAULT_255_1_234
10
5.2221413
20
92.0080129
40
0.1126485
50
92.6088068
51
106.1990587
0
ARC
8
DEFAULT_255_1_234
10
5.2251786
20
91.9684774
40
0.1522861
50
89.9660831
51
93.0733434
0
ARC
8
DEFAULT_255_1_234
10
5.2262481
20
91.990632
40
0.130135
50
78.4379222
51
90.4311858
0
ARC
8
DEFAULT_255_1_234
10
5.2359061
20
92.0356588
40
0.0840873
50
56.8960528
51
78.7359558
0
ARC
8
DEFAULT_255_1_234
10
5.2422288
20
92.0466877
40
0.0713991
50
42.6499553
51
56.3125067
0
ARC
8
DEFAULT_255_1_234
10
5.2294175
20
92.0349146
40
0.0887984
50
3.8142714
51
42.6365749
0
ARC
8
DEFAULT_255_1_234
10
5.2007976
20
92.0309153
40
0.1176392
50
359.9476902
51
4.8305927
0
ARC
8
DEFAULT_255_1_234
10
5.2234135
20
92.0298541
40
0.0950282
50
340.9376387
51
0.5750546
0
ARC
8
DEFAULT_255_1_234
10
5.2346631
20
92.0268192
40
0.0834082
50
316.0805399
51
340.3842391
0
ARC
8
DEFAULT_255_1_234
10
5.240471
20
92.0214809
40
0.0755219
50
285.8514865
51
315.9414755
0
ARC
8
DEFAULT_255_1_234
10
5.2287281
20
92.0594349
40
0.115244
50
273.1292529
51
286.3135479
0
ARC
8
DEFAULT_255_1_234
10
5.225398
20
92.0996049
40
0.1555398
50
269.9524064
51
273.5463789
0
ARC
8
DEFAULT_255_1_234
10
5.2242932
20
92.0777792
40
0.1337177
50
259.0490813
51
270.4180302
0
ARC
8
DEFAULT_255_1_234
10
5.2146595
20
92.0300393
40
0.0850178
50
239.7587791
51
259.311372
0
ARC
8
DEFAULT_255_1_234
10
5.2065626
20
92.0149482
40
0.0679053
50
222.6244131
51
239.247817
0
ARC
8
DEFAULT_255_1_234
10
5.2200001
20
92.0272619
40
0.0861314
50
182.9227855
51
222.598345
0
ARC
8
DEFAULT_255_1_234
10
5.246862
20
92.0307373
40
0.113155
50
179.9642935
51
183.9868025
0
LINE
8
DEFAULT_255_1_234
10
6.1754234
20
93.1223211
11
6.1754234
21
92.345652
0
LINE
8
DEFAULT_255_1_234
10
6.1754234
20
92.345652
11
6.3376645
21
92.345652
0
LINE
8
DEFAULT_255_1_234
10
6.3376645
20
92.345652
11
6.3376645
21
92.2243728
0
LINE
8
DEFAULT_255_1_234
10
6.3376645
20
92.2243728
11
6.1754234
21
92.2243728
0
LINE
8
DEFAULT_255_1_234
10
6.1754234
20
92.2243728
11
6.1754234
21
91.9529
0
LINE
8
DEFAULT_255_1_234
10
6.1754234
20
91.9529
11
6.0260331
21
91.9529
0
LINE
8
DEFAULT_255_1_234
10
6.0260331
20
91.9529
11
6.0260331
21
92.2243728
0
LINE
8
DEFAULT_255_1_234
10
6.0260331
20
92.2243728
11
5.4935288
21
92.2243728
0
LINE
8
DEFAULT_255_1_234
10
5.4935288
20
92.2243728
11
5.4935288
21
92.3119187
0
LINE
8
DEFAULT_255_1_234
10
5.4935288
20
92.3119187
11
6.0171981
21
93.1223211
0
LINE
8
DEFAULT_255_1_234
10
6.0171981
20
93.1223211
11
6.1754234
21
93.1223211
0
LINE
8
DEFAULT_255_1_234
10
6.0083632
20
92.8869912
11
5.6621953
21
92.345652
0
LINE
8
DEFAULT_255_1_234
10
5.6621953
20
92.345652
11
6.0260331
21
92.345652
0
LINE
8
DEFAULT_255_1_234
10
6.0260331
20
92.345652
11
6.0260331
21
92.9191181
0
LINE
8
DEFAULT_255_1_234
10
6.0260331
20
92.9191181
11
6.0083632
21
92.8869912
0
LINE
8
DEFAULT_255_1_234
10
4.8190817
20
100.5819327
11
4.8190817
21
100.3891709
0
LINE
8
DEFAULT_255_1_234
10
4.080965
20
100.3690916
11
4.080965
21
100.5674755
0
LINE
8
DEFAULT_255_1_234
10
4.6704946
20
100.3490123
11
4.6704946
21
100.5923739
0
LINE
8
DEFAULT_255_1_234
10
4.2295521
20
100.6036184
11
4.2295521
21
100.3658789
0
ARC
8
DEFAULT_255_1_234
10
3.5943707
20
100.3842805
40
1.2247208
50
353.8441951
51
0.2287902
0
ARC
8
DEFAULT_255_1_234
10
4.0583211
20
100.3324806
40
0.7578929
50
344.4934747
51
353.9765454
0
ARC
8
DEFAULT_255_1_234
10
4.3575801
20
100.2473981
40
0.4467846
50
329.2803592
51
344.7472793
0
ARC
8
DEFAULT_255_1_234
10
4.4568626
20
100.1929018
40
0.3336173
50
324.9352394
51
328.6160465
0
ARC
8
DEFAULT_255_1_234
10
4.4945734
20
100.1665427
40
0.2876076
50
280.580143
51
324.9173126
0
ARC
8
DEFAULT_255_1_234
10
4.4544527
20
100.3336099
40
0.4592847
50
269.5977311
51
281.6734359
0
ARC
8
DEFAULT_255_1_234
10
4.4472433
20
100.3216173
40
0.4472986
50
256.6228859
51
270.51044
0
ARC
8
DEFAULT_255_1_234
10
4.407041
20
100.1667877
40
0.2873874
50
215.8618325
51
257.2788573
0
ARC
8
DEFAULT_255_1_234
10
4.5091442
20
100.2352977
40
0.4102928
50
197.9693508
51
215.2623606
0
ARC
8
DEFAULT_255_1_234
10
4.7576558
20
100.3191709
40
0.6725652
50
187.8816417
51
198.2346507
0
ARC
8
DEFAULT_255_1_234
10
5.1534766
20
100.3763079
40
1.0724845
50
180.8976217
51
188.0055519
0
ARC
8
DEFAULT_255_1_234
10
5.4334954
20
100.3866777
40
1.3526448
50
180.7449369
51
181.1510016
0
ARC
8
DEFAULT_255_1_234
10
5.2757683
20
100.5723042
40
1.1948131
50
173.7675579
51
180.231553
0
ARC
8
DEFAULT_255_1_234
10
4.823983
20
100.6233666
40
0.7401564
50
164.3058563
51
173.9002247
0
ARC
8
DEFAULT_255_1_234
10
4.5327899
20
100.7072656
40
0.4371288
50
148.7922025
51
164.568378
0
ARC
8
DEFAULT_255_1_234
10
4.4376351
20
100.7603929
40
0.3282386
50
144.5883898
51
148.1176286
0
ARC
8
DEFAULT_255_1_234
10
4.4033249
20
100.7843315
40
0.2864044
50
101.6440918
51
144.514236
0
ARC
8
DEFAULT_255_1_234
10
4.4458315
20
100.6154069
40
0.4604934
50
89.5284041
51
102.5819763
0
ARC
8
DEFAULT_255_1_234
10
4.4537403
20
100.6115018
40
0.464401
50
77.0437873
51
90.5081339
0
ARC
8
DEFAULT_255_1_234
10
4.4939405
20
100.7757615
40
0.2953195
50
48.2778575
51
77.4994676
0
ARC
8
DEFAULT_255_1_234
10
4.5012036
20
100.7886746
40
0.2808655
50
36.3142134
51
47.6305865
0
ARC
8
DEFAULT_255_1_234
10
4.4143343
20
100.7301515
40
0.3855453
50
18.2931786
51
35.6769206
0
ARC
8
DEFAULT_255_1_234
10
4.1600102
20
100.6428593
40
0.654423
50
8.024666
51
18.5605216
0
ARC
8
DEFAULT_255_1_234
10
3.7437022
20
100.5813792
40
1.0752407
50
1.1274072
51
8.1718305
0
ARC
8
DEFAULT_255_1_234
10
3.4201213
20
100.5686885
40
1.3990231
50
0.5424119
51
1.3863029
0
ARC
8
DEFAULT_255_1_234
10
3.602259
20
100.5959342
40
1.0682415
50
359.8090433
51
4.9407866
0
ARC
8
DEFAULT_255_1_234
10
4.0232604
20
100.6335113
40
0.6455691
50
4.8362157
51
12.2904523
0
ARC
8
DEFAULT_255_1_234
10
4.2987719
20
100.6948965
40
0.3633074
50
12.0805627
51
23.8173984
0
ARC
8
DEFAULT_255_1_234
10
4.4161425
20
100.7445919
40
0.2358723
50
24.2871213
51
31.3935614
0
ARC
8
DEFAULT_255_1_234
10
4.4686122
20
100.7789233
40
0.1732111
50
30.7407893
51
82.4657128
0
ARC
8
DEFAULT_255_1_234
10
4.4506256
20
100.6905691
40
0.263235
50
81.1060089
51
90.2184952
0
ARC
8
DEFAULT_255_1_234
10
4.4470555
20
100.7163924
40
0.2374236
50
89.3806855
51
105.6762551
0
ARC
8
DEFAULT_255_1_234
10
4.4287186
20
100.7830567
40
0.1682847
50
105.7981136
51
149.7388061
0
ARC
8
DEFAULT_255_1_234
10
4.5351264
20
100.719095
40
0.2924306
50
149.4208916
51
163.6286378
0
ARC
8
DEFAULT_255_1_234
10
4.7442152
20
100.655325
40
0.5110213
50
163.3763315
51
172.1410975
0
ARC
8
DEFAULT_255_1_234
10
5.0742871
20
100.6080518
40
0.8444586
50
172.0259487
51
178.0703232
0
ARC
8
DEFAULT_255_1_234
10
5.377296
20
100.5936906
40
1.1477868
50
177.8631668
51
179.5044149
0
ARC
8
DEFAULT_255_1_234
10
5.2700365
20
100.3622389
40
1.0404907
50
179.7995573
51
185.2460446
0
ARC
8
DEFAULT_255_1_234
10
4.8657404
20
100.3239513
40
0.6343885
50
185.1411642
51
193.0079639
0
ARC
8
DEFAULT_255_1_234
10
4.6013877
20
100.2614641
40
0.3627568
50
192.7897626
51
205.2507664
0
ARC
8
DEFAULT_255_1_234
10
4.4967424
20
100.2147415
40
0.2481908
50
205.8005384
51
211.2537509
0
ARC
8
DEFAULT_255_1_234
10
4.4443864
20
100.179658
40
0.1852521
50
210.3789793
51
238.4008143
0
ARC
8
DEFAULT_255_1_234
10
4.4424386
20
100.1843376
40
0.1882621
50
239.6520629
51
265.9793761
0
ARC
8
DEFAULT_255_1_234
10
4.4509586
20
100.2515427
40
0.2559272
50
265.1315437
51
270.060332
0
ARC
8
DEFAULT_255_1_234
10
4.4538365
20
100.2191534
40
0.2235528
50
269.3314664
51
287.2178029
0
ARC
8
DEFAULT_255_1_234
10
4.4676217
20
100.1688279
40
0.1714108
50
287.7958004
51
329.080874
0
ARC
8
DEFAULT_255_1_234
10
4.3718674
20
100.228593
40
0.2842745
50
328.6634704
51
343.3325132
0
ARC
8
DEFAULT_255_1_234
10
4.1545694
20
100.2962863
40
0.5118644
50
343.0499468
51
351.9393422
0
ARC
8
DEFAULT_255_1_234
10
3.8078994
20
100.3473949
40
0.8622784
50
351.8069023
51
357.7959224
0
ARC
8
DEFAULT_255_1_234
10
3.484355
20
100.3641721
40
1.1862365
50
357.5871873
51
359.2677531
0
ARC
8
DEFAULT_255_1_234
10
5.1349384
20
99.9692565
40
0.1070357
50
163.5417914
51
180.5078233
0
ARC
8
DEFAULT_255_1_234
10
5.1157202
20
99.9744421
40
0.0871371
50
138.1647447
51
163.2316401
0
ARC
8
DEFAULT_255_1_234
10
5.1044981
20
99.9839534
40
0.0724329
50
105.6856465
51
137.8494928
0
ARC
8
DEFAULT_255_1_234
10
5.1163413
20
99.9455129
40
0.1126485
50
92.6088068
51
106.1990587
0
ARC
8
DEFAULT_255_1_234
10
5.1193786
20
99.9059774
40
0.1522861
50
89.9660831
51
93.0733434
0
ARC
8
DEFAULT_255_1_234
10
5.1204481
20
99.928132
40
0.130135
50
78.4379222
51
90.4311858
0
ARC
8
DEFAULT_255_1_234
10
5.1301061
20
99.9731588
40
0.0840873
50
56.8960528
51
78.7359558
0
ARC
8
DEFAULT_255_1_234
10
5.1364288
20
99.9841877
40
0.0713991
50
42.6499553
51
56.3125067
0
ARC
8
DEFAULT_255_1_234
10
5.1236175
20
99.9724146
40
0.0887984
50
3.8142714
51
42.6365749
0
ARC
8
DEFAULT_255_1_234
10
5.0949976
20
99.9684153
40
0.1176392
50
359.9476902
51
4.8305927
0
ARC
8
DEFAULT_255_1_234
10
5.1176135
20
99.9673541
40
0.0950282
50
340.9376387
51
0.5750546
0
ARC
8
DEFAULT_255_1_234
10
5.1288631
20
99.9643192
40
0.0834082
50
316.0805399
51
340.3842391
0
ARC
8
DEFAULT_255_1_234
10
5.134671
20
99.9589809
40
0.0755219
50
285.8514865
51
315.9414755
0
ARC
8
DEFAULT_255_1_234
10
5.1229281
20
99.9969349
40
0.115244
50
273.1292529
51
286.3135479
0
ARC
8
DEFAULT_255_1_234
10
5.119598
20
100.0371049
40
0.1555398
50
269.9524064
51
273.5463789
0
ARC
8
DEFAULT_255_1_234
10
5.1184932
20
100.0152792
40
0.1337177
50
259.0490813
51
270.4180302
0
ARC
8
DEFAULT_255_1_234
10
5.1088595
20
99.9675393
40
0.0850178
50
239.7587791
51
259.311372
0
ARC
8
DEFAULT_255_1_234
10
5.1007626
20
99.9524482
40
0.0679053
50
222.6244131
51
239.247817
0
ARC
8
DEFAULT_255_1_234
10
5.1142001
20
99.9647619
40
0.0861314
50
182.9227855
51
222.598345
0
ARC
8
DEFAULT_255_1_234
10
5.141062
20
99.9682373
40
0.113155
50
179.9642935
51
183.9868025
0
LINE
8
DEFAULT_255_1_234
10
5.6583984
20
100.4261169
11
5.6583984
21
100.5473962
0
LINE
8
DEFAULT_255_1_234
10
5.6583984
20
100.5473962
11
5.7700396
21
100.5473962
0
LINE
8
DEFAULT_255_1_234
10
5.5796874
20
100.7530087
11
5.4311002
21
100.7530087
0
LINE
8
DEFAULT_255_1_234
10
5.4206589
20
100.1988188
11
5.5700493
21
100.1988188
0
LINE
8
DEFAULT_255_1_234
10
5.7700396
20
100.4261169
11
5.6583984
21
100.4261169
0
ARC
8
DEFAULT_255_1_234
10
5.7671262
20
100.8866713
40
0.3392876
50
270.4919872
51
281.8951556
0
ARC
8
DEFAULT_255_1_234
10
5.7912524
20
100.7764702
40
0.2264817
50
281.6691735
51
301.2943132
0
ARC
8
DEFAULT_255_1_234
10
5.8082734
20
100.7453304
40
0.1910381
50
301.7833094
51
311.7545298
0
ARC
8
DEFAULT_255_1_234
10
5.817431
20
100.7351748
40
0.1773635
50
311.7323931
51
354.2802411
0
ARC
8
DEFAULT_255_1_234
10
5.7447935
20
100.7476722
40
0.2509385
50
353.0937916
51
0.1181479
0
ARC
8
DEFAULT_255_1_234
10
5.698672
20
100.7524386
40
0.2970898
50
359.1805295
51
15.0453146
0
ARC
8
DEFAULT_255_1_234
10
5.8332557
20
100.7916992
40
0.1569564
50
13.9577229
51
77.6713066
0
ARC
8
DEFAULT_255_1_234
10
5.7946086
20
100.6531949
40
0.3006298
50
76.1116566
51
90.7026153
0
ARC
8
DEFAULT_255_1_234
10
5.7886924
20
100.6805545
40
0.2732568
50
89.5324876
51
103.531937
0
ARC
8
DEFAULT_255_1_234
10
5.7686368
20
100.7604884
40
0.1908508
50
103.2931773
51
133.5619022
0
ARC
8
DEFAULT_255_1_234
10
5.7641857
20
100.7664375
40
0.1834746
50
133.8349307
51
173.5344437
0
ARC
8
DEFAULT_255_1_234
10
5.83649
20
100.7536213
40
0.2568033
50
172.5096846
51
180.1366907
0
ARC
8
DEFAULT_255_1_234
10
5.7413794
20
100.7570622
40
0.3103056
50
155.3484492
51
180.7484736
0
ARC
8
DEFAULT_255_1_234
10
5.7364883
20
100.7541846
40
0.3070957
50
131.5744599
51
154.4798489
0
ARC
8
DEFAULT_255_1_234
10
5.767803
20
100.722531
40
0.3515643
50
96.9875458
51
131.9690667
0
ARC
8
DEFAULT_255_1_234
10
5.789751
20
100.5979636
40
0.4779224
50
89.8596053
51
97.7825159
0
ARC
8
DEFAULT_255_1_234
10
5.7945573
20
100.5717616
40
0.5041361
50
78.3655447
51
90.4131539
0
ARC
8
DEFAULT_255_1_234
10
5.8303491
20
100.7376887
40
0.3344039
50
56.6229102
51
78.638727
0
ARC
8
DEFAULT_255_1_234
10
5.8518435
20
100.7752805
40
0.2912001
50
47.0253525
51
56.0854072
0
ARC
8
DEFAULT_255_1_234
10
5.8538215
20
100.7792223
40
0.2869704
50
10.9208013
51
46.7778124
0
ARC
8
DEFAULT_255_1_234
10
5.7174281
20
100.7476857
40
0.426899
50
359.6364486
51
11.6087304
0
ARC
8
DEFAULT_255_1_234
10
5.9009125
20
100.7461752
40
0.243409
50
332.3549906
51
359.7179418
0
ARC
8
DEFAULT_255_1_234
10
5.8358727
20
100.7770142
40
0.3153459
50
325.2333722
51
332.8745602
0
ARC
8
DEFAULT_255_1_234
10
5.851135
20
100.7663828
40
0.2967456
50
292.9802137
51
325.2392345
0
ARC
8
DEFAULT_255_1_234
10
5.8236724
20
100.8197863
40
0.3566604
50
292.5402179
51
293.6924929
0
ARC
8
DEFAULT_255_1_234
10
5.862932
20
100.1743091
40
0.3307468
50
57.6435486
51
72.8625112
0
ARC
8
DEFAULT_255_1_234
10
5.898382
20
100.2317549
40
0.2632492
50
36.7248896
51
57.4697979
0
ARC
8
DEFAULT_255_1_234
10
5.8972452
20
100.233022
40
0.2634081
50
8.0545065
51
36.356114
0
ARC
8
DEFAULT_255_1_234
10
5.8109638
20
100.2175174
40
0.3510261
50
359.8320645
51
8.5869982
0
ARC
8
DEFAULT_255_1_234
10
5.7734414
20
100.2127101
40
0.3885653
50
343.9829931
51
0.5571613
0
ARC
8
DEFAULT_255_1_234
10
5.8620611
20
100.1884438
40
0.2966924
50
311.6359546
51
343.7651759
0
ARC
8
DEFAULT_255_1_234
10
5.824218
20
100.2311102
40
0.3537231
50
279.7829875
51
311.6255694
0
ARC
8
DEFAULT_255_1_234
10
5.7940956
20
100.374828
40
0.5004971
50
269.7286406
51
280.3856417
0
ARC
8
DEFAULT_255_1_234
10
5.7879029
20
100.3706996
40
0.4963778
50
256.6828919
51
270.4412052
0
ARC
8
DEFAULT_255_1_234
10
5.7540325
20
100.2322394
40
0.3538406
50
229.4223008
51
256.8556159
0
ARC
8
DEFAULT_255_1_234
10
5.7125718
20
100.1855736
40
0.2914296
50
181.818294
51
229.6455059
0
ARC
8
DEFAULT_255_1_234
10
5.8165674
20
100.1986496
40
0.3959084
50
179.9755256
51
183.2323064
0
ARC
8
DEFAULT_255_1_234
10
5.799342
20
100.1966037
40
0.2293034
50
179.4465117
51
196.2869258
0
ARC
8
DEFAULT_255_1_234
10
5.7505828
20
100.1832651
40
0.1787621
50
196.5661473
51
227.705904
0
ARC
8
DEFAULT_255_1_234
10
5.7669923
20
100.2016155
40
0.2033784
50
227.7652068
51
257.8762805
0
ARC
8
DEFAULT_255_1_234
10
5.7894893
20
100.2959156
40
0.3003081
50
257.4584385
51
270.426602
0
ARC
8
DEFAULT_255_1_234
10
5.7940459
20
100.3248996
40
0.329292
50
269.5962073
51
280.8789248
0
ARC
8
DEFAULT_255_1_234
10
5.8169988
20
100.2102685
40
0.2123908
50
280.6346389
51
299.8595945
0
ARC
8
DEFAULT_255_1_234
10
5.8360894
20
100.1740212
40
0.171457
50
300.3576302
51
314.5517981
0
ARC
8
DEFAULT_255_1_234
10
5.8277955
20
100.1800919
40
0.1816095
50
315.0728369
51
345.0431014
0
ARC
8
DEFAULT_255_1_234
10
5.7354769
20
100.2069841
40
0.2777492
50
344.5986631
51
357.9269593
0
ARC
8
DEFAULT_255_1_234
10
5.6459095
20
100.2131276
40
0.3674917
50
357.4748886
51
0.0231117
0
ARC
8
DEFAULT_255_1_234
10
5.7482205
20
100.2155679
40
0.2651907
50
359.5047933
51
13.4239635
0
ARC
8
DEFAULT_255_1_234
10
5.8348848
20
100.2377478
40
0.1757509
50
12.9498199
51
48.7551375
0
ARC
8
DEFAULT_255_1_234
10
5.8166582
20
100.21284
40
0.2065134
50
49.5088623
51
72.1836453
0
ARC
8
DEFAULT_255_1_234
10
5.7808735
20
100.1066291
40
0.3185836
50
71.9010081
51
84.3554254
0
ARC
8
DEFAULT_255_1_234
10
5.7647367
20
99.9705326
40
0.4556151
50
84.0193428
51
89.333121
0
LINE
8
DEFAULT_255_1_234
10
4.8190817
20
108.5194327
11
4.8190817
21
108.3266709
0
LINE
8
DEFAULT_255_1_234
10
4.080965
20
108.3065916
11
4.080965
21
108.5049755
0
LINE
8
DEFAULT_255_1_234
10
4.6704946
20
108.2865123
11
4.6704946
21
108.5298739
0
LINE
8
DEFAULT_255_1_234
10
4.2295521
20
108.5411184
11
4.2295521
21
108.3033789
0
ARC
8
DEFAULT_255_1_234
10
3.5943707
20
108.3217805
40
1.2247208
50
353.8441951
51
0.2287902
0
ARC
8
DEFAULT_255_1_234
10
4.0583211
20
108.2699806
40
0.7578929
50
344.4934747
51
353.9765454
0
ARC
8
DEFAULT_255_1_234
10
4.3575801
20
108.1848981
40
0.4467846
50
329.2803592
51
344.7472793
0
ARC
8
DEFAULT_255_1_234
10
4.4568626
20
108.1304018
40
0.3336173
50
324.9352394
51
328.6160465
0
ARC
8
DEFAULT_255_1_234
10
4.4945734
20
108.1040427
40
0.2876076
50
280.580143
51
324.9173126
0
ARC
8
DEFAULT_255_1_234
10
4.4544527
20
108.2711099
40
0.4592847
50
269.5977311
51
281.6734359
0
ARC
8
DEFAULT_255_1_234
10
4.4472433
20
108.2591173
40
0.4472986
50
256.6228859
51
270.51044
0
ARC
8
DEFAULT_255_1_234
10
4.407041
20
108.1042877
40
0.2873874
50
215.8618325
51
257.2788573
0
ARC
8
DEFAULT_255_1_234
10
4.5091442
20
108.1727977
40
0.4102928
50
197.9693508
51
215.2623606
0
ARC
8
DEFAULT_255_1_234
10
4.7576558
20
108.2566709
40
0.6725652
50
187.8816417
51
198.2346507
0
ARC
8
DEFAULT_255_1_234
10
5.1534766
20
108.3138079
40
1.0724845
50
180.8976217
51
188.0055519
0
ARC
8
DEFAULT_255_1_234
10
5.4334954
20
108.3241777
40
1.3526448
50
180.7449369
51
181.1510016
0
ARC
8
DEFAULT_255_1_234
10
5.2757683
20
108.5098042
40
1.1948131
50
173.7675579
51
180.231553
0
ARC
8
DEFAULT_255_1_234
10
4.823983
20
108.5608666
40
0.7401564
50
164.3058563
51
173.9002247
0
ARC
8
DEFAULT_255_1_234
10
4.5327899
20
108.6447656
40
0.4371288
50
148.7922025
51
164.568378
0
ARC
8
DEFAULT_255_1_234
10
4.4376351
20
108.6978929
40
0.3282386
50
144.5883898
51
148.1176286
0
ARC
8
DEFAULT_255_1_234
10
4.4033249
20
108.7218315
40
0.2864044
50
101.6440918
51
144.514236
0
ARC
8
DEFAULT_255_1_234
10
4.4458315
20
108.5529069
40
0.4604934
50
89.5284041
51
102.5819763
0
ARC
8
DEFAULT_255_1_234
10
4.4537403
20
108.5490018
40
0.464401
50
77.0437873
51
90.5081339
0
ARC
8
DEFAULT_255_1_234
10
4.4939405
20
108.7132615
40
0.2953195
50
48.2778575
51
77.4994676
0
ARC
8
DEFAULT_255_1_234
10
4.5012036
20
108.7261746
40
0.2808655
50
36.3142134
51
47.6305865
0
ARC
8
DEFAULT_255_1_234
10
4.4143343
20
108.6676515
40
0.3855453
50
18.2931786
51
35.6769206
0
ARC
8
DEFAULT_255_1_234
10
4.1600102
20
108.5803593
40
0.654423
50
8.024666
51
18.5605216
0
ARC
8
DEFAULT_255_1_234
10
3.7437022
20
108.5188792
40
1.0752407
50
1.1274072
51
8.1718305
0
ARC
8
DEFAULT_255_1_234
10
3.4201213
20
108.5061885
40
1.3990231
50
0.5424119
51
1.3863029
0
ARC
8
DEFAULT_255_1_234
10
3.602259
20
108.5334342
40
1.0682415
50
359.8090433
51
4.9407866
0
ARC
8
DEFAULT_255_1_234
10
4.0232604
20
108.5710113
40
0.6455691
50
4.8362157
51
12.2904523
0
ARC
8
DEFAULT_255_1_234
10
4.2987719
20
108.6323965
40
0.3633074
50
12.0805627
51
23.8173984
0
ARC
8
DEFAULT_255_1_234
10
4.4161425
20
108.6820919
40
0.2358723
50
24.2871213
51
31.3935614
0
ARC
8
DEFAULT_255_1_234
10
4.4686122
20
108.7164233
40
0.1732111
50
30.7407893
51
82.4657128
0
ARC
8
DEFAULT_255_1_234
10
4.4506256
20
108.6280691
40
0.263235
50
81.1060089
51
90.2184952
0
ARC
8
DEFAULT_255_1_234
10
4.4470555
20
108.6538924
40
0.2374236
50
89.3806855
51
105.6762551
0
ARC
8
DEFAULT_255_1_234
10
4.4287186
20
108.7205567
40
0.1682847
50
105.7981136
51
149.7388061
0
ARC
8
DEFAULT_255_1_234
10
4.5351264
20
108.656595
40
0.2924306
50
149.4208916
51
163.6286378
0
ARC
8
DEFAULT_255_1_234
10
4.7442152
20
108.592825
40
0.5110213
50
163.3763315
51
172.1410975
0
ARC
8
DEFAULT_255_1_234
10
5.0742871
20
108.5455518
40
0.8444586
50
172.0259487
51
178.0703232
0
ARC
8
DEFAULT_255_1_234
10
5.377296
20
108.5311906
40
1.1477868
50
177.8631668
51
179.5044149
0
ARC
8
DEFAULT_255_1_234
10
5.2700365
20
108.2997389
40
1.0404907
50
179.7995573
51
185.2460446
0
ARC
8
DEFAULT_255_1_234
10
4.8657404
20
108.2614513
40
0.6343885
50
185.1411642
51
193.0079639
0
ARC
8
DEFAULT_255_1_234
10
4.6013877
20
108.1989641
40
0.3627568
50
192.7897626
51
205.2507664
0
ARC
8
DEFAULT_255_1_234
10
4.4967424
20
108.1522415
40
0.2481908
50
205.8005384
51
211.2537509
0
ARC
8
DEFAULT_255_1_234
10
4.4443864
20
108.117158
40
0.1852521
50
210.3789793
51
238.4008143
0
ARC
8
DEFAULT_255_1_234
10
4.4424386
20
108.1218376
40
0.1882621
50
239.6520629
51
265.9793761
0
ARC
8
DEFAULT_255_1_234
10
4.4509586
20
108.1890427
40
0.2559272
50
265.1315437
51
270.060332
0
ARC
8
DEFAULT_255_1_234
10
4.4538365
20
108.1566534
40
0.2235528
50
269.3314664
51
287.2178029
0
ARC
8
DEFAULT_255_1_234
10
4.4676217
20
108.1063279
40
0.1714108
50
287.7958004
51
329.080874
0
ARC
8
DEFAULT_255_1_234
10
4.3718674
20
108.166093
40
0.2842745
50
328.6634704
51
343.3325132
0
ARC
8
DEFAULT_255_1_234
10
4.1545694
20
108.2337863
40
0.5118644
50
343.0499468
51
351.9393422
0
ARC
8
DEFAULT_255_1_234
10
3.8078994
20
108.2848949
40
0.8622784
50
351.8069023
51
357.7959224
0
ARC
8
DEFAULT_255_1_234
10
3.484355
20
108.3016721
40
1.1862365
50
357.5871873
51
359.2677531
0
ARC
8
DEFAULT_255_1_234
10
5.1349384
20
107.9067565
40
0.1070357
50
163.5417914
51
180.5078233
0
ARC
8
DEFAULT_255_1_234
10
5.1157202
20
107.9119421
40
0.0871371
50
138.1647447
51
163.2316401
0
ARC
8
DEFAULT_255_1_234
10
5.1044981
20
107.9214534
40
0.0724329
50
105.6856465
51
137.8494928
0
ARC
8
DEFAULT_255_1_234
10
5.1163413
20
107.8830129
40
0.1126485
50
92.6088068
51
106.1990587
0
ARC
8
DEFAULT_255_1_234
10
5.1193786
20
107.8434774
40
0.1522861
50
89.9660831
51
93.0733434
0
ARC
8
DEFAULT_255_1_234
10
5.1204481
20
107.865632
40
0.130135
50
78.4379222
51
90.4311858
0
ARC
8
DEFAULT_255_1_234
10
5.1301061
20
107.9106588
40
0.0840873
50
56.8960528
51
78.7359558
0
ARC
8
DEFAULT_255_1_234
10
5.1364288
20
107.9216877
40
0.0713991
50
42.6499553
51
56.3125067
0
ARC
8
DEFAULT_255_1_234
10
5.1236175
20
107.9099146
40
0.0887984
50
3.8142714
51
42.6365749
0
ARC
8
DEFAULT_255_1_234
10
5.0949976
20
107.9059153
40
0.1176392
50
359.9476902
51
4.8305927
0
ARC
8
DEFAULT_255_1_234
10
5.1176135
20
107.9048541
40
0.0950282
50
340.9376387
51
0.5750546
0
ARC
8
DEFAULT_255_1_234
10
5.1288631
20
107.9018192
40
0.0834082
50
316.0805399
51
340.3842391
0
ARC
8
DEFAULT_255_1_234
10
5.134671
20
107.8964809
40
0.0755219
50
285.8514865
51
315.9414755
0
ARC
8
DEFAULT_255_1_234
10
5.1229281
20
107.9344349
40
0.115244
50
273.1292529
51
286.3135479
0
ARC
8
DEFAULT_255_1_234
10
5.119598
20
107.9746049
40
0.1555398
50
269.9524064
51
273.5463789
0
ARC
8
DEFAULT_255_1_234
10
5.1184932
20
107.9527792
40
0.1337177
50
259.0490813
51
270.4180302
0
ARC
8
DEFAULT_255_1_234
10
5.1088595
20
107.9050393
40
0.0850178
50
239.7587791
51
259.311372
0
ARC
8
DEFAULT_255_1_234
10
5.1007626
20
107.8899482
40
0.0679053
50
222.6244131
51
239.247817
0
ARC
8
DEFAULT_255_1_234
10
5.1142001
20
107.9022619
40
0.0861314
50
182.9227855
51
222.598345
0
ARC
8
DEFAULT_255_1_234
10
5.141062
20
107.9057373
40
0.113155
50
179.9642935
51
183.9868025
0
LINE
8
DEFAULT_255_1_234
10
6.2085725
20
107.9491792
11
6.2085725
21
107.8279
0
LINE
8
DEFAULT_255_1_234
10
6.2085725
20
107.8279
11
5.4423446
21
107.8279
0
LINE
8
DEFAULT_255_1_234
10
5.4423446
20
107.8279
11
5.4423446
21
107.9347221
0
LINE
8
DEFAULT_255_1_234
10
5.4423446
20
107.9347221
11
5.8471442
21
108.3844995
0
LINE
8
DEFAULT_255_1_234
10
5.5684429
20
108.6527595
11
5.4198558
21
108.6527595
0
LINE
8
DEFAULT_255_1_234
10
5.9346902
20
108.2889218
11
5.6214524
21
107.9491792
0
LINE
8
DEFAULT_255_1_234
10
5.6214524
20
107.9491792
11
6.2085725
21
107.9491792
0
ARC
8
DEFAULT_255_1_234
10
4.4981276
20
109.5774527
40
1.8008286
50
318.5132453
51
320.7828378
0
ARC
8
DEFAULT_255_1_234
10
5.026825
20
109.1471426
40
1.1191493
50
320.7372736
51
323.9737074
0
ARC
8
DEFAULT_255_1_234
10
5.4188106
20
108.8631361
40
0.6350923
50
323.8961724
51
328.6421089
0
ARC
8
DEFAULT_255_1_234
10
5.6234702
20
108.7369031
40
0.3946393
50
328.8299013
51
331.789948
0
ARC
8
DEFAULT_255_1_234
10
5.723188
20
108.6854509
40
0.2824501
50
331.4255242
51
352.9364833
0
ARC
8
DEFAULT_255_1_234
10
5.7368381
20
108.6823976
40
0.2685315
50
353.2248685
51
0.0169286
0
ARC
8
DEFAULT_255_1_234
10
5.7578258
20
108.684695
40
0.2475536
50
359.4866256
51
15.9339782
0
ARC
8
DEFAULT_255_1_234
10
5.8085243
20
108.6983286
40
0.1950618
50
16.1714718
51
43.5284424
0
ARC
8
DEFAULT_255_1_234
10
5.8162552
20
108.7060573
40
0.184134
50
43.4415429
51
83.1661404
0
ARC
8
DEFAULT_255_1_234
10
5.802847
20
108.6323771
40
0.258926
50
82.160215
51
90.1505798
0
ARC
8
DEFAULT_255_1_234
10
5.7996897
20
108.5786865
40
0.3126255
50
89.5460705
51
102.5418777
0
ARC
8
DEFAULT_255_1_234
10
5.7753983
20
108.6817665
40
0.2067346
50
102.1739365
51
129.2061916
0
ARC
8
DEFAULT_255_1_234
10
5.7675055
20
108.6942094
40
0.1921118
50
129.7279328
51
135.7542026
0
ARC
8
DEFAULT_255_1_234
10
5.7796583
20
108.6845045
40
0.2075944
50
136.175737
51
166.3674722
0
ARC
8
DEFAULT_255_1_234
10
5.8803502
20
108.6575182
40
0.3118201
50
165.9092917
51
178.8683903
0
ARC
8
DEFAULT_255_1_234
10
5.9668363
20
108.6528179
40
0.3983935
50
178.438168
51
180.0083905
0
ARC
8
DEFAULT_255_1_234
10
5.8266965
20
108.6567231
40
0.4068601
50
163.2878735
51
180.5581814
0
ARC
8
DEFAULT_255_1_234
10
5.7465227
20
108.678784
40
0.3237344
50
133.454115
51
162.9470031
0
ARC
8
DEFAULT_255_1_234
10
5.7643768
20
108.6598
40
0.349795
50
100.7869394
51
133.4384016
0
ARC
8
DEFAULT_255_1_234
10
5.799154
20
108.5049319
40
0.5084616
50
89.6605301
51
101.3704185
0
ARC
8
DEFAULT_255_1_234
10
5.8057878
20
108.5110496
40
0.502348
50
78.2171172
51
90.4130393
0
ARC
8
DEFAULT_255_1_234
10
5.8412957
20
108.6734637
40
0.3361092
50
55.9268222
51
78.4888551
0
ARC
8
DEFAULT_255_1_234
10
5.8609397
20
108.7073324
40
0.2970617
50
47.9292255
51
55.4054003
0
ARC
8
DEFAULT_255_1_234
10
5.8710957
20
108.7176502
40
0.2825983
50
4.3347696
51
48.0560701
0
ARC
8
DEFAULT_255_1_234
10
5.7615351
20
108.7006601
40
0.393225
50
359.925209
51
5.5967654
0
ARC
8
DEFAULT_255_1_234
10
5.8044243
20
108.7062816
40
0.3503892
50
337.8914096
51
358.9967724
0
ARC
8
DEFAULT_255_1_234
10
5.5330655
20
108.8109706
40
0.6412172
50
326.9135351
51
338.3505194
0
ARC
8
DEFAULT_255_1_234
10
5.1344959
20
109.0664284
40
1.1146189
50
319.6472867
51
327.095818
0
ARC
8
DEFAULT_255_1_234
10
4.7511962
20
109.3826
40
1.6114559
50
317.2586784
51
319.9046139
0
LINE
8
DEFAULT_255_1_234
10
4.8110817
20
116.4569327
11
4.8110817
21
116.2641709
0
LINE
8
DEFAULT_255_1_234
10
4.072965
20
116.2440916
11
4.072965
21
116.4424755
0
LINE
8
DEFAULT_255_1_234
10
4.6624946
20
116.2240123
11
4.6624946
21
116.4673739
0
LINE
8
DEFAULT_255_1_234
10
4.2215521
20
116.4786184
11
4.2215521
21
116.2408789
0
ARC
8
DEFAULT_255_1_234
10
3.5863707
20
116.2592805
40
1.2247208
50
353.8441951
51
0.2287902
0
ARC
8
DEFAULT_255_1_234
10
4.0503211
20
116.2074806
40
0.7578929
50
344.4934747
51
353.9765454
0
ARC
8
DEFAULT_255_1_234
10
4.3495801
20
116.1223981
40
0.4467846
50
329.2803592
51
344.7472793
0
ARC
8
DEFAULT_255_1_234
10
4.4488626
20
116.0679018
40
0.3336173
50
324.9352394
51
328.6160465
0
ARC
8
DEFAULT_255_1_234
10
4.4865734
20
116.0415427
40
0.2876076
50
280.580143
51
324.9173126
0
ARC
8
DEFAULT_255_1_234
10
4.4464527
20
116.2086099
40
0.4592847
50
269.5977311
51
281.6734359
0
ARC
8
DEFAULT_255_1_234
10
4.4392433
20
116.1966173
40
0.4472986
50
256.6228859
51
270.51044
0
ARC
8
DEFAULT_255_1_234
10
4.399041
20
116.0417877
40
0.2873874
50
215.8618325
51
257.2788573
0
ARC
8
DEFAULT_255_1_234
10
4.5011442
20
116.1102977
40
0.4102928
50
197.9693508
51
215.2623606
0
ARC
8
DEFAULT_255_1_234
10
4.7496558
20
116.1941709
40
0.6725652
50
187.8816417
51
198.2346507
0
ARC
8
DEFAULT_255_1_234
10
5.1454766
20
116.2513079
40
1.0724845
50
180.8976217
51
188.0055519
0
ARC
8
DEFAULT_255_1_234
10
5.4254954
20
116.2616777
40
1.3526448
50
180.7449369
51
181.1510016
0
ARC
8
DEFAULT_255_1_234
10
5.2677683
20
116.4473042
40
1.1948131
50
173.7675579
51
180.231553
0
ARC
8
DEFAULT_255_1_234
10
4.815983
20
116.4983666
40
0.7401564
50
164.3058563
51
173.9002247
0
ARC
8
DEFAULT_255_1_234
10
4.5247899
20
116.5822656
40
0.4371288
50
148.7922025
51
164.568378
0
ARC
8
DEFAULT_255_1_234
10
4.4296351
20
116.6353929
40
0.3282386
50
144.5883898
51
148.1176286
0
ARC
8
DEFAULT_255_1_234
10
4.3953249
20
116.6593315
40
0.2864044
50
101.6440918
51
144.514236
0
ARC
8
DEFAULT_255_1_234
10
4.4378315
20
116.4904069
40
0.4604934
50
89.5284041
51
102.5819763
0
ARC
8
DEFAULT_255_1_234
10
4.4457403
20
116.4865018
40
0.464401
50
77.0437873
51
90.5081339
0
ARC
8
DEFAULT_255_1_234
10
4.4859405
20
116.6507615
40
0.2953195
50
48.2778575
51
77.4994676
0
ARC
8
DEFAULT_255_1_234
10
4.4932036
20
116.6636746
40
0.2808655
50
36.3142134
51
47.6305865
0
ARC
8
DEFAULT_255_1_234
10
4.4063343
20
116.6051515
40
0.3855453
50
18.2931786
51
35.6769206
0
ARC
8
DEFAULT_255_1_234
10
4.1520102
20
116.5178593
40
0.654423
50
8.024666
51
18.5605216
0
ARC
8
DEFAULT_255_1_234
10
3.7357022
20
116.4563792
40
1.0752407
50
1.1274072
51
8.1718305
0
ARC
8
DEFAULT_255_1_234
10
3.4121213
20
116.4436885
40
1.3990231
50
0.5424119
51
1.3863029
0
ARC
8
DEFAULT_255_1_234
10
3.594259
20
116.4709342
40
1.0682415
50
359.8090433
51
4.9407866
0
ARC
8
DEFAULT_255_1_234
10
4.0152604
20
116.5085113
40
0.6455691
50
4.8362157
51
12.2904523
0
ARC
8
DEFAULT_255_1_234
10
4.2907719
20
116.5698965
40
0.3633074
50
12.0805627
51
23.8173984
0
ARC
8
DEFAULT_255_1_234
10
4.4081425
20
116.6195919
40
0.2358723
50
24.2871213
51
31.3935614
0
ARC
8
DEFAULT_255_1_234
10
4.4606122
20
116.6539233
40
0.1732111
50
30.7407893
51
82.4657128
0
ARC
8
DEFAULT_255_1_234
10
4.4426256
20
116.5655691
40
0.263235
50
81.1060089
51
90.2184952
0
ARC
8
DEFAULT_255_1_234
10
4.4390555
20
116.5913924
40
0.2374236
50
89.3806855
51
105.6762551
0
ARC
8
DEFAULT_255_1_234
10
4.4207186
20
116.6580567
40
0.1682847
50
105.7981136
51
149.7388061
0
ARC
8
DEFAULT_255_1_234
10
4.5271264
20
116.594095
40
0.2924306
50
149.4208916
51
163.6286378
0
ARC
8
DEFAULT_255_1_234
10
4.7362152
20
116.530325
40
0.5110213
50
163.3763315
51
172.1410975
0
ARC
8
DEFAULT_255_1_234
10
5.0662871
20
116.4830518
40
0.8444586
50
172.0259487
51
178.0703232
0
ARC
8
DEFAULT_255_1_234
10
5.369296
20
116.4686906
40
1.1477868
50
177.8631668
51
179.5044149
0
ARC
8
DEFAULT_255_1_234
10
5.2620365
20
116.2372389
40
1.0404907
50
179.7995573
51
185.2460446
0
ARC
8
DEFAULT_255_1_234
10
4.8577404
20
116.1989513
40
0.6343885
50
185.1411642
51
193.0079639
0
ARC
8
DEFAULT_255_1_234
10
4.5933877
20
116.1364641
40
0.3627568
50
192.7897626
51
205.2507664
0
ARC
8
DEFAULT_255_1_234
10
4.4887424
20
116.0897415
40
0.2481908
50
205.8005384
51
211.2537509
0
ARC
8
DEFAULT_255_1_234
10
4.4363864
20
116.054658
40
0.1852521
50
210.3789793
51
238.4008143
0
ARC
8
DEFAULT_255_1_234
10
4.4344386
20
116.0593376
40
0.1882621
50
239.6520629
51
265.9793761
0
ARC
8
DEFAULT_255_1_234
10
4.4429586
20
116.1265427
40
0.2559272
50
265.1315437
51
270.060332
0
ARC
8
DEFAULT_255_1_234
10
4.4458365
20
116.0941534
40
0.2235528
50
269.3314664
51
287.2178029
0
ARC
8
DEFAULT_255_1_234
10
4.4596217
20
116.0438279
40
0.1714108
50
287.7958004
51
329.080874
0
ARC
8
DEFAULT_255_1_234
10
4.3638674
20
116.103593
40
0.2842745
50
328.6634704
51
343.3325132
0
ARC
8
DEFAULT_255_1_234
10
4.1465694
20
116.1712863
40
0.5118644
50
343.0499468
51
351.9393422
0
ARC
8
DEFAULT_255_1_234
10
3.7998994
20
116.2223949
40
0.8622784
50
351.8069023
51
357.7959224
0
ARC
8
DEFAULT_255_1_234
10
3.476355
20
116.2391721
40
1.1862365
50
357.5871873
51
359.2677531
0
ARC
8
DEFAULT_255_1_234
10
5.1269384
20
115.8442565
40
0.1070357
50
163.5417914
51
180.5078233
0
ARC
8
DEFAULT_255_1_234
10
5.1077202
20
115.8494421
40
0.0871371
50
138.1647447
51
163.2316401
0
ARC
8
DEFAULT_255_1_234
10
5.0964981
20
115.8589534
40
0.0724329
50
105.6856465
51
137.8494928
0
ARC
8
DEFAULT_255_1_234
10
5.1083413
20
115.8205129
40
0.1126485
50
92.6088068
51
106.1990587
0
ARC
8
DEFAULT_255_1_234
10
5.1113786
20
115.7809774
40
0.1522861
50
89.9660831
51
93.0733434
0
ARC
8
DEFAULT_255_1_234
10
5.1124481
20
115.803132
40
0.130135
50
78.4379222
51
90.4311858
0
ARC
8
DEFAULT_255_1_234
10
5.1221061
20
115.8481588
40
0.0840873
50
56.8960528
51
78.7359558
0
ARC
8
DEFAULT_255_1_234
10
5.1284288
20
115.8591877
40
0.0713991
50
42.6499553
51
56.3125067
0
ARC
8
DEFAULT_255_1_234
10
5.1156175
20
115.8474146
40
0.0887984
50
3.8142714
51
42.6365749
0
ARC
8
DEFAULT_255_1_234
10
5.0869976
20
115.8434153
40
0.1176392
50
359.9476902
51
4.8305927
0
ARC
8
DEFAULT_255_1_234
10
5.1096135
20
115.8423541
40
0.0950282
50
340.9376387
51
0.5750546
0
ARC
8
DEFAULT_255_1_234
10
5.1208631
20
115.8393192
40
0.0834082
50
316.0805399
51
340.3842391
0
ARC
8
DEFAULT_255_1_234
10
5.126671
20
115.8339809
40
0.0755219
50
285.8514865
51
315.9414755
0
ARC
8
DEFAULT_255_1_234
10
5.1149281
20
115.8719349
40
0.115244
50
273.1292529
51
286.3135479
0
ARC
8
DEFAULT_255_1_234
10
5.111598
20
115.9121049
40
0.1555398
50
269.9524064
51
273.5463789
0
ARC
8
DEFAULT_255_1_234
10
5.1104932
20
115.8902792
40
0.1337177
50
259.0490813
51
270.4180302
0
ARC
8
DEFAULT_255_1_234
10
5.1008595
20
115.8425393
40
0.0850178
50
239.7587791
51
259.311372
0
ARC
8
DEFAULT_255_1_234
10
5.0927626
20
115.8274482
40
0.0679053
50
222.6244131
51
239.247817
0
ARC
8
DEFAULT_255_1_234
10
5.1062001
20
115.8397619
40
0.0861314
50
182.9227855
51
222.598345
0
ARC
8
DEFAULT_255_1_234
10
5.133062
20
115.8432373
40
0.113155
50
179.9642935
51
183.9868025
0
LINE
8
DEFAULT_255_1_234
10
5.9226743
20
116.9404433
11
5.9226743
21
115.7654
0
LINE
8
DEFAULT_255_1_234
10
5.9226743
20
115.7654
11
5.773284
21
115.7654
0
LINE
8
DEFAULT_255_1_234
10
5.773284
20
115.7654
11
5.773284
21
116.7557133
0
LINE
8
DEFAULT_255_1_234
10
5.773284
20
116.7557133
11
5.4737001
21
116.6456785
0
LINE
8
DEFAULT_255_1_234
10
5.4737001
20
116.6456785
11
5.4737001
21
116.7806117
0
LINE
8
DEFAULT_255_1_234
10
5.4737001
20
116.7806117
11
5.8993823
21
116.9404433
0
LINE
8
DEFAULT_255_1_234
10
5.8993823
20
116.9404433
11
5.9226743
21
116.9404433
0
LINE
8
DEFAULT_255_1_234
10
4.8190817
20
124.3944327
11
4.8190817
21
124.2016709
0
LINE
8
DEFAULT_255_1_234
10
4.080965
20
124.1815916
11
4.080965
21
124.3799755
0
LINE
8
DEFAULT_255_1_234
10
4.6704946
20
124.1615123
11
4.6704946
21
124.4048739
0
LINE
8
DEFAULT_255_1_234
10
4.2295521
20
124.4161184
11
4.2295521
21
124.1783789
0
ARC
8
DEFAULT_255_1_234
10
3.5943707
20
124.1967805
40
1.2247208
50
353.8441951
51
0.2287902
0
ARC
8
DEFAULT_255_1_234
10
4.0583211
20
124.1449806
40
0.7578929
50
344.4934747
51
353.9765454
0
ARC
8
DEFAULT_255_1_234
10
4.3575801
20
124.0598981
40
0.4467846
50
329.2803592
51
344.7472793
0
ARC
8
DEFAULT_255_1_234
10
4.4568626
20
124.0054018
40
0.3336173
50
324.9352394
51
328.6160465
0
ARC
8
DEFAULT_255_1_234
10
4.4945734
20
123.9790427
40
0.2876076
50
280.580143
51
324.9173126
0
ARC
8
DEFAULT_255_1_234
10
4.4544527
20
124.1461099
40
0.4592847
50
269.5977311
51
281.6734359
0
ARC
8
DEFAULT_255_1_234
10
4.4472433
20
124.1341173
40
0.4472986
50
256.6228859
51
270.51044
0
ARC
8
DEFAULT_255_1_234
10
4.407041
20
123.9792877
40
0.2873874
50
215.8618325
51
257.2788573
0
ARC
8
DEFAULT_255_1_234
10
4.5091442
20
124.0477977
40
0.4102928
50
197.9693508
51
215.2623606
0
ARC
8
DEFAULT_255_1_234
10
4.7576558
20
124.1316709
40
0.6725652
50
187.8816417
51
198.2346507
0
ARC
8
DEFAULT_255_1_234
10
5.1534766
20
124.1888079
40
1.0724845
50
180.8976217
51
188.0055519
0
ARC
8
DEFAULT_255_1_234
10
5.4334954
20
124.1991777
40
1.3526448
50
180.7449369
51
181.1510016
0
ARC
8
DEFAULT_255_1_234
10
5.2757683
20
124.3848042
40
1.1948131
50
173.7675579
51
180.231553
0
ARC
8
DEFAULT_255_1_234
10
4.823983
20
124.4358666
40
0.7401564
50
164.3058563
51
173.9002247
0
ARC
8
DEFAULT_255_1_234
10
4.5327899
20
124.5197656
40
0.4371288
50
148.7922025
51
164.568378
0
ARC
8
DEFAULT_255_1_234
10
4.4376351
20
124.5728929
40
0.3282386
50
144.5883898
51
148.1176286
0
ARC
8
DEFAULT_255_1_234
10
4.4033249
20
124.5968315
40
0.2864044
50
101.6440918
51
144.514236
0
ARC
8
DEFAULT_255_1_234
10
4.4458315
20
124.4279069
40
0.4604934
50
89.5284041
51
102.5819763
0
ARC
8
DEFAULT_255_1_234
10
4.4537403
20
124.4240018
40
0.464401
50
77.0437873
51
90.5081339
0
ARC
8
DEFAULT_255_1_234
10
4.4939405
20
124.5882615
40
0.2953195
50
48.2778575
51
77.4994676
0
ARC
8
DEFAULT_255_1_234
10
4.5012036
20
124.6011746
40
0.2808655
50
36.3142134
51
47.6305865
0
ARC
8
DEFAULT_255_1_234
10
4.4143343
20
124.5426515
40
0.3855453
50
18.2931786
51
35.6769206
0
ARC
8
DEFAULT_255_1_234
10
4.1600102
20
124.4553593
40
0.654423
50
8.024666
51
18.5605216
0
ARC
8
DEFAULT_255_1_234
10
3.7437022
20
124.3938792
40
1.0752407
50
1.1274072
51
8.1718305
0
ARC
8
DEFAULT_255_1_234
10
3.4201213
20
124.3811885
40
1.3990231
50
0.5424119
51
1.3863029
0
ARC
8
DEFAULT_255_1_234
10
3.602259
20
124.4084342
40
1.0682415
50
359.8090433
51
4.9407866
0
ARC
8
DEFAULT_255_1_234
10
4.0232604
20
124.4460113
40
0.6455691
50
4.8362157
51
12.2904523
0
ARC
8
DEFAULT_255_1_234
10
4.2987719
20
124.5073965
40
0.3633074
50
12.0805627
51
23.8173984
0
ARC
8
DEFAULT_255_1_234
10
4.4161425
20
124.5570919
40
0.2358723
50
24.2871213
51
31.3935614
0
ARC
8
DEFAULT_255_1_234
10
4.4686122
20
124.5914233
40
0.1732111
50
30.7407893
51
82.4657128
0
ARC
8
DEFAULT_255_1_234
10
4.4506256
20
124.5030691
40
0.263235
50
81.1060089
51
90.2184952
0
ARC
8
DEFAULT_255_1_234
10
4.4470555
20
124.5288924
40
0.2374236
50
89.3806855
51
105.6762551
0
ARC
8
DEFAULT_255_1_234
10
4.4287186
20
124.5955567
40
0.1682847
50
105.7981136
51
149.7388061
0
ARC
8
DEFAULT_255_1_234
10
4.5351264
20
124.531595
40
0.2924306
50
149.4208916
51
163.6286378
0
ARC
8
DEFAULT_255_1_234
10
4.7442152
20
124.467825
40
0.5110213
50
163.3763315
51
172.1410975
0
ARC
8
DEFAULT_255_1_234
10
5.0742871
20
124.4205518
40
0.8444586
50
172.0259487
51
178.0703232
0
ARC
8
DEFAULT_255_1_234
10
5.377296
20
124.4061906
40
1.1477868
50
177.8631668
51
179.5044149
0
ARC
8
DEFAULT_255_1_234
10
5.2700365
20
124.1747389
40
1.0404907
50
179.7995573
51
185.2460446
0
ARC
8
DEFAULT_255_1_234
10
4.8657404
20
124.1364513
40
0.6343885
50
185.1411642
51
193.0079639
0
ARC
8
DEFAULT_255_1_234
10
4.6013877
20
124.0739641
40
0.3627568
50
192.7897626
51
205.2507664
0
ARC
8
DEFAULT_255_1_234
10
4.4967424
20
124.0272415
40
0.2481908
50
205.8005384
51
211.2537509
0
ARC
8
DEFAULT_255_1_234
10
4.4443864
20
123.992158
40
0.1852521
50
210.3789793
51
238.4008143
0
ARC
8
DEFAULT_255_1_234
10
4.4424386
20
123.9968376
40
0.1882621
50
239.6520629
51
265.9793761
0
ARC
8
DEFAULT_255_1_234
10
4.4509586
20
124.0640427
40
0.2559272
50
265.1315437
51
270.060332
0
ARC
8
DEFAULT_255_1_234
10
4.4538365
20
124.0316534
40
0.2235528
50
269.3314664
51
287.2178029
0
ARC
8
DEFAULT_255_1_234
10
4.4676217
20
123.9813279
40
0.1714108
50
287.7958004
51
329.080874
0
ARC
8
DEFAULT_255_1_234
10
4.3718674
20
124.041093
40
0.2842745
50
328.6634704
51
343.3325132
0
ARC
8
DEFAULT_255_1_234
10
4.1545694
20
124.1087863
40
0.5118644
50
343.0499468
51
351.9393422
0
ARC
8
DEFAULT_255_1_234
10
3.8078994
20
124.1598949
40
0.8622784
50
351.8069023
51
357.7959224
0
ARC
8
DEFAULT_255_1_234
10
3.484355
20
124.1766721
40
1.1862365
50
357.5871873
51
359.2677531
0
ARC
8
DEFAULT_255_1_234
10
5.1349384
20
123.7817565
40
0.1070357
50
163.5417914
51
180.5078233
0
ARC
8
DEFAULT_255_1_234
10
5.1157202
20
123.7869421
40
0.0871371
50
138.1647447
51
163.2316401
0
ARC
8
DEFAULT_255_1_234
10
5.1044981
20
123.7964534
40
0.0724329
50
105.6856465
51
137.8494928
0
ARC
8
DEFAULT_255_1_234
10
5.1163413
20
123.7580129
40
0.1126485
50
92.6088068
51
106.1990587
0
ARC
8
DEFAULT_255_1_234
10
5.1193786
20
123.7184774
40
0.1522861
50
89.9660831
51
93.0733434
0
ARC
8
DEFAULT_255_1_234
10
5.1204481
20
123.740632
40
0.130135
50
78.4379222
51
90.4311858
0
ARC
8
DEFAULT_255_1_234
10
5.1301061
20
123.7856588
40
0.0840873
50
56.8960528
51
78.7359558
0
ARC
8
DEFAULT_255_1_234
10
5.1364288
20
123.7966877
40
0.0713991
50
42.6499553
51
56.3125067
0
ARC
8
DEFAULT_255_1_234
10
5.1236175
20
123.7849146
40
0.0887984
50
3.8142714
51
42.6365749
0
ARC
8
DEFAULT_255_1_234
10
5.0949976
20
123.7809153
40
0.1176392
50
359.9476902
51
4.8305927
0
ARC
8
DEFAULT_255_1_234
10
5.1176135
20
123.7798541
40
0.0950282
50
340.9376387
51
0.5750546
0
ARC
8
DEFAULT_255_1_234
10
5.1288631
20
123.7768192
40
0.0834082
50
316.0805399
51
340.3842391
0
ARC
8
DEFAULT_255_1_234
10
5.134671
20
123.7714809
40
0.0755219
50
285.8514865
51
315.9414755
0
ARC
8
DEFAULT_255_1_234
10
5.1229281
20
123.8094349
40
0.115244
50
273.1292529
51
286.3135479
0
ARC
8
DEFAULT_255_1_234
10
5.119598
20
123.8496049
40
0.1555398
50
269.9524064
51
273.5463789
0
ARC
8
DEFAULT_255_1_234
10
5.1184932
20
123.8277792
40
0.1337177
50
259.0490813
51
270.4180302
0
ARC
8
DEFAULT_255_1_234
10
5.1088595
20
123.7800393
40
0.0850178
50
239.7587791
51
259.311372
0
ARC
8
DEFAULT_255_1_234
10
5.1007626
20
123.7649482
40
0.0679053
50
222.6244131
51
239.247817
0
ARC
8
DEFAULT_255_1_234
10
5.1142001
20
123.7772619
40
0.0861314
50
182.9227855
51
222.598345
0
ARC
8
DEFAULT_255_1_234
10
5.141062
20
123.7807373
40
0.113155
50
179.9642935
51
183.9868025
0
LINE
8
DEFAULT_255_1_234
10
6.1756423
20
124.3944327
11
6.1756423
21
124.2016709
0
LINE
8
DEFAULT_255_1_234
10
5.4375256
20
124.1815916
11
5.4375256
21
124.3799755
0
LINE
8
DEFAULT_255_1_234
10
6.0270552
20
124.1615123
11
6.0270552
21
124.4048739
0
LINE
8
DEFAULT_255_1_234
10
5.5861127
20
124.4161184
11
5.5861127
21
124.1783789
0
ARC
8
DEFAULT_255_1_234
10
4.9509313
20
124.1967805
40
1.2247208
50
353.8441951
51
0.2287902
0
ARC
8
DEFAULT_255_1_234
10
5.4148817
20
124.1449806
40
0.7578929
50
344.4934747
51
353.9765454
0
ARC
8
DEFAULT_255_1_234
10
5.7141407
20
124.0598981
40
0.4467846
50
329.2803592
51
344.7472793
0
ARC
8
DEFAULT_255_1_234
10
5.8134232
20
124.0054018
40
0.3336173
50
324.9352394
51
328.6160465
0
ARC
8
DEFAULT_255_1_234
10
5.851134
20
123.9790427
40
0.2876076
50
280.580143
51
324.9173126
0
ARC
8
DEFAULT_255_1_234
10
5.8110133
20
124.1461099
40
0.4592847
50
269.5977311
51
281.6734359
0
ARC
8
DEFAULT_255_1_234
10
5.8038039
20
124.1341173
40
0.4472986
50
256.6228859
51
270.51044
0
ARC
8
DEFAULT_255_1_234
10
5.7636016
20
123.9792877
40
0.2873874
50
215.8618325
51
257.2788573
0
ARC
8
DEFAULT_255_1_234
10
5.8657048
20
124.0477977
40
0.4102928
50
197.9693508
51
215.2623606
0
ARC
8
DEFAULT_255_1_234
10
6.1142164
20
124.1316709
40
0.6725652
50
187.8816417
51
198.2346507
0
ARC
8
DEFAULT_255_1_234
10
6.5100372
20
124.1888079
40
1.0724845
50
180.8976217
51
188.0055519
0
ARC
8
DEFAULT_255_1_234
10
6.790056
20
124.1991777
40
1.3526448
50
180.7449369
51
181.1510016
0
ARC
8
DEFAULT_255_1_234
10
6.6323289
20
124.3848042
40
1.1948131
50
173.7675579
51
180.231553
0
ARC
8
DEFAULT_255_1_234
10
6.1805436
20
124.4358666
40
0.7401564
50
164.3058563
51
173.9002247
0
ARC
8
DEFAULT_255_1_234
10
5.8893505
20
124.5197656
40
0.4371288
50
148.7922025
51
164.568378
0
ARC
8
DEFAULT_255_1_234
10
5.7941957
20
124.5728929
40
0.3282386
50
144.5883898
51
148.1176286
0
ARC
8
DEFAULT_255_1_234
10
5.7598855
20
124.5968315
40
0.2864044
50
101.6440918
51
144.514236
0
ARC
8
DEFAULT_255_1_234
10
5.8023921
20
124.4279069
40
0.4604934
50
89.5284041
51
102.5819763
0
ARC
8
DEFAULT_255_1_234
10
5.8103009
20
124.4240018
40
0.464401
50
77.0437873
51
90.5081339
0
ARC
8
DEFAULT_255_1_234
10
5.8505011
20
124.5882615
40
0.2953195
50
48.2778575
51
77.4994676
0
ARC
8
DEFAULT_255_1_234
10
5.8577642
20
124.6011746
40
0.2808655
50
36.3142134
51
47.6305865
0
ARC
8
DEFAULT_255_1_234
10
5.7708949
20
124.5426515
40
0.3855453
50
18.2931786
51
35.6769206
0
ARC
8
DEFAULT_255_1_234
10
5.5165708
20
124.4553593
40
0.654423
50
8.024666
51
18.5605216
0
ARC
8
DEFAULT_255_1_234
10
5.1002628
20
124.3938792
40
1.0752407
50
1.1274072
51
8.1718305
0
ARC
8
DEFAULT_255_1_234
10
4.7766818
20
124.3811885
40
1.3990231
50
0.5424119
51
1.3863029
0
ARC
8
DEFAULT_255_1_234
10
4.9588196
20
124.4084342
40
1.0682415
50
359.8090433
51
4.9407866
0
ARC
8
DEFAULT_255_1_234
10
5.379821
20
124.4460113
40
0.6455691
50
4.8362157
51
12.2904523
0
ARC
8
DEFAULT_255_1_234
10
5.6553325
20
124.5073965
40
0.3633074
50
12.0805627
51
23.8173984
0
ARC
8
DEFAULT_255_1_234
10
5.772703
20
124.5570919
40
0.2358723
50
24.2871213
51
31.3935614
0
ARC
8
DEFAULT_255_1_234
10
5.8251728
20
124.5914233
40
0.1732111
50
30.7407893
51
82.4657128
0
ARC
8
DEFAULT_255_1_234
10
5.8071862
20
124.5030691
40
0.263235
50
81.1060089
51
90.2184952
0
ARC
8
DEFAULT_255_1_234
10
5.8036161
20
124.5288924
40
0.2374236
50
89.3806855
51
105.6762551
0
ARC
8
DEFAULT_255_1_234
10
5.7852792
20
124.5955567
40
0.1682847
50
105.7981136
51
149.7388061
0
ARC
8
DEFAULT_255_1_234
10
5.891687
20
124.531595
40
0.2924306
50
149.4208916
51
163.6286378
0
ARC
8
DEFAULT_255_1_234
10
6.1007758
20
124.467825
40
0.5110213
50
163.3763315
51
172.1410975
0
ARC
8
DEFAULT_255_1_234
10
6.4308477
20
124.4205518
40
0.8444586
50
172.0259487
51
178.0703232
0
ARC
8
DEFAULT_255_1_234
10
6.7338566
20
124.4061906
40
1.1477868
50
177.8631668
51
179.5044149
0
ARC
8
DEFAULT_255_1_234
10
6.6265971
20
124.1747389
40
1.0404907
50
179.7995573
51
185.2460446
0
ARC
8
DEFAULT_255_1_234
10
6.222301
20
124.1364513
40
0.6343885
50
185.1411642
51
193.0079639
0
ARC
8
DEFAULT_255_1_234
10
5.9579483
20
124.0739641
40
0.3627568
50
192.7897626
51
205.2507664
0
ARC
8
DEFAULT_255_1_234
10
5.853303
20
124.0272415
40
0.2481908
50
205.8005384
51
211.2537509
0
ARC
8
DEFAULT_255_1_234
10
5.800947
20
123.992158
40
0.1852521
50
210.3789793
51
238.4008143
0
ARC
8
DEFAULT_255_1_234
10
5.7989992
20
123.9968376
40
0.1882621
50
239.6520629
51
265.9793761
0
ARC
8
DEFAULT_255_1_234
10
5.8075192
20
124.0640427
40
0.2559272
50
265.1315437
51
270.060332
0
ARC
8
DEFAULT_255_1_234
10
5.8103971
20
124.0316534
40
0.2235528
50
269.3314664
51
287.2178029
0
ARC
8
DEFAULT_255_1_234
10
5.8241823
20
123.9813279
40
0.1714108
50
287.7958004
51
329.080874
0
ARC
8
DEFAULT_255_1_234
10
5.728428
20
124.041093
40
0.2842745
50
328.6634704
51
343.3325132
0
ARC
8
DEFAULT_255_1_234
10
5.51113
20
124.1087863
40
0.5118644
50
343.0499468
51
351.9393422
0
ARC
8
DEFAULT_255_1_234
10
5.16446
20
124.1598949
40
0.8622784
50
351.8069023
51
357.7959224
0
ARC
8
DEFAULT_255_1_234
10
4.8409156
20
124.1766721
40
1.1862365
50
357.5871873
51
359.2677531
0
LINE
8
DEFAULT_255_1_234
10
23.0434364
20
132.8098211
11
23.2426235
21
132.8098211
0
LINE
8
DEFAULT_255_1_234
10
23.2426235
20
132.8098211
11
23.6249342
21
131.8556506
0
LINE
8
DEFAULT_255_1_234
10
23.6249342
20
131.8556506
11
24.007245
21
132.8098211
0
LINE
8
DEFAULT_255_1_234
10
24.007245
20
132.8098211
11
24.2072353
21
132.8098211
0
LINE
8
DEFAULT_255_1_234
10
24.2072353
20
132.8098211
11
24.2072353
21
131.6404
0
LINE
8
DEFAULT_255_1_234
10
24.2072353
20
131.6404
11
24.0530259
21
131.6404
0
LINE
8
DEFAULT_255_1_234
10
24.0530259
20
131.6404
11
24.0530259
21
132.0957996
0
LINE
8
DEFAULT_255_1_234
10
24.0530259
20
132.0957996
11
24.067483
21
132.5873419
0
LINE
8
DEFAULT_255_1_234
10
24.067483
20
132.5873419
11
23.6835659
21
131.6404
0
LINE
8
DEFAULT_255_1_234
10
23.6835659
20
131.6404
11
23.5654994
21
131.6404
0
LINE
8
DEFAULT_255_1_234
10
23.5654994
20
131.6404
11
23.1823854
21
132.5849324
0
LINE
8
DEFAULT_255_1_234
10
23.1823854
20
132.5849324
11
23.1976458
21
132.0957996
0
LINE
8
DEFAULT_255_1_234
10
23.1976458
20
132.0957996
11
23.1976458
21
131.6404
0
LINE
8
DEFAULT_255_1_234
10
23.1976458
20
131.6404
11
23.0434364
21
131.6404
0
LINE
8
DEFAULT_255_1_234
10
23.0434364
20
131.6404
11
23.0434364
21
132.8098211
0
ENDSEC
0
EOF