0
SECTION
2
HEADER
9
$MEASUREMENT
70
1
0
ENDSEC
0
SECTION
2
TABLES
0
TABLE
2
LTYPE
0
LTYPE
72
65
70
64
2
CONTINUOUS
3
______
73
0
40
0
0
ENDTAB
0
TABLE
2
LAYER
0
LAYER
2
DEFAULT_255_2_778
70
0
62
255
6
CONTINUOUS
0
ENDTAB
0
ENDSEC
0
SECTION
2
ENTITIES
0
ARC
8
DEFAULT_255_2_778
10
17.8576845
20
29.5733607
40
2.4946835
50
284.9710905
51
310.4035584
0
ARC
8
DEFAULT_255_2_778
10
17.8542874
20
29.578604
40
2.5008783
50
310.3849643
51
353.3975747
0
ARC
8
DEFAULT_255_2_778
10
17.8442752
20
29.5780854
40
2.510765
50
353.435601
51
0.0016125
0
ARC
8
DEFAULT_255_2_778
10
17.8605365
20
46.7505217
40
2.494504
50
359.9686343
51
25.4015676
0
ARC
8
DEFAULT_255_2_778
10
17.8543809
20
46.7484881
40
2.500937
50
25.3831592
51
68.3956258
0
ARC
8
DEFAULT_255_2_778
10
17.8521758
20
46.7384469
40
2.5110852
50
68.4332025
51
74.9988722
0
ARC
8
DEFAULT_255_2_778
10
111.4694931
20
3.0939611
40
1.000095
50
89.9973023
51
134.9982952
0
ARC
8
DEFAULT_255_2_778
10
112.5412595
20
3.0941357
40
0.9999204
50
44.9975592
51
90.0068385
0
ARC
8
DEFAULT_255_2_778
10
114.4551513
20
3.8940668
40
0.8001107
50
269.9992029
51
356.8661358
0
ARC
8
DEFAULT_255_2_778
10
114.4421435
20
3.8940186
40
0.8130969
50
356.9196393
51
0.0026422
0
ARC
8
DEFAULT_255_2_778
10
114.352329
20
54.6971225
40
4.0033674
50
254.2124556
51
270.0402335
0
ARC
8
DEFAULT_255_2_778
10
114.3549694
20
54.6888339
40
3.9961129
50
225.9566066
51
254.143693
0
ARC
8
DEFAULT_255_2_778
10
114.3531266
20
54.695143
40
3.999371
50
196.4457722
51
226.0384189
0
ARC
8
DEFAULT_255_2_778
10
114.3547277
20
54.6903628
40
3.9995563
50
180.4783048
51
196.3736008
0
ARC
8
DEFAULT_255_2_778
10
114.4453945
20
54.6943367
40
4.0902544
50
180.0081328
51
180.5233668
0
ARC
8
DEFAULT_255_2_778
10
114.3505319
20
79.4938155
40
3.9953917
50
158.3276359
51
180.0022857
0
ARC
8
DEFAULT_255_2_778
10
114.3560724
20
79.492204
40
4.0011358
50
121.6843301
51
158.3354912
0
ARC
8
DEFAULT_255_2_778
10
114.3589645
20
79.4850024
40
4.0087832
50
115.5237337
51
121.6654427
0
ARC
8
DEFAULT_255_2_778
10
114.3564836
20
79.4923774
40
4.0010592
50
104.0040688
51
115.537179
0
ARC
8
DEFAULT_255_2_778
10
114.3546356
20
79.4976048
40
3.9955401
50
91.9244348
51
103.9964971
0
ARC
8
DEFAULT_255_2_778
10
114.3550812
20
79.4906693
40
4.0024867
50
89.9998201
51
91.927475
0
ARC
8
DEFAULT_255_2_778
10
114.355653
20
79.4918776
40
4.0012785
50
60.9797572
51
90.0080079
0
ARC
8
DEFAULT_255_2_778
10
114.3539045
20
79.4915037
40
4.0024539
50
51.0605811
51
60.9604672
0
LINE
8
DEFAULT_255_2_778
10
5.0552402
20
23.9100561
11
6.1551402
21
25.0098561
0
LINE
8
DEFAULT_255_2_778
10
6.1551402
20
25.0098561
11
12.5551402
21
25.5697561
0
LINE
8
DEFAULT_255_2_778
10
12.5551402
20
25.5697561
11
18.5021402
21
27.1633561
0
LINE
8
DEFAULT_255_2_778
10
20.3550402
20
29.5781561
11
20.3550402
21
46.7491561
0
LINE
8
DEFAULT_255_2_778
10
18.5021402
20
49.1639561
11
12.5551402
21
50.7575561
0
LINE
8
DEFAULT_255_2_778
10
12.5551402
20
50.7575561
11
8.2551402
21
51.1337561
0
LINE
8
DEFAULT_255_2_778
10
8.2551402
20
51.1337561
11
6.0550402
21
53.3337561
0
LINE
8
DEFAULT_255_2_778
10
6.0550402
20
53.3337561
11
5.0552402
21
53.4213561
0
LINE
8
DEFAULT_255_2_778
10
0.1551402
20
18.7027561
11
3.5550402
21
19.6137561
0
LINE
8
DEFAULT_255_2_778
10
3.5550402
20
19.6137561
11
5.0549402
21
19.6137561
0
LINE
8
DEFAULT_255_2_778
10
5.0549402
20
19.6137561
11
5.0549402
21
57.1636561
0
LINE
8
DEFAULT_255_2_778
10
5.0549402
20
57.1636561
11
0.1551402
21
58.2137561
0
LINE
8
DEFAULT_255_2_778
10
10.5551402
20
16.2939561
11
11.8550402
21
14.9940561
0
LINE
8
DEFAULT_255_2_778
10
11.8550402
20
14.9940561
11
11.8550402
21
-0.2059439
0
LINE
8
DEFAULT_255_2_778
10
11.8550402
20
-0.2059439
11
110.2551402
21
-0.2059439
0
LINE
8
DEFAULT_255_2_778
10
110.2551402
20
-0.2059439
11
110.2551402
21
3.2939561
0
LINE
8
DEFAULT_255_2_778
10
110.2551402
20
3.2939561
11
110.7623402
21
3.8011561
0
LINE
8
DEFAULT_255_2_778
10
111.4695402
20
4.0940561
11
112.5411402
21
4.0940561
0
LINE
8
DEFAULT_255_2_778
10
113.2483402
20
3.8011561
11
113.9556402
21
3.0939561
0
LINE
8
DEFAULT_255_2_778
10
113.9556402
20
3.0939561
11
114.4551402
21
3.0939561
0
LINE
8
DEFAULT_255_2_778
10
115.2552402
20
3.8940561
11
115.2552402
21
50.6937561
0
LINE
8
DEFAULT_255_2_778
10
115.2552402
20
50.6937561
11
114.3551402
21
50.6937561
0
LINE
8
DEFAULT_255_2_778
10
110.3551402
20
54.6937561
11
110.3551402
21
79.4936561
0
ARC
8
DEFAULT_255_2_778
10
75.6550758
20
1.5936954
40
0.5000758
50
0.008676
51
90.0027763
0
LINE
8
DEFAULT_255_2_778
10
75.6550516
20
2.0937712
11
75.3550516
21
2.0937712
0
LINE
8
DEFAULT_255_2_778
10
113.7550516
20
3.2936712
11
114.2551516
21
3.2936712
0
LINE
8
DEFAULT_255_2_778
10
114.2551516
20
3.2936712
11
115.2552516
21
4.2937712
0
LINE
8
DEFAULT_255_2_778
10
0.1551516
20
23.1138712
11
5.0552516
21
23.1138712
0
LINE
8
DEFAULT_255_2_778
10
1.0211516
20
53.2136712
11
1.0211516
21
23.1135712
0
ARC
8
DEFAULT_255_2_778
10
2.1527955
20
77.2869992
40
1.9933
50
245.6880055
51
270.0682938
0
ARC
8
DEFAULT_255_2_778
10
2.1576384
20
77.2954845
40
2.0030269
50
189.803615
51
245.6616895
0
ARC
8
DEFAULT_255_2_778
10
2.1682811
20
77.2930842
40
2.0131097
50
179.9824561
51
189.6847188
0
ARC
8
DEFAULT_255_2_778
10
2.1480856
20
99.6963535
40
1.9929158
50
155.6886011
51
180.073395
0
ARC
8
DEFAULT_255_2_778
10
2.1569289
20
99.6913003
40
2.0030556
50
99.8027899
51
155.6610177
0
ARC
8
DEFAULT_255_2_778
10
2.1545564
20
99.6806391
40
2.0131615
50
89.9824967
51
99.6845929
0
ARC
8
DEFAULT_255_2_778
10
8.7284382
20
106.2939711
40
0.2999294
50
89.9936584
51
150.0077746
0
ARC
8
DEFAULT_255_2_778
10
10.6617484
20
120.2959939
40
1.4936244
50
359.9235338
51
29.8146024
0
ARC
8
DEFAULT_255_2_778
10
10.6547941
20
120.2931442
40
1.5010754
50
29.7770009
51
82.1106683
0
ARC
8
DEFAULT_255_2_778
10
10.6555206
20
120.2803257
40
1.513675
50
82.2045077
51
90.0018606
0
ARC
8
DEFAULT_255_2_778
10
10.0533722
20
120.3004361
40
1.4935658
50
89.9233064
51
119.8154752
0
ARC
8
DEFAULT_255_2_778
10
10.0561832
20
120.2935654
40
1.5009251
50
119.7781678
51
172.1183116
0
ARC
8
DEFAULT_255_2_778
10
10.0692732
20
120.2942352
40
1.5138016
50
172.2113644
51
180.0088807
0
ARC
8
DEFAULT_255_2_778
10
8.3055361
20
120.0441272
40
0.2499353
50
314.9689934
51
359.970981
0
ARC
8
DEFAULT_255_2_778
10
8.305206
20
120.044271
40
0.2502704
50
270.0378666
51
314.9991901
0
ARC
8
DEFAULT_255_2_778
10
6.055278
20
120.294
40
0.4999994
50
225.0075237
51
270.0107106
0
ARC
8
DEFAULT_255_2_778
10
6.055367
20
120.294047
40
0.5000956
50
180.0053149
51
225.0041129
0
ARC
8
DEFAULT_255_2_778
10
6.0553685
20
124.2937036
40
0.5000971
50
90.0340334
51
180.0003475
0
ARC
8
DEFAULT_255_2_778
10
116.0565159
20
123.7973246
40
0.996477
50
48.3575081
51
90.0830578
0
ARC
8
DEFAULT_255_2_778
10
116.0576515
20
123.794822
40
0.9975959
50
1.7327121
51
48.5017548
0
ARC
8
DEFAULT_255_2_778
10
116.0365122
20
123.7937103
40
1.0187592
50
359.9994554
51
1.7592612
0
ARC
8
DEFAULT_255_2_778
10
116.0550883
20
66.4938893
40
1.0001831
50
299.9994461
51
359.9891901
0
ARC
8
DEFAULT_255_2_778
10
116.6531048
20
74.5936922
40
0.9984717
50
144.943342
51
164.5300241
0
ARC
8
DEFAULT_255_2_778
10
116.6510893
20
74.5949222
40
0.9962013
50
164.5672812
51
177.5616093
0
ARC
8
DEFAULT_255_2_778
10
116.656811
20
74.5945049
40
1.0019356
50
177.5516875
51
180.0004834
0
ARC
8
DEFAULT_255_2_778
10
116.6549029
20
74.5934701
40
1.000028
50
179.9411978
51
226.0300243
0
ARC
8
DEFAULT_255_2_778
10
116.658973
20
74.5998904
40
1.0074759
50
226.1169311
51
235.011299
0
LINE
8
DEFAULT_255_2_778
10
3.1825714
20
17.5939006
11
10.5551714
21
16.2940006
0
LINE
8
DEFAULT_255_2_778
10
10.5551714
20
16.2940006
11
10.5551714
21
17.5939006
0
LINE
8
DEFAULT_255_2_778
10
10.5551714
20
17.5939006
11
0.1551714
21
17.5939006
0
LINE
8
DEFAULT_255_2_778
10
0.1551714
20
17.5939006
11
0.1551714
21
59.2938006
0
LINE
8
DEFAULT_255_2_778
10
0.1551714
20
59.2938006
11
5.5550714
21
59.2938006
0
LINE
8
DEFAULT_255_2_778
10
5.5550714
20
59.2938006
11
5.5550714
21
75.2937006
0
LINE
8
DEFAULT_255_2_778
10
5.5550714
20
75.2937006
11
2.1551714
21
75.2937006
0
LINE
8
DEFAULT_255_2_778
10
0.1551714
20
77.2937006
11
0.1551714
21
99.6938006
0
LINE
8
DEFAULT_255_2_778
10
2.1551714
20
101.6938006
11
5.7262714
21
101.6938006
0
LINE
8
DEFAULT_255_2_778
10
5.7262714
20
101.6938006
11
8.4686714
21
106.4439006
0
LINE
8
DEFAULT_255_2_778
10
8.7284714
20
106.5939006
11
12.1553714
21
106.5939006
0
LINE
8
DEFAULT_255_2_778
10
12.1553714
20
106.5939006
11
12.1553714
21
120.2940006
0
LINE
8
DEFAULT_255_2_778
10
10.6554714
20
121.7940006
11
10.0553714
21
121.7940006
0
LINE
8
DEFAULT_255_2_778
10
8.5554714
20
120.2940006
11
8.5554714
21
120.0440006
0
LINE
8
DEFAULT_255_2_778
10
8.3053714
20
119.7940006
11
6.0553714
21
119.7940006
0
LINE
8
DEFAULT_255_2_778
10
5.5552714
20
120.2940006
11
5.5552714
21
124.2937006
0
LINE
8
DEFAULT_255_2_778
10
6.0550714
20
124.7938006
11
116.0550714
21
124.7938006
0
LINE
8
DEFAULT_255_2_778
10
117.0552714
20
123.7937006
11
117.0552714
21
66.4937006
0
LINE
8
DEFAULT_255_2_778
10
116.5551714
20
65.6277006
11
116.5551714
21
64.7596006
0
LINE
8
DEFAULT_255_2_778
10
6.0550714
20
24.9102006
11
6.0550714
21
53.3341006
0
LINE
8
DEFAULT_255_2_778
10
117.0549714
20
76.9085006
11
115.8357714
21
75.1672006
0
LINE
8
DEFAULT_255_2_778
10
116.0812714
20
73.7745006
11
117.0549714
21
73.0926006
0
ARC
8
DEFAULT_255_2_778
10
114.1523915
20
79.6847763
40
4.5089499
50
89.9646751
51
104.4061769
0
ARC
8
DEFAULT_255_2_778
10
114.1500595
20
79.7093799
40
4.4845413
50
104.4555257
51
127.986971
0
ARC
8
DEFAULT_255_2_778
10
114.161259
20
79.6869951
40
4.5090797
50
127.9240662
51
161.4623904
0
ARC
8
DEFAULT_255_2_778
10
114.140164
20
79.7002855
40
4.4848575
50
161.5376903
51
177.1143492
0
ARC
8
DEFAULT_255_2_778
10
114.2294062
20
79.6933824
40
4.5743347
50
177.084267
51
179.9957038
0
ARC
8
DEFAULT_255_2_778
10
114.1635469
20
54.7909512
40
4.5084764
50
179.9647445
51
194.4072741
0
ARC
8
DEFAULT_255_2_778
10
114.1393154
20
54.7887327
40
4.4844565
50
194.456852
51
218.0203292
0
ARC
8
DEFAULT_255_2_778
10
114.1619082
20
54.8000914
40
4.5092541
50
217.9572099
51
251.4740994
0
ARC
8
DEFAULT_255_2_778
10
114.1486253
20
54.7789746
40
4.4850149
50
251.5492812
51
267.1161009
0
ARC
8
DEFAULT_255_2_778
10
114.1555159
20
54.8680555
40
4.5743301
50
267.0860393
51
269.9956846
0
ARC
8
DEFAULT_255_2_778
10
75.6550745
20
122.9938223
40
0.5000969
50
269.9996485
51
0.0003515
0
ARC
8
DEFAULT_255_2_778
10
111.4516065
20
2.6952744
40
0.9964361
50
138.3557664
51
180.0833208
0
ARC
8
DEFAULT_255_2_778
10
111.454212
20
2.6962862
40
0.997714
50
91.7306446
51
138.498614
0
ARC
8
DEFAULT_255_2_778
10
111.4553617
20
2.6749016
40
1.0191238
50
89.9994553
51
91.7589451
0
ARC
8
DEFAULT_255_2_778
10
116.0588363
20
0.7924763
40
0.9964361
50
318.3557664
51
0.0833208
0
ARC
8
DEFAULT_255_2_778
10
116.0562308
20
0.7914645
40
0.997714
50
271.7306446
51
318.498614
0
ARC
8
DEFAULT_255_2_778
10
116.0550811
20
0.8128491
40
1.0191238
50
269.9994553
51
271.7589451
0
ARC
8
DEFAULT_255_2_778
10
112.9411445
20
2.6935097
40
1.0005157
50
45.0116937
51
89.9927334
0
LINE
8
DEFAULT_255_2_778
10
0.1551714
20
53.2137254
11
5.0552714
21
53.2137254
0
LINE
8
DEFAULT_255_2_778
10
117.0552714
20
84.1937254
11
114.1551714
21
84.1937254
0
LINE
8
DEFAULT_255_2_778
10
109.6550714
20
79.6937254
11
109.6550714
21
54.7937254
0
LINE
8
DEFAULT_255_2_778
10
114.1551714
20
50.2937254
11
115.2549714
21
50.2937254
0
LINE
8
DEFAULT_255_2_778
10
75.3550714
20
122.4937254
11
75.6550714
21
122.4937254
0
LINE
8
DEFAULT_255_2_778
10
110.4551714
20
-0.2062746
11
110.4551714
21
2.6938254
0
LINE
8
DEFAULT_255_2_778
10
117.0552714
20
63.8938254
11
117.0552714
21
0.7939254
0
LINE
8
DEFAULT_255_2_778
10
116.0550714
20
-0.2062746
11
110.4551714
21
-0.2062746
0
LINE
8
DEFAULT_255_2_778
10
110.4551714
20
-0.2062746
11
110.7435714
21
-0.1636746
0
LINE
8
DEFAULT_255_2_778
10
110.7435714
20
-0.1636746
11
110.9901714
21
-0.0508746
0
LINE
8
DEFAULT_255_2_778
10
110.9901714
20
-0.0508746
11
111.1909714
21
0.1165254
0
LINE
8
DEFAULT_255_2_778
10
111.1909714
20
0.1165254
11
111.3378714
21
0.3237254
0
LINE
8
DEFAULT_255_2_778
10
111.3378714
20
0.3237254
11
111.4277714
21
0.5608254
0
LINE
8
DEFAULT_255_2_778
10
111.4277714
20
0.5608254
11
111.4553714
21
0.7936254
0
LINE
8
DEFAULT_255_2_778
10
111.4553714
20
0.7936254
11
111.4553714
21
3.6940254
0
LINE
8
DEFAULT_255_2_778
10
111.4553714
20
3.6940254
11
112.9412714
21
3.6940254
0
ARC
8
DEFAULT_255_2_778
10
116.0550525
20
63.8936404
40
1.0001421
50
0.0151925
51
60.0019151
0
LINE
8
DEFAULT_255_2_778
10
76.1550946
20
45.7937056
11
75.3549946
21
45.7937056
0
LINE
8
DEFAULT_255_2_778
10
76.1550946
20
45.2939056
11
75.3549946
21
45.2939056
0
LINE
8
DEFAULT_255_2_778
10
76.1550946
20
44.4938056
11
75.3549946
21
44.4938056
0
LINE
8
DEFAULT_255_2_778
10
75.3549946
20
77.0939056
11
76.1550946
21
77.0939056
0
LINE
8
DEFAULT_255_2_778
10
75.3549946
20
76.2938056
11
76.1550946
21
76.2938056
0
LINE
8
DEFAULT_255_2_778
10
76.1550946
20
75.7938056
11
75.3549946
21
75.7938056
0
LINE
8
DEFAULT_255_2_778
10
76.1550946
20
-0.2061944
11
76.1550946
21
124.7938056
0
LINE
8
DEFAULT_255_2_778
10
76.15515
20
123.5439139
11
75.35505
21
122.7438139
0
LINE
8
DEFAULT_255_2_778
10
75.35505
20
122.7438139
11
75.35505
21
1.8438139
0
LINE
8
DEFAULT_255_2_778
10
75.35505
20
1.8438139
11
76.15515
21
1.0437139
0
ENDSEC
0
EOF