0
SECTION
2
HEADER
9
$MEASUREMENT
70
1
0
ENDSEC
0
SECTION
2
TABLES
0
TABLE
2
LTYPE
0
LTYPE
72
65
70
64
2
CONTINUOUS
3
______
73
0
40
0
0
ENDTAB
0
TABLE
2
LAYER
0
LAYER
2
DEFAULT_255_2_778
70
0
62
255
6
CONTINUOUS
0
ENDTAB
0
ENDSEC
0
SECTION
2
ENTITIES
0
ARC
8
DEFAULT_255_2_778
10
1.2394771
20
0.7944903
40
0.9988542
50
179.9918348
51
205.7251755
0
ARC
8
DEFAULT_255_2_778
10
1.2394782
20
123.7944749
40
0.9988553
50
154.2748482
51
180.0081605
0
LINE
8
DEFAULT_255_2_778
10
0.2406229
20
0.7946327
11
0.2422229
21
122.0449327
0
LINE
8
DEFAULT_255_2_778
10
0.2406229
20
122.0116327
11
0.2406229
21
123.7943327
0
ARC
8
DEFAULT_255_2_778
10
39.2403631
20
123.7939647
40
1.0005732
50
45.0130441
51
89.9970785
0
ARC
8
DEFAULT_255_2_778
10
39.2400984
20
123.7943105
40
1.0005159
50
0.0072954
51
44.9883267
0
ARC
8
DEFAULT_255_2_778
10
39.2443334
20
0.7929143
40
0.9962817
50
318.352397
51
0.0818679
0
ARC
8
DEFAULT_255_2_778
10
39.2415684
20
0.7920185
40
0.9977557
50
271.7308645
51
318.4963478
0
ARC
8
DEFAULT_255_2_778
10
39.2404238
20
0.8133616
40
1.0191238
50
269.9994553
51
271.7589451
0
LINE
8
DEFAULT_255_2_778
10
14.0405141
20
119.0946378
11
10.9406141
21
119.0946378
0
LINE
8
DEFAULT_255_2_778
10
10.9406141
20
119.0946378
11
10.9406141
21
2.1945378
0
LINE
8
DEFAULT_255_2_778
10
10.9406141
20
2.1945378
11
8.2847141
21
2.1945378
0
LINE
8
DEFAULT_255_2_778
10
8.2847141
20
2.1945378
11
8.2736141
21
2.2289378
0
LINE
8
DEFAULT_255_2_778
10
8.2736141
20
2.2289378
11
8.2477141
21
2.2914378
0
LINE
8
DEFAULT_255_2_778
10
8.2477141
20
2.2914378
11
8.2334141
21
2.3191378
0
LINE
8
DEFAULT_255_2_778
10
8.2334141
20
2.3191378
11
8.2067141
21
2.3636378
0
LINE
8
DEFAULT_255_2_778
10
8.2067141
20
2.3636378
11
8.1789141
21
2.4006378
0
LINE
8
DEFAULT_255_2_778
10
8.1789141
20
2.4006378
11
8.1262141
21
2.4538378
0
LINE
8
DEFAULT_255_2_778
10
8.1262141
20
2.4538378
11
8.0699141
21
2.4927378
0
LINE
8
DEFAULT_255_2_778
10
8.0699141
20
2.4927378
11
8.0180141
21
2.5152378
0
LINE
8
DEFAULT_255_2_778
10
8.0180141
20
2.5152378
11
7.9654141
21
2.5268378
0
LINE
8
DEFAULT_255_2_778
10
7.9654141
20
2.5268378
11
7.9111141
21
2.5279378
0
LINE
8
DEFAULT_255_2_778
10
7.9111141
20
2.5279378
11
7.8582141
21
2.5181378
0
LINE
8
DEFAULT_255_2_778
10
7.8582141
20
2.5181378
11
7.8064141
21
2.4977378
0
LINE
8
DEFAULT_255_2_778
10
7.8064141
20
2.4977378
11
7.7513141
21
2.4625378
0
LINE
8
DEFAULT_255_2_778
10
7.7513141
20
2.4625378
11
7.7206141
21
2.4358378
0
LINE
8
DEFAULT_255_2_778
10
7.7206141
20
2.4358378
11
7.6881141
21
2.4004378
0
LINE
8
DEFAULT_255_2_778
10
7.6881141
20
2.4004378
11
7.6558141
21
2.3564378
0
LINE
8
DEFAULT_255_2_778
10
7.6558141
20
2.3564378
11
7.6270141
21
2.3067378
0
LINE
8
DEFAULT_255_2_778
10
7.6270141
20
2.3067378
11
7.6026141
21
2.2525378
0
LINE
8
DEFAULT_255_2_778
10
7.6026141
20
2.2525378
11
7.5831141
21
2.1945378
0
LINE
8
DEFAULT_255_2_778
10
7.5831141
20
2.1945378
11
0.2406141
21
2.1945378
0
LINE
8
DEFAULT_255_2_778
10
10.9406141
20
88.6945378
11
14.0407141
21
88.6945378
0
LINE
8
DEFAULT_255_2_778
10
14.0407141
20
88.6945378
11
14.0407141
21
122.3945378
0
LINE
8
DEFAULT_255_2_778
10
14.0407141
20
122.3945378
11
8.2847141
21
122.3945378
0
LINE
8
DEFAULT_255_2_778
10
8.2847141
20
122.3945378
11
8.2736141
21
122.3601378
0
LINE
8
DEFAULT_255_2_778
10
8.2736141
20
122.3601378
11
8.2477141
21
122.2976378
0
LINE
8
DEFAULT_255_2_778
10
8.2477141
20
122.2976378
11
8.2334141
21
122.2698378
0
LINE
8
DEFAULT_255_2_778
10
8.2334141
20
122.2698378
11
8.2067141
21
122.2259378
0
LINE
8
DEFAULT_255_2_778
10
8.2067141
20
122.2259378
11
8.1789141
21
122.1886378
0
LINE
8
DEFAULT_255_2_778
10
8.1789141
20
122.1886378
11
8.1262141
21
122.1352378
0
LINE
8
DEFAULT_255_2_778
10
8.1262141
20
122.1352378
11
8.0699141
21
122.0963378
0
LINE
8
DEFAULT_255_2_778
10
8.0699141
20
122.0963378
11
8.0180141
21
122.0738378
0
LINE
8
DEFAULT_255_2_778
10
8.0180141
20
122.0738378
11
7.9654141
21
122.0621378
0
LINE
8
DEFAULT_255_2_778
10
7.9654141
20
122.0621378
11
7.9111141
21
122.0611378
0
LINE
8
DEFAULT_255_2_778
10
7.9111141
20
122.0611378
11
7.8582141
21
122.0709378
0
LINE
8
DEFAULT_255_2_778
10
7.8582141
20
122.0709378
11
7.8064141
21
122.0913378
0
LINE
8
DEFAULT_255_2_778
10
7.8064141
20
122.0913378
11
7.7513141
21
122.1264378
0
LINE
8
DEFAULT_255_2_778
10
7.7513141
20
122.1264378
11
7.7206141
21
122.1532378
0
LINE
8
DEFAULT_255_2_778
10
7.7206141
20
122.1532378
11
7.6881141
21
122.1886378
0
LINE
8
DEFAULT_255_2_778
10
7.6881141
20
122.1886378
11
7.6558141
21
122.2325378
0
LINE
8
DEFAULT_255_2_778
10
7.6558141
20
122.2325378
11
7.6270141
21
122.2823378
0
LINE
8
DEFAULT_255_2_778
10
7.6270141
20
122.2823378
11
7.6026141
21
122.3365378
0
LINE
8
DEFAULT_255_2_778
10
7.6026141
20
122.3365378
11
7.5831141
21
122.3945378
0
LINE
8
DEFAULT_255_2_778
10
7.5831141
20
122.3945378
11
0.2406141
21
122.3945378
0
LINE
8
DEFAULT_255_2_778
10
0.7203141
20
124.7945378
11
39.2404141
21
124.7945378
0
LINE
8
DEFAULT_255_2_778
10
40.2406141
20
123.7944378
11
40.2406141
21
0.7943378
0
LINE
8
DEFAULT_255_2_778
10
39.2404141
20
-0.2057622
11
0.7203141
21
-0.2057622
0
LINE
8
DEFAULT_255_2_778
10
1.4264679
20
122.3945701
11
1.4241679
21
123.8650701
0
LINE
8
DEFAULT_255_2_778
10
1.4241679
20
123.8650701
11
1.4169679
21
123.9362701
0
LINE
8
DEFAULT_255_2_778
10
1.4169679
20
123.9362701
11
1.4048679
21
124.0076701
0
LINE
8
DEFAULT_255_2_778
10
1.4048679
20
124.0076701
11
1.3873679
21
124.0796701
0
LINE
8
DEFAULT_255_2_778
10
1.3873679
20
124.0796701
11
1.3645679
21
124.1521701
0
LINE
8
DEFAULT_255_2_778
10
1.3645679
20
124.1521701
11
1.3066679
21
124.3011701
0
LINE
8
DEFAULT_255_2_778
10
1.3066679
20
124.3011701
11
1.2838679
21
124.3741701
0
LINE
8
DEFAULT_255_2_778
10
1.2838679
20
124.3741701
11
1.2672679
21
124.4434701
0
LINE
8
DEFAULT_255_2_778
10
1.2672679
20
124.4434701
11
1.2561679
21
124.5080701
0
LINE
8
DEFAULT_255_2_778
10
1.2561679
20
124.5080701
11
1.2500679
21
124.5670701
0
LINE
8
DEFAULT_255_2_778
10
1.2500679
20
124.5670701
11
1.2505679
21
124.6662701
0
LINE
8
DEFAULT_255_2_778
10
1.2505679
20
124.6662701
11
1.2561679
21
124.7056701
0
LINE
8
DEFAULT_255_2_778
10
1.2561679
20
124.7056701
11
1.2645679
21
124.7379701
0
LINE
8
DEFAULT_255_2_778
10
1.2645679
20
124.7379701
11
1.2751679
21
124.7628701
0
LINE
8
DEFAULT_255_2_778
10
1.2751679
20
124.7628701
11
1.2881679
21
124.7805701
0
LINE
8
DEFAULT_255_2_778
10
1.2881679
20
124.7805701
11
1.3024679
21
124.7911701
0
LINE
8
DEFAULT_255_2_778
10
1.3024679
20
124.7911701
11
1.3177679
21
124.7945701
0
LINE
8
DEFAULT_255_2_778
10
0.7203679
20
124.7945701
11
0.6732679
21
124.7916701
0
LINE
8
DEFAULT_255_2_778
10
0.6732679
20
124.7916701
11
0.6269679
21
124.7826701
0
LINE
8
DEFAULT_255_2_778
10
0.6269679
20
124.7826701
11
0.5819679
21
124.7678701
0
LINE
8
DEFAULT_255_2_778
10
0.5819679
20
124.7678701
11
0.5390679
21
124.7474701
0
LINE
8
DEFAULT_255_2_778
10
0.5390679
20
124.7474701
11
0.4988679
21
124.7217701
0
LINE
8
DEFAULT_255_2_778
10
0.4988679
20
124.7217701
11
0.4620679
21
124.6910701
0
LINE
8
DEFAULT_255_2_778
10
0.4620679
20
124.6910701
11
0.4292679
21
124.6559701
0
LINE
8
DEFAULT_255_2_778
10
0.4292679
20
124.6559701
11
0.4009679
21
124.6164701
0
LINE
8
DEFAULT_255_2_778
10
0.4009679
20
124.6164701
11
0.3776679
21
124.5736701
0
LINE
8
DEFAULT_255_2_778
10
0.3776679
20
124.5736701
11
0.3596679
21
124.5281701
0
LINE
8
DEFAULT_255_2_778
10
0.3596679
20
124.5281701
11
0.3475679
21
124.4804701
0
LINE
8
DEFAULT_255_2_778
10
0.3475679
20
124.4804701
11
0.3414679
21
124.4315701
0
LINE
8
DEFAULT_255_2_778
10
0.3414679
20
124.4315701
11
0.3406679
21
123.9947701
0
LINE
8
DEFAULT_255_2_778
10
0.3406679
20
123.9947701
11
0.7489679
21
123.9947701
0
LINE
8
DEFAULT_255_2_778
10
0.7489679
20
123.9947701
11
0.7489679
21
123.0509701
0
LINE
8
DEFAULT_255_2_778
10
0.7489679
20
123.0509701
11
1.0460679
21
123.0509701
0
LINE
8
DEFAULT_255_2_778
10
1.0460679
20
123.0509701
11
1.0460679
21
122.3945701
0
LINE
8
DEFAULT_255_2_778
10
1.4264679
20
2.1945701
11
1.4241679
21
0.7237701
0
LINE
8
DEFAULT_255_2_778
10
1.4241679
20
0.7237701
11
1.4169679
21
0.6528701
0
LINE
8
DEFAULT_255_2_778
10
1.4169679
20
0.6528701
11
1.4048679
21
0.5814701
0
LINE
8
DEFAULT_255_2_778
10
1.4048679
20
0.5814701
11
1.3873679
21
0.5094701
0
LINE
8
DEFAULT_255_2_778
10
1.3873679
20
0.5094701
11
1.3645679
21
0.4366701
0
LINE
8
DEFAULT_255_2_778
10
1.3645679
20
0.4366701
11
1.3066679
21
0.2874701
0
LINE
8
DEFAULT_255_2_778
10
1.3066679
20
0.2874701
11
1.2838679
21
0.2144701
0
LINE
8
DEFAULT_255_2_778
10
1.2838679
20
0.2144701
11
1.2672679
21
0.1451701
0
LINE
8
DEFAULT_255_2_778
10
1.2672679
20
0.1451701
11
1.2561679
21
0.0805701
0
LINE
8
DEFAULT_255_2_778
10
1.2561679
20
0.0805701
11
1.2500679
21
0.0215701
0
LINE
8
DEFAULT_255_2_778
10
1.2500679
20
0.0215701
11
1.2505679
21
-0.0776299
0
LINE
8
DEFAULT_255_2_778
10
1.2505679
20
-0.0776299
11
1.2561679
21
-0.1170299
0
LINE
8
DEFAULT_255_2_778
10
1.2561679
20
-0.1170299
11
1.2645679
21
-0.1493299
0
LINE
8
DEFAULT_255_2_778
10
1.2645679
20
-0.1493299
11
1.2756679
21
-0.1742299
0
LINE
8
DEFAULT_255_2_778
10
1.2756679
20
-0.1742299
11
1.2886679
21
-0.1919299
0
LINE
8
DEFAULT_255_2_778
10
1.2886679
20
-0.1919299
11
1.3029679
21
-0.2025299
0
LINE
8
DEFAULT_255_2_778
10
1.3029679
20
-0.2025299
11
1.3182679
21
-0.2059299
0
LINE
8
DEFAULT_255_2_778
10
1.0460679
20
2.1945701
11
1.0460679
21
1.5381701
0
LINE
8
DEFAULT_255_2_778
10
1.0460679
20
1.5381701
11
0.7489679
21
1.5381701
0
LINE
8
DEFAULT_255_2_778
10
0.7489679
20
1.5381701
11
0.7489679
21
0.5946701
0
LINE
8
DEFAULT_255_2_778
10
0.7489679
20
0.5946701
11
0.3406679
21
0.5946701
0
LINE
8
DEFAULT_255_2_778
10
0.3406679
20
0.5946701
11
0.3414679
21
0.1578701
0
LINE
8
DEFAULT_255_2_778
10
0.3414679
20
0.1578701
11
0.3475679
21
0.1088701
0
LINE
8
DEFAULT_255_2_778
10
0.3475679
20
0.1088701
11
0.3596679
21
0.0612701
0
LINE
8
DEFAULT_255_2_778
10
0.3596679
20
0.0612701
11
0.3776679
21
0.0157701
0
LINE
8
DEFAULT_255_2_778
10
0.3776679
20
0.0157701
11
0.4009679
21
-0.0271299
0
LINE
8
DEFAULT_255_2_778
10
0.4009679
20
-0.0271299
11
0.4292679
21
-0.0665299
0
LINE
8
DEFAULT_255_2_778
10
0.4292679
20
-0.0665299
11
0.4620679
21
-0.1017299
0
LINE
8
DEFAULT_255_2_778
10
0.4620679
20
-0.1017299
11
0.4988679
21
-0.1324299
0
LINE
8
DEFAULT_255_2_778
10
0.4988679
20
-0.1324299
11
0.5390679
21
-0.1581299
0
LINE
8
DEFAULT_255_2_778
10
0.5390679
20
-0.1581299
11
0.5819679
21
-0.1784299
0
LINE
8
DEFAULT_255_2_778
10
0.5819679
20
-0.1784299
11
0.6269679
21
-0.1932299
0
LINE
8
DEFAULT_255_2_778
10
0.6269679
20
-0.1932299
11
0.6732679
21
-0.2022299
0
LINE
8
DEFAULT_255_2_778
10
0.6732679
20
-0.2022299
11
0.7203679
21
-0.2051299
0
LINE
8
DEFAULT_255_2_778
10
9.7547679
20
-0.2054299
11
9.8751679
21
-0.1983299
0
LINE
8
DEFAULT_255_2_778
10
9.8751679
20
-0.1983299
11
9.9926679
21
-0.1768299
0
LINE
8
DEFAULT_255_2_778
10
9.9926679
20
-0.1768299
11
10.1048679
21
-0.1422299
0
LINE
8
DEFAULT_255_2_778
10
10.1048679
20
-0.1422299
11
10.2096679
21
-0.0961299
0
LINE
8
DEFAULT_255_2_778
10
10.2096679
20
-0.0961299
11
10.3053679
21
-0.0403299
0
LINE
8
DEFAULT_255_2_778
10
10.3053679
20
-0.0403299
11
10.3913679
21
0.0231701
0
LINE
8
DEFAULT_255_2_778
10
10.3913679
20
0.0231701
11
10.4670679
21
0.0924701
0
LINE
8
DEFAULT_255_2_778
10
10.4670679
20
0.0924701
11
10.5326679
21
0.1660701
0
LINE
8
DEFAULT_255_2_778
10
10.5326679
20
0.1660701
11
10.5884679
21
0.2422701
0
LINE
8
DEFAULT_255_2_778
10
10.5884679
20
0.2422701
11
10.6350679
21
0.3200701
0
LINE
8
DEFAULT_255_2_778
10
10.6350679
20
0.3200701
11
10.6731679
21
0.3988701
0
LINE
8
DEFAULT_255_2_778
10
10.6731679
20
0.3988701
11
10.7033679
21
0.4779701
0
LINE
8
DEFAULT_255_2_778
10
10.7033679
20
0.4779701
11
10.7263679
21
0.5573701
0
LINE
8
DEFAULT_255_2_778
10
10.7263679
20
0.5573701
11
10.7422679
21
0.6364701
0
LINE
8
DEFAULT_255_2_778
10
10.7422679
20
0.6364701
11
10.7517679
21
0.7155701
0
LINE
8
DEFAULT_255_2_778
10
10.7517679
20
0.7155701
11
10.7549679
21
0.7946701
0
LINE
8
DEFAULT_255_2_778
10
10.7549679
20
0.7946701
11
10.7549679
21
2.1945701
0
LINE
8
DEFAULT_255_2_778
10
7.1264679
20
2.1945701
11
7.1264679
21
0.7946701
0
LINE
8
DEFAULT_255_2_778
10
7.1264679
20
0.7946701
11
7.1295679
21
0.7155701
0
LINE
8
DEFAULT_255_2_778
10
7.1295679
20
0.7155701
11
7.1391679
21
0.6364701
0
LINE
8
DEFAULT_255_2_778
10
7.1391679
20
0.6364701
11
7.1549679
21
0.5573701
0
LINE
8
DEFAULT_255_2_778
10
7.1549679
20
0.5573701
11
7.1780679
21
0.4779701
0
LINE
8
DEFAULT_255_2_778
10
7.1780679
20
0.4779701
11
7.2081679
21
0.3988701
0
LINE
8
DEFAULT_255_2_778
10
7.2081679
20
0.3988701
11
7.2462679
21
0.3200701
0
LINE
8
DEFAULT_255_2_778
10
7.2462679
20
0.3200701
11
7.2928679
21
0.2422701
0
LINE
8
DEFAULT_255_2_778
10
7.2928679
20
0.2422701
11
7.3486679
21
0.1660701
0
LINE
8
DEFAULT_255_2_778
10
7.3486679
20
0.1660701
11
7.4142679
21
0.0924701
0
LINE
8
DEFAULT_255_2_778
10
7.4142679
20
0.0924701
11
7.4899679
21
0.0231701
0
LINE
8
DEFAULT_255_2_778
10
7.4899679
20
0.0231701
11
7.5759679
21
-0.0403299
0
LINE
8
DEFAULT_255_2_778
10
7.5759679
20
-0.0403299
11
7.6717679
21
-0.0961299
0
LINE
8
DEFAULT_255_2_778
10
7.6717679
20
-0.0961299
11
7.7764679
21
-0.1422299
0
LINE
8
DEFAULT_255_2_778
10
7.7764679
20
-0.1422299
11
7.8886679
21
-0.1768299
0
LINE
8
DEFAULT_255_2_778
10
7.8886679
20
-0.1768299
11
8.0061679
21
-0.1983299
0
LINE
8
DEFAULT_255_2_778
10
8.0061679
20
-0.1983299
11
8.1265679
21
-0.2054299
0
LINE
8
DEFAULT_255_2_778
10
10.7549014
20
122.3944884
11
10.7549014
21
123.7943884
0
LINE
8
DEFAULT_255_2_778
10
10.7549014
20
123.7943884
11
10.7517014
21
123.8734884
0
LINE
8
DEFAULT_255_2_778
10
10.7517014
20
123.8734884
11
10.7422014
21
123.9525884
0
LINE
8
DEFAULT_255_2_778
10
10.7422014
20
123.9525884
11
10.7263014
21
124.0316884
0
LINE
8
DEFAULT_255_2_778
10
10.7263014
20
124.0316884
11
10.7033014
21
124.1110884
0
LINE
8
DEFAULT_255_2_778
10
10.7033014
20
124.1110884
11
10.6731014
21
124.1901884
0
LINE
8
DEFAULT_255_2_778
10
10.6731014
20
124.1901884
11
10.6350014
21
124.2689884
0
LINE
8
DEFAULT_255_2_778
10
10.6350014
20
124.2689884
11
10.5885014
21
124.3467884
0
LINE
8
DEFAULT_255_2_778
10
10.5885014
20
124.3467884
11
10.5326014
21
124.4229884
0
LINE
8
DEFAULT_255_2_778
10
10.5326014
20
124.4229884
11
10.4670014
21
124.4965884
0
LINE
8
DEFAULT_255_2_778
10
10.4670014
20
124.4965884
11
10.3914014
21
124.5658884
0
LINE
8
DEFAULT_255_2_778
10
10.3914014
20
124.5658884
11
10.3054014
21
124.6293884
0
LINE
8
DEFAULT_255_2_778
10
10.3054014
20
124.6293884
11
10.2096014
21
124.6851884
0
LINE
8
DEFAULT_255_2_778
10
10.2096014
20
124.6851884
11
10.1048014
21
124.7312884
0
LINE
8
DEFAULT_255_2_778
10
10.1048014
20
124.7312884
11
9.9926014
21
124.7658884
0
LINE
8
DEFAULT_255_2_778
10
9.9926014
20
124.7658884
11
9.8752014
21
124.7873884
0
LINE
8
DEFAULT_255_2_778
10
9.8752014
20
124.7873884
11
9.7548014
21
124.7944884
0
LINE
8
DEFAULT_255_2_778
10
7.1264014
20
122.3944884
11
7.1264014
21
123.7943884
0
LINE
8
DEFAULT_255_2_778
10
7.1264014
20
123.7943884
11
7.1296014
21
123.8739884
0
LINE
8
DEFAULT_255_2_778
10
7.1296014
20
123.8739884
11
7.1391014
21
123.9536884
0
LINE
8
DEFAULT_255_2_778
10
7.1391014
20
123.9536884
11
7.1552014
21
124.0332884
0
LINE
8
DEFAULT_255_2_778
10
7.1552014
20
124.0332884
11
7.1785014
21
124.1131884
0
LINE
8
DEFAULT_255_2_778
10
7.1785014
20
124.1131884
11
7.2092014
21
124.1927884
0
LINE
8
DEFAULT_255_2_778
10
7.2092014
20
124.1927884
11
7.2478014
21
124.2718884
0
LINE
8
DEFAULT_255_2_778
10
7.2478014
20
124.2718884
11
7.2949014
21
124.3499884
0
LINE
8
DEFAULT_255_2_778
10
7.2949014
20
124.3499884
11
7.3513014
21
124.4264884
0
LINE
8
DEFAULT_255_2_778
10
7.3513014
20
124.4264884
11
7.4174014
21
124.4999884
0
LINE
8
DEFAULT_255_2_778
10
7.4174014
20
124.4999884
11
7.4936014
21
124.5690884
0
LINE
8
DEFAULT_255_2_778
10
7.4936014
20
124.5690884
11
7.5796014
21
124.6319884
0
LINE
8
DEFAULT_255_2_778
10
7.5796014
20
124.6319884
11
7.6749014
21
124.6867884
0
LINE
8
DEFAULT_255_2_778
10
7.6749014
20
124.6867884
11
7.7778014
21
124.7317884
0
LINE
8
DEFAULT_255_2_778
10
7.7778014
20
124.7317884
11
7.8881014
21
124.7656884
0
LINE
8
DEFAULT_255_2_778
10
7.8881014
20
124.7656884
11
8.0048014
21
124.7870884
0
LINE
8
DEFAULT_255_2_778
10
8.0048014
20
124.7870884
11
8.1265014
21
124.7944884
0
LINE
8
DEFAULT_255_2_778
10
35.6678014
20
122.3028884
11
19.3356014
21
122.3028884
0
LINE
8
DEFAULT_255_2_778
10
19.3356014
20
122.3028884
11
19.3356014
21
118.1028884
0
LINE
8
DEFAULT_255_2_778
10
19.3356014
20
118.1028884
11
35.6678014
21
118.1028884
0
LINE
8
DEFAULT_255_2_778
10
35.6678014
20
118.1028884
11
35.6678014
21
122.3028884
0
LINE
8
DEFAULT_255_2_778
10
26.2865188
20
121.3985593
11
25.4229188
21
121.3985593
0
LINE
8
DEFAULT_255_2_778
10
25.4229188
20
121.3985593
11
25.4229188
21
118.9993593
0
LINE
8
DEFAULT_255_2_778
10
25.4229188
20
118.9993593
11
25.9029188
21
118.9993593
0
LINE
8
DEFAULT_255_2_778
10
25.9029188
20
118.9993593
11
25.9029188
21
120.5346593
0
LINE
8
DEFAULT_255_2_778
10
25.9029188
20
120.5346593
11
26.5746188
21
118.9752593
0
LINE
8
DEFAULT_255_2_778
10
26.5746188
20
118.9752593
11
27.0064188
21
118.9752593
0
LINE
8
DEFAULT_255_2_778
10
27.0064188
20
118.9752593
11
27.6782188
21
120.5587593
0
LINE
8
DEFAULT_255_2_778
10
27.6782188
20
120.5587593
11
27.6782188
21
118.9993593
0
LINE
8
DEFAULT_255_2_778
10
27.6782188
20
118.9993593
11
28.3741188
21
118.9993593
0
LINE
8
DEFAULT_255_2_778
10
28.3741188
20
118.9993593
11
28.3741188
21
121.3985593
0
LINE
8
DEFAULT_255_2_778
10
28.3741188
20
121.3985593
11
27.5105188
21
121.3985593
0
LINE
8
DEFAULT_255_2_778
10
27.5105188
20
121.3985593
11
26.9107188
21
119.9351593
0
LINE
8
DEFAULT_255_2_778
10
26.9107188
20
119.9351593
11
26.2868188
21
121.3985593
0
ARC
8
DEFAULT_255_2_778
10
20.4302054
20
121.3351225
40
2.3975205
50
252.584722
51
270.0058212
0
ARC
8
DEFAULT_255_2_778
10
20.4304352
20
121.3414265
40
2.4038243
50
270.0003268
51
271.078944
0
ARC
8
DEFAULT_255_2_778
10
20.4303652
20
121.3418598
40
2.4042588
50
271.0804183
51
280.9786248
0
ARC
8
DEFAULT_255_2_778
10
20.660316
20
120.0179783
40
1.0611421
50
282.4032196
51
311.8389259
0
ARC
8
DEFAULT_255_2_778
10
20.8488467
20
119.7307547
40
0.7232063
50
315.8930325
51
333.5302183
0
ARC
8
DEFAULT_255_2_778
10
20.8504531
20
119.7040338
40
0.7102372
50
335.4024261
51
0.0017211
0
LINE
8
DEFAULT_255_2_778
10
21.5606903
20
119.7040551
11
21.5606903
21
119.7042634
0
ARC
8
DEFAULT_255_2_778
10
20.8517232
20
119.7041615
40
0.7089671
50
0.0082345
51
24.4056861
0
ARC
8
DEFAULT_255_2_778
10
20.8145071
20
119.6650172
40
0.7593025
50
25.9353318
51
59.4775174
0
ARC
8
DEFAULT_255_2_778
10
19.4683365
20
117.3333137
40
3.4516775
50
59.8856259
51
68.2114333
0
ARC
8
DEFAULT_255_2_778
10
21.1875796
20
121.8354059
40
1.3689764
50
240.0699309
51
251.3384767
0
ARC
8
DEFAULT_255_2_778
10
20.7298361
20
121.0239881
40
0.4374616
50
222.738562
51
239.0018664
0
ARC
8
DEFAULT_255_2_778
10
20.5227731
20
120.8291727
40
0.1531916
50
179.9723464
51
221.7812088
0
ARC
8
DEFAULT_255_2_778
10
20.5229947
20
120.829249
40
0.1534131
50
177.5503042
51
180.0008838
0
ARC
8
DEFAULT_255_2_778
10
20.522958
20
120.8292483
40
0.1533765
50
154.572672
51
177.549449
0
ARC
8
DEFAULT_255_2_778
10
20.5628338
20
120.78856
40
0.2077887
50
102.9017069
51
149.1530399
0
ARC
8
DEFAULT_255_2_778
10
20.7729973
20
119.9132389
40
1.1079771
50
89.9966237
51
103.3886779
0
ARC
8
DEFAULT_255_2_778
10
20.7730736
20
119.9121328
40
1.1090832
50
89.0482887
51
90.0005676
0
ARC
8
DEFAULT_255_2_778
10
20.7730489
20
119.9110853
40
1.1101308
50
84.0337442
51
89.0479125
0
ARC
8
DEFAULT_255_2_778
10
20.6016853
20
118.6900802
40
2.3427385
50
70.2785004
51
82.9693067
0
ARC
8
DEFAULT_255_2_778
10
20.4936994
20
116.8808033
40
4.5834376
50
78.6944859
51
87.3133903
0
ARC
8
DEFAULT_255_2_778
10
20.6296372
20
120.2735357
40
1.1882897
50
86.1927955
51
90.00053
0
ARC
8
DEFAULT_255_2_778
10
20.6301483
20
120.2660422
40
1.1957835
50
90.0250147
51
120.4112525
0
ARC
8
DEFAULT_255_2_778
10
20.4368866
20
120.6168574
40
0.7954807
50
121.1972413
51
141.5692487
0
ARC
8
DEFAULT_255_2_778
10
20.2645484
20
120.7693466
40
0.5658298
50
142.8182823
51
167.1275445
0
ARC
8
DEFAULT_255_2_778
10
20.3499164
20
120.7152885
40
0.6619528
50
164.2109893
51
179.6560805
0
ARC
8
DEFAULT_255_2_778
10
20.3507516
20
120.7153067
40
0.6627879
50
179.6580859
51
179.9970762
0
ARC
8
DEFAULT_255_2_778
10
20.347481
20
120.7152783
40
0.6595171
50
179.9945955
51
195.8182207
0
ARC
8
DEFAULT_255_2_778
10
20.3167109
20
120.6950137
40
0.6244872
50
194.7988703
51
225.7486082
0
ARC
8
DEFAULT_255_2_778
10
20.6203139
20
121.0479475
40
1.0895259
50
227.2640335
51
242.7198537
0
ARC
8
DEFAULT_255_2_778
10
20.7162862
20
119.6220381
40
0.1718342
50
8.9271109
51
72.2617004
0
ARC
8
DEFAULT_255_2_778
10
20.7085455
20
119.6205309
40
0.1797152
50
8.5534361
51
9.0188554
0
ARC
8
DEFAULT_255_2_778
10
20.7162741
20
119.621705
40
0.171898
50
0.0035521
51
8.5495839
0
ARC
8
DEFAULT_255_2_778
10
20.7164067
20
119.6217627
40
0.1717655
50
305.6589239
51
359.98432
0
ARC
8
DEFAULT_255_2_778
10
20.5727119
20
119.9908689
40
0.5640856
50
277.7253482
51
295.610546
0
ARC
8
DEFAULT_255_2_778
10
20.3416079
20
121.0465193
40
1.6435305
50
271.9294297
51
280.7632391
0
ARC
8
DEFAULT_255_2_778
10
20.3416155
20
121.0464036
40
1.6434146
50
269.9999939
51
271.9292983
0
ARC
8
DEFAULT_255_2_778
10
20.3415725
20
121.0460394
40
1.6430504
50
247.5050814
51
270.0014959
0
LINE
8
DEFAULT_255_2_778
10
21.3922389
20
120.895403
11
21.3922389
21
121.375303
0
LINE
8
DEFAULT_255_2_778
10
20.1209389
20
120.079603
11
20.4807389
21
119.911603
0
LINE
8
DEFAULT_255_2_778
10
20.4807389
20
119.911603
11
20.7686389
21
119.785703
0
LINE
8
DEFAULT_255_2_778
10
19.7129389
20
119.528003
11
19.7129389
21
119.048003
0
ARC
8
DEFAULT_255_2_778
10
34.3576054
20
121.3351225
40
2.3975205
50
252.584722
51
270.0058212
0
ARC
8
DEFAULT_255_2_778
10
34.3578352
20
121.3414265
40
2.4038243
50
270.0003268
51
271.078944
0
ARC
8
DEFAULT_255_2_778
10
34.3577652
20
121.3418598
40
2.4042588
50
271.0804183
51
280.9786248
0
ARC
8
DEFAULT_255_2_778
10
34.587716
20
120.0179783
40
1.0611421
50
282.4032196
51
311.8389259
0
ARC
8
DEFAULT_255_2_778
10
34.7762467
20
119.7307547
40
0.7232063
50
315.8930325
51
333.5302183
0
ARC
8
DEFAULT_255_2_778
10
34.7778531
20
119.7040338
40
0.7102372
50
335.4024261
51
0.0017211
0
LINE
8
DEFAULT_255_2_778
10
35.4880903
20
119.7040551
11
35.4880903
21
119.7042634
0
ARC
8
DEFAULT_255_2_778
10
34.7791232
20
119.7041615
40
0.7089671
50
0.0082345
51
24.4056861
0
ARC
8
DEFAULT_255_2_778
10
34.7419071
20
119.6650172
40
0.7593025
50
25.9353318
51
59.4775174
0
ARC
8
DEFAULT_255_2_778
10
33.3957365
20
117.3333137
40
3.4516775
50
59.8856259
51
68.2114333
0
ARC
8
DEFAULT_255_2_778
10
35.1149796
20
121.8354059
40
1.3689764
50
240.0699309
51
251.3384767
0
ARC
8
DEFAULT_255_2_778
10
34.6572361
20
121.0239881
40
0.4374616
50
222.738562
51
239.0018664
0
ARC
8
DEFAULT_255_2_778
10
34.4501731
20
120.8291727
40
0.1531916
50
179.9723464
51
221.7812088
0
ARC
8
DEFAULT_255_2_778
10
34.4503947
20
120.829249
40
0.1534131
50
177.5503042
51
180.0008838
0
ARC
8
DEFAULT_255_2_778
10
34.450358
20
120.8292483
40
0.1533765
50
154.572672
51
177.549449
0
ARC
8
DEFAULT_255_2_778
10
34.4902338
20
120.78856
40
0.2077887
50
102.9017069
51
149.1530399
0
ARC
8
DEFAULT_255_2_778
10
34.7003973
20
119.9132389
40
1.1079771
50
89.9966237
51
103.3886779
0
ARC
8
DEFAULT_255_2_778
10
34.7004736
20
119.9121328
40
1.1090832
50
89.0482887
51
90.0005676
0
ARC
8
DEFAULT_255_2_778
10
34.7004489
20
119.9110853
40
1.1101308
50
84.0337442
51
89.0479125
0
ARC
8
DEFAULT_255_2_778
10
34.5290853
20
118.6900802
40
2.3427385
50
70.2785004
51
82.9693067
0
ARC
8
DEFAULT_255_2_778
10
34.4212961
20
116.8824063
40
4.5818272
50
78.6929684
51
87.3149079
0
ARC
8
DEFAULT_255_2_778
10
34.5570372
20
120.2735357
40
1.1882897
50
86.1927955
51
90.00053
0
ARC
8
DEFAULT_255_2_778
10
34.5575483
20
120.2660422
40
1.1957835
50
90.0250147
51
120.4112525
0
ARC
8
DEFAULT_255_2_778
10
34.3642866
20
120.6168574
40
0.7954807
50
121.1972413
51
141.5692487
0
ARC
8
DEFAULT_255_2_778
10
34.1919484
20
120.7693466
40
0.5658298
50
142.8182823
51
167.1275445
0
ARC
8
DEFAULT_255_2_778
10
34.2773164
20
120.7152885
40
0.6619528
50
164.2109893
51
179.6560805
0
ARC
8
DEFAULT_255_2_778
10
34.2781516
20
120.7153067
40
0.6627879
50
179.6580859
51
179.9970762
0
ARC
8
DEFAULT_255_2_778
10
34.274881
20
120.7152783
40
0.6595171
50
179.9945955
51
195.8182207
0
ARC
8
DEFAULT_255_2_778
10
34.2441109
20
120.6950137
40
0.6244872
50
194.7988703
51
225.7486082
0
ARC
8
DEFAULT_255_2_778
10
34.5477139
20
121.0479475
40
1.0895259
50
227.2640335
51
242.7198537
0
ARC
8
DEFAULT_255_2_778
10
34.6436862
20
119.6220381
40
0.1718342
50
8.9271109
51
72.2617004
0
ARC
8
DEFAULT_255_2_778
10
34.6359455
20
119.6205309
40
0.1797152
50
8.5534361
51
9.0188554
0
ARC
8
DEFAULT_255_2_778
10
34.6436741
20
119.621705
40
0.171898
50
0.0035521
51
8.5495839
0
ARC
8
DEFAULT_255_2_778
10
34.6438067
20
119.6217627
40
0.1717655
50
305.6589239
51
359.98432
0
ARC
8
DEFAULT_255_2_778
10
34.5001119
20
119.9908689
40
0.5640856
50
277.7253482
51
295.610546
0
ARC
8
DEFAULT_255_2_778
10
34.2690079
20
121.0465193
40
1.6435305
50
271.9294297
51
280.7632391
0
ARC
8
DEFAULT_255_2_778
10
34.2690155
20
121.0464036
40
1.6434146
50
269.9999939
51
271.9292983
0
ARC
8
DEFAULT_255_2_778
10
34.2689725
20
121.0460394
40
1.6430504
50
247.5050814
51
270.0014959
0
LINE
8
DEFAULT_255_2_778
10
35.3196389
20
120.895403
11
35.3196389
21
121.375303
0
LINE
8
DEFAULT_255_2_778
10
34.0483389
20
120.079603
11
34.4081389
21
119.911603
0
LINE
8
DEFAULT_255_2_778
10
34.4081389
20
119.911603
11
34.6960389
21
119.785703
0
LINE
8
DEFAULT_255_2_778
10
33.6403389
20
119.528003
11
33.6403389
21
119.048003
0
LINE
8
DEFAULT_255_2_778
10
23.2157844
20
121.3986208
11
24.9910844
21
121.3986208
0
LINE
8
DEFAULT_255_2_778
10
24.9910844
20
121.3986208
11
24.9910844
21
120.9546208
0
LINE
8
DEFAULT_255_2_778
10
24.9910844
20
120.9546208
11
23.9113844
21
120.9546208
0
LINE
8
DEFAULT_255_2_778
10
23.9113844
20
120.9546208
11
23.9113844
21
120.4149208
0
LINE
8
DEFAULT_255_2_778
10
23.9113844
20
120.4149208
11
24.8468844
21
120.4149208
0
LINE
8
DEFAULT_255_2_778
10
24.8468844
20
120.4149208
11
24.8468844
21
120.0191208
0
LINE
8
DEFAULT_255_2_778
10
24.8468844
20
120.0191208
11
23.9113844
21
120.0191208
0
LINE
8
DEFAULT_255_2_778
10
23.9113844
20
120.0191208
11
23.9113844
21
119.4552208
0
LINE
8
DEFAULT_255_2_778
10
23.9113844
20
119.4552208
11
25.0148844
21
119.4552208
0
LINE
8
DEFAULT_255_2_778
10
25.0148844
20
119.4552208
11
25.0148844
21
118.9994208
0
LINE
8
DEFAULT_255_2_778
10
25.0148844
20
118.9994208
11
23.2154844
21
118.9994208
0
LINE
8
DEFAULT_255_2_778
10
23.2154844
20
118.9994208
11
23.2154844
21
121.3986208
0
LINE
8
DEFAULT_255_2_778
10
21.9441085
20
121.3986208
11
22.6638085
21
121.3986208
0
LINE
8
DEFAULT_255_2_778
10
22.6638085
20
121.3986208
11
22.6638085
21
118.9994208
0
LINE
8
DEFAULT_255_2_778
10
22.6638085
20
118.9994208
11
21.9441085
21
118.9994208
0
LINE
8
DEFAULT_255_2_778
10
21.9441085
20
118.9994208
11
21.9441085
21
121.3986208
0
LINE
8
DEFAULT_255_2_778
10
31.9006085
20
121.3986208
11
31.1209085
21
121.3986208
0
LINE
8
DEFAULT_255_2_778
10
31.1209085
20
121.3986208
11
31.1209085
21
118.9994208
0
LINE
8
DEFAULT_255_2_778
10
31.1209085
20
118.9994208
11
31.6009085
21
118.9994208
0
LINE
8
DEFAULT_255_2_778
10
31.6009085
20
118.9994208
11
31.6009085
21
120.5347208
0
LINE
8
DEFAULT_255_2_778
10
31.6009085
20
120.5347208
11
32.4645085
21
118.9994208
0
LINE
8
DEFAULT_255_2_778
10
32.4645085
20
118.9994208
11
33.2323085
21
118.9994208
0
LINE
8
DEFAULT_255_2_778
10
33.2323085
20
118.9994208
11
33.2323085
21
121.3986208
0
LINE
8
DEFAULT_255_2_778
10
33.2323085
20
121.3986208
11
32.7523085
21
121.3986208
0
LINE
8
DEFAULT_255_2_778
10
32.7523085
20
121.3986208
11
32.7523085
21
119.9111208
0
LINE
8
DEFAULT_255_2_778
10
32.7523085
20
119.9111208
11
31.9006085
21
121.3986208
0
LINE
8
DEFAULT_255_2_778
10
28.9257844
20
121.3986208
11
30.7010844
21
121.3986208
0
LINE
8
DEFAULT_255_2_778
10
30.7010844
20
121.3986208
11
30.7010844
21
120.9546208
0
LINE
8
DEFAULT_255_2_778
10
30.7010844
20
120.9546208
11
29.6213844
21
120.9546208
0
LINE
8
DEFAULT_255_2_778
10
29.6213844
20
120.9546208
11
29.6213844
21
120.4149208
0
LINE
8
DEFAULT_255_2_778
10
29.6213844
20
120.4149208
11
30.5568844
21
120.4149208
0
LINE
8
DEFAULT_255_2_778
10
30.5568844
20
120.4149208
11
30.5568844
21
120.0191208
0
LINE
8
DEFAULT_255_2_778
10
30.5568844
20
120.0191208
11
29.6213844
21
120.0191208
0
LINE
8
DEFAULT_255_2_778
10
29.6213844
20
120.0191208
11
29.6213844
21
119.4552208
0
LINE
8
DEFAULT_255_2_778
10
29.6213844
20
119.4552208
11
30.7248844
21
119.4552208
0
LINE
8
DEFAULT_255_2_778
10
30.7248844
20
119.4552208
11
30.7248844
21
118.9994208
0
LINE
8
DEFAULT_255_2_778
10
30.7248844
20
118.9994208
11
28.9254844
21
118.9994208
0
LINE
8
DEFAULT_255_2_778
10
28.9254844
20
118.9994208
11
28.9254844
21
121.3986208
0
LINE
8
DEFAULT_255_2_778
10
24.2092366
20
113.6789249
11
24.4272366
21
113.6789249
0
LINE
8
DEFAULT_255_2_778
10
24.4272366
20
113.6789249
11
24.4272366
21
113.5378249
0
LINE
8
DEFAULT_255_2_778
10
24.4272366
20
113.5378249
11
24.5421366
21
113.6455249
0
LINE
8
DEFAULT_255_2_778
10
24.5421366
20
113.6455249
11
24.6931366
21
113.7045249
0
LINE
8
DEFAULT_255_2_778
10
24.6931366
20
113.7045249
11
24.9119366
21
113.6968249
0
LINE
8
DEFAULT_255_2_778
10
24.9119366
20
113.6968249
11
25.0609366
21
113.6217249
0
LINE
8
DEFAULT_255_2_778
10
25.0609366
20
113.6217249
11
25.1350366
21
113.5431249
0
LINE
8
DEFAULT_255_2_778
10
25.1350366
20
113.5431249
11
25.1638366
21
113.4955249
0
LINE
8
DEFAULT_255_2_778
10
25.1638366
20
113.4955249
11
25.2596366
21
113.6124249
0
LINE
8
DEFAULT_255_2_778
10
25.2596366
20
113.6124249
11
25.3768366
21
113.6836249
0
LINE
8
DEFAULT_255_2_778
10
25.3768366
20
113.6836249
11
25.6295366
21
113.7085249
0
LINE
8
DEFAULT_255_2_778
10
25.6295366
20
113.7085249
11
25.7787366
21
113.6646249
0
LINE
8
DEFAULT_255_2_778
10
25.7787366
20
113.6646249
11
25.8774366
21
113.5836249
0
LINE
8
DEFAULT_255_2_778
10
25.8774366
20
113.5836249
11
25.9338366
21
113.4958249
0
LINE
8
DEFAULT_255_2_778
10
25.9338366
20
113.4958249
11
25.9557366
21
113.4381249
0
LINE
8
DEFAULT_255_2_778
10
25.9557366
20
113.4381249
11
25.9671366
21
113.3934249
0
LINE
8
DEFAULT_255_2_778
10
25.9671366
20
113.3934249
11
25.9748366
21
113.3476249
0
LINE
8
DEFAULT_255_2_778
10
25.9748366
20
113.3476249
11
25.9782366
21
113.3169249
0
LINE
8
DEFAULT_255_2_778
10
25.9782366
20
113.3169249
11
25.9803366
21
113.2859249
0
LINE
8
DEFAULT_255_2_778
10
25.9803366
20
113.2859249
11
25.9819366
21
112.4943249
0
LINE
8
DEFAULT_255_2_778
10
25.9819366
20
112.4943249
11
25.7639366
21
112.4943249
0
LINE
8
DEFAULT_255_2_778
10
25.7639366
20
112.4943249
11
25.7620366
21
113.2867249
0
LINE
8
DEFAULT_255_2_778
10
25.7620366
20
113.2867249
11
25.7586366
21
113.3196249
0
LINE
8
DEFAULT_255_2_778
10
25.7586366
20
113.3196249
11
25.7499366
21
113.3627249
0
LINE
8
DEFAULT_255_2_778
10
25.7499366
20
113.3627249
11
25.7245366
21
113.4259249
0
LINE
8
DEFAULT_255_2_778
10
25.7245366
20
113.4259249
11
25.6557366
21
113.5034249
0
LINE
8
DEFAULT_255_2_778
10
25.6557366
20
113.5034249
11
25.4586366
21
113.5399249
0
LINE
8
DEFAULT_255_2_778
10
25.4586366
20
113.5399249
11
25.3255366
21
113.4905249
0
LINE
8
DEFAULT_255_2_778
10
25.3255366
20
113.4905249
11
25.2506366
21
113.3976249
0
LINE
8
DEFAULT_255_2_778
10
25.2506366
20
113.3976249
11
25.2268366
21
113.3383249
0
LINE
8
DEFAULT_255_2_778
10
25.2268366
20
113.3383249
11
25.2154366
21
113.2894249
0
LINE
8
DEFAULT_255_2_778
10
25.2154366
20
113.2894249
11
25.2104366
21
113.2521249
0
LINE
8
DEFAULT_255_2_778
10
25.2104366
20
113.2521249
11
25.2083366
21
113.2269249
0
LINE
8
DEFAULT_255_2_778
10
25.2083366
20
113.2269249
11
25.2064366
21
112.4943249
0
LINE
8
DEFAULT_255_2_778
10
25.2064366
20
112.4943249
11
24.9884366
21
112.4943249
0
LINE
8
DEFAULT_255_2_778
10
24.9884366
20
112.4943249
11
24.9865366
21
113.2857249
0
LINE
8
DEFAULT_255_2_778
10
24.9865366
20
113.2857249
11
24.9831366
21
113.3188249
0
LINE
8
DEFAULT_255_2_778
10
24.9831366
20
113.3188249
11
24.9744366
21
113.3621249
0
LINE
8
DEFAULT_255_2_778
10
24.9744366
20
113.3621249
11
24.9487366
21
113.4256249
0
LINE
8
DEFAULT_255_2_778
10
24.9487366
20
113.4256249
11
24.8794366
21
113.5034249
0
LINE
8
DEFAULT_255_2_778
10
24.8794366
20
113.5034249
11
24.6815366
21
113.5399249
0
LINE
8
DEFAULT_255_2_778
10
24.6815366
20
113.5399249
11
24.5479366
21
113.4905249
0
LINE
8
DEFAULT_255_2_778
10
24.5479366
20
113.4905249
11
24.4727366
21
113.3976249
0
LINE
8
DEFAULT_255_2_778
10
24.4727366
20
113.3976249
11
24.4494366
21
113.3405249
0
LINE
8
DEFAULT_255_2_778
10
24.4494366
20
113.3405249
11
24.4383366
21
113.2942249
0
LINE
8
DEFAULT_255_2_778
10
24.4383366
20
113.2942249
11
24.4330366
21
113.2590249
0
LINE
8
DEFAULT_255_2_778
10
24.4330366
20
113.2590249
11
24.4299366
21
113.2232249
0
LINE
8
DEFAULT_255_2_778
10
24.4299366
20
113.2232249
11
24.4283366
21
112.4941249
0
LINE
8
DEFAULT_255_2_778
10
24.4283366
20
112.4941249
11
24.2103366
21
112.4941249
0
LINE
8
DEFAULT_255_2_778
10
24.2103366
20
112.4941249
11
24.2103366
21
113.6783249
0
LINE
8
DEFAULT_255_2_778
10
32.0038366
20
117.1819249
11
31.7543366
21
117.1819249
0
LINE
8
DEFAULT_255_2_778
10
31.7543366
20
117.1819249
11
31.4895366
21
116.9748249
0
LINE
8
DEFAULT_255_2_778
10
31.4895366
20
116.9748249
11
31.2273366
21
116.8435249
0
LINE
8
DEFAULT_255_2_778
10
31.2273366
20
116.8435249
11
31.2273366
21
116.5692249
0
LINE
8
DEFAULT_255_2_778
10
31.2273366
20
116.5692249
11
31.6040366
21
116.7610249
0
LINE
8
DEFAULT_255_2_778
10
31.6040366
20
116.7610249
11
31.7091366
21
116.8419249
0
LINE
8
DEFAULT_255_2_778
10
31.7091366
20
116.8419249
11
31.7091366
21
114.9944249
0
LINE
8
DEFAULT_255_2_778
10
31.7091366
20
114.9944249
11
32.0038366
21
114.9944249
0
LINE
8
DEFAULT_255_2_778
10
32.0038366
20
114.9944249
11
32.0038366
21
117.1819249
0
LINE
8
DEFAULT_255_2_778
10
21.4308366
20
113.7352249
11
21.2104366
21
113.7352249
0
LINE
8
DEFAULT_255_2_778
10
21.2104366
20
113.7352249
11
21.2125366
21
113.7926249
0
LINE
8
DEFAULT_255_2_778
10
21.2125366
20
113.7926249
11
21.2191366
21
113.8405249
0
LINE
8
DEFAULT_255_2_778
10
21.2191366
20
113.8405249
11
21.2406366
21
113.9202249
0
LINE
8
DEFAULT_255_2_778
10
21.2406366
20
113.9202249
11
21.3073366
21
114.0384249
0
LINE
8
DEFAULT_255_2_778
10
21.3073366
20
114.0384249
11
21.3644366
21
114.0966249
0
LINE
8
DEFAULT_255_2_778
10
21.3644366
20
114.0966249
11
21.4520366
21
114.1556249
0
LINE
8
DEFAULT_255_2_778
10
21.4520366
20
114.1556249
11
21.5758366
21
114.2011249
0
LINE
8
DEFAULT_255_2_778
10
21.5758366
20
114.2011249
11
21.7682366
21
114.2194249
0
LINE
8
DEFAULT_255_2_778
10
21.7682366
20
114.2194249
11
21.9505366
21
114.1929249
0
LINE
8
DEFAULT_255_2_778
10
21.9505366
20
114.1929249
11
22.0658366
21
114.1445249
0
LINE
8
DEFAULT_255_2_778
10
22.0658366
20
114.1445249
11
22.1584366
21
114.0752249
0
LINE
8
DEFAULT_255_2_778
10
22.1584366
20
114.0752249
11
22.2060366
21
114.0194249
0
LINE
8
DEFAULT_255_2_778
10
22.2060366
20
114.0194249
11
22.2336366
21
113.9728249
0
LINE
8
DEFAULT_255_2_778
10
22.2336366
20
113.9728249
11
22.2545366
21
113.9225249
0
LINE
8
DEFAULT_255_2_778
10
22.2545366
20
113.9225249
11
22.2650366
21
113.8860249
0
LINE
8
DEFAULT_255_2_778
10
22.2650366
20
113.8860249
11
22.2727366
21
113.8471249
0
LINE
8
DEFAULT_255_2_778
10
22.2727366
20
113.8471249
11
22.2727366
21
113.7011249
0
LINE
8
DEFAULT_255_2_778
10
22.2727366
20
113.7011249
11
22.2645366
21
113.6566249
0
LINE
8
DEFAULT_255_2_778
10
22.2645366
20
113.6566249
11
22.2532366
21
113.6127249
0
LINE
8
DEFAULT_255_2_778
10
22.2532366
20
113.6127249
11
22.2309366
21
113.5479249
0
LINE
8
DEFAULT_255_2_778
10
22.2309366
20
113.5479249
11
22.1825366
21
113.4442249
0
LINE
8
DEFAULT_255_2_778
10
22.1825366
20
113.4442249
11
22.1129366
21
113.3309249
0
LINE
8
DEFAULT_255_2_778
10
22.1129366
20
113.3309249
11
22.0108366
21
113.2008249
0
LINE
8
DEFAULT_255_2_778
10
22.0108366
20
113.2008249
11
21.8957366
21
113.0812249
0
LINE
8
DEFAULT_255_2_778
10
21.8957366
20
113.0812249
11
21.6017366
21
112.8293249
0
LINE
8
DEFAULT_255_2_778
10
21.6017366
20
112.8293249
11
21.4176366
21
112.6795249
0
LINE
8
DEFAULT_255_2_778
10
21.4176366
20
112.6795249
11
22.3127366
21
112.6795249
0
LINE
8
DEFAULT_255_2_778
10
22.3127366
20
112.6795249
11
22.3127366
21
112.4941249
0
LINE
8
DEFAULT_255_2_778
10
22.3127366
20
112.4941249
11
21.1403366
21
112.4941249
0
LINE
8
DEFAULT_255_2_778
10
21.1403366
20
112.4941249
11
21.1403366
21
112.6978249
0
LINE
8
DEFAULT_255_2_778
10
21.1403366
20
112.6978249
11
21.4274366
21
112.9306249
0
LINE
8
DEFAULT_255_2_778
10
21.4274366
20
112.9306249
11
21.6449366
21
113.1322249
0
LINE
8
DEFAULT_255_2_778
10
21.6449366
20
113.1322249
11
21.8364366
21
113.3375249
0
LINE
8
DEFAULT_255_2_778
10
21.8364366
20
113.3375249
11
21.9528366
21
113.4897249
0
LINE
8
DEFAULT_255_2_778
10
21.9528366
20
113.4897249
11
22.0050366
21
113.5783249
0
LINE
8
DEFAULT_255_2_778
10
22.0050366
20
113.5783249
11
22.0349366
21
113.6474249
0
LINE
8
DEFAULT_255_2_778
10
22.0349366
20
113.6474249
11
22.0489366
21
113.6947249
0
LINE
8
DEFAULT_255_2_778
10
22.0489366
20
113.6947249
11
22.0547366
21
113.7267249
0
LINE
8
DEFAULT_255_2_778
10
22.0547366
20
113.7267249
11
22.0531366
21
113.8149249
0
LINE
8
DEFAULT_255_2_778
10
22.0531366
20
113.8149249
11
22.0391366
21
113.8664249
0
LINE
8
DEFAULT_255_2_778
10
22.0391366
20
113.8664249
11
22.0015366
21
113.9321249
0
LINE
8
DEFAULT_255_2_778
10
22.0015366
20
113.9321249
11
21.8946366
21
114.0096249
0
LINE
8
DEFAULT_255_2_778
10
21.8946366
20
114.0096249
11
21.6779366
21
114.0313249
0
LINE
8
DEFAULT_255_2_778
10
21.6779366
20
114.0313249
11
21.5393366
21
113.9744249
0
LINE
8
DEFAULT_255_2_778
10
21.5393366
20
113.9744249
11
21.4692366
21
113.8950249
0
LINE
8
DEFAULT_255_2_778
10
21.4692366
20
113.8950249
11
21.4427366
21
113.8302249
0
LINE
8
DEFAULT_255_2_778
10
21.4427366
20
113.8302249
11
21.4345366
21
113.7895249
0
LINE
8
DEFAULT_255_2_778
10
21.4345366
20
113.7895249
11
21.4321366
21
113.7678249
0
LINE
8
DEFAULT_255_2_778
10
21.4321366
20
113.7678249
11
21.4311366
21
113.7352249
0
LINE
8
DEFAULT_255_2_778
10
27.7456366
20
115.1939249
11
27.5358366
21
115.2388249
0
LINE
8
DEFAULT_255_2_778
10
27.5358366
20
115.2388249
11
27.3906366
21
115.3481249
0
LINE
8
DEFAULT_255_2_778
10
27.3906366
20
115.3481249
11
27.3144366
21
115.4590249
0
LINE
8
DEFAULT_255_2_778
10
27.3144366
20
115.4590249
11
27.2747366
21
115.5561249
0
LINE
8
DEFAULT_255_2_778
10
27.2747366
20
115.5561249
11
27.2638366
21
115.5944249
0
LINE
8
DEFAULT_255_2_778
10
27.2638366
20
115.5944249
11
26.9630366
21
115.5944249
0
LINE
8
DEFAULT_255_2_778
10
26.9630366
20
115.5944249
11
26.9715366
21
115.5471249
0
LINE
8
DEFAULT_255_2_778
10
26.9715366
20
115.5471249
11
26.9826366
21
115.5002249
0
LINE
8
DEFAULT_255_2_778
10
26.9826366
20
115.5002249
11
27.0043366
21
115.4312249
0
LINE
8
DEFAULT_255_2_778
10
27.0043366
20
115.4312249
11
27.0408366
21
115.3468249
0
LINE
8
DEFAULT_255_2_778
10
27.0408366
20
115.3468249
11
27.0865366
21
115.2690249
0
LINE
8
DEFAULT_255_2_778
10
27.0865366
20
115.2690249
11
27.1575366
21
115.1814249
0
LINE
8
DEFAULT_255_2_778
10
27.1575366
20
115.1814249
11
27.2440366
21
115.1039249
0
LINE
8
DEFAULT_255_2_778
10
27.2440366
20
115.1039249
11
27.3763366
21
115.0227249
0
LINE
8
DEFAULT_255_2_778
10
27.3763366
20
115.0227249
11
27.5239366
21
114.9700249
0
LINE
8
DEFAULT_255_2_778
10
27.5239366
20
114.9700249
11
27.7149366
21
114.9452249
0
LINE
8
DEFAULT_255_2_778
10
27.7149366
20
114.9452249
11
27.9234366
21
114.9573249
0
LINE
8
DEFAULT_255_2_778
10
27.9234366
20
114.9573249
11
28.1105366
21
115.0052249
0
LINE
8
DEFAULT_255_2_778
10
28.1105366
20
115.0052249
11
28.2536366
21
115.0777249
0
LINE
8
DEFAULT_255_2_778
10
28.2536366
20
115.0777249
11
28.3531366
21
115.1584249
0
LINE
8
DEFAULT_255_2_778
10
28.3531366
20
115.1584249
11
28.4200366
21
115.2386249
0
LINE
8
DEFAULT_255_2_778
10
28.4200366
20
115.2386249
11
28.4613366
21
115.3103249
0
LINE
8
DEFAULT_255_2_778
10
28.4613366
20
115.3103249
11
28.4854366
21
115.3677249
0
LINE
8
DEFAULT_255_2_778
10
28.4854366
20
115.3677249
11
28.5039366
21
115.4288249
0
LINE
8
DEFAULT_255_2_778
10
28.5039366
20
115.4288249
11
28.5132366
21
115.4730249
0
LINE
8
DEFAULT_255_2_778
10
28.5132366
20
115.4730249
11
28.5195366
21
115.5177249
0
LINE
8
DEFAULT_255_2_778
10
28.5195366
20
115.5177249
11
28.5174366
21
115.7050249
0
LINE
8
DEFAULT_255_2_778
10
28.5174366
20
115.7050249
11
28.5071366
21
115.7595249
0
LINE
8
DEFAULT_255_2_778
10
28.5071366
20
115.7595249
11
28.4830366
21
115.8328249
0
LINE
8
DEFAULT_255_2_778
10
28.4830366
20
115.8328249
11
28.4177366
21
115.9395249
0
LINE
8
DEFAULT_255_2_778
10
28.4177366
20
115.9395249
11
28.2592366
21
116.0683249
0
LINE
8
DEFAULT_255_2_778
10
28.2592366
20
116.0683249
11
28.1158366
21
116.1202249
0
LINE
8
DEFAULT_255_2_778
10
28.1158366
20
116.1202249
11
28.2600366
21
116.2040249
0
LINE
8
DEFAULT_255_2_778
10
28.2600366
20
116.2040249
11
28.3505366
21
116.2884249
0
LINE
8
DEFAULT_255_2_778
10
28.3505366
20
116.2884249
11
28.3989366
21
116.3541249
0
LINE
8
DEFAULT_255_2_778
10
28.3989366
20
116.3541249
11
28.4354366
21
116.4247249
0
LINE
8
DEFAULT_255_2_778
10
28.4354366
20
116.4247249
11
28.4552366
21
116.4808249
0
LINE
8
DEFAULT_255_2_778
10
28.4552366
20
116.4808249
11
28.4653366
21
116.5215249
0
LINE
8
DEFAULT_255_2_778
10
28.4653366
20
116.5215249
11
28.4722366
21
116.5631249
0
LINE
8
DEFAULT_255_2_778
10
28.4722366
20
116.5631249
11
28.4701366
21
116.7456249
0
LINE
8
DEFAULT_255_2_778
10
28.4701366
20
116.7456249
11
28.4624366
21
116.7843249
0
LINE
8
DEFAULT_255_2_778
10
28.4624366
20
116.7843249
11
28.4460366
21
116.8398249
0
LINE
8
DEFAULT_255_2_778
10
28.4460366
20
116.8398249
11
28.4155366
21
116.9076249
0
LINE
8
DEFAULT_255_2_778
10
28.4155366
20
116.9076249
11
28.3753366
21
116.9700249
0
LINE
8
DEFAULT_255_2_778
10
28.3753366
20
116.9700249
11
28.2946366
21
117.0544249
0
LINE
8
DEFAULT_255_2_778
10
28.2946366
20
117.0544249
11
28.1684366
21
117.1375249
0
LINE
8
DEFAULT_255_2_778
10
28.1684366
20
117.1375249
11
28.0113366
21
117.1965249
0
LINE
8
DEFAULT_255_2_778
10
28.0113366
20
117.1965249
11
27.8049366
21
117.2261249
0
LINE
8
DEFAULT_255_2_778
10
27.8049366
20
117.2261249
11
27.5837366
21
117.2158249
0
LINE
8
DEFAULT_255_2_778
10
27.5837366
20
117.2158249
11
27.4109366
21
117.1727249
0
LINE
8
DEFAULT_255_2_778
10
27.4109366
20
117.1727249
11
27.2067366
21
117.0528249
0
LINE
8
DEFAULT_255_2_778
10
27.2067366
20
117.0528249
11
27.1098366
21
116.9409249
0
LINE
8
DEFAULT_255_2_778
10
27.1098366
20
116.9409249
11
27.0617366
21
116.8422249
0
LINE
8
DEFAULT_255_2_778
10
27.0617366
20
116.8422249
11
27.0408366
21
116.7708249
0
LINE
8
DEFAULT_255_2_778
10
27.0408366
20
116.7708249
11
27.0318366
21
116.7216249
0
LINE
8
DEFAULT_255_2_778
10
27.0318366
20
116.7216249
11
27.0275366
21
116.6843249
0
LINE
8
DEFAULT_255_2_778
10
27.0275366
20
116.6843249
11
27.0257366
21
116.6223249
0
LINE
8
DEFAULT_255_2_778
10
27.0257366
20
116.6223249
11
27.3109366
21
116.6223249
0
LINE
8
DEFAULT_255_2_778
10
27.3109366
20
116.6223249
11
27.3133366
21
116.6716249
0
LINE
8
DEFAULT_255_2_778
10
27.3133366
20
116.6716249
11
27.3196366
21
116.7081249
0
LINE
8
DEFAULT_255_2_778
10
27.3196366
20
116.7081249
11
27.3334366
21
116.7538249
0
LINE
8
DEFAULT_255_2_778
10
27.3334366
20
116.7538249
11
27.3644366
21
116.8152249
0
LINE
8
DEFAULT_255_2_778
10
27.3644366
20
116.8152249
11
27.4453366
21
116.8999249
0
LINE
8
DEFAULT_255_2_778
10
27.4453366
20
116.8999249
11
27.5747366
21
116.9658249
0
LINE
8
DEFAULT_255_2_778
10
27.5747366
20
116.9658249
11
27.7816366
21
116.9896249
0
LINE
8
DEFAULT_255_2_778
10
27.7816366
20
116.9896249
11
27.9528366
21
116.9557249
0
LINE
8
DEFAULT_255_2_778
10
27.9528366
20
116.9557249
11
28.0803366
21
116.8774249
0
LINE
8
DEFAULT_255_2_778
10
28.0803366
20
116.8774249
11
28.1385366
21
116.8057249
0
LINE
8
DEFAULT_255_2_778
10
28.1385366
20
116.8057249
11
28.1666366
21
116.7425249
0
LINE
8
DEFAULT_255_2_778
10
28.1666366
20
116.7425249
11
28.1761366
21
116.7070249
0
LINE
8
DEFAULT_255_2_778
10
28.1761366
20
116.7070249
11
28.1822366
21
116.6697249
0
LINE
8
DEFAULT_255_2_778
10
28.1822366
20
116.6697249
11
28.1798366
21
116.5631249
0
LINE
8
DEFAULT_255_2_778
10
28.1798366
20
116.5631249
11
28.1690366
21
116.5176249
0
LINE
8
DEFAULT_255_2_778
10
28.1690366
20
116.5176249
11
28.1327366
21
116.4430249
0
LINE
8
DEFAULT_255_2_778
10
28.1327366
20
116.4430249
11
28.0179366
21
116.3339249
0
LINE
8
DEFAULT_255_2_778
10
28.0179366
20
116.3339249
11
27.8065366
21
116.2522249
0
LINE
8
DEFAULT_255_2_778
10
27.8065366
20
116.2522249
11
27.6858366
21
116.2419249
0
LINE
8
DEFAULT_255_2_778
10
27.6858366
20
116.2419249
11
27.5877366
21
116.2419249
0
LINE
8
DEFAULT_255_2_778
10
27.5877366
20
116.2419249
11
27.5877366
21
115.9955249
0
LINE
8
DEFAULT_255_2_778
10
27.5877366
20
115.9955249
11
27.9046366
21
115.9744249
0
LINE
8
DEFAULT_255_2_778
10
27.9046366
20
115.9744249
11
28.0973366
21
115.8913249
0
LINE
8
DEFAULT_255_2_778
10
28.0973366
20
115.8913249
11
28.1737366
21
115.8164249
0
LINE
8
DEFAULT_255_2_778
10
28.1737366
20
115.8164249
11
28.2065366
21
115.7574249
0
LINE
8
DEFAULT_255_2_778
10
28.2065366
20
115.7574249
11
28.2205366
21
115.7130249
0
LINE
8
DEFAULT_255_2_778
10
28.2205366
20
115.7130249
11
28.2266366
21
115.6780249
0
LINE
8
DEFAULT_255_2_778
10
28.2266366
20
115.6780249
11
28.2256366
21
115.5582249
0
LINE
8
DEFAULT_255_2_778
10
28.2256366
20
115.5582249
11
28.2176366
21
115.5156249
0
LINE
8
DEFAULT_255_2_778
10
28.2176366
20
115.5156249
11
28.2021366
21
115.4637249
0
LINE
8
DEFAULT_255_2_778
10
28.2021366
20
115.4637249
11
28.1740366
21
115.4042249
0
LINE
8
DEFAULT_255_2_778
10
28.1740366
20
115.4042249
11
28.1086366
21
115.3222249
0
LINE
8
DEFAULT_255_2_778
10
28.1086366
20
115.3222249
11
27.9927366
21
115.2431249
0
LINE
8
DEFAULT_255_2_778
10
27.9927366
20
115.2431249
11
27.8126366
21
115.1965249
0
LINE
8
DEFAULT_255_2_778
10
27.8126366
20
115.1965249
11
27.7462366
21
115.1939249
0
LINE
8
DEFAULT_255_2_778
10
24.3561366
20
116.6112249
11
24.6648366
21
116.6112249
0
LINE
8
DEFAULT_255_2_778
10
24.6648366
20
116.6112249
11
24.6630366
21
116.6776249
0
LINE
8
DEFAULT_255_2_778
10
24.6630366
20
116.6776249
11
24.6606366
21
116.6999249
0
LINE
8
DEFAULT_255_2_778
10
24.6606366
20
116.6999249
11
24.6529366
21
116.7438249
0
LINE
8
DEFAULT_255_2_778
10
24.6529366
20
116.7438249
11
24.6418366
21
116.7869249
0
LINE
8
DEFAULT_255_2_778
10
24.6418366
20
116.7869249
11
24.6267366
21
116.8300249
0
LINE
8
DEFAULT_255_2_778
10
24.6267366
20
116.8300249
11
24.5968366
21
116.8935249
0
LINE
8
DEFAULT_255_2_778
10
24.5968366
20
116.8935249
11
24.5587366
21
116.9523249
0
LINE
8
DEFAULT_255_2_778
10
24.5587366
20
116.9523249
11
24.4931366
21
117.0245249
0
LINE
8
DEFAULT_255_2_778
10
24.4931366
20
117.0245249
11
24.3936366
21
117.0991249
0
LINE
8
DEFAULT_255_2_778
10
24.3936366
20
117.0991249
11
24.2582366
21
117.1658249
0
LINE
8
DEFAULT_255_2_778
10
24.2582366
20
117.1658249
11
24.0722366
21
117.2171249
0
LINE
8
DEFAULT_255_2_778
10
24.0722366
20
117.2171249
11
23.8605366
21
117.2375249
0
LINE
8
DEFAULT_255_2_778
10
23.8605366
20
117.2375249
11
23.6541366
21
117.2267249
0
LINE
8
DEFAULT_255_2_778
10
23.6541366
20
117.2267249
11
23.4673366
21
117.1838249
0
LINE
8
DEFAULT_255_2_778
10
23.4673366
20
117.1838249
11
23.3160366
21
117.1158249
0
LINE
8
DEFAULT_255_2_778
10
23.3160366
20
117.1158249
11
23.2033366
21
117.0369249
0
LINE
8
DEFAULT_255_2_778
10
23.2033366
20
117.0369249
11
23.1056366
21
116.9404249
0
LINE
8
DEFAULT_255_2_778
10
23.1056366
20
116.9404249
11
23.0334366
21
116.8446249
0
LINE
8
DEFAULT_255_2_778
10
23.0334366
20
116.8446249
11
22.9839366
21
116.7607249
0
LINE
8
DEFAULT_255_2_778
10
22.9839366
20
116.7607249
11
22.9426366
21
116.6726249
0
LINE
8
DEFAULT_255_2_778
10
22.9426366
20
116.6726249
11
22.9178366
21
116.6065249
0
LINE
8
DEFAULT_255_2_778
10
22.9178366
20
116.6065249
11
22.8969366
21
116.5390249
0
LINE
8
DEFAULT_255_2_778
10
22.8969366
20
116.5390249
11
22.8797366
21
116.4705249
0
LINE
8
DEFAULT_255_2_778
10
22.8797366
20
116.4705249
11
22.8659366
21
116.4012249
0
LINE
8
DEFAULT_255_2_778
10
22.8659366
20
116.4012249
11
22.8596366
21
116.3617249
0
LINE
8
DEFAULT_255_2_778
10
22.8596366
20
116.3617249
11
22.8543366
21
116.3223249
0
LINE
8
DEFAULT_255_2_778
10
22.8543366
20
116.3223249
11
22.8498366
21
116.2826249
0
LINE
8
DEFAULT_255_2_778
10
22.8498366
20
116.2826249
11
22.8464366
21
116.2429249
0
LINE
8
DEFAULT_255_2_778
10
22.8464366
20
116.2429249
11
22.8464366
21
115.9252249
0
LINE
8
DEFAULT_255_2_778
10
22.8464366
20
115.9252249
11
22.8498366
21
115.8857249
0
LINE
8
DEFAULT_255_2_778
10
22.8498366
20
115.8857249
11
22.8543366
21
115.8463249
0
LINE
8
DEFAULT_255_2_778
10
22.8543366
20
115.8463249
11
22.8596366
21
115.8072249
0
LINE
8
DEFAULT_255_2_778
10
22.8596366
20
115.8072249
11
22.8659366
21
115.7680249
0
LINE
8
DEFAULT_255_2_778
10
22.8659366
20
115.7680249
11
22.8797366
21
115.6995249
0
LINE
8
DEFAULT_255_2_778
10
22.8797366
20
115.6995249
11
22.8971366
21
115.6315249
0
LINE
8
DEFAULT_255_2_778
10
22.8971366
20
115.6315249
11
22.9183366
21
115.5648249
0
LINE
8
DEFAULT_255_2_778
10
22.9183366
20
115.5648249
11
22.9435366
21
115.4995249
0
LINE
8
DEFAULT_255_2_778
10
22.9435366
20
115.4995249
11
22.9850366
21
115.4124249
0
LINE
8
DEFAULT_255_2_778
10
22.9850366
20
115.4124249
11
23.0347366
21
115.3296249
0
LINE
8
DEFAULT_255_2_778
10
23.0347366
20
115.3296249
11
23.1072366
21
115.2362249
0
LINE
8
DEFAULT_255_2_778
10
23.1072366
20
115.2362249
11
23.2046366
21
115.1431249
0
LINE
8
DEFAULT_255_2_778
10
23.2046366
20
115.1431249
11
23.3168366
21
115.0674249
0
LINE
8
DEFAULT_255_2_778
10
23.3168366
20
115.0674249
11
23.4676366
21
115.0020249
0
LINE
8
DEFAULT_255_2_778
10
23.4676366
20
115.0020249
11
23.6541366
21
114.9605249
0
LINE
8
DEFAULT_255_2_778
10
23.6541366
20
114.9605249
11
23.8946366
21
114.9518249
0
LINE
8
DEFAULT_255_2_778
10
23.8946366
20
114.9518249
11
24.0975366
21
114.9785249
0
LINE
8
DEFAULT_255_2_778
10
24.0975366
20
114.9785249
11
24.2497366
21
115.0256249
0
LINE
8
DEFAULT_255_2_778
10
24.2497366
20
115.0256249
11
24.4063366
21
115.1089249
0
LINE
8
DEFAULT_255_2_778
10
24.4063366
20
115.1089249
11
24.5026366
21
115.1878249
0
LINE
8
DEFAULT_255_2_778
10
24.5026366
20
115.1878249
11
24.5645366
21
115.2613249
0
LINE
8
DEFAULT_255_2_778
10
24.5645366
20
115.2613249
11
24.6008366
21
115.3211249
0
LINE
8
DEFAULT_255_2_778
10
24.6008366
20
115.3211249
11
24.6294366
21
115.3852249
0
LINE
8
DEFAULT_255_2_778
10
24.6294366
20
115.3852249
11
24.6431366
21
115.4267249
0
LINE
8
DEFAULT_255_2_778
10
24.6431366
20
115.4267249
11
24.6534366
21
115.4690249
0
LINE
8
DEFAULT_255_2_778
10
24.6534366
20
115.4690249
11
24.6574366
21
115.4905249
0
LINE
8
DEFAULT_255_2_778
10
24.6574366
20
115.4905249
11
24.6606366
21
115.5122249
0
LINE
8
DEFAULT_255_2_778
10
24.6606366
20
115.5122249
11
24.6627366
21
115.5338249
0
LINE
8
DEFAULT_255_2_778
10
24.6627366
20
115.5338249
11
24.6645366
21
115.5772249
0
LINE
8
DEFAULT_255_2_778
10
24.6645366
20
115.5772249
11
24.3558366
21
115.5772249
0
LINE
8
DEFAULT_255_2_778
10
24.3558366
20
115.5772249
11
24.3508366
21
115.5431249
0
LINE
8
DEFAULT_255_2_778
10
24.3508366
20
115.5431249
11
24.3428366
21
115.5095249
0
LINE
8
DEFAULT_255_2_778
10
24.3428366
20
115.5095249
11
24.3256366
21
115.4606249
0
LINE
8
DEFAULT_255_2_778
10
24.3256366
20
115.4606249
11
24.2952366
21
115.4034249
0
LINE
8
DEFAULT_255_2_778
10
24.2952366
20
115.4034249
11
24.2433366
21
115.3404249
0
LINE
8
DEFAULT_255_2_778
10
24.2433366
20
115.3404249
11
24.1465366
21
115.2703249
0
LINE
8
DEFAULT_255_2_778
10
24.1465366
20
115.2703249
11
24.0359366
21
115.2261249
0
LINE
8
DEFAULT_255_2_778
10
24.0359366
20
115.2261249
11
23.8666366
21
115.2021249
0
LINE
8
DEFAULT_255_2_778
10
23.8666366
20
115.2021249
11
23.6829366
21
115.2169249
0
LINE
8
DEFAULT_255_2_778
10
23.6829366
20
115.2169249
11
23.5401366
21
115.2648249
0
LINE
8
DEFAULT_255_2_778
10
23.5401366
20
115.2648249
11
23.4350366
21
115.3306249
0
LINE
8
DEFAULT_255_2_778
10
23.4350366
20
115.3306249
11
23.3583366
21
115.4053249
0
LINE
8
DEFAULT_255_2_778
10
23.3583366
20
115.4053249
11
23.2953366
21
115.4918249
0
LINE
8
DEFAULT_255_2_778
10
23.2953366
20
115.4918249
11
23.2496366
21
115.5770249
0
LINE
8
DEFAULT_255_2_778
10
23.2496366
20
115.5770249
11
23.2138366
21
115.6669249
0
LINE
8
DEFAULT_255_2_778
10
23.2138366
20
115.6669249
11
23.1958366
21
115.7257249
0
LINE
8
DEFAULT_255_2_778
10
23.1958366
20
115.7257249
11
23.1813366
21
115.7855249
0
LINE
8
DEFAULT_255_2_778
10
23.1813366
20
115.7855249
11
23.1697366
21
115.8458249
0
LINE
8
DEFAULT_255_2_778
10
23.1697366
20
115.8458249
11
23.1604366
21
115.9109249
0
LINE
8
DEFAULT_255_2_778
10
23.1604366
20
115.9109249
11
23.1567366
21
115.9455249
0
LINE
8
DEFAULT_255_2_778
10
23.1567366
20
115.9455249
11
23.1557366
21
116.2715249
0
LINE
8
DEFAULT_255_2_778
10
23.1557366
20
116.2715249
11
23.1596366
21
116.3093249
0
LINE
8
DEFAULT_255_2_778
10
23.1596366
20
116.3093249
11
23.1662366
21
116.3564249
0
LINE
8
DEFAULT_255_2_778
10
23.1662366
20
116.3564249
11
23.1758366
21
116.4078249
0
LINE
8
DEFAULT_255_2_778
10
23.1758366
20
116.4078249
11
23.1876366
21
116.4586249
0
LINE
8
DEFAULT_255_2_778
10
23.1876366
20
116.4586249
11
23.2104366
21
116.5334249
0
LINE
8
DEFAULT_255_2_778
10
23.2104366
20
116.5334249
11
23.2443366
21
116.6160249
0
LINE
8
DEFAULT_255_2_778
10
23.2443366
20
116.6160249
11
23.2959366
21
116.7075249
0
LINE
8
DEFAULT_255_2_778
10
23.2959366
20
116.7075249
11
23.3792366
21
116.8094249
0
LINE
8
DEFAULT_255_2_778
10
23.3792366
20
116.8094249
11
23.4803366
21
116.8890249
0
LINE
8
DEFAULT_255_2_778
10
23.4803366
20
116.8890249
11
23.6319366
21
116.9549249
0
LINE
8
DEFAULT_255_2_778
10
23.6319366
20
116.9549249
11
23.8322366
21
116.9835249
0
LINE
8
DEFAULT_255_2_778
10
23.8322366
20
116.9835249
11
24.0383366
21
116.9629249
0
LINE
8
DEFAULT_255_2_778
10
24.0383366
20
116.9629249
11
24.1759366
21
116.9086249
0
LINE
8
DEFAULT_255_2_778
10
24.1759366
20
116.9086249
11
24.2621366
21
116.8449249
0
LINE
8
DEFAULT_255_2_778
10
24.2621366
20
116.8449249
11
24.3068366
21
116.7893249
0
LINE
8
DEFAULT_255_2_778
10
24.3068366
20
116.7893249
11
24.3320366
21
116.7398249
0
LINE
8
DEFAULT_255_2_778
10
24.3320366
20
116.7398249
11
24.3447366
21
116.7017249
0
LINE
8
DEFAULT_255_2_778
10
24.3447366
20
116.7017249
11
24.3502366
21
116.6761249
0
LINE
8
DEFAULT_255_2_778
10
24.3502366
20
116.6761249
11
24.3537366
21
116.6501249
0
LINE
8
DEFAULT_255_2_778
10
24.3537366
20
116.6501249
11
24.3550366
21
116.6110249
0
LINE
8
DEFAULT_255_2_778
10
30.4441031
20
114.1945062
11
31.8165031
21
114.1945062
0
LINE
8
DEFAULT_255_2_778
10
31.8165031
20
114.1945062
11
31.8165031
21
114.0016062
0
LINE
8
DEFAULT_255_2_778
10
31.8165031
20
114.0016062
11
31.2466031
21
114.0016062
0
LINE
8
DEFAULT_255_2_778
10
31.2466031
20
114.0016062
11
31.2466031
21
112.4943062
0
LINE
8
DEFAULT_255_2_778
10
31.2466031
20
112.4943062
11
31.0140031
21
112.4943062
0
LINE
8
DEFAULT_255_2_778
10
31.0140031
20
112.4943062
11
31.0140031
21
114.0016062
0
LINE
8
DEFAULT_255_2_778
10
31.0140031
20
114.0016062
11
30.4441031
21
114.0016062
0
LINE
8
DEFAULT_255_2_778
10
30.4441031
20
114.0016062
11
30.4441031
21
114.1945062
0
LINE
8
DEFAULT_255_2_778
10
28.8971031
20
114.1945062
11
30.2695031
21
114.1945062
0
LINE
8
DEFAULT_255_2_778
10
30.2695031
20
114.1945062
11
30.2695031
21
114.0016062
0
LINE
8
DEFAULT_255_2_778
10
30.2695031
20
114.0016062
11
29.6996031
21
114.0016062
0
LINE
8
DEFAULT_255_2_778
10
29.6996031
20
114.0016062
11
29.6996031
21
112.4943062
0
LINE
8
DEFAULT_255_2_778
10
29.6996031
20
112.4943062
11
29.4670031
21
112.4943062
0
LINE
8
DEFAULT_255_2_778
10
29.4670031
20
112.4943062
11
29.4670031
21
114.0016062
0
LINE
8
DEFAULT_255_2_778
10
29.4670031
20
114.0016062
11
28.8971031
21
114.0016062
0
LINE
8
DEFAULT_255_2_778
10
28.8971031
20
114.0016062
11
28.8971031
21
114.1945062
0
LINE
8
DEFAULT_255_2_778
10
33.2563303
20
114.1945968
11
33.5021303
21
114.1945968
0
LINE
8
DEFAULT_255_2_778
10
33.5021303
20
114.1945968
11
32.8529303
21
113.1872968
0
LINE
8
DEFAULT_255_2_778
10
32.8529303
20
113.1872968
11
32.8529303
21
112.4945968
0
LINE
8
DEFAULT_255_2_778
10
32.8529303
20
112.4945968
11
32.6203303
21
112.4945968
0
LINE
8
DEFAULT_255_2_778
10
32.6203303
20
112.4945968
11
32.6203303
21
113.1861968
0
LINE
8
DEFAULT_255_2_778
10
32.6203303
20
113.1861968
11
31.9683303
21
114.1945968
0
LINE
8
DEFAULT_255_2_778
10
31.9683303
20
114.1945968
11
32.2528303
21
114.1945968
0
LINE
8
DEFAULT_255_2_778
10
32.2528303
20
114.1945968
11
32.7528303
21
113.3645968
0
LINE
8
DEFAULT_255_2_778
10
32.7528303
20
113.3645968
11
33.2563303
21
114.1945968
0
LINE
8
DEFAULT_255_2_778
10
29.8615303
20
117.1943968
11
30.2091303
21
117.1943968
0
LINE
8
DEFAULT_255_2_778
10
30.2091303
20
117.1943968
11
30.2091303
21
115.7849968
0
LINE
8
DEFAULT_255_2_778
10
30.2091303
20
115.7849968
11
30.6253303
21
115.7849968
0
LINE
8
DEFAULT_255_2_778
10
30.6253303
20
115.7849968
11
30.6253303
21
115.5446968
0
LINE
8
DEFAULT_255_2_778
10
30.6253303
20
115.5446968
11
30.2091303
21
115.5446968
0
LINE
8
DEFAULT_255_2_778
10
30.2091303
20
115.5446968
11
30.2091303
21
114.9943968
0
LINE
8
DEFAULT_255_2_778
10
30.2091303
20
114.9943968
11
29.9144303
21
114.9943968
0
LINE
8
DEFAULT_255_2_778
10
29.9144303
20
114.9943968
11
29.9144303
21
115.5446968
0
LINE
8
DEFAULT_255_2_778
10
29.9144303
20
115.5446968
11
28.8915303
21
115.5446968
0
LINE
8
DEFAULT_255_2_778
10
28.8915303
20
115.5446968
11
28.8915303
21
115.8097968
0
LINE
8
DEFAULT_255_2_778
10
28.8915303
20
115.8097968
11
29.8615303
21
117.1943968
0
LINE
8
DEFAULT_255_2_778
10
29.1489303
20
115.7849968
11
29.9144303
21
115.7849968
0
LINE
8
DEFAULT_255_2_778
10
29.9144303
20
115.7849968
11
29.9144303
21
116.8810968
0
LINE
8
DEFAULT_255_2_778
10
29.9144303
20
116.8810968
11
29.1489303
21
115.7849968
0
LINE
8
DEFAULT_255_2_778
10
26.9492303
20
114.1945968
11
27.2045303
21
114.1945968
0
LINE
8
DEFAULT_255_2_778
10
27.2045303
20
114.1945968
11
27.9022303
21
112.4945968
0
LINE
8
DEFAULT_255_2_778
10
27.9022303
20
112.4945968
11
27.6493303
21
112.4945968
0
LINE
8
DEFAULT_255_2_778
10
27.6493303
20
112.4945968
11
27.4781303
21
112.9379968
0
LINE
8
DEFAULT_255_2_778
10
27.4781303
20
112.9379968
11
26.6780303
21
112.9379968
0
LINE
8
DEFAULT_255_2_778
10
26.6780303
20
112.9379968
11
26.5092303
21
112.4945968
0
LINE
8
DEFAULT_255_2_778
10
26.5092303
20
112.4945968
11
26.2515303
21
112.4945968
0
LINE
8
DEFAULT_255_2_778
10
26.2515303
20
112.4945968
11
26.9492303
21
114.1945968
0
LINE
8
DEFAULT_255_2_778
10
26.7529303
20
113.1306968
11
27.4048303
21
113.1306968
0
LINE
8
DEFAULT_255_2_778
10
27.4048303
20
113.1306968
11
27.0783303
21
113.9751968
0
LINE
8
DEFAULT_255_2_778
10
27.0783303
20
113.9751968
11
26.7529303
21
113.1306968
0
LINE
8
DEFAULT_255_2_778
10
25.9292303
20
116.1778968
11
26.1324303
21
116.2087968
0
LINE
8
DEFAULT_255_2_778
10
26.1324303
20
116.2087968
11
26.2621303
21
116.2849968
0
LINE
8
DEFAULT_255_2_778
10
26.2621303
20
116.2849968
11
26.3216303
21
116.3577968
0
LINE
8
DEFAULT_255_2_778
10
26.3216303
20
116.3577968
11
26.3512303
21
116.4228968
0
LINE
8
DEFAULT_255_2_778
10
26.3512303
20
116.4228968
11
26.3639303
21
116.4717968
0
LINE
8
DEFAULT_255_2_778
10
26.3639303
20
116.4717968
11
26.3639303
21
116.6564968
0
LINE
8
DEFAULT_255_2_778
10
26.3639303
20
116.6564968
11
26.3510303
21
116.7048968
0
LINE
8
DEFAULT_255_2_778
10
26.3510303
20
116.7048968
11
26.3211303
21
116.7694968
0
LINE
8
DEFAULT_255_2_778
10
26.3211303
20
116.7694968
11
26.2520303
21
116.8488968
0
LINE
8
DEFAULT_255_2_778
10
26.2520303
20
116.8488968
11
26.1184303
21
116.9194968
0
LINE
8
DEFAULT_255_2_778
10
26.1184303
20
116.9194968
11
25.9295303
21
116.9451968
0
LINE
8
DEFAULT_255_2_778
10
25.9295303
20
116.9451968
11
25.4305303
21
116.9451968
0
LINE
8
DEFAULT_255_2_778
10
25.4305303
20
116.9451968
11
25.4305303
21
116.1780968
0
LINE
8
DEFAULT_255_2_778
10
25.4305303
20
116.1780968
11
25.9292303
21
116.1778968
0
LINE
8
DEFAULT_255_2_778
10
25.1294303
20
117.1943968
11
26.0454303
21
117.1893968
0
LINE
8
DEFAULT_255_2_778
10
26.0454303
20
117.1893968
11
26.2637303
21
117.1451968
0
LINE
8
DEFAULT_255_2_778
10
26.2637303
20
117.1451968
11
26.4171303
21
117.0718968
0
LINE
8
DEFAULT_255_2_778
10
26.4171303
20
117.0718968
11
26.5113303
21
116.9969968
0
LINE
8
DEFAULT_255_2_778
10
26.5113303
20
116.9969968
11
26.5746303
21
116.9220968
0
LINE
8
DEFAULT_255_2_778
10
26.5746303
20
116.9220968
11
26.6179303
21
116.8451968
0
LINE
8
DEFAULT_255_2_778
10
26.6179303
20
116.8451968
11
26.6433303
21
116.7789968
0
LINE
8
DEFAULT_255_2_778
10
26.6433303
20
116.7789968
11
26.6539303
21
116.7408968
0
LINE
8
DEFAULT_255_2_778
10
26.6539303
20
116.7408968
11
26.6627303
21
116.6982968
0
LINE
8
DEFAULT_255_2_778
10
26.6627303
20
116.6982968
11
26.6685303
21
116.6551968
0
LINE
8
DEFAULT_255_2_778
10
26.6685303
20
116.6551968
11
26.6661303
21
116.4577968
0
LINE
8
DEFAULT_255_2_778
10
26.6661303
20
116.4577968
11
26.6590303
21
116.4140968
0
LINE
8
DEFAULT_255_2_778
10
26.6590303
20
116.4140968
11
26.6489303
21
116.3709968
0
LINE
8
DEFAULT_255_2_778
10
26.6489303
20
116.3709968
11
26.6304303
21
116.3143968
0
LINE
8
DEFAULT_255_2_778
10
26.6304303
20
116.3143968
11
26.5968303
21
116.2423968
0
LINE
8
DEFAULT_255_2_778
10
26.5968303
20
116.2423968
11
26.5529303
21
116.1767968
0
LINE
8
DEFAULT_255_2_778
10
26.5529303
20
116.1767968
11
26.4700303
21
116.0926968
0
LINE
8
DEFAULT_255_2_778
10
26.4700303
20
116.0926968
11
26.3478303
21
116.0137968
0
LINE
8
DEFAULT_255_2_778
10
26.3478303
20
116.0137968
11
26.1793303
21
115.9550968
0
LINE
8
DEFAULT_255_2_778
10
26.1793303
20
115.9550968
11
25.9586303
21
115.9296968
0
LINE
8
DEFAULT_255_2_778
10
25.9586303
20
115.9296968
11
25.4302303
21
115.9293968
0
LINE
8
DEFAULT_255_2_778
10
25.4302303
20
115.9293968
11
25.4302303
21
114.9953968
0
LINE
8
DEFAULT_255_2_778
10
25.4302303
20
114.9953968
11
25.1294303
21
114.9953968
0
LINE
8
DEFAULT_255_2_778
10
25.1294303
20
114.9953968
11
25.1294303
21
117.1943968
0
LINE
8
DEFAULT_255_2_778
10
22.749599
20
113.9286427
11
22.700099
21
113.8360427
0
LINE
8
DEFAULT_255_2_778
10
22.700099
20
113.8360427
11
22.670199
21
113.7633427
0
LINE
8
DEFAULT_255_2_778
10
22.670199
20
113.7633427
11
22.651899
21
113.7082427
0
LINE
8
DEFAULT_255_2_778
10
22.651899
20
113.7082427
11
22.636899
21
113.6524427
0
LINE
8
DEFAULT_255_2_778
10
22.636899
20
113.6524427
11
22.624699
21
113.5958427
0
LINE
8
DEFAULT_255_2_778
10
22.624699
20
113.5958427
11
22.619699
21
113.5672427
0
LINE
8
DEFAULT_255_2_778
10
22.619699
20
113.5672427
11
22.614399
21
113.5309427
0
LINE
8
DEFAULT_255_2_778
10
22.614399
20
113.5309427
11
22.610099
21
113.4944427
0
LINE
8
DEFAULT_255_2_778
10
22.610099
20
113.4944427
11
22.606999
21
113.4579427
0
LINE
8
DEFAULT_255_2_778
10
22.606999
20
113.4579427
11
22.606699
21
113.2359427
0
LINE
8
DEFAULT_255_2_778
10
22.606699
20
113.2359427
11
22.609899
21
113.1986427
0
LINE
8
DEFAULT_255_2_778
10
22.609899
20
113.1986427
11
22.614099
21
113.1616427
0
LINE
8
DEFAULT_255_2_778
10
22.614099
20
113.1616427
11
22.619399
21
113.1245427
0
LINE
8
DEFAULT_255_2_778
10
22.619399
20
113.1245427
11
22.629999
21
113.0669427
0
LINE
8
DEFAULT_255_2_778
10
22.629999
20
113.0669427
11
22.643199
21
113.0097427
0
LINE
8
DEFAULT_255_2_778
10
22.643199
20
113.0097427
11
22.659599
21
112.9534427
0
LINE
8
DEFAULT_255_2_778
10
22.659599
20
112.9534427
11
22.688699
21
112.8740427
0
LINE
8
DEFAULT_255_2_778
10
22.688699
20
112.8740427
11
22.723899
21
112.7988427
0
LINE
8
DEFAULT_255_2_778
10
22.723899
20
112.7988427
11
22.777099
21
112.7107427
0
LINE
8
DEFAULT_255_2_778
10
22.777099
20
112.7107427
11
22.835799
21
112.6367427
0
LINE
8
DEFAULT_255_2_778
10
22.835799
20
112.6367427
11
22.920999
21
112.5602427
0
LINE
8
DEFAULT_255_2_778
10
22.920999
20
112.5602427
11
23.035299
21
112.4970427
0
LINE
8
DEFAULT_255_2_778
10
23.035299
20
112.4970427
11
23.166799
21
112.4626427
0
LINE
8
DEFAULT_255_2_778
10
23.166799
20
112.4626427
11
23.327399
21
112.4599427
0
LINE
8
DEFAULT_255_2_778
10
23.327399
20
112.4599427
11
23.461599
21
112.4893427
0
LINE
8
DEFAULT_255_2_778
10
23.461599
20
112.4893427
11
23.578499
21
112.5478427
0
LINE
8
DEFAULT_255_2_778
10
23.578499
20
112.5478427
11
23.665299
21
112.6195427
0
LINE
8
DEFAULT_255_2_778
10
23.665299
20
112.6195427
11
23.740199
21
112.7107427
0
LINE
8
DEFAULT_255_2_778
10
23.740199
20
112.7107427
11
23.793099
21
112.7988427
0
LINE
8
DEFAULT_255_2_778
10
23.793099
20
112.7988427
11
23.828299
21
112.8743427
0
LINE
8
DEFAULT_255_2_778
10
23.828299
20
112.8743427
11
23.857399
21
112.9539427
0
LINE
8
DEFAULT_255_2_778
10
23.857399
20
112.9539427
11
23.873799
21
113.0102427
0
LINE
8
DEFAULT_255_2_778
10
23.873799
20
113.0102427
11
23.886999
21
113.0674427
0
LINE
8
DEFAULT_255_2_778
10
23.886999
20
113.0674427
11
23.897599
21
113.1251427
0
LINE
8
DEFAULT_255_2_778
10
23.897599
20
113.1251427
11
23.902899
21
113.1619427
0
LINE
8
DEFAULT_255_2_778
10
23.902899
20
113.1619427
11
23.907099
21
113.1989427
0
LINE
8
DEFAULT_255_2_778
10
23.907099
20
113.1989427
11
23.910299
21
113.2359427
0
LINE
8
DEFAULT_255_2_778
10
23.910299
20
113.2359427
11
23.910299
21
113.4577427
0
LINE
8
DEFAULT_255_2_778
10
23.910299
20
113.4577427
11
23.907099
21
113.4942427
0
LINE
8
DEFAULT_255_2_778
10
23.907099
20
113.4942427
11
23.902899
21
113.5307427
0
LINE
8
DEFAULT_255_2_778
10
23.902899
20
113.5307427
11
23.897599
21
113.5669427
0
LINE
8
DEFAULT_255_2_778
10
23.897599
20
113.5669427
11
23.886999
21
113.6238427
0
LINE
8
DEFAULT_255_2_778
10
23.886999
20
113.6238427
11
23.873499
21
113.6802427
0
LINE
8
DEFAULT_255_2_778
10
23.873499
20
113.6802427
11
23.856899
21
113.7357427
0
LINE
8
DEFAULT_255_2_778
10
23.856899
20
113.7357427
11
23.827199
21
113.8141427
0
LINE
8
DEFAULT_255_2_778
10
23.827199
20
113.8141427
11
23.791499
21
113.8881427
0
LINE
8
DEFAULT_255_2_778
10
23.791499
20
113.8881427
11
23.738099
21
113.9741427
0
LINE
8
DEFAULT_255_2_778
10
23.738099
20
113.9741427
11
23.663399
21
114.0625427
0
LINE
8
DEFAULT_255_2_778
10
23.663399
20
114.0625427
11
23.576899
21
114.1318427
0
LINE
8
DEFAULT_255_2_778
10
23.576899
20
114.1318427
11
23.460799
21
114.1884427
0
LINE
8
DEFAULT_255_2_778
10
23.460799
20
114.1884427
11
23.304699
21
114.2186427
0
LINE
8
DEFAULT_255_2_778
10
23.304699
20
114.2186427
11
23.145699
21
114.2107427
0
LINE
8
DEFAULT_255_2_778
10
23.145699
20
114.2107427
11
23.017599
21
114.1726427
0
LINE
8
DEFAULT_255_2_778
10
23.017599
20
114.1726427
11
22.906199
21
114.1069427
0
LINE
8
DEFAULT_255_2_778
10
22.906199
20
114.1069427
11
22.823099
21
114.0289427
0
LINE
8
DEFAULT_255_2_778
10
22.823099
20
114.0289427
11
22.749599
21
113.9286427
0
LINE
8
DEFAULT_255_2_778
10
22.911799
20
112.8957427
11
22.884999
21
112.9610427
0
LINE
8
DEFAULT_255_2_778
10
22.884999
20
112.9610427
11
22.864099
21
113.0282427
0
LINE
8
DEFAULT_255_2_778
10
22.864099
20
113.0282427
11
22.852199
21
113.0777427
0
LINE
8
DEFAULT_255_2_778
10
22.852199
20
113.0777427
11
22.842699
21
113.1277427
0
LINE
8
DEFAULT_255_2_778
10
22.842699
20
113.1277427
11
22.835599
21
113.1780427
0
LINE
8
DEFAULT_255_2_778
10
22.835599
20
113.1780427
11
22.832699
21
113.2058427
0
LINE
8
DEFAULT_255_2_778
10
22.832699
20
113.2058427
11
22.832699
21
113.4825427
0
LINE
8
DEFAULT_255_2_778
10
22.832699
20
113.4825427
11
22.838999
21
113.5347427
0
LINE
8
DEFAULT_255_2_778
10
22.838999
20
113.5347427
11
22.847499
21
113.5841427
0
LINE
8
DEFAULT_255_2_778
10
22.847499
20
113.5841427
11
22.858299
21
113.6331427
0
LINE
8
DEFAULT_255_2_778
10
22.858299
20
113.6331427
11
22.878199
21
113.7016427
0
LINE
8
DEFAULT_255_2_778
10
22.878199
20
113.7016427
11
22.902999
21
113.7664427
0
LINE
8
DEFAULT_255_2_778
10
22.902999
20
113.7664427
11
22.947199
21
113.8503427
0
LINE
8
DEFAULT_255_2_778
10
22.947199
20
113.8503427
11
23.011999
21
113.9307427
0
LINE
8
DEFAULT_255_2_778
10
23.011999
20
113.9307427
11
23.104399
21
113.9950427
0
LINE
8
DEFAULT_255_2_778
10
23.104399
20
113.9950427
11
23.243799
21
114.0270427
0
LINE
8
DEFAULT_255_2_778
10
23.243799
20
114.0270427
11
23.386199
21
114.0059427
0
LINE
8
DEFAULT_255_2_778
10
23.386199
20
114.0059427
11
23.483799
21
113.9495427
0
LINE
8
DEFAULT_255_2_778
10
23.483799
20
113.9495427
11
23.549699
21
113.8799427
0
LINE
8
DEFAULT_255_2_778
10
23.549699
20
113.8799427
11
23.596499
21
113.8037427
0
LINE
8
DEFAULT_255_2_778
10
23.596499
20
113.8037427
11
23.632499
21
113.7209427
0
LINE
8
DEFAULT_255_2_778
10
23.632499
20
113.7209427
11
23.652599
21
113.6577427
0
LINE
8
DEFAULT_255_2_778
10
23.652599
20
113.6577427
11
23.664799
21
113.6090427
0
LINE
8
DEFAULT_255_2_778
10
23.664799
20
113.6090427
11
23.674299
21
113.5598427
0
LINE
8
DEFAULT_255_2_778
10
23.674299
20
113.5598427
11
23.681399
21
113.5103427
0
LINE
8
DEFAULT_255_2_778
10
23.681399
20
113.5103427
11
23.684599
21
113.4831427
0
LINE
8
DEFAULT_255_2_778
10
23.684599
20
113.4831427
11
23.684599
21
113.2063427
0
LINE
8
DEFAULT_255_2_778
10
23.684599
20
113.2063427
11
23.678299
21
113.1534427
0
LINE
8
DEFAULT_255_2_778
10
23.678299
20
113.1534427
11
23.670099
21
113.1031427
0
LINE
8
DEFAULT_255_2_778
10
23.670099
20
113.1031427
11
23.659499
21
113.0534427
0
LINE
8
DEFAULT_255_2_778
10
23.659499
20
113.0534427
11
23.639899
21
112.9838427
0
LINE
8
DEFAULT_255_2_778
10
23.639899
20
112.9838427
11
23.615299
21
112.9179427
0
LINE
8
DEFAULT_255_2_778
10
23.615299
20
112.9179427
11
23.571399
21
112.8319427
0
LINE
8
DEFAULT_255_2_778
10
23.571399
20
112.8319427
11
23.506299
21
112.7491427
0
LINE
8
DEFAULT_255_2_778
10
23.506299
20
112.7491427
11
23.413699
21
112.6830427
0
LINE
8
DEFAULT_255_2_778
10
23.413699
20
112.6830427
11
23.287999
21
112.6507427
0
LINE
8
DEFAULT_255_2_778
10
23.287999
20
112.6507427
11
23.144099
21
112.6668427
0
LINE
8
DEFAULT_255_2_778
10
23.144099
20
112.6668427
11
23.043499
21
112.7208427
0
LINE
8
DEFAULT_255_2_778
10
23.043499
20
112.7208427
11
22.977399
21
112.7869427
0
LINE
8
DEFAULT_255_2_778
10
22.977399
20
112.7869427
11
22.927899
21
112.8637427
0
LINE
8
DEFAULT_255_2_778
10
22.927899
20
112.8637427
11
22.911799
21
112.8957427
0
LINE
8
DEFAULT_255_2_778
10
10.9406386
20
118.39456
11
14.0407386
21
118.39456
0
LINE
8
DEFAULT_255_2_778
10
10.9406386
20
94.59446
11
14.0407386
21
94.59446
0
LINE
8
DEFAULT_255_2_778
10
10.9406386
20
92.39446
11
14.0407386
21
92.39446
0
LINE
8
DEFAULT_255_2_778
10
10.9406386
20
89.39466
11
14.0407386
21
89.39466
0
LINE
8
DEFAULT_255_2_778
10
10.9406386
20
104.99446
11
14.0407386
21
104.99446
0
LINE
8
DEFAULT_255_2_778
10
10.9406386
20
102.79446
11
14.0407386
21
102.79446
0
LINE
8
DEFAULT_255_2_778
10
10.9406386
20
99.79466
11
14.0407386
21
99.79466
0
LINE
8
DEFAULT_255_2_778
10
10.9406386
20
97.59456
11
14.0407386
21
97.59456
0
LINE
8
DEFAULT_255_2_778
10
10.9406386
20
115.39446
11
14.0407386
21
115.39446
0
LINE
8
DEFAULT_255_2_778
10
10.9406386
20
113.19446
11
14.0407386
21
113.19446
0
LINE
8
DEFAULT_255_2_778
10
10.9406386
20
110.19456
11
14.0407386
21
110.19456
0
LINE
8
DEFAULT_255_2_778
10
10.9406386
20
107.99456
11
14.0407386
21
107.99456
0
ARC
8
DEFAULT_255_2_778
10
12.5393696
20
96.0956304
40
0.5488398
50
89.8682888
51
180.1317112
0
ARC
8
DEFAULT_255_2_778
10
12.5418782
20
96.0957154
40
0.5487547
50
359.8593896
51
90.1301939
0
ARC
8
DEFAULT_255_2_778
10
12.5419632
20
96.0930368
40
0.5486696
50
269.8609058
51
0.1390942
0
ARC
8
DEFAULT_255_2_778
10
12.5392846
20
96.0931218
40
0.5487547
50
179.8698061
51
270.1406104
0
LINE
8
DEFAULT_255_2_778
10
11.9905313
20
96.0943687
11
11.9905313
21
96.0943687
0
ARC
8
DEFAULT_255_2_778
10
12.5393696
20
90.8957304
40
0.5488398
50
89.8682888
51
180.1317112
0
ARC
8
DEFAULT_255_2_778
10
12.5418782
20
90.8958154
40
0.5487547
50
359.8593896
51
90.1301939
0
ARC
8
DEFAULT_255_2_778
10
12.5419632
20
90.8931368
40
0.5486696
50
269.8609058
51
0.1390942
0
ARC
8
DEFAULT_255_2_778
10
12.5392846
20
90.8932218
40
0.5487547
50
179.8698061
51
270.1406104
0
LINE
8
DEFAULT_255_2_778
10
11.9905313
20
90.8944687
11
11.9905313
21
90.8944687
0
ARC
8
DEFAULT_255_2_778
10
12.5393696
20
106.4956304
40
0.5488398
50
89.8682888
51
180.1317112
0
ARC
8
DEFAULT_255_2_778
10
12.5418782
20
106.4957154
40
0.5487547
50
359.8593896
51
90.1301939
0
ARC
8
DEFAULT_255_2_778
10
12.5419632
20
106.4930368
40
0.5486696
50
269.8609058
51
0.1390942
0
ARC
8
DEFAULT_255_2_778
10
12.5392846
20
106.4931218
40
0.5487547
50
179.8698061
51
270.1406104
0
LINE
8
DEFAULT_255_2_778
10
11.9905313
20
106.4943687
11
11.9905313
21
106.4943687
0
ARC
8
DEFAULT_255_2_778
10
12.5393696
20
101.2957304
40
0.5488398
50
89.8682888
51
180.1317112
0
ARC
8
DEFAULT_255_2_778
10
12.5418782
20
101.2958154
40
0.5487547
50
359.8593896
51
90.1301939
0
ARC
8
DEFAULT_255_2_778
10
12.5419632
20
101.2931368
40
0.5486696
50
269.8609058
51
0.1390942
0
ARC
8
DEFAULT_255_2_778
10
12.5392846
20
101.2932218
40
0.5487547
50
179.8698061
51
270.1406104
0
LINE
8
DEFAULT_255_2_778
10
11.9905313
20
101.2944687
11
11.9905313
21
101.2944687
0
ARC
8
DEFAULT_255_2_778
10
12.5393696
20
116.8958304
40
0.5488398
50
89.8682888
51
180.1317112
0
ARC
8
DEFAULT_255_2_778
10
12.5418782
20
116.8959154
40
0.5487547
50
359.8593896
51
90.1301939
0
ARC
8
DEFAULT_255_2_778
10
12.5419632
20
116.8932368
40
0.5486696
50
269.8609058
51
0.1390942
0
ARC
8
DEFAULT_255_2_778
10
12.5392846
20
116.8933218
40
0.5487547
50
179.8698061
51
270.1406104
0
LINE
8
DEFAULT_255_2_778
10
11.9905313
20
116.8945687
11
11.9905313
21
116.8945687
0
ARC
8
DEFAULT_255_2_778
10
12.5393696
20
111.6957304
40
0.5488398
50
89.8682888
51
180.1317112
0
ARC
8
DEFAULT_255_2_778
10
12.5418782
20
111.6958154
40
0.5487547
50
359.8593896
51
90.1301939
0
ARC
8
DEFAULT_255_2_778
10
12.5419632
20
111.6931368
40
0.5486696
50
269.8609058
51
0.1390942
0
ARC
8
DEFAULT_255_2_778
10
12.5392846
20
111.6932218
40
0.5487547
50
179.8698061
51
270.1406104
0
LINE
8
DEFAULT_255_2_778
10
11.9905313
20
111.6944687
11
11.9905313
21
111.6944687
0
LINE
8
DEFAULT_255_2_778
10
3.5904845
20
112.7946614
11
5.1356845
21
112.7946614
0
LINE
8
DEFAULT_255_2_778
10
5.1356845
20
112.7946614
11
5.1356845
21
112.5451614
0
LINE
8
DEFAULT_255_2_778
10
5.1356845
20
112.5451614
11
4.4940845
21
112.5451614
0
LINE
8
DEFAULT_255_2_778
10
4.4940845
20
112.5451614
11
4.4940845
21
110.5946614
0
LINE
8
DEFAULT_255_2_778
10
4.4940845
20
110.5946614
11
4.2323845
21
110.5946614
0
LINE
8
DEFAULT_255_2_778
10
4.2323845
20
110.5946614
11
4.2323845
21
112.5451614
0
LINE
8
DEFAULT_255_2_778
10
4.2323845
20
112.5451614
11
3.5907845
21
112.5451614
0
LINE
8
DEFAULT_255_2_778
10
3.5907845
20
112.5451614
11
3.5907845
21
112.7946614
0
LINE
8
DEFAULT_255_2_778
10
6.7508845
20
112.7946614
11
7.0628845
21
112.7946614
0
LINE
8
DEFAULT_255_2_778
10
7.0628845
20
112.7946614
11
6.3955845
21
111.7405614
0
LINE
8
DEFAULT_255_2_778
10
6.3955845
20
111.7405614
11
7.1295845
21
110.5946614
0
LINE
8
DEFAULT_255_2_778
10
7.1295845
20
110.5946614
11
6.7942845
21
110.5946614
0
LINE
8
DEFAULT_255_2_778
10
6.7942845
20
110.5946614
11
6.2233845
21
111.5317614
0
LINE
8
DEFAULT_255_2_778
10
6.2233845
20
111.5317614
11
5.6658845
21
110.5946614
0
LINE
8
DEFAULT_255_2_778
10
5.6658845
20
110.5946614
11
5.3456845
21
110.5946614
0
LINE
8
DEFAULT_255_2_778
10
5.3456845
20
110.5946614
11
6.0688845
21
111.7468614
0
LINE
8
DEFAULT_255_2_778
10
6.0688845
20
111.7468614
11
5.4094845
21
112.7946614
0
LINE
8
DEFAULT_255_2_778
10
5.4094845
20
112.7946614
11
5.7364845
21
112.7946614
0
LINE
8
DEFAULT_255_2_778
10
5.7364845
20
112.7946614
11
6.2452845
21
111.9402614
0
LINE
8
DEFAULT_255_2_778
10
6.2452845
20
111.9402614
11
6.7511845
21
112.7946614
0
LINE
8
DEFAULT_255_2_778
10
8.3283845
20
110.6067614
11
8.1426845
21
110.5946614
0
LINE
8
DEFAULT_255_2_778
10
8.1426845
20
110.5946614
11
7.4848845
21
110.5946614
0
LINE
8
DEFAULT_255_2_778
10
7.4848845
20
110.5946614
11
7.4848845
21
112.7946614
0
LINE
8
DEFAULT_255_2_778
10
7.4848845
20
112.7946614
11
8.2455845
21
112.7869614
0
LINE
8
DEFAULT_255_2_778
10
8.2455845
20
112.7869614
11
8.4288845
21
112.7528614
0
LINE
8
DEFAULT_255_2_778
10
8.4288845
20
112.7528614
11
8.5725845
21
112.6983614
0
LINE
8
DEFAULT_255_2_778
10
8.5725845
20
112.6983614
11
8.6723845
21
112.6382614
0
LINE
8
DEFAULT_255_2_778
10
8.6723845
20
112.6382614
11
8.7572845
21
112.5665614
0
LINE
8
DEFAULT_255_2_778
10
8.7572845
20
112.5665614
11
8.8318845
21
112.4832614
0
LINE
8
DEFAULT_255_2_778
10
8.8318845
20
112.4832614
11
8.8956845
21
112.3906614
0
LINE
8
DEFAULT_255_2_778
10
8.8956845
20
112.3906614
11
8.9474845
21
112.2916614
0
LINE
8
DEFAULT_255_2_778
10
8.9474845
20
112.2916614
11
8.9773845
21
112.2173614
0
LINE
8
DEFAULT_255_2_778
10
8.9773845
20
112.2173614
11
9.0014845
21
112.1413614
0
LINE
8
DEFAULT_255_2_778
10
9.0014845
20
112.1413614
11
9.0114845
21
112.1027614
0
LINE
8
DEFAULT_255_2_778
10
9.0114845
20
112.1027614
11
9.0202845
21
112.0638614
0
LINE
8
DEFAULT_255_2_778
10
9.0202845
20
112.0638614
11
9.0279845
21
112.0247614
0
LINE
8
DEFAULT_255_2_778
10
9.0279845
20
112.0247614
11
9.0342845
21
111.9852614
0
LINE
8
DEFAULT_255_2_778
10
9.0342845
20
111.9852614
11
9.0395845
21
111.9455614
0
LINE
8
DEFAULT_255_2_778
10
9.0395845
20
111.9455614
11
9.0440845
21
111.9056614
0
LINE
8
DEFAULT_255_2_778
10
9.0440845
20
111.9056614
11
9.0474845
21
111.8654614
0
LINE
8
DEFAULT_255_2_778
10
9.0474845
20
111.8654614
11
9.0474845
21
111.4719614
0
LINE
8
DEFAULT_255_2_778
10
9.0474845
20
111.4719614
11
9.0440845
21
111.4341614
0
LINE
8
DEFAULT_255_2_778
10
9.0440845
20
111.4341614
11
9.0398845
21
111.3963614
0
LINE
8
DEFAULT_255_2_778
10
9.0398845
20
111.3963614
11
9.0347845
21
111.3587614
0
LINE
8
DEFAULT_255_2_778
10
9.0347845
20
111.3587614
11
9.0286845
21
111.3214614
0
LINE
8
DEFAULT_255_2_778
10
9.0286845
20
111.3214614
11
9.0215845
21
111.2843614
0
LINE
8
DEFAULT_255_2_778
10
9.0215845
20
111.2843614
11
9.0038845
21
111.2113614
0
LINE
8
DEFAULT_255_2_778
10
9.0038845
20
111.2113614
11
8.9810845
21
111.1396614
0
LINE
8
DEFAULT_255_2_778
10
8.9810845
20
111.1396614
11
8.9527845
21
111.0695614
0
LINE
8
DEFAULT_255_2_778
10
8.9527845
20
111.0695614
11
8.9146845
21
110.9949614
0
LINE
8
DEFAULT_255_2_778
10
8.9146845
20
110.9949614
11
8.8530845
21
110.9012614
0
LINE
8
DEFAULT_255_2_778
10
8.8530845
20
110.9012614
11
8.7794845
21
110.8166614
0
LINE
8
DEFAULT_255_2_778
10
8.7794845
20
110.8166614
11
8.6950845
21
110.7441614
0
LINE
8
DEFAULT_255_2_778
10
8.6950845
20
110.7441614
11
8.5950845
21
110.6840614
0
LINE
8
DEFAULT_255_2_778
10
8.5950845
20
110.6840614
11
8.4503845
21
110.6311614
0
LINE
8
DEFAULT_255_2_778
10
8.4503845
20
110.6311614
11
8.3283845
21
110.6067614
0
LINE
8
DEFAULT_255_2_778
10
8.2791845
20
110.8536614
11
8.1439845
21
110.8441614
0
LINE
8
DEFAULT_255_2_778
10
8.1439845
20
110.8441614
11
7.7465845
21
110.8441614
0
LINE
8
DEFAULT_255_2_778
10
7.7465845
20
110.8441614
11
7.7465845
21
112.5451614
0
LINE
8
DEFAULT_255_2_778
10
7.7465845
20
112.5451614
11
8.2262845
21
112.5366614
0
LINE
8
DEFAULT_255_2_778
10
8.2262845
20
112.5366614
11
8.3802845
21
112.5001614
0
LINE
8
DEFAULT_255_2_778
10
8.3802845
20
112.5001614
11
8.4989845
21
112.4403614
0
LINE
8
DEFAULT_255_2_778
10
8.4989845
20
112.4403614
11
8.5815845
21
112.3707614
0
LINE
8
DEFAULT_255_2_778
10
8.5815845
20
112.3707614
11
8.6508845
21
112.2863614
0
LINE
8
DEFAULT_255_2_778
10
8.6508845
20
112.2863614
11
8.6958845
21
112.2112614
0
LINE
8
DEFAULT_255_2_778
10
8.6958845
20
112.2112614
11
8.7262845
21
112.1442614
0
LINE
8
DEFAULT_255_2_778
10
8.7262845
20
112.1442614
11
8.7458845
21
112.0882614
0
LINE
8
DEFAULT_255_2_778
10
8.7458845
20
112.0882614
11
8.7614845
21
112.0307614
0
LINE
8
DEFAULT_255_2_778
10
8.7614845
20
112.0307614
11
8.7733845
21
111.9725614
0
LINE
8
DEFAULT_255_2_778
10
8.7733845
20
111.9725614
11
8.7781845
21
111.9432614
0
LINE
8
DEFAULT_255_2_778
10
8.7781845
20
111.9432614
11
8.7821845
21
111.9135614
0
LINE
8
DEFAULT_255_2_778
10
8.7821845
20
111.9135614
11
8.7852845
21
111.8839614
0
LINE
8
DEFAULT_255_2_778
10
8.7852845
20
111.8839614
11
8.7866845
21
111.5333614
0
LINE
8
DEFAULT_255_2_778
10
8.7866845
20
111.5333614
11
8.7826845
21
111.4907614
0
LINE
8
DEFAULT_255_2_778
10
8.7826845
20
111.4907614
11
8.7776845
21
111.4481614
0
LINE
8
DEFAULT_255_2_778
10
8.7776845
20
111.4481614
11
8.7683845
21
111.3878614
0
LINE
8
DEFAULT_255_2_778
10
8.7683845
20
111.3878614
11
8.7561845
21
111.3277614
0
LINE
8
DEFAULT_255_2_778
10
8.7561845
20
111.3277614
11
8.7408845
21
111.2685614
0
LINE
8
DEFAULT_255_2_778
10
8.7408845
20
111.2685614
11
8.7167845
21
111.1970614
0
LINE
8
DEFAULT_255_2_778
10
8.7167845
20
111.1970614
11
8.6894845
21
111.1359614
0
LINE
8
DEFAULT_255_2_778
10
8.6894845
20
111.1359614
11
8.6442845
21
111.0616614
0
LINE
8
DEFAULT_255_2_778
10
8.6442845
20
111.0616614
11
8.5770845
21
110.9862614
0
LINE
8
DEFAULT_255_2_778
10
8.5770845
20
110.9862614
11
8.4945845
21
110.9256614
0
LINE
8
DEFAULT_255_2_778
10
8.4945845
20
110.9256614
11
8.3592845
21
110.8700614
0
LINE
8
DEFAULT_255_2_778
10
8.3592845
20
110.8700614
11
8.2791845
21
110.8536614
0
LINE
8
DEFAULT_255_2_778
10
4.3593845
20
117.7815614
11
4.6064845
21
117.6933614
0
LINE
8
DEFAULT_255_2_778
10
4.6064845
20
117.6933614
11
4.6964845
21
117.5817614
0
LINE
8
DEFAULT_255_2_778
10
4.6964845
20
117.5817614
11
4.7218845
21
117.5079614
0
LINE
8
DEFAULT_255_2_778
10
4.7218845
20
117.5079614
11
4.7284845
21
117.4679614
0
LINE
8
DEFAULT_255_2_778
10
4.7284845
20
117.4679614
11
4.7302845
21
117.4438614
0
LINE
8
DEFAULT_255_2_778
10
4.7302845
20
117.4438614
11
4.9961845
21
117.4438614
0
LINE
8
DEFAULT_255_2_778
10
4.9961845
20
117.4438614
11
4.9948845
21
117.5357614
0
LINE
8
DEFAULT_255_2_778
10
4.9948845
20
117.5357614
11
4.9895845
21
117.5719614
0
LINE
8
DEFAULT_255_2_778
10
4.9895845
20
117.5719614
11
4.9816845
21
117.6076614
0
LINE
8
DEFAULT_255_2_778
10
4.9816845
20
117.6076614
11
4.9652845
21
117.6600614
0
LINE
8
DEFAULT_255_2_778
10
4.9652845
20
117.6600614
11
4.9353845
21
117.7270614
0
LINE
8
DEFAULT_255_2_778
10
4.9353845
20
117.7270614
11
4.8855845
21
117.8053614
0
LINE
8
DEFAULT_255_2_778
10
4.8855845
20
117.8053614
11
4.8091845
21
117.8886614
0
LINE
8
DEFAULT_255_2_778
10
4.8091845
20
117.8886614
11
4.7022845
21
117.9638614
0
LINE
8
DEFAULT_255_2_778
10
4.7022845
20
117.9638614
11
4.5582845
21
118.0164614
0
LINE
8
DEFAULT_255_2_778
10
4.5582845
20
118.0164614
11
4.3315845
21
118.0381614
0
LINE
8
DEFAULT_255_2_778
10
4.3315845
20
118.0381614
11
4.1190845
21
118.0180614
0
LINE
8
DEFAULT_255_2_778
10
4.1190845
20
118.0180614
11
3.9423845
21
117.9595614
0
LINE
8
DEFAULT_255_2_778
10
3.9423845
20
117.9595614
11
3.8108845
21
117.8754614
0
LINE
8
DEFAULT_255_2_778
10
3.8108845
20
117.8754614
11
3.7349845
21
117.7979614
0
LINE
8
DEFAULT_255_2_778
10
3.7349845
20
117.7979614
11
3.6917845
21
117.7346614
0
LINE
8
DEFAULT_255_2_778
10
3.6917845
20
117.7346614
11
3.6568845
21
117.6616614
0
LINE
8
DEFAULT_255_2_778
10
3.6568845
20
117.6616614
11
3.6378845
21
117.6039614
0
LINE
8
DEFAULT_255_2_778
10
3.6378845
20
117.6039614
11
3.6272845
21
117.5603614
0
LINE
8
DEFAULT_255_2_778
10
3.6272845
20
117.5603614
11
3.6198845
21
117.5158614
0
LINE
8
DEFAULT_255_2_778
10
3.6198845
20
117.5158614
11
3.6224845
21
117.2803614
0
LINE
8
DEFAULT_255_2_778
10
3.6224845
20
117.2803614
11
3.6343845
21
117.2256614
0
LINE
8
DEFAULT_255_2_778
10
3.6343845
20
117.2256614
11
3.6589845
21
117.1541614
0
LINE
8
DEFAULT_255_2_778
10
3.6589845
20
117.1541614
11
3.7140845
21
117.0591614
0
LINE
8
DEFAULT_255_2_778
10
3.7140845
20
117.0591614
11
3.8320845
21
116.9512614
0
LINE
8
DEFAULT_255_2_778
10
3.8320845
20
116.9512614
11
4.0370845
21
116.8559614
0
LINE
8
DEFAULT_255_2_778
10
4.0370845
20
116.8559614
11
4.5974845
21
116.6900614
0
LINE
8
DEFAULT_255_2_778
10
4.5974845
20
116.6900614
11
4.7114845
21
116.6094614
0
LINE
8
DEFAULT_255_2_778
10
4.7114845
20
116.6094614
11
4.7509845
21
116.5556614
0
LINE
8
DEFAULT_255_2_778
10
4.7509845
20
116.5556614
11
4.7689845
21
116.5125614
0
LINE
8
DEFAULT_255_2_778
10
4.7689845
20
116.5125614
11
4.7773845
21
116.4781614
0
LINE
8
DEFAULT_255_2_778
10
4.7773845
20
116.4781614
11
4.7823845
21
116.4424614
0
LINE
8
DEFAULT_255_2_778
10
4.7823845
20
116.4424614
11
4.7805845
21
116.3286614
0
LINE
8
DEFAULT_255_2_778
10
4.7805845
20
116.3286614
11
4.7739845
21
116.2911614
0
LINE
8
DEFAULT_255_2_778
10
4.7739845
20
116.2911614
11
4.7596845
21
116.2426614
0
LINE
8
DEFAULT_255_2_778
10
4.7596845
20
116.2426614
11
4.7260845
21
116.1754614
0
LINE
8
DEFAULT_255_2_778
10
4.7260845
20
116.1754614
11
4.6508845
21
116.0931614
0
LINE
8
DEFAULT_255_2_778
10
4.6508845
20
116.0931614
11
4.5492845
21
116.0344614
0
LINE
8
DEFAULT_255_2_778
10
4.5492845
20
116.0344614
11
4.2704845
21
116.0016614
0
LINE
8
DEFAULT_255_2_778
10
4.2704845
20
116.0016614
11
4.0301845
21
116.0696614
0
LINE
8
DEFAULT_255_2_778
10
4.0301845
20
116.0696614
11
3.9071845
21
116.1995614
0
LINE
8
DEFAULT_255_2_778
10
3.9071845
20
116.1995614
11
3.8664845
21
116.2916614
0
LINE
8
DEFAULT_255_2_778
10
3.8664845
20
116.2916614
11
3.8552845
21
116.3405614
0
LINE
8
DEFAULT_255_2_778
10
3.8552845
20
116.3405614
11
3.8537845
21
116.4323614
0
LINE
8
DEFAULT_255_2_778
10
3.8537845
20
116.4323614
11
3.5904845
21
116.4323614
0
LINE
8
DEFAULT_255_2_778
10
3.5904845
20
116.4323614
11
3.5925845
21
116.3495614
0
LINE
8
DEFAULT_255_2_778
10
3.5925845
20
116.3495614
11
3.5949845
21
116.3289614
0
LINE
8
DEFAULT_255_2_778
10
3.5949845
20
116.3289614
11
3.6015845
21
116.2876614
0
LINE
8
DEFAULT_255_2_778
10
3.6015845
20
116.2876614
11
3.6110845
21
116.2466614
0
LINE
8
DEFAULT_255_2_778
10
3.6110845
20
116.2466614
11
3.6301845
21
116.1863614
0
LINE
8
DEFAULT_255_2_778
10
3.6301845
20
116.1863614
11
3.6640845
21
116.1088614
0
LINE
8
DEFAULT_255_2_778
10
3.6640845
20
116.1088614
11
3.7193845
21
116.0183614
0
LINE
8
DEFAULT_255_2_778
10
3.7193845
20
116.0183614
11
3.8026845
21
115.9228614
0
LINE
8
DEFAULT_255_2_778
10
3.8026845
20
115.9228614
11
3.9021845
21
115.8466614
0
LINE
8
DEFAULT_255_2_778
10
3.9021845
20
115.8466614
11
4.0225845
21
115.7913614
0
LINE
8
DEFAULT_255_2_778
10
4.0225845
20
115.7913614
11
4.2495845
21
115.7521614
0
LINE
8
DEFAULT_255_2_778
10
4.2495845
20
115.7521614
11
4.4606845
21
115.7592614
0
LINE
8
DEFAULT_255_2_778
10
4.4606845
20
115.7592614
11
4.6450845
21
115.8042614
0
LINE
8
DEFAULT_255_2_778
10
4.6450845
20
115.8042614
11
4.7773845
21
115.8720614
0
LINE
8
DEFAULT_255_2_778
10
4.7773845
20
115.8720614
11
4.8731845
21
115.9516614
0
LINE
8
DEFAULT_255_2_778
10
4.8731845
20
115.9516614
11
4.9379845
21
116.0318614
0
LINE
8
DEFAULT_255_2_778
10
4.9379845
20
116.0318614
11
4.9795845
21
116.1056614
0
LINE
8
DEFAULT_255_2_778
10
4.9795845
20
116.1056614
11
5.0035845
21
116.1651614
0
LINE
8
DEFAULT_255_2_778
10
5.0035845
20
116.1651614
11
5.0218845
21
116.2268614
0
LINE
8
DEFAULT_255_2_778
10
5.0218845
20
116.2268614
11
5.0321845
21
116.2741614
0
LINE
8
DEFAULT_255_2_778
10
5.0321845
20
116.2741614
11
5.0395845
21
116.3220614
0
LINE
8
DEFAULT_255_2_778
10
5.0395845
20
116.3220614
11
5.0385845
21
116.5533614
0
LINE
8
DEFAULT_255_2_778
10
5.0385845
20
116.5533614
11
5.0297845
21
116.5998614
0
LINE
8
DEFAULT_255_2_778
10
5.0297845
20
116.5998614
11
5.0117845
21
116.6620614
0
LINE
8
DEFAULT_255_2_778
10
5.0117845
20
116.6620614
11
4.9739845
21
116.7438614
0
LINE
8
DEFAULT_255_2_778
10
4.9739845
20
116.7438614
11
4.8972845
21
116.8417614
0
LINE
8
DEFAULT_255_2_778
10
4.8972845
20
116.8417614
11
4.7474845
21
116.9446614
0
LINE
8
DEFAULT_255_2_778
10
4.7474845
20
116.9446614
11
4.5403845
21
117.0210614
0
LINE
8
DEFAULT_255_2_778
10
4.5403845
20
117.0210614
11
4.0500845
21
117.1658614
0
LINE
8
DEFAULT_255_2_778
10
4.0500845
20
117.1658614
11
3.9455845
21
117.2422614
0
LINE
8
DEFAULT_255_2_778
10
3.9455845
20
117.2422614
11
3.9045845
21
117.3026614
0
LINE
8
DEFAULT_255_2_778
10
3.9045845
20
117.3026614
11
3.8873845
21
117.3518614
0
LINE
8
DEFAULT_255_2_778
10
3.8873845
20
117.3518614
11
3.8814845
21
117.3827614
0
LINE
8
DEFAULT_255_2_778
10
3.8814845
20
117.3827614
11
3.8836845
21
117.4965614
0
LINE
8
DEFAULT_255_2_778
10
3.8836845
20
117.4965614
11
3.8915845
21
117.5314614
0
LINE
8
DEFAULT_255_2_778
10
3.8915845
20
117.5314614
11
3.9158845
21
117.5928614
0
LINE
8
DEFAULT_255_2_778
10
3.9158845
20
117.5928614
11
3.9674845
21
117.6627614
0
LINE
8
DEFAULT_255_2_778
10
3.9674845
20
117.6627614
11
4.0770845
21
117.7352614
0
LINE
8
DEFAULT_255_2_778
10
4.0770845
20
117.7352614
11
4.2815845
21
117.7807614
0
LINE
8
DEFAULT_255_2_778
10
4.2815845
20
117.7807614
11
4.3593845
21
117.7809614
0
LINE
8
DEFAULT_255_2_778
10
5.4433709
20
117.9944936
11
6.6220709
21
117.9944936
0
LINE
8
DEFAULT_255_2_778
10
6.6220709
20
117.9944936
11
6.6220709
21
117.7449936
0
LINE
8
DEFAULT_255_2_778
10
6.6220709
20
117.7449936
11
5.7050709
21
117.7449936
0
LINE
8
DEFAULT_255_2_778
10
5.7050709
20
117.7449936
11
5.7050709
21
117.0512936
0
LINE
8
DEFAULT_255_2_778
10
5.7050709
20
117.0512936
11
6.5744709
21
117.0512936
0
LINE
8
DEFAULT_255_2_778
10
6.5744709
20
117.0512936
11
6.5744709
21
116.8017936
0
LINE
8
DEFAULT_255_2_778
10
6.5744709
20
116.8017936
11
5.7050709
21
116.8017936
0
LINE
8
DEFAULT_255_2_778
10
5.7050709
20
116.8017936
11
5.7050709
21
115.7944936
0
LINE
8
DEFAULT_255_2_778
10
5.7050709
20
115.7944936
11
5.4433709
21
115.7944936
0
LINE
8
DEFAULT_255_2_778
10
5.4433709
20
115.7944936
11
5.4433709
21
117.9944936
0
LINE
8
DEFAULT_255_2_778
10
6.6546709
20
107.5944936
11
6.9665709
21
107.5944936
0
LINE
8
DEFAULT_255_2_778
10
6.9665709
20
107.5944936
11
6.2992709
21
106.5403936
0
LINE
8
DEFAULT_255_2_778
10
6.2992709
20
106.5403936
11
7.0332709
21
105.3944936
0
LINE
8
DEFAULT_255_2_778
10
7.0332709
20
105.3944936
11
6.6982709
21
105.3944936
0
LINE
8
DEFAULT_255_2_778
10
6.6982709
20
105.3944936
11
6.1273709
21
106.3316936
0
LINE
8
DEFAULT_255_2_778
10
6.1273709
20
106.3316936
11
5.5698709
21
105.3944936
0
LINE
8
DEFAULT_255_2_778
10
5.5698709
20
105.3944936
11
5.2496709
21
105.3944936
0
LINE
8
DEFAULT_255_2_778
10
5.2496709
20
105.3944936
11
5.9727709
21
106.5467936
0
LINE
8
DEFAULT_255_2_778
10
5.9727709
20
106.5467936
11
5.3134709
21
107.5944936
0
LINE
8
DEFAULT_255_2_778
10
5.3134709
20
107.5944936
11
5.6404709
21
107.5944936
0
LINE
8
DEFAULT_255_2_778
10
5.6404709
20
107.5944936
11
6.1492709
21
106.7401936
0
LINE
8
DEFAULT_255_2_778
10
6.1492709
20
106.7401936
11
6.6551709
21
107.5944936
0
LINE
8
DEFAULT_255_2_778
10
8.2722709
20
107.5674936
11
8.4201709
21
107.5233936
0
LINE
8
DEFAULT_255_2_778
10
8.4201709
20
107.5233936
11
8.5299709
21
107.4687936
0
LINE
8
DEFAULT_255_2_778
10
8.5299709
20
107.4687936
11
8.6405709
21
107.3854936
0
LINE
8
DEFAULT_255_2_778
10
8.6405709
20
107.3854936
11
8.7178709
21
107.3047936
0
LINE
8
DEFAULT_255_2_778
10
8.7178709
20
107.3047936
11
8.7842709
21
107.2142936
0
LINE
8
DEFAULT_255_2_778
10
8.7842709
20
107.2142936
11
8.8392709
21
107.1166936
0
LINE
8
DEFAULT_255_2_778
10
8.8392709
20
107.1166936
11
8.8668709
21
107.0544936
0
LINE
8
DEFAULT_255_2_778
10
8.8668709
20
107.0544936
11
8.8937709
21
106.9793936
0
LINE
8
DEFAULT_255_2_778
10
8.8937709
20
106.9793936
11
8.9152709
21
106.9025936
0
LINE
8
DEFAULT_255_2_778
10
8.9152709
20
106.9025936
11
8.9239709
21
106.8636936
0
LINE
8
DEFAULT_255_2_778
10
8.9239709
20
106.8636936
11
8.9316709
21
106.8245936
0
LINE
8
DEFAULT_255_2_778
10
8.9316709
20
106.8245936
11
8.9379709
21
106.7851936
0
LINE
8
DEFAULT_255_2_778
10
8.9379709
20
106.7851936
11
8.9432709
21
106.7454936
0
LINE
8
DEFAULT_255_2_778
10
8.9432709
20
106.7454936
11
8.9477709
21
106.7054936
0
LINE
8
DEFAULT_255_2_778
10
8.9477709
20
106.7054936
11
8.9512709
21
106.6652936
0
LINE
8
DEFAULT_255_2_778
10
8.9512709
20
106.6652936
11
8.9512709
21
106.2718936
0
LINE
8
DEFAULT_255_2_778
10
8.9512709
20
106.2718936
11
8.9477709
21
106.2339936
0
LINE
8
DEFAULT_255_2_778
10
8.9477709
20
106.2339936
11
8.9435709
21
106.1961936
0
LINE
8
DEFAULT_255_2_778
10
8.9435709
20
106.1961936
11
8.9385709
21
106.1585936
0
LINE
8
DEFAULT_255_2_778
10
8.9385709
20
106.1585936
11
8.9324709
21
106.1212936
0
LINE
8
DEFAULT_255_2_778
10
8.9324709
20
106.1212936
11
8.9252709
21
106.0842936
0
LINE
8
DEFAULT_255_2_778
10
8.9252709
20
106.0842936
11
8.9075709
21
106.0112936
0
LINE
8
DEFAULT_255_2_778
10
8.9075709
20
106.0112936
11
8.8847709
21
105.9395936
0
LINE
8
DEFAULT_255_2_778
10
8.8847709
20
105.9395936
11
8.8564709
21
105.8693936
0
LINE
8
DEFAULT_255_2_778
10
8.8564709
20
105.8693936
11
8.8183709
21
105.7947936
0
LINE
8
DEFAULT_255_2_778
10
8.8183709
20
105.7947936
11
8.7567709
21
105.7011936
0
LINE
8
DEFAULT_255_2_778
10
8.7567709
20
105.7011936
11
8.6831709
21
105.6164936
0
LINE
8
DEFAULT_255_2_778
10
8.6831709
20
105.6164936
11
8.5987709
21
105.5439936
0
LINE
8
DEFAULT_255_2_778
10
8.5987709
20
105.5439936
11
8.4987709
21
105.4838936
0
LINE
8
DEFAULT_255_2_778
10
8.4987709
20
105.4838936
11
8.3540709
21
105.4309936
0
LINE
8
DEFAULT_255_2_778
10
8.3540709
20
105.4309936
11
8.1386709
21
105.3976936
0
LINE
8
DEFAULT_255_2_778
10
8.1386709
20
105.3976936
11
7.3883709
21
105.3947936
0
LINE
8
DEFAULT_255_2_778
10
7.3883709
20
105.3947936
11
7.3883709
21
107.5947936
0
LINE
8
DEFAULT_255_2_778
10
7.3883709
20
107.5947936
11
8.1489709
21
107.5870936
0
LINE
8
DEFAULT_255_2_778
10
8.1489709
20
107.5870936
11
8.2722709
21
107.5674936
0
LINE
8
DEFAULT_255_2_778
10
8.1971709
20
107.3248936
11
8.3455709
21
107.2735936
0
LINE
8
DEFAULT_255_2_778
10
8.3455709
20
107.2735936
11
8.4371709
21
107.2142936
0
LINE
8
DEFAULT_255_2_778
10
8.4371709
20
107.2142936
11
8.5146709
21
107.1383936
0
LINE
8
DEFAULT_255_2_778
10
8.5146709
20
107.1383936
11
8.5781709
21
107.0491936
0
LINE
8
DEFAULT_255_2_778
10
8.5781709
20
107.0491936
11
8.6183709
21
106.9716936
0
LINE
8
DEFAULT_255_2_778
10
8.6183709
20
106.9716936
11
8.6403709
21
106.9160936
0
LINE
8
DEFAULT_255_2_778
10
8.6403709
20
106.9160936
11
8.6577709
21
106.8591936
0
LINE
8
DEFAULT_255_2_778
10
8.6577709
20
106.8591936
11
8.6715709
21
106.8015936
0
LINE
8
DEFAULT_255_2_778
10
8.6715709
20
106.8015936
11
8.6815709
21
106.7427936
0
LINE
8
DEFAULT_255_2_778
10
8.6815709
20
106.7427936
11
8.6855709
21
106.7131936
0
LINE
8
DEFAULT_255_2_778
10
8.6855709
20
106.7131936
11
8.6887709
21
106.6835936
0
LINE
8
DEFAULT_255_2_778
10
8.6887709
20
106.6835936
11
8.6900709
21
106.3329936
0
LINE
8
DEFAULT_255_2_778
10
8.6900709
20
106.3329936
11
8.6860709
21
106.2903936
0
LINE
8
DEFAULT_255_2_778
10
8.6860709
20
106.2903936
11
8.6810709
21
106.2477936
0
LINE
8
DEFAULT_255_2_778
10
8.6810709
20
106.2477936
11
8.6718709
21
106.1874936
0
LINE
8
DEFAULT_255_2_778
10
8.6718709
20
106.1874936
11
8.6596709
21
106.1273936
0
LINE
8
DEFAULT_255_2_778
10
8.6596709
20
106.1273936
11
8.6442709
21
106.0680936
0
LINE
8
DEFAULT_255_2_778
10
8.6442709
20
106.0680936
11
8.6202709
21
105.9966936
0
LINE
8
DEFAULT_255_2_778
10
8.6202709
20
105.9966936
11
8.5929709
21
105.9355936
0
LINE
8
DEFAULT_255_2_778
10
8.5929709
20
105.9355936
11
8.5477709
21
105.8611936
0
LINE
8
DEFAULT_255_2_778
10
8.5477709
20
105.8611936
11
8.4805709
21
105.7857936
0
LINE
8
DEFAULT_255_2_778
10
8.4805709
20
105.7857936
11
8.3979709
21
105.7251936
0
LINE
8
DEFAULT_255_2_778
10
8.3979709
20
105.7251936
11
8.2627709
21
105.6696936
0
LINE
8
DEFAULT_255_2_778
10
8.2627709
20
105.6696936
11
8.1021709
21
105.6450936
0
LINE
8
DEFAULT_255_2_778
10
8.1021709
20
105.6450936
11
7.6505709
21
105.6437936
0
LINE
8
DEFAULT_255_2_778
10
7.6505709
20
105.6437936
11
7.6505709
21
107.3447936
0
LINE
8
DEFAULT_255_2_778
10
7.6505709
20
107.3447936
11
8.1302709
21
107.3362936
0
LINE
8
DEFAULT_255_2_778
10
8.1302709
20
107.3362936
11
8.1971709
21
107.3248936
0
LINE
8
DEFAULT_255_2_778
10
4.5546709
20
107.5727936
11
4.3530709
21
107.5944936
0
LINE
8
DEFAULT_255_2_778
10
4.3530709
20
107.5944936
11
3.5907709
21
107.5944936
0
LINE
8
DEFAULT_255_2_778
10
3.5907709
20
107.5944936
11
3.5907709
21
105.3944936
0
LINE
8
DEFAULT_255_2_778
10
3.5907709
20
105.3944936
11
3.8524709
21
105.3944936
0
LINE
8
DEFAULT_255_2_778
10
3.8524709
20
105.3944936
11
3.8524709
21
106.3797936
0
LINE
8
DEFAULT_255_2_778
10
3.8524709
20
106.3797936
11
4.4506709
21
106.3549936
0
LINE
8
DEFAULT_255_2_778
10
4.4506709
20
106.3549936
11
4.5588709
21
106.2776936
0
LINE
8
DEFAULT_255_2_778
10
4.5588709
20
106.2776936
11
4.6062709
21
106.1874936
0
LINE
8
DEFAULT_255_2_778
10
4.6062709
20
106.1874936
11
4.6273709
21
106.1114936
0
LINE
8
DEFAULT_255_2_778
10
4.6273709
20
106.1114936
11
4.6379709
21
106.0490936
0
LINE
8
DEFAULT_255_2_778
10
4.6379709
20
106.0490936
11
4.6699709
21
105.8151936
0
LINE
8
DEFAULT_255_2_778
10
4.6699709
20
105.8151936
11
4.6945709
21
105.6582936
0
LINE
8
DEFAULT_255_2_778
10
4.6945709
20
105.6582936
11
4.7226709
21
105.5106936
0
LINE
8
DEFAULT_255_2_778
10
4.7226709
20
105.5106936
11
4.7506709
21
105.3957936
0
LINE
8
DEFAULT_255_2_778
10
4.7506709
20
105.3957936
11
5.0287709
21
105.3957936
0
LINE
8
DEFAULT_255_2_778
10
5.0287709
20
105.3957936
11
4.9911709
21
105.5111936
0
LINE
8
DEFAULT_255_2_778
10
4.9911709
20
105.5111936
11
4.9673709
21
105.6317936
0
LINE
8
DEFAULT_255_2_778
10
4.9673709
20
105.6317936
11
4.9501709
21
105.7434936
0
LINE
8
DEFAULT_255_2_778
10
4.9501709
20
105.7434936
11
4.9274709
21
105.9000936
0
LINE
8
DEFAULT_255_2_778
10
4.9274709
20
105.9000936
11
4.8977709
21
106.1233936
0
LINE
8
DEFAULT_255_2_778
10
4.8977709
20
106.1233936
11
4.8864709
21
106.1876936
0
LINE
8
DEFAULT_255_2_778
10
4.8864709
20
106.1876936
11
4.8689709
21
106.2591936
0
LINE
8
DEFAULT_255_2_778
10
4.8689709
20
106.2591936
11
4.8432709
21
106.3295936
0
LINE
8
DEFAULT_255_2_778
10
4.8432709
20
106.3295936
11
4.8049709
21
106.3959936
0
LINE
8
DEFAULT_255_2_778
10
4.8049709
20
106.3959936
11
4.7363709
21
106.4535936
0
LINE
8
DEFAULT_255_2_778
10
4.7363709
20
106.4535936
11
4.5959709
21
106.4951936
0
LINE
8
DEFAULT_255_2_778
10
4.5959709
20
106.4951936
11
4.7363709
21
106.5623936
0
LINE
8
DEFAULT_255_2_778
10
4.7363709
20
106.5623936
11
4.8334709
21
106.6422936
0
LINE
8
DEFAULT_255_2_778
10
4.8334709
20
106.6422936
11
4.8954709
21
106.7221936
0
LINE
8
DEFAULT_255_2_778
10
4.8954709
20
106.7221936
11
4.9335709
21
106.7983936
0
LINE
8
DEFAULT_255_2_778
10
4.9335709
20
106.7983936
11
4.9546709
21
106.8631936
0
LINE
8
DEFAULT_255_2_778
10
4.9546709
20
106.8631936
11
4.9628709
21
106.8996936
0
LINE
8
DEFAULT_255_2_778
10
4.9628709
20
106.8996936
11
4.9686709
21
106.9367936
0
LINE
8
DEFAULT_255_2_778
10
4.9686709
20
106.9367936
11
4.9684709
21
107.1296936
0
LINE
8
DEFAULT_255_2_778
10
4.9684709
20
107.1296936
11
4.9620709
21
107.1690936
0
LINE
8
DEFAULT_255_2_778
10
4.9620709
20
107.1690936
11
4.9488709
21
107.2232936
0
LINE
8
DEFAULT_255_2_778
10
4.9488709
20
107.2232936
11
4.9268709
21
107.2835936
0
LINE
8
DEFAULT_255_2_778
10
4.9268709
20
107.2835936
11
4.8890709
21
107.3539936
0
LINE
8
DEFAULT_255_2_778
10
4.8890709
20
107.3539936
11
4.8181709
21
107.4378936
0
LINE
8
DEFAULT_255_2_778
10
4.8181709
20
107.4378936
11
4.7088709
21
107.5158936
0
LINE
8
DEFAULT_255_2_778
10
4.7088709
20
107.5158936
11
4.5546709
21
107.5727936
0
LINE
8
DEFAULT_255_2_778
10
4.4786709
20
106.6477936
11
4.3082709
21
106.6292936
0
LINE
8
DEFAULT_255_2_778
10
4.3082709
20
106.6292936
11
3.8521709
21
106.6292936
0
LINE
8
DEFAULT_255_2_778
10
3.8521709
20
106.6292936
11
3.8521709
21
107.3449936
0
LINE
8
DEFAULT_255_2_778
10
3.8521709
20
107.3449936
11
4.4345709
21
107.3280936
0
LINE
8
DEFAULT_255_2_778
10
4.4345709
20
107.3280936
11
4.5895709
21
107.2642936
0
LINE
8
DEFAULT_255_2_778
10
4.5895709
20
107.2642936
11
4.6583709
21
107.1896936
0
LINE
8
DEFAULT_255_2_778
10
4.6583709
20
107.1896936
11
4.6895709
21
107.1232936
0
LINE
8
DEFAULT_255_2_778
10
4.6895709
20
107.1232936
11
4.7022709
21
107.0769936
0
LINE
8
DEFAULT_255_2_778
10
4.7022709
20
107.0769936
11
4.7088709
21
107.0372936
0
LINE
8
DEFAULT_255_2_778
10
4.7088709
20
107.0372936
11
4.7075709
21
106.8996936
0
LINE
8
DEFAULT_255_2_778
10
4.7075709
20
106.8996936
11
4.7012709
21
106.8652936
0
LINE
8
DEFAULT_255_2_778
10
4.7012709
20
106.8652936
11
4.6877709
21
106.8213936
0
LINE
8
DEFAULT_255_2_778
10
4.6877709
20
106.8213936
11
4.6506709
21
106.7565936
0
LINE
8
DEFAULT_255_2_778
10
4.6506709
20
106.7565936
11
4.5416709
21
106.6713936
0
LINE
8
DEFAULT_255_2_778
10
4.5416709
20
106.6713936
11
4.4786709
21
106.6477936
0
ARC
8
DEFAULT_255_2_778
10
18.7875993
20
6.7970407
40
0.9471211
50
138.5969044
51
180.1465178
0
ARC
8
DEFAULT_255_2_778
10
18.7878332
20
6.7979146
40
0.9467189
50
92.2461493
51
138.6459367
0
ARC
8
DEFAULT_255_2_778
10
18.790548
20
6.7686997
40
0.976019
50
89.9980462
51
92.3381798
0
ARC
8
DEFAULT_255_2_778
10
18.7931191
20
6.7975916
40
0.9471305
50
49.1137343
51
90.1535204
0
ARC
8
DEFAULT_255_2_778
10
18.7938647
20
6.7974803
40
0.9467268
50
2.2652623
51
49.1522587
0
ARC
8
DEFAULT_255_2_778
10
18.7642888
20
6.7946595
40
0.9763924
50
359.9976072
51
2.3620595
0
ARC
8
DEFAULT_255_2_778
10
18.7935541
20
6.7920809
40
0.9471305
50
319.1137343
51
0.1535204
0
ARC
8
DEFAULT_255_2_778
10
18.7934428
20
6.7913353
40
0.9467268
50
272.2652623
51
319.1522587
0
ARC
8
DEFAULT_255_2_778
10
18.7906221
20
6.8209112
40
0.9763924
50
269.9976072
51
272.3620595
0
ARC
8
DEFAULT_255_2_778
10
18.7880435
20
6.7916459
40
0.9471305
50
229.1137343
51
270.1535204
0
ARC
8
DEFAULT_255_2_778
10
18.7872979
20
6.7917572
40
0.9467268
50
182.2652623
51
229.1522587
0
ARC
8
DEFAULT_255_2_778
10
18.8168738
20
6.7945779
40
0.9763924
50
179.9976072
51
182.3620595
0
LINE
8
DEFAULT_255_2_778
10
17.8404813
20
6.7946187
11
17.8404813
21
6.7946187
0
LINE
8
DEFAULT_255_2_778
10
21.3406127
20
9.3446145
11
16.2405127
21
9.3446145
0
LINE
8
DEFAULT_255_2_778
10
16.2405127
20
9.3446145
11
16.2405127
21
4.2445145
0
LINE
8
DEFAULT_255_2_778
10
16.2405127
20
4.2445145
11
21.3406127
21
4.2445145
0
LINE
8
DEFAULT_255_2_778
10
21.3406127
20
4.2445145
11
21.3406127
21
9.3446145
0
LINE
8
DEFAULT_255_2_778
10
20.9226127
20
2.3136145
11
21.5081127
21
2.3136145
0
LINE
8
DEFAULT_255_2_778
10
21.5081127
20
2.3136145
11
21.5081127
21
2.1532145
0
LINE
8
DEFAULT_255_2_778
10
21.5081127
20
2.1532145
11
20.9226127
21
2.1532145
0
LINE
8
DEFAULT_255_2_778
10
20.9226127
20
2.1532145
11
20.9226127
21
2.3136145
0
LINE
8
DEFAULT_255_2_778
10
26.0475127
20
3.2944145
11
26.2801127
21
3.2944145
0
LINE
8
DEFAULT_255_2_778
10
26.2801127
20
3.2944145
11
26.2801127
21
1.5944145
0
LINE
8
DEFAULT_255_2_778
10
26.2801127
20
1.5944145
11
26.0475127
21
1.5944145
0
LINE
8
DEFAULT_255_2_778
10
26.0475127
20
1.5944145
11
26.0475127
21
2.3705145
0
LINE
8
DEFAULT_255_2_778
10
26.0475127
20
2.3705145
11
25.1715127
21
2.3705145
0
LINE
8
DEFAULT_255_2_778
10
25.1715127
20
2.3705145
11
25.1715127
21
1.5944145
0
LINE
8
DEFAULT_255_2_778
10
25.1715127
20
1.5944145
11
24.9389127
21
1.5944145
0
LINE
8
DEFAULT_255_2_778
10
24.9389127
20
1.5944145
11
24.9389127
21
3.2944145
0
LINE
8
DEFAULT_255_2_778
10
24.9389127
20
3.2944145
11
25.1715127
21
3.2944145
0
LINE
8
DEFAULT_255_2_778
10
25.1715127
20
3.2944145
11
25.1715127
21
2.5678145
0
LINE
8
DEFAULT_255_2_778
10
25.1715127
20
2.5678145
11
26.0475127
21
2.5678145
0
LINE
8
DEFAULT_255_2_778
10
26.0475127
20
2.5678145
11
26.0475127
21
3.2944145
0
LINE
8
DEFAULT_255_2_778
10
28.5381127
20
2.8353145
11
28.3177127
21
2.8353145
0
LINE
8
DEFAULT_255_2_778
10
28.3177127
20
2.8353145
11
28.3198127
21
2.8928145
0
LINE
8
DEFAULT_255_2_778
10
28.3198127
20
2.8928145
11
28.3264127
21
2.9406145
0
LINE
8
DEFAULT_255_2_778
10
28.3264127
20
2.9406145
11
28.3478127
21
3.0203145
0
LINE
8
DEFAULT_255_2_778
10
28.3478127
20
3.0203145
11
28.4145127
21
3.1385145
0
LINE
8
DEFAULT_255_2_778
10
28.4145127
20
3.1385145
11
28.4717127
21
3.1967145
0
LINE
8
DEFAULT_255_2_778
10
28.4717127
20
3.1967145
11
28.5592127
21
3.2557145
0
LINE
8
DEFAULT_255_2_778
10
28.5592127
20
3.2557145
11
28.6831127
21
3.3013145
0
LINE
8
DEFAULT_255_2_778
10
28.6831127
20
3.3013145
11
28.8754127
21
3.3195145
0
LINE
8
DEFAULT_255_2_778
10
28.8754127
20
3.3195145
11
29.0577127
21
3.2931145
0
LINE
8
DEFAULT_255_2_778
10
29.0577127
20
3.2931145
11
29.1731127
21
3.2446145
0
LINE
8
DEFAULT_255_2_778
10
29.1731127
20
3.2446145
11
29.2657127
21
3.1753145
0
LINE
8
DEFAULT_255_2_778
10
29.2657127
20
3.1753145
11
29.3133127
21
3.1195145
0
LINE
8
DEFAULT_255_2_778
10
29.3133127
20
3.1195145
11
29.3408127
21
3.0729145
0
LINE
8
DEFAULT_255_2_778
10
29.3408127
20
3.0729145
11
29.3617127
21
3.0226145
0
LINE
8
DEFAULT_255_2_778
10
29.3617127
20
3.0226145
11
29.3723127
21
2.9861145
0
LINE
8
DEFAULT_255_2_778
10
29.3723127
20
2.9861145
11
29.3800127
21
2.9472145
0
LINE
8
DEFAULT_255_2_778
10
29.3800127
20
2.9472145
11
29.3800127
21
2.8012145
0
LINE
8
DEFAULT_255_2_778
10
29.3800127
20
2.8012145
11
29.3718127
21
2.7567145
0
LINE
8
DEFAULT_255_2_778
10
29.3718127
20
2.7567145
11
29.3604127
21
2.7128145
0
LINE
8
DEFAULT_255_2_778
10
29.3604127
20
2.7128145
11
29.3382127
21
2.6480145
0
LINE
8
DEFAULT_255_2_778
10
29.3382127
20
2.6480145
11
29.2897127
21
2.5443145
0
LINE
8
DEFAULT_255_2_778
10
29.2897127
20
2.5443145
11
29.2202127
21
2.4310145
0
LINE
8
DEFAULT_255_2_778
10
29.2202127
20
2.4310145
11
29.1180127
21
2.3009145
0
LINE
8
DEFAULT_255_2_778
10
29.1180127
20
2.3009145
11
29.0029127
21
2.1813145
0
LINE
8
DEFAULT_255_2_778
10
29.0029127
20
2.1813145
11
28.7093127
21
1.9294145
0
LINE
8
DEFAULT_255_2_778
10
28.7093127
20
1.9294145
11
28.5251127
21
1.7796145
0
LINE
8
DEFAULT_255_2_778
10
28.5251127
20
1.7796145
11
29.4202127
21
1.7796145
0
LINE
8
DEFAULT_255_2_778
10
29.4202127
20
1.7796145
11
29.4202127
21
1.5942145
0
LINE
8
DEFAULT_255_2_778
10
29.4202127
20
1.5942145
11
28.2478127
21
1.5942145
0
LINE
8
DEFAULT_255_2_778
10
28.2478127
20
1.5942145
11
28.2478127
21
1.7979145
0
LINE
8
DEFAULT_255_2_778
10
28.2478127
20
1.7979145
11
28.5349127
21
2.0307145
0
LINE
8
DEFAULT_255_2_778
10
28.5349127
20
2.0307145
11
28.7524127
21
2.2323145
0
LINE
8
DEFAULT_255_2_778
10
28.7524127
20
2.2323145
11
28.9439127
21
2.4377145
0
LINE
8
DEFAULT_255_2_778
10
28.9439127
20
2.4377145
11
29.0604127
21
2.5898145
0
LINE
8
DEFAULT_255_2_778
10
29.0604127
20
2.5898145
11
29.1125127
21
2.6784145
0
LINE
8
DEFAULT_255_2_778
10
29.1125127
20
2.6784145
11
29.1424127
21
2.7475145
0
LINE
8
DEFAULT_255_2_778
10
29.1424127
20
2.7475145
11
29.1564127
21
2.7948145
0
LINE
8
DEFAULT_255_2_778
10
29.1564127
20
2.7948145
11
29.1622127
21
2.8269145
0
LINE
8
DEFAULT_255_2_778
10
29.1622127
20
2.8269145
11
29.1606127
21
2.9150145
0
LINE
8
DEFAULT_255_2_778
10
29.1606127
20
2.9150145
11
29.1466127
21
2.9666145
0
LINE
8
DEFAULT_255_2_778
10
29.1466127
20
2.9666145
11
29.1090127
21
3.0322145
0
LINE
8
DEFAULT_255_2_778
10
29.1090127
20
3.0322145
11
29.0021127
21
3.1097145
0
LINE
8
DEFAULT_255_2_778
10
29.0021127
20
3.1097145
11
28.7855127
21
3.1314145
0
LINE
8
DEFAULT_255_2_778
10
28.7855127
20
3.1314145
11
28.6468127
21
3.0745145
0
LINE
8
DEFAULT_255_2_778
10
28.6468127
20
3.0745145
11
28.5767127
21
2.9951145
0
LINE
8
DEFAULT_255_2_778
10
28.5767127
20
2.9951145
11
28.5502127
21
2.9303145
0
LINE
8
DEFAULT_255_2_778
10
28.5502127
20
2.9303145
11
28.5420127
21
2.8896145
0
LINE
8
DEFAULT_255_2_778
10
28.5420127
20
2.8896145
11
28.5397127
21
2.8679145
0
LINE
8
DEFAULT_255_2_778
10
28.5397127
20
2.8679145
11
28.5386127
21
2.8353145
0
LINE
8
DEFAULT_255_2_778
10
29.7044127
20
2.3136145
11
30.2899127
21
2.3136145
0
LINE
8
DEFAULT_255_2_778
10
30.2899127
20
2.3136145
11
30.2899127
21
2.1532145
0
LINE
8
DEFAULT_255_2_778
10
30.2899127
20
2.1532145
11
29.7044127
21
2.1532145
0
LINE
8
DEFAULT_255_2_778
10
29.7044127
20
2.1532145
11
29.7044127
21
2.3136145
0
LINE
8
DEFAULT_255_2_778
10
16.9453127
20
1.7487145
11
16.7459127
21
1.8045145
0
LINE
8
DEFAULT_255_2_778
10
16.7459127
20
1.8045145
11
16.6366127
21
1.9125145
0
LINE
8
DEFAULT_255_2_778
10
16.6366127
20
1.9125145
11
16.5882127
21
2.0093145
0
LINE
8
DEFAULT_255_2_778
10
16.5882127
20
2.0093145
11
16.5731127
21
2.0585145
0
LINE
8
DEFAULT_255_2_778
10
16.5731127
20
2.0585145
11
16.3405127
21
2.0585145
0
LINE
8
DEFAULT_255_2_778
10
16.3405127
20
2.0585145
11
16.3469127
21
2.0220145
0
LINE
8
DEFAULT_255_2_778
10
16.3469127
20
2.0220145
11
16.3604127
21
1.9678145
0
LINE
8
DEFAULT_255_2_778
10
16.3604127
20
1.9678145
11
16.3855127
21
1.8987145
0
LINE
8
DEFAULT_255_2_778
10
16.3855127
20
1.8987145
11
16.4262127
21
1.8214145
0
LINE
8
DEFAULT_255_2_778
10
16.4262127
20
1.8214145
11
16.4905127
21
1.7392145
0
LINE
8
DEFAULT_255_2_778
10
16.4905127
20
1.7392145
11
16.5900127
21
1.6558145
0
LINE
8
DEFAULT_255_2_778
10
16.5900127
20
1.6558145
11
16.7157127
21
1.5931145
0
LINE
8
DEFAULT_255_2_778
10
16.7157127
20
1.5931145
11
16.8784127
21
1.5590145
0
LINE
8
DEFAULT_255_2_778
10
16.8784127
20
1.5590145
11
17.0824127
21
1.5659145
0
LINE
8
DEFAULT_255_2_778
10
17.0824127
20
1.5659145
11
17.2777127
21
1.6249145
0
LINE
8
DEFAULT_255_2_778
10
17.2777127
20
1.6249145
11
17.4028127
21
1.7100145
0
LINE
8
DEFAULT_255_2_778
10
17.4028127
20
1.7100145
11
17.4660127
21
1.7833145
0
LINE
8
DEFAULT_255_2_778
10
17.4660127
20
1.7833145
11
17.5047127
21
1.8532145
0
LINE
8
DEFAULT_255_2_778
10
17.5047127
20
1.8532145
11
17.5264127
21
1.9132145
0
LINE
8
DEFAULT_255_2_778
10
17.5264127
20
1.9132145
11
17.5348127
21
1.9471145
0
LINE
8
DEFAULT_255_2_778
10
17.5348127
20
1.9471145
11
17.5409127
21
1.9815145
0
LINE
8
DEFAULT_255_2_778
10
17.5409127
20
1.9815145
11
17.5446127
21
2.0162145
0
LINE
8
DEFAULT_255_2_778
10
17.5446127
20
2.0162145
11
17.5436127
21
2.1249145
0
LINE
8
DEFAULT_255_2_778
10
17.5436127
20
2.1249145
11
17.5370127
21
2.1688145
0
LINE
8
DEFAULT_255_2_778
10
17.5370127
20
2.1688145
11
17.5179127
21
2.2342145
0
LINE
8
DEFAULT_255_2_778
10
17.5179127
20
2.2342145
11
17.4481127
21
2.3429145
0
LINE
8
DEFAULT_255_2_778
10
17.4481127
20
2.3429145
11
17.2552127
21
2.4586145
0
LINE
8
DEFAULT_255_2_778
10
17.2552127
20
2.4586145
11
17.2308127
21
2.4641145
0
LINE
8
DEFAULT_255_2_778
10
17.2308127
20
2.4641145
11
17.3671127
21
2.5490145
0
LINE
8
DEFAULT_255_2_778
10
17.3671127
20
2.5490145
11
17.4322127
21
2.6189145
0
LINE
8
DEFAULT_255_2_778
10
17.4322127
20
2.6189145
11
17.4716127
21
2.6853145
0
LINE
8
DEFAULT_255_2_778
10
17.4716127
20
2.6853145
11
17.4933127
21
2.7427145
0
LINE
8
DEFAULT_255_2_778
10
17.4933127
20
2.7427145
11
17.5010127
21
2.7742145
0
LINE
8
DEFAULT_255_2_778
10
17.5010127
20
2.7742145
11
17.5063127
21
2.8062145
0
LINE
8
DEFAULT_255_2_778
10
17.5063127
20
2.8062145
11
17.5047127
21
2.9472145
0
LINE
8
DEFAULT_255_2_778
10
17.5047127
20
2.9472145
11
17.4989127
21
2.9771145
0
LINE
8
DEFAULT_255_2_778
10
17.4989127
20
2.9771145
11
17.4862127
21
3.0200145
0
LINE
8
DEFAULT_255_2_778
10
17.4862127
20
3.0200145
11
17.4557127
21
3.0848145
0
LINE
8
DEFAULT_255_2_778
10
17.4557127
20
3.0848145
11
17.4023127
21
3.1547145
0
LINE
8
DEFAULT_255_2_778
10
17.4023127
20
3.1547145
11
17.3031127
21
3.2325145
0
LINE
8
DEFAULT_255_2_778
10
17.3031127
20
3.2325145
11
17.1501127
21
3.2954145
0
LINE
8
DEFAULT_255_2_778
10
17.1501127
20
3.2954145
11
16.9274127
21
3.3190145
0
LINE
8
DEFAULT_255_2_778
10
16.9274127
20
3.3190145
11
16.7231127
21
3.2893145
0
LINE
8
DEFAULT_255_2_778
10
16.7231127
20
3.2893145
11
16.5143127
21
3.1716145
0
LINE
8
DEFAULT_255_2_778
10
16.5143127
20
3.1716145
11
16.4352127
21
3.0652145
0
LINE
8
DEFAULT_255_2_778
10
16.4352127
20
3.0652145
11
16.4051127
21
2.9856145
0
LINE
8
DEFAULT_255_2_778
10
16.4051127
20
2.9856145
11
16.3934127
21
2.9287145
0
LINE
8
DEFAULT_255_2_778
10
16.3934127
20
2.9287145
11
16.3903127
21
2.8999145
0
LINE
8
DEFAULT_255_2_778
10
16.3903127
20
2.8999145
11
16.3889127
21
2.8520145
0
LINE
8
DEFAULT_255_2_778
10
16.3889127
20
2.8520145
11
16.6093127
21
2.8520145
0
LINE
8
DEFAULT_255_2_778
10
16.6093127
20
2.8520145
11
16.6112127
21
2.8901145
0
LINE
8
DEFAULT_255_2_778
10
16.6112127
20
2.8901145
11
16.6159127
21
2.9184145
0
LINE
8
DEFAULT_255_2_778
10
16.6159127
20
2.9184145
11
16.6334127
21
2.9703145
0
LINE
8
DEFAULT_255_2_778
10
16.6334127
20
2.9703145
11
16.6853127
21
3.0430145
0
LINE
8
DEFAULT_255_2_778
10
16.6853127
20
3.0430145
11
16.8019127
21
3.1139145
0
LINE
8
DEFAULT_255_2_778
10
16.8019127
20
3.1139145
11
17.0115127
21
3.1327145
0
LINE
8
DEFAULT_255_2_778
10
17.0115127
20
3.1327145
11
17.1750127
21
3.0724145
0
LINE
8
DEFAULT_255_2_778
10
17.1750127
20
3.0724145
11
17.2441127
21
3.0015145
0
LINE
8
DEFAULT_255_2_778
10
17.2441127
20
3.0015145
11
17.2703127
21
2.9451145
0
LINE
8
DEFAULT_255_2_778
10
17.2703127
20
2.9451145
11
17.2795127
21
2.9081145
0
LINE
8
DEFAULT_255_2_778
10
17.2795127
20
2.9081145
11
17.2779127
21
2.7922145
0
LINE
8
DEFAULT_255_2_778
10
17.2779127
20
2.7922145
11
17.2554127
21
2.7319145
0
LINE
8
DEFAULT_255_2_778
10
17.2554127
20
2.7319145
11
17.1554127
21
2.6295145
0
LINE
8
DEFAULT_255_2_778
10
17.1554127
20
2.6295145
11
16.9300127
21
2.5591145
0
LINE
8
DEFAULT_255_2_778
10
16.9300127
20
2.5591145
11
16.8228127
21
2.5583145
0
LINE
8
DEFAULT_255_2_778
10
16.8228127
20
2.5583145
11
16.8228127
21
2.3681145
0
LINE
8
DEFAULT_255_2_778
10
16.8228127
20
2.3681145
11
17.1173127
21
2.3374145
0
LINE
8
DEFAULT_255_2_778
10
17.1173127
20
2.3374145
11
17.2528127
21
2.2569145
0
LINE
8
DEFAULT_255_2_778
10
17.2528127
20
2.2569145
11
17.2978127
21
2.1921145
0
LINE
8
DEFAULT_255_2_778
10
17.2978127
20
2.1921145
11
17.3121127
21
2.1498145
0
LINE
8
DEFAULT_255_2_778
10
17.3121127
20
2.1498145
11
17.3099127
21
1.9971145
0
LINE
8
DEFAULT_255_2_778
10
17.3099127
20
1.9971145
11
17.2904127
21
1.9381145
0
LINE
8
DEFAULT_255_2_778
10
17.2904127
20
1.9381145
11
17.2470127
21
1.8696145
0
LINE
8
DEFAULT_255_2_778
10
17.2470127
20
1.8696145
11
17.1364127
21
1.7865145
0
LINE
8
DEFAULT_255_2_778
10
17.1364127
20
1.7865145
11
16.9459127
21
1.7484145
0
LINE
8
DEFAULT_255_2_778
10
22.4092625
20
3.2849114
11
22.6021625
21
3.2849114
0
LINE
8
DEFAULT_255_2_778
10
22.6021625
20
3.2849114
11
22.6021625
21
1.5945114
0
LINE
8
DEFAULT_255_2_778
10
22.6021625
20
1.5945114
11
22.3743625
21
1.5945114
0
LINE
8
DEFAULT_255_2_778
10
22.3743625
20
1.5945114
11
22.3743625
21
3.0222114
0
LINE
8
DEFAULT_255_2_778
10
22.3743625
20
3.0222114
11
22.1065625
21
2.8552114
0
LINE
8
DEFAULT_255_2_778
10
22.1065625
20
2.8552114
11
22.0020625
21
2.8116114
0
LINE
8
DEFAULT_255_2_778
10
22.0020625
20
2.8116114
11
22.0020625
21
3.0235114
0
LINE
8
DEFAULT_255_2_778
10
22.0020625
20
3.0235114
11
22.3108625
21
3.1992114
0
LINE
8
DEFAULT_255_2_778
10
22.3108625
20
3.1992114
11
22.4092625
21
3.2849114
0
LINE
8
DEFAULT_255_2_778
10
20.0428625
20
3.2849114
11
20.2357625
21
3.2849114
0
LINE
8
DEFAULT_255_2_778
10
20.2357625
20
3.2849114
11
20.2357625
21
1.5945114
0
LINE
8
DEFAULT_255_2_778
10
20.2357625
20
1.5945114
11
20.0079625
21
1.5945114
0
LINE
8
DEFAULT_255_2_778
10
20.0079625
20
1.5945114
11
20.0079625
21
3.0222114
0
LINE
8
DEFAULT_255_2_778
10
20.0079625
20
3.0222114
11
19.7401625
21
2.8552114
0
LINE
8
DEFAULT_255_2_778
10
19.7401625
20
2.8552114
11
19.6356625
21
2.8116114
0
LINE
8
DEFAULT_255_2_778
10
19.6356625
20
2.8116114
11
19.6356625
21
3.0235114
0
LINE
8
DEFAULT_255_2_778
10
19.6356625
20
3.0235114
11
19.9444625
21
3.1992114
0
LINE
8
DEFAULT_255_2_778
10
19.9444625
20
3.1992114
11
20.0428625
21
3.2849114
0
LINE
8
DEFAULT_255_2_778
10
34.0006929
20
3.2944062
11
35.0367929
21
3.2944062
0
LINE
8
DEFAULT_255_2_778
10
35.0367929
20
3.2944062
11
35.0367929
21
3.1015062
0
LINE
8
DEFAULT_255_2_778
10
35.0367929
20
3.1015062
11
34.2332929
21
3.1015062
0
LINE
8
DEFAULT_255_2_778
10
34.2332929
20
3.1015062
11
34.2332929
21
2.5655062
0
LINE
8
DEFAULT_255_2_778
10
34.2332929
20
2.5655062
11
35.0055929
21
2.5655062
0
LINE
8
DEFAULT_255_2_778
10
35.0055929
20
2.5655062
11
35.0055929
21
2.3726062
0
LINE
8
DEFAULT_255_2_778
10
35.0055929
20
2.3726062
11
34.2332929
21
2.3726062
0
LINE
8
DEFAULT_255_2_778
10
34.2332929
20
2.3726062
11
34.2332929
21
1.7871062
0
LINE
8
DEFAULT_255_2_778
10
34.2332929
20
1.7871062
11
35.0584929
21
1.7871062
0
LINE
8
DEFAULT_255_2_778
10
35.0584929
20
1.7871062
11
35.0584929
21
1.5942062
0
LINE
8
DEFAULT_255_2_778
10
35.0584929
20
1.5942062
11
34.0006929
21
1.5942062
0
LINE
8
DEFAULT_255_2_778
10
34.0006929
20
1.5942062
11
34.0006929
21
3.2941062
0
LINE
8
DEFAULT_255_2_778
10
18.5802929
20
3.2944062
11
18.8487929
21
3.2944062
0
LINE
8
DEFAULT_255_2_778
10
18.8487929
20
3.2944062
11
18.8487929
21
2.2054062
0
LINE
8
DEFAULT_255_2_778
10
18.8487929
20
2.2054062
11
19.1704929
21
2.2054062
0
LINE
8
DEFAULT_255_2_778
10
19.1704929
20
2.2054062
11
19.1704929
21
2.0199062
0
LINE
8
DEFAULT_255_2_778
10
19.1704929
20
2.0199062
11
18.8487929
21
2.0199062
0
LINE
8
DEFAULT_255_2_778
10
18.8487929
20
2.0199062
11
18.8487929
21
1.5947062
0
LINE
8
DEFAULT_255_2_778
10
18.8487929
20
1.5947062
11
18.6209929
21
1.5947062
0
LINE
8
DEFAULT_255_2_778
10
18.6209929
20
1.5947062
11
18.6209929
21
2.0199062
0
LINE
8
DEFAULT_255_2_778
10
18.6209929
20
2.0199062
11
17.8306929
21
2.0199062
0
LINE
8
DEFAULT_255_2_778
10
17.8306929
20
2.0199062
11
17.8306929
21
2.2247062
0
LINE
8
DEFAULT_255_2_778
10
17.8306929
20
2.2247062
11
18.5802929
21
3.2944062
0
LINE
8
DEFAULT_255_2_778
10
18.0296929
20
2.2051062
11
18.6212929
21
2.2051062
0
LINE
8
DEFAULT_255_2_778
10
18.6212929
20
2.2051062
11
18.6212929
21
3.0520062
0
LINE
8
DEFAULT_255_2_778
10
18.6212929
20
3.0520062
11
18.0296929
21
2.2051062
0
LINE
8
DEFAULT_255_2_778
10
23.3925146
20
3.2944062
11
24.1481146
21
3.2820062
0
LINE
8
DEFAULT_255_2_778
10
24.1481146
20
3.2820062
11
24.3757146
21
3.2100062
0
LINE
8
DEFAULT_255_2_778
10
24.3757146
20
3.2100062
11
24.4714146
21
3.1388062
0
LINE
8
DEFAULT_255_2_778
10
24.4714146
20
3.1388062
11
24.5175146
21
3.0772062
0
LINE
8
DEFAULT_255_2_778
10
24.5175146
20
3.0772062
11
24.5431146
21
3.0187062
0
LINE
8
DEFAULT_255_2_778
10
24.5431146
20
3.0187062
11
24.5566146
21
2.9684062
0
LINE
8
DEFAULT_255_2_778
10
24.5566146
20
2.9684062
11
24.5627146
21
2.9295062
0
LINE
8
DEFAULT_255_2_778
10
24.5627146
20
2.9295062
11
24.5619146
21
2.8084062
0
LINE
8
DEFAULT_255_2_778
10
24.5619146
20
2.8084062
11
24.5545146
21
2.7681062
0
LINE
8
DEFAULT_255_2_778
10
24.5545146
20
2.7681062
11
24.5381146
21
2.7168062
0
LINE
8
DEFAULT_255_2_778
10
24.5381146
20
2.7168062
11
24.5016146
21
2.6501062
0
LINE
8
DEFAULT_255_2_778
10
24.5016146
20
2.6501062
11
24.4222146
21
2.5671062
0
LINE
8
DEFAULT_255_2_778
10
24.4222146
20
2.5671062
11
24.2915146
21
2.4975062
0
LINE
8
DEFAULT_255_2_778
10
24.2915146
20
2.4975062
11
24.2661146
21
2.4903062
0
LINE
8
DEFAULT_255_2_778
10
24.2661146
20
2.4903062
11
24.4201146
21
2.4324062
0
LINE
8
DEFAULT_255_2_778
10
24.4201146
20
2.4324062
11
24.5225146
21
2.3535062
0
LINE
8
DEFAULT_255_2_778
10
24.5225146
20
2.3535062
11
24.5759146
21
2.2803062
0
LINE
8
DEFAULT_255_2_778
10
24.5759146
20
2.2803062
11
24.6066146
21
2.2088062
0
LINE
8
DEFAULT_255_2_778
10
24.6066146
20
2.2088062
11
24.6180146
21
2.1654062
0
LINE
8
DEFAULT_255_2_778
10
24.6180146
20
2.1654062
11
24.6236146
21
2.1342062
0
LINE
8
DEFAULT_255_2_778
10
24.6236146
20
2.1342062
11
24.6230146
21
1.9691062
0
LINE
8
DEFAULT_255_2_778
10
24.6230146
20
1.9691062
11
24.6154146
21
1.9270062
0
LINE
8
DEFAULT_255_2_778
10
24.6154146
20
1.9270062
11
24.5995146
21
1.8731062
0
LINE
8
DEFAULT_255_2_778
10
24.5995146
20
1.8731062
11
24.5696146
21
1.8104062
0
LINE
8
DEFAULT_255_2_778
10
24.5696146
20
1.8104062
11
24.5106146
21
1.7381062
0
LINE
8
DEFAULT_255_2_778
10
24.5106146
20
1.7381062
11
24.3624146
21
1.6453062
0
LINE
8
DEFAULT_255_2_778
10
24.3624146
20
1.6453062
11
24.1489146
21
1.5984062
0
LINE
8
DEFAULT_255_2_778
10
24.1489146
20
1.5984062
11
24.0296146
21
1.5942062
0
LINE
8
DEFAULT_255_2_778
10
24.0296146
20
1.5942062
11
23.3922146
21
1.5942062
0
LINE
8
DEFAULT_255_2_778
10
23.3922146
20
1.5942062
11
23.3925146
21
3.2944062
0
LINE
8
DEFAULT_255_2_778
10
24.0092146
20
1.7871062
11
24.2574146
21
1.8286062
0
LINE
8
DEFAULT_255_2_778
10
24.2574146
20
1.8286062
11
24.3405146
21
1.8940062
0
LINE
8
DEFAULT_255_2_778
10
24.3405146
20
1.8940062
11
24.3749146
21
1.9564062
0
LINE
8
DEFAULT_255_2_778
10
24.3749146
20
1.9564062
11
24.3884146
21
2.0022062
0
LINE
8
DEFAULT_255_2_778
10
24.3884146
20
2.0022062
11
24.3876146
21
2.1580062
0
LINE
8
DEFAULT_255_2_778
10
24.3876146
20
2.1580062
11
24.3709146
21
2.2096062
0
LINE
8
DEFAULT_255_2_778
10
24.3709146
20
2.2096062
11
24.3320146
21
2.2689062
0
LINE
8
DEFAULT_255_2_778
10
24.3320146
20
2.2689062
11
24.2076146
21
2.3456062
0
LINE
8
DEFAULT_255_2_778
10
24.2076146
20
2.3456062
11
23.9722146
21
2.3781062
0
LINE
8
DEFAULT_255_2_778
10
23.9722146
20
2.3781062
11
23.6253146
21
2.3781062
0
LINE
8
DEFAULT_255_2_778
10
23.6253146
20
2.3781062
11
23.6253146
21
1.7865062
0
LINE
8
DEFAULT_255_2_778
10
23.6253146
20
1.7865062
11
24.0092146
21
1.7871062
0
LINE
8
DEFAULT_255_2_778
10
23.9566146
20
2.5763062
11
24.2285146
21
2.6359062
0
LINE
8
DEFAULT_255_2_778
10
24.2285146
20
2.6359062
11
24.2987146
21
2.7020062
0
LINE
8
DEFAULT_255_2_778
10
24.2987146
20
2.7020062
11
24.3235146
21
2.7592062
0
LINE
8
DEFAULT_255_2_778
10
24.3235146
20
2.7592062
11
24.3312146
21
2.7983062
0
LINE
8
DEFAULT_255_2_778
10
24.3312146
20
2.7983062
11
24.3288146
21
2.8872062
0
LINE
8
DEFAULT_255_2_778
10
24.3288146
20
2.8872062
11
24.3161146
21
2.9332062
0
LINE
8
DEFAULT_255_2_778
10
24.3161146
20
2.9332062
11
24.2799146
21
2.9941062
0
LINE
8
DEFAULT_255_2_778
10
24.2799146
20
2.9941062
11
24.1600146
21
3.0716062
0
LINE
8
DEFAULT_255_2_778
10
24.1600146
20
3.0716062
11
23.9560146
21
3.1018062
0
LINE
8
DEFAULT_255_2_778
10
23.9560146
20
3.1018062
11
23.6250146
21
3.1018062
0
LINE
8
DEFAULT_255_2_778
10
23.6250146
20
3.1018062
11
23.6250146
21
2.5766062
0
LINE
8
DEFAULT_255_2_778
10
23.6250146
20
2.5766062
11
23.9566146
21
2.5763062
0
LINE
8
DEFAULT_255_2_778
10
26.924999
20
1.9956427
11
26.898199
21
2.0609427
0
LINE
8
DEFAULT_255_2_778
10
26.898199
20
2.0609427
11
26.877299
21
2.1281427
0
LINE
8
DEFAULT_255_2_778
10
26.877299
20
2.1281427
11
26.865399
21
2.1776427
0
LINE
8
DEFAULT_255_2_778
10
26.865399
20
2.1776427
11
26.855899
21
2.2276427
0
LINE
8
DEFAULT_255_2_778
10
26.855899
20
2.2276427
11
26.848799
21
2.2779427
0
LINE
8
DEFAULT_255_2_778
10
26.848799
20
2.2779427
11
26.845899
21
2.3057427
0
LINE
8
DEFAULT_255_2_778
10
26.845899
20
2.3057427
11
26.845899
21
2.5824427
0
LINE
8
DEFAULT_255_2_778
10
26.845899
20
2.5824427
11
26.852199
21
2.6346427
0
LINE
8
DEFAULT_255_2_778
10
26.852199
20
2.6346427
11
26.860699
21
2.6840427
0
LINE
8
DEFAULT_255_2_778
10
26.860699
20
2.6840427
11
26.871499
21
2.7330427
0
LINE
8
DEFAULT_255_2_778
10
26.871499
20
2.7330427
11
26.891399
21
2.8015427
0
LINE
8
DEFAULT_255_2_778
10
26.891399
20
2.8015427
11
26.916199
21
2.8663427
0
LINE
8
DEFAULT_255_2_778
10
26.916199
20
2.8663427
11
26.960399
21
2.9502427
0
LINE
8
DEFAULT_255_2_778
10
26.960399
20
2.9502427
11
27.025199
21
3.0306427
0
LINE
8
DEFAULT_255_2_778
10
27.025199
20
3.0306427
11
27.117599
21
3.0949427
0
LINE
8
DEFAULT_255_2_778
10
27.117599
20
3.0949427
11
27.256999
21
3.1269427
0
LINE
8
DEFAULT_255_2_778
10
27.256999
20
3.1269427
11
27.399399
21
3.1058427
0
LINE
8
DEFAULT_255_2_778
10
27.399399
20
3.1058427
11
27.496999
21
3.0494427
0
LINE
8
DEFAULT_255_2_778
10
27.496999
20
3.0494427
11
27.562899
21
2.9798427
0
LINE
8
DEFAULT_255_2_778
10
27.562899
20
2.9798427
11
27.609699
21
2.9036427
0
LINE
8
DEFAULT_255_2_778
10
27.609699
20
2.9036427
11
27.645699
21
2.8208427
0
LINE
8
DEFAULT_255_2_778
10
27.645699
20
2.8208427
11
27.665799
21
2.7576427
0
LINE
8
DEFAULT_255_2_778
10
27.665799
20
2.7576427
11
27.677999
21
2.7089427
0
LINE
8
DEFAULT_255_2_778
10
27.677999
20
2.7089427
11
27.687499
21
2.6597427
0
LINE
8
DEFAULT_255_2_778
10
27.687499
20
2.6597427
11
27.694599
21
2.6102427
0
LINE
8
DEFAULT_255_2_778
10
27.694599
20
2.6102427
11
27.697799
21
2.5830427
0
LINE
8
DEFAULT_255_2_778
10
27.697799
20
2.5830427
11
27.697799
21
2.3062427
0
LINE
8
DEFAULT_255_2_778
10
27.697799
20
2.3062427
11
27.691499
21
2.2533427
0
LINE
8
DEFAULT_255_2_778
10
27.691499
20
2.2533427
11
27.683299
21
2.2030427
0
LINE
8
DEFAULT_255_2_778
10
27.683299
20
2.2030427
11
27.672699
21
2.1533427
0
LINE
8
DEFAULT_255_2_778
10
27.672699
20
2.1533427
11
27.653099
21
2.0837427
0
LINE
8
DEFAULT_255_2_778
10
27.653099
20
2.0837427
11
27.628499
21
2.0178427
0
LINE
8
DEFAULT_255_2_778
10
27.628499
20
2.0178427
11
27.584599
21
1.9318427
0
LINE
8
DEFAULT_255_2_778
10
27.584599
20
1.9318427
11
27.519499
21
1.8490427
0
LINE
8
DEFAULT_255_2_778
10
27.519499
20
1.8490427
11
27.426899
21
1.7829427
0
LINE
8
DEFAULT_255_2_778
10
27.426899
20
1.7829427
11
27.301199
21
1.7506427
0
LINE
8
DEFAULT_255_2_778
10
27.301199
20
1.7506427
11
27.157299
21
1.7667427
0
LINE
8
DEFAULT_255_2_778
10
27.157299
20
1.7667427
11
27.056699
21
1.8207427
0
LINE
8
DEFAULT_255_2_778
10
27.056699
20
1.8207427
11
26.990599
21
1.8869427
0
LINE
8
DEFAULT_255_2_778
10
26.990599
20
1.8869427
11
26.941099
21
1.9636427
0
LINE
8
DEFAULT_255_2_778
10
26.941099
20
1.9636427
11
26.924999
21
1.9956427
0
LINE
8
DEFAULT_255_2_778
10
26.762799
20
3.0285427
11
26.713299
21
2.9359427
0
LINE
8
DEFAULT_255_2_778
10
26.713299
20
2.9359427
11
26.683399
21
2.8632427
0
LINE
8
DEFAULT_255_2_778
10
26.683399
20
2.8632427
11
26.665099
21
2.8081427
0
LINE
8
DEFAULT_255_2_778
10
26.665099
20
2.8081427
11
26.650099
21
2.7523427
0
LINE
8
DEFAULT_255_2_778
10
26.650099
20
2.7523427
11
26.637899
21
2.6957427
0
LINE
8
DEFAULT_255_2_778
10
26.637899
20
2.6957427
11
26.632899
21
2.6671427
0
LINE
8
DEFAULT_255_2_778
10
26.632899
20
2.6671427
11
26.627599
21
2.6308427
0
LINE
8
DEFAULT_255_2_778
10
26.627599
20
2.6308427
11
26.623299
21
2.5943427
0
LINE
8
DEFAULT_255_2_778
10
26.623299
20
2.5943427
11
26.620199
21
2.5578427
0
LINE
8
DEFAULT_255_2_778
10
26.620199
20
2.5578427
11
26.619899
21
2.3358427
0
LINE
8
DEFAULT_255_2_778
10
26.619899
20
2.3358427
11
26.623099
21
2.2985427
0
LINE
8
DEFAULT_255_2_778
10
26.623099
20
2.2985427
11
26.627299
21
2.2615427
0
LINE
8
DEFAULT_255_2_778
10
26.627299
20
2.2615427
11
26.632599
21
2.2245427
0
LINE
8
DEFAULT_255_2_778
10
26.632599
20
2.2245427
11
26.643199
21
2.1668427
0
LINE
8
DEFAULT_255_2_778
10
26.643199
20
2.1668427
11
26.656399
21
2.1096427
0
LINE
8
DEFAULT_255_2_778
10
26.656399
20
2.1096427
11
26.672799
21
2.0533427
0
LINE
8
DEFAULT_255_2_778
10
26.672799
20
2.0533427
11
26.701899
21
1.9739427
0
LINE
8
DEFAULT_255_2_778
10
26.701899
20
1.9739427
11
26.737099
21
1.8987427
0
LINE
8
DEFAULT_255_2_778
10
26.737099
20
1.8987427
11
26.790299
21
1.8106427
0
LINE
8
DEFAULT_255_2_778
10
26.790299
20
1.8106427
11
26.848999
21
1.7366427
0
LINE
8
DEFAULT_255_2_778
10
26.848999
20
1.7366427
11
26.934199
21
1.6601427
0
LINE
8
DEFAULT_255_2_778
10
26.934199
20
1.6601427
11
27.048499
21
1.5969427
0
LINE
8
DEFAULT_255_2_778
10
27.048499
20
1.5969427
11
27.179999
21
1.5625427
0
LINE
8
DEFAULT_255_2_778
10
27.179999
20
1.5625427
11
27.340599
21
1.5598427
0
LINE
8
DEFAULT_255_2_778
10
27.340599
20
1.5598427
11
27.474799
21
1.5892427
0
LINE
8
DEFAULT_255_2_778
10
27.474799
20
1.5892427
11
27.591699
21
1.6477427
0
LINE
8
DEFAULT_255_2_778
10
27.591699
20
1.6477427
11
27.678499
21
1.7194427
0
LINE
8
DEFAULT_255_2_778
10
27.678499
20
1.7194427
11
27.753399
21
1.8106427
0
LINE
8
DEFAULT_255_2_778
10
27.753399
20
1.8106427
11
27.806299
21
1.8987427
0
LINE
8
DEFAULT_255_2_778
10
27.806299
20
1.8987427
11
27.841499
21
1.9742427
0
LINE
8
DEFAULT_255_2_778
10
27.841499
20
1.9742427
11
27.870599
21
2.0538427
0
LINE
8
DEFAULT_255_2_778
10
27.870599
20
2.0538427
11
27.886999
21
2.1101427
0
LINE
8
DEFAULT_255_2_778
10
27.886999
20
2.1101427
11
27.900199
21
2.1673427
0
LINE
8
DEFAULT_255_2_778
10
27.900199
20
2.1673427
11
27.910799
21
2.2250427
0
LINE
8
DEFAULT_255_2_778
10
27.910799
20
2.2250427
11
27.916099
21
2.2618427
0
LINE
8
DEFAULT_255_2_778
10
27.916099
20
2.2618427
11
27.920299
21
2.2988427
0
LINE
8
DEFAULT_255_2_778
10
27.920299
20
2.2988427
11
27.923499
21
2.3358427
0
LINE
8
DEFAULT_255_2_778
10
27.923499
20
2.3358427
11
27.923499
21
2.5576427
0
LINE
8
DEFAULT_255_2_778
10
27.923499
20
2.5576427
11
27.920299
21
2.5941427
0
LINE
8
DEFAULT_255_2_778
10
27.920299
20
2.5941427
11
27.916099
21
2.6306427
0
LINE
8
DEFAULT_255_2_778
10
27.916099
20
2.6306427
11
27.910799
21
2.6668427
0
LINE
8
DEFAULT_255_2_778
10
27.910799
20
2.6668427
11
27.900199
21
2.7237427
0
LINE
8
DEFAULT_255_2_778
10
27.900199
20
2.7237427
11
27.886699
21
2.7801427
0
LINE
8
DEFAULT_255_2_778
10
27.886699
20
2.7801427
11
27.870099
21
2.8356427
0
LINE
8
DEFAULT_255_2_778
10
27.870099
20
2.8356427
11
27.840399
21
2.9140427
0
LINE
8
DEFAULT_255_2_778
10
27.840399
20
2.9140427
11
27.804699
21
2.9880427
0
LINE
8
DEFAULT_255_2_778
10
27.804699
20
2.9880427
11
27.751299
21
3.0740427
0
LINE
8
DEFAULT_255_2_778
10
27.751299
20
3.0740427
11
27.676599
21
3.1624427
0
LINE
8
DEFAULT_255_2_778
10
27.676599
20
3.1624427
11
27.590099
21
3.2317427
0
LINE
8
DEFAULT_255_2_778
10
27.590099
20
3.2317427
11
27.473999
21
3.2883427
0
LINE
8
DEFAULT_255_2_778
10
27.473999
20
3.2883427
11
27.317899
21
3.3185427
0
LINE
8
DEFAULT_255_2_778
10
27.317899
20
3.3185427
11
27.158899
21
3.3106427
0
LINE
8
DEFAULT_255_2_778
10
27.158899
20
3.3106427
11
27.030799
21
3.2725427
0
LINE
8
DEFAULT_255_2_778
10
27.030799
20
3.2725427
11
26.919399
21
3.2068427
0
LINE
8
DEFAULT_255_2_778
10
26.919399
20
3.2068427
11
26.836299
21
3.1288427
0
LINE
8
DEFAULT_255_2_778
10
26.836299
20
3.1288427
11
26.762799
21
3.0285427
0
LINE
8
DEFAULT_255_2_778
10
30.838099
20
1.9956427
11
30.811299
21
2.0609427
0
LINE
8
DEFAULT_255_2_778
10
30.811299
20
2.0609427
11
30.790399
21
2.1281427
0
LINE
8
DEFAULT_255_2_778
10
30.790399
20
2.1281427
11
30.778499
21
2.1776427
0
LINE
8
DEFAULT_255_2_778
10
30.778499
20
2.1776427
11
30.768999
21
2.2276427
0
LINE
8
DEFAULT_255_2_778
10
30.768999
20
2.2276427
11
30.761899
21
2.2779427
0
LINE
8
DEFAULT_255_2_778
10
30.761899
20
2.2779427
11
30.758999
21
2.3057427
0
LINE
8
DEFAULT_255_2_778
10
30.758999
20
2.3057427
11
30.758999
21
2.5824427
0
LINE
8
DEFAULT_255_2_778
10
30.758999
20
2.5824427
11
30.765299
21
2.6346427
0
LINE
8
DEFAULT_255_2_778
10
30.765299
20
2.6346427
11
30.773799
21
2.6840427
0
LINE
8
DEFAULT_255_2_778
10
30.773799
20
2.6840427
11
30.784599
21
2.7330427
0
LINE
8
DEFAULT_255_2_778
10
30.784599
20
2.7330427
11
30.804499
21
2.8015427
0
LINE
8
DEFAULT_255_2_778
10
30.804499
20
2.8015427
11
30.829399
21
2.8663427
0
LINE
8
DEFAULT_255_2_778
10
30.829399
20
2.8663427
11
30.873499
21
2.9502427
0
LINE
8
DEFAULT_255_2_778
10
30.873499
20
2.9502427
11
30.938299
21
3.0306427
0
LINE
8
DEFAULT_255_2_778
10
30.938299
20
3.0306427
11
31.030699
21
3.0949427
0
LINE
8
DEFAULT_255_2_778
10
31.030699
20
3.0949427
11
31.170099
21
3.1269427
0
LINE
8
DEFAULT_255_2_778
10
31.170099
20
3.1269427
11
31.312499
21
3.1058427
0
LINE
8
DEFAULT_255_2_778
10
31.312499
20
3.1058427
11
31.410099
21
3.0494427
0
LINE
8
DEFAULT_255_2_778
10
31.410099
20
3.0494427
11
31.475999
21
2.9798427
0
LINE
8
DEFAULT_255_2_778
10
31.475999
20
2.9798427
11
31.522799
21
2.9036427
0
LINE
8
DEFAULT_255_2_778
10
31.522799
20
2.9036427
11
31.558799
21
2.8208427
0
LINE
8
DEFAULT_255_2_778
10
31.558799
20
2.8208427
11
31.578899
21
2.7576427
0
LINE
8
DEFAULT_255_2_778
10
31.578899
20
2.7576427
11
31.591099
21
2.7089427
0
LINE
8
DEFAULT_255_2_778
10
31.591099
20
2.7089427
11
31.600599
21
2.6597427
0
LINE
8
DEFAULT_255_2_778
10
31.600599
20
2.6597427
11
31.607699
21
2.6102427
0
LINE
8
DEFAULT_255_2_778
10
31.607699
20
2.6102427
11
31.610899
21
2.5830427
0
LINE
8
DEFAULT_255_2_778
10
31.610899
20
2.5830427
11
31.610899
21
2.3062427
0
LINE
8
DEFAULT_255_2_778
10
31.610899
20
2.3062427
11
31.604599
21
2.2533427
0
LINE
8
DEFAULT_255_2_778
10
31.604599
20
2.2533427
11
31.596399
21
2.2030427
0
LINE
8
DEFAULT_255_2_778
10
31.596399
20
2.2030427
11
31.585799
21
2.1533427
0
LINE
8
DEFAULT_255_2_778
10
31.585799
20
2.1533427
11
31.566199
21
2.0837427
0
LINE
8
DEFAULT_255_2_778
10
31.566199
20
2.0837427
11
31.541599
21
2.0178427
0
LINE
8
DEFAULT_255_2_778
10
31.541599
20
2.0178427
11
31.497699
21
1.9318427
0
LINE
8
DEFAULT_255_2_778
10
31.497699
20
1.9318427
11
31.432599
21
1.8490427
0
LINE
8
DEFAULT_255_2_778
10
31.432599
20
1.8490427
11
31.339999
21
1.7829427
0
LINE
8
DEFAULT_255_2_778
10
31.339999
20
1.7829427
11
31.214299
21
1.7506427
0
LINE
8
DEFAULT_255_2_778
10
31.214299
20
1.7506427
11
31.070399
21
1.7667427
0
LINE
8
DEFAULT_255_2_778
10
31.070399
20
1.7667427
11
30.969799
21
1.8207427
0
LINE
8
DEFAULT_255_2_778
10
30.969799
20
1.8207427
11
30.903699
21
1.8869427
0
LINE
8
DEFAULT_255_2_778
10
30.903699
20
1.8869427
11
30.854199
21
1.9636427
0
LINE
8
DEFAULT_255_2_778
10
30.854199
20
1.9636427
11
30.838099
21
1.9956427
0
LINE
8
DEFAULT_255_2_778
10
30.675899
20
3.0285427
11
30.626399
21
2.9359427
0
LINE
8
DEFAULT_255_2_778
10
30.626399
20
2.9359427
11
30.596499
21
2.8632427
0
LINE
8
DEFAULT_255_2_778
10
30.596499
20
2.8632427
11
30.578199
21
2.8081427
0
LINE
8
DEFAULT_255_2_778
10
30.578199
20
2.8081427
11
30.563199
21
2.7523427
0
LINE
8
DEFAULT_255_2_778
10
30.563199
20
2.7523427
11
30.550999
21
2.6957427
0
LINE
8
DEFAULT_255_2_778
10
30.550999
20
2.6957427
11
30.545999
21
2.6671427
0
LINE
8
DEFAULT_255_2_778
10
30.545999
20
2.6671427
11
30.540699
21
2.6308427
0
LINE
8
DEFAULT_255_2_778
10
30.540699
20
2.6308427
11
30.536399
21
2.5943427
0
LINE
8
DEFAULT_255_2_778
10
30.536399
20
2.5943427
11
30.533299
21
2.5578427
0
LINE
8
DEFAULT_255_2_778
10
30.533299
20
2.5578427
11
30.532999
21
2.3358427
0
LINE
8
DEFAULT_255_2_778
10
30.532999
20
2.3358427
11
30.536199
21
2.2985427
0
LINE
8
DEFAULT_255_2_778
10
30.536199
20
2.2985427
11
30.540399
21
2.2615427
0
LINE
8
DEFAULT_255_2_778
10
30.540399
20
2.2615427
11
30.545699
21
2.2245427
0
LINE
8
DEFAULT_255_2_778
10
30.545699
20
2.2245427
11
30.556299
21
2.1668427
0
LINE
8
DEFAULT_255_2_778
10
30.556299
20
2.1668427
11
30.569499
21
2.1096427
0
LINE
8
DEFAULT_255_2_778
10
30.569499
20
2.1096427
11
30.585899
21
2.0533427
0
LINE
8
DEFAULT_255_2_778
10
30.585899
20
2.0533427
11
30.614999
21
1.9739427
0
LINE
8
DEFAULT_255_2_778
10
30.614999
20
1.9739427
11
30.650199
21
1.8987427
0
LINE
8
DEFAULT_255_2_778
10
30.650199
20
1.8987427
11
30.703399
21
1.8106427
0
LINE
8
DEFAULT_255_2_778
10
30.703399
20
1.8106427
11
30.762099
21
1.7366427
0
LINE
8
DEFAULT_255_2_778
10
30.762099
20
1.7366427
11
30.847299
21
1.6601427
0
LINE
8
DEFAULT_255_2_778
10
30.847299
20
1.6601427
11
30.961699
21
1.5969427
0
LINE
8
DEFAULT_255_2_778
10
30.961699
20
1.5969427
11
31.093099
21
1.5625427
0
LINE
8
DEFAULT_255_2_778
10
31.093099
20
1.5625427
11
31.253799
21
1.5598427
0
LINE
8
DEFAULT_255_2_778
10
31.253799
20
1.5598427
11
31.387899
21
1.5892427
0
LINE
8
DEFAULT_255_2_778
10
31.387899
20
1.5892427
11
31.504799
21
1.6477427
0
LINE
8
DEFAULT_255_2_778
10
31.504799
20
1.6477427
11
31.591599
21
1.7194427
0
LINE
8
DEFAULT_255_2_778
10
31.591599
20
1.7194427
11
31.666499
21
1.8106427
0
LINE
8
DEFAULT_255_2_778
10
31.666499
20
1.8106427
11
31.719399
21
1.8987427
0
LINE
8
DEFAULT_255_2_778
10
31.719399
20
1.8987427
11
31.754599
21
1.9742427
0
LINE
8
DEFAULT_255_2_778
10
31.754599
20
1.9742427
11
31.783699
21
2.0538427
0
LINE
8
DEFAULT_255_2_778
10
31.783699
20
2.0538427
11
31.800099
21
2.1101427
0
LINE
8
DEFAULT_255_2_778
10
31.800099
20
2.1101427
11
31.813299
21
2.1673427
0
LINE
8
DEFAULT_255_2_778
10
31.813299
20
2.1673427
11
31.823899
21
2.2250427
0
LINE
8
DEFAULT_255_2_778
10
31.823899
20
2.2250427
11
31.829199
21
2.2618427
0
LINE
8
DEFAULT_255_2_778
10
31.829199
20
2.2618427
11
31.833399
21
2.2988427
0
LINE
8
DEFAULT_255_2_778
10
31.833399
20
2.2988427
11
31.836599
21
2.3358427
0
LINE
8
DEFAULT_255_2_778
10
31.836599
20
2.3358427
11
31.836599
21
2.5576427
0
LINE
8
DEFAULT_255_2_778
10
31.836599
20
2.5576427
11
31.833399
21
2.5941427
0
LINE
8
DEFAULT_255_2_778
10
31.833399
20
2.5941427
11
31.829199
21
2.6306427
0
LINE
8
DEFAULT_255_2_778
10
31.829199
20
2.6306427
11
31.823899
21
2.6668427
0
LINE
8
DEFAULT_255_2_778
10
31.823899
20
2.6668427
11
31.813299
21
2.7237427
0
LINE
8
DEFAULT_255_2_778
10
31.813299
20
2.7237427
11
31.799799
21
2.7801427
0
LINE
8
DEFAULT_255_2_778
10
31.799799
20
2.7801427
11
31.783199
21
2.8356427
0
LINE
8
DEFAULT_255_2_778
10
31.783199
20
2.8356427
11
31.753499
21
2.9140427
0
LINE
8
DEFAULT_255_2_778
10
31.753499
20
2.9140427
11
31.717799
21
2.9880427
0
LINE
8
DEFAULT_255_2_778
10
31.717799
20
2.9880427
11
31.664399
21
3.0740427
0
LINE
8
DEFAULT_255_2_778
10
31.664399
20
3.0740427
11
31.589699
21
3.1624427
0
LINE
8
DEFAULT_255_2_778
10
31.589699
20
3.1624427
11
31.503299
21
3.2317427
0
LINE
8
DEFAULT_255_2_778
10
31.503299
20
3.2317427
11
31.387099
21
3.2883427
0
LINE
8
DEFAULT_255_2_778
10
31.387099
20
3.2883427
11
31.230999
21
3.3185427
0
LINE
8
DEFAULT_255_2_778
10
31.230999
20
3.3185427
11
31.071999
21
3.3106427
0
LINE
8
DEFAULT_255_2_778
10
31.071999
20
3.3106427
11
30.943899
21
3.2725427
0
LINE
8
DEFAULT_255_2_778
10
30.943899
20
3.2725427
11
30.832499
21
3.2068427
0
LINE
8
DEFAULT_255_2_778
10
30.832499
20
3.2068427
11
30.749499
21
3.1288427
0
LINE
8
DEFAULT_255_2_778
10
30.749499
20
3.1288427
11
30.675899
21
3.0285427
0
LINE
8
DEFAULT_255_2_778
10
33.4368323
20
1.5944739
11
33.2656323
21
2.0378739
0
LINE
8
DEFAULT_255_2_778
10
33.2656323
20
2.0378739
11
32.4655323
21
2.0378739
0
LINE
8
DEFAULT_255_2_778
10
32.4655323
20
2.0378739
11
32.2967323
21
1.5944739
0
LINE
8
DEFAULT_255_2_778
10
32.2967323
20
1.5944739
11
32.0390323
21
1.5944739
0
LINE
8
DEFAULT_255_2_778
10
32.0390323
20
1.5944739
11
32.7367323
21
3.2943739
0
LINE
8
DEFAULT_255_2_778
10
32.7367323
20
3.2943739
11
32.9921323
21
3.2943739
0
LINE
8
DEFAULT_255_2_778
10
32.9921323
20
3.2943739
11
33.6897323
21
1.5944739
0
LINE
8
DEFAULT_255_2_778
10
33.6897323
20
1.5944739
11
33.4368323
21
1.5944739
0
LINE
8
DEFAULT_255_2_778
10
33.1923323
20
2.2304739
11
32.8658323
21
3.0750739
0
LINE
8
DEFAULT_255_2_778
10
32.8658323
20
3.0750739
11
32.5406323
21
2.2304739
0
LINE
8
DEFAULT_255_2_778
10
32.5406323
20
2.2304739
11
33.1923323
21
2.2304739
0
LINE
8
DEFAULT_255_2_778
10
35.454299
20
3.0285427
11
35.404799
21
2.9359427
0
LINE
8
DEFAULT_255_2_778
10
35.404799
20
2.9359427
11
35.374899
21
2.8632427
0
LINE
8
DEFAULT_255_2_778
10
35.374899
20
2.8632427
11
35.356599
21
2.8081427
0
LINE
8
DEFAULT_255_2_778
10
35.356599
20
2.8081427
11
35.341599
21
2.7523427
0
LINE
8
DEFAULT_255_2_778
10
35.341599
20
2.7523427
11
35.329399
21
2.6957427
0
LINE
8
DEFAULT_255_2_778
10
35.329399
20
2.6957427
11
35.324399
21
2.6671427
0
LINE
8
DEFAULT_255_2_778
10
35.324399
20
2.6671427
11
35.319099
21
2.6308427
0
LINE
8
DEFAULT_255_2_778
10
35.319099
20
2.6308427
11
35.314799
21
2.5943427
0
LINE
8
DEFAULT_255_2_778
10
35.314799
20
2.5943427
11
35.311699
21
2.5578427
0
LINE
8
DEFAULT_255_2_778
10
35.311699
20
2.5578427
11
35.311399
21
2.3358427
0
LINE
8
DEFAULT_255_2_778
10
35.311399
20
2.3358427
11
35.314599
21
2.2985427
0
LINE
8
DEFAULT_255_2_778
10
35.314599
20
2.2985427
11
35.318799
21
2.2615427
0
LINE
8
DEFAULT_255_2_778
10
35.318799
20
2.2615427
11
35.324099
21
2.2244427
0
LINE
8
DEFAULT_255_2_778
10
35.324099
20
2.2244427
11
35.334699
21
2.1668427
0
LINE
8
DEFAULT_255_2_778
10
35.334699
20
2.1668427
11
35.347899
21
2.1096427
0
LINE
8
DEFAULT_255_2_778
10
35.347899
20
2.1096427
11
35.364299
21
2.0533427
0
LINE
8
DEFAULT_255_2_778
10
35.364299
20
2.0533427
11
35.393399
21
1.9739427
0
LINE
8
DEFAULT_255_2_778
10
35.393399
20
1.9739427
11
35.428599
21
1.8987427
0
LINE
8
DEFAULT_255_2_778
10
35.428599
20
1.8987427
11
35.481799
21
1.8106427
0
LINE
8
DEFAULT_255_2_778
10
35.481799
20
1.8106427
11
35.540499
21
1.7366427
0
LINE
8
DEFAULT_255_2_778
10
35.540499
20
1.7366427
11
35.625699
21
1.6601427
0
LINE
8
DEFAULT_255_2_778
10
35.625699
20
1.6601427
11
35.739999
21
1.5969427
0
LINE
8
DEFAULT_255_2_778
10
35.739999
20
1.5969427
11
35.871499
21
1.5625427
0
LINE
8
DEFAULT_255_2_778
10
35.871499
20
1.5625427
11
36.032099
21
1.5598427
0
LINE
8
DEFAULT_255_2_778
10
36.032099
20
1.5598427
11
36.166299
21
1.5892427
0
LINE
8
DEFAULT_255_2_778
10
36.166299
20
1.5892427
11
36.283199
21
1.6477427
0
LINE
8
DEFAULT_255_2_778
10
36.283199
20
1.6477427
11
36.369999
21
1.7194427
0
LINE
8
DEFAULT_255_2_778
10
36.369999
20
1.7194427
11
36.444899
21
1.8106427
0
LINE
8
DEFAULT_255_2_778
10
36.444899
20
1.8106427
11
36.497799
21
1.8987427
0
LINE
8
DEFAULT_255_2_778
10
36.497799
20
1.8987427
11
36.532999
21
1.9742427
0
LINE
8
DEFAULT_255_2_778
10
36.532999
20
1.9742427
11
36.562099
21
2.0538427
0
LINE
8
DEFAULT_255_2_778
10
36.562099
20
2.0538427
11
36.578499
21
2.1101427
0
LINE
8
DEFAULT_255_2_778
10
36.578499
20
2.1101427
11
36.591699
21
2.1673427
0
LINE
8
DEFAULT_255_2_778
10
36.591699
20
2.1673427
11
36.602299
21
2.2250427
0
LINE
8
DEFAULT_255_2_778
10
36.602299
20
2.2250427
11
36.607599
21
2.2618427
0
LINE
8
DEFAULT_255_2_778
10
36.607599
20
2.2618427
11
36.611799
21
2.2988427
0
LINE
8
DEFAULT_255_2_778
10
36.611799
20
2.2988427
11
36.614999
21
2.3358427
0
LINE
8
DEFAULT_255_2_778
10
36.614999
20
2.3358427
11
36.614999
21
2.5576427
0
LINE
8
DEFAULT_255_2_778
10
36.614999
20
2.5576427
11
36.611799
21
2.5941427
0
LINE
8
DEFAULT_255_2_778
10
36.611799
20
2.5941427
11
36.607599
21
2.6306427
0
LINE
8
DEFAULT_255_2_778
10
36.607599
20
2.6306427
11
36.602299
21
2.6668427
0
LINE
8
DEFAULT_255_2_778
10
36.602299
20
2.6668427
11
36.591699
21
2.7237427
0
LINE
8
DEFAULT_255_2_778
10
36.591699
20
2.7237427
11
36.578199
21
2.7801427
0
LINE
8
DEFAULT_255_2_778
10
36.578199
20
2.7801427
11
36.561599
21
2.8356427
0
LINE
8
DEFAULT_255_2_778
10
36.561599
20
2.8356427
11
36.531899
21
2.9140427
0
LINE
8
DEFAULT_255_2_778
10
36.531899
20
2.9140427
11
36.496199
21
2.9880427
0
LINE
8
DEFAULT_255_2_778
10
36.496199
20
2.9880427
11
36.442799
21
3.0740427
0
LINE
8
DEFAULT_255_2_778
10
36.442799
20
3.0740427
11
36.368099
21
3.1624427
0
LINE
8
DEFAULT_255_2_778
10
36.368099
20
3.1624427
11
36.281599
21
3.2317427
0
LINE
8
DEFAULT_255_2_778
10
36.281599
20
3.2317427
11
36.165499
21
3.2883427
0
LINE
8
DEFAULT_255_2_778
10
36.165499
20
3.2883427
11
36.009399
21
3.3185427
0
LINE
8
DEFAULT_255_2_778
10
36.009399
20
3.3185427
11
35.850399
21
3.3106427
0
LINE
8
DEFAULT_255_2_778
10
35.850399
20
3.3106427
11
35.722299
21
3.2725427
0
LINE
8
DEFAULT_255_2_778
10
35.722299
20
3.2725427
11
35.610899
21
3.2068427
0
LINE
8
DEFAULT_255_2_778
10
35.610899
20
3.2068427
11
35.527799
21
3.1288427
0
LINE
8
DEFAULT_255_2_778
10
35.527799
20
3.1288427
11
35.454299
21
3.0285427
0
LINE
8
DEFAULT_255_2_778
10
35.616499
20
1.9956427
11
35.589699
21
2.0609427
0
LINE
8
DEFAULT_255_2_778
10
35.589699
20
2.0609427
11
35.568799
21
2.1281427
0
LINE
8
DEFAULT_255_2_778
10
35.568799
20
2.1281427
11
35.556899
21
2.1776427
0
LINE
8
DEFAULT_255_2_778
10
35.556899
20
2.1776427
11
35.547399
21
2.2276427
0
LINE
8
DEFAULT_255_2_778
10
35.547399
20
2.2276427
11
35.540299
21
2.2779427
0
LINE
8
DEFAULT_255_2_778
10
35.540299
20
2.2779427
11
35.537399
21
2.3057427
0
LINE
8
DEFAULT_255_2_778
10
35.537399
20
2.3057427
11
35.537399
21
2.5824427
0
LINE
8
DEFAULT_255_2_778
10
35.537399
20
2.5824427
11
35.543699
21
2.6346427
0
LINE
8
DEFAULT_255_2_778
10
35.543699
20
2.6346427
11
35.552199
21
2.6840427
0
LINE
8
DEFAULT_255_2_778
10
35.552199
20
2.6840427
11
35.562999
21
2.7330427
0
LINE
8
DEFAULT_255_2_778
10
35.562999
20
2.7330427
11
35.582899
21
2.8015427
0
LINE
8
DEFAULT_255_2_778
10
35.582899
20
2.8015427
11
35.607699
21
2.8663427
0
LINE
8
DEFAULT_255_2_778
10
35.607699
20
2.8663427
11
35.651899
21
2.9502427
0
LINE
8
DEFAULT_255_2_778
10
35.651899
20
2.9502427
11
35.716699
21
3.0306427
0
LINE
8
DEFAULT_255_2_778
10
35.716699
20
3.0306427
11
35.809099
21
3.0949427
0
LINE
8
DEFAULT_255_2_778
10
35.809099
20
3.0949427
11
35.948499
21
3.1269427
0
LINE
8
DEFAULT_255_2_778
10
35.948499
20
3.1269427
11
36.090899
21
3.1058427
0
LINE
8
DEFAULT_255_2_778
10
36.090899
20
3.1058427
11
36.188499
21
3.0494427
0
LINE
8
DEFAULT_255_2_778
10
36.188499
20
3.0494427
11
36.254399
21
2.9798427
0
LINE
8
DEFAULT_255_2_778
10
36.254399
20
2.9798427
11
36.301199
21
2.9036427
0
LINE
8
DEFAULT_255_2_778
10
36.301199
20
2.9036427
11
36.337199
21
2.8208427
0
LINE
8
DEFAULT_255_2_778
10
36.337199
20
2.8208427
11
36.357299
21
2.7576427
0
LINE
8
DEFAULT_255_2_778
10
36.357299
20
2.7576427
11
36.369499
21
2.7089427
0
LINE
8
DEFAULT_255_2_778
10
36.369499
20
2.7089427
11
36.378999
21
2.6597427
0
LINE
8
DEFAULT_255_2_778
10
36.378999
20
2.6597427
11
36.386099
21
2.6102427
0
LINE
8
DEFAULT_255_2_778
10
36.386099
20
2.6102427
11
36.389299
21
2.5830427
0
LINE
8
DEFAULT_255_2_778
10
36.389299
20
2.5830427
11
36.389299
21
2.3062427
0
LINE
8
DEFAULT_255_2_778
10
36.389299
20
2.3062427
11
36.382999
21
2.2533427
0
LINE
8
DEFAULT_255_2_778
10
36.382999
20
2.2533427
11
36.374799
21
2.2030427
0
LINE
8
DEFAULT_255_2_778
10
36.374799
20
2.2030427
11
36.364199
21
2.1533427
0
LINE
8
DEFAULT_255_2_778
10
36.364199
20
2.1533427
11
36.344599
21
2.0837427
0
LINE
8
DEFAULT_255_2_778
10
36.344599
20
2.0837427
11
36.319999
21
2.0178427
0
LINE
8
DEFAULT_255_2_778
10
36.319999
20
2.0178427
11
36.276099
21
1.9318427
0
LINE
8
DEFAULT_255_2_778
10
36.276099
20
1.9318427
11
36.210999
21
1.8490427
0
LINE
8
DEFAULT_255_2_778
10
36.210999
20
1.8490427
11
36.118399
21
1.7829427
0
LINE
8
DEFAULT_255_2_778
10
36.118399
20
1.7829427
11
35.992699
21
1.7506427
0
LINE
8
DEFAULT_255_2_778
10
35.992699
20
1.7506427
11
35.848799
21
1.7667427
0
LINE
8
DEFAULT_255_2_778
10
35.848799
20
1.7667427
11
35.748199
21
1.8207427
0
LINE
8
DEFAULT_255_2_778
10
35.748199
20
1.8207427
11
35.682099
21
1.8868427
0
LINE
8
DEFAULT_255_2_778
10
35.682099
20
1.8868427
11
35.632599
21
1.9636427
0
LINE
8
DEFAULT_255_2_778
10
35.632599
20
1.9636427
11
35.616499
21
1.9956427
0
ENDSEC
0
EOF