0
SECTION
2
HEADER
9
$MEASUREMENT
70
1
0
ENDSEC
0
SECTION
2
TABLES
0
TABLE
2
LTYPE
0
LTYPE
72
65
70
64
2
CONTINUOUS
3
______
73
0
40
0
0
ENDTAB
0
TABLE
2
LAYER
0
LAYER
2
DEFAULT_255_2_778
70
0
62
255
6
CONTINUOUS
0
LAYER
2
DEFAULT_255_1_388
70
0
62
255
6
CONTINUOUS
0
ENDTAB
0
ENDSEC
0
SECTION
2
ENTITIES
0
ARC
8
DEFAULT_255_2_778
10
3.5695693
20
202.8052013
40
0.7914215
50
129.1312896
51
180.1450914
0
ARC
8
DEFAULT_255_2_778
10
3.5698345
20
202.8056884
40
0.7912112
50
89.854026
51
129.1684493
0
ARC
8
DEFAULT_255_2_778
10
25.7988937
20
202.8053749
40
0.7915249
50
39.4792447
51
90.147911
0
ARC
8
DEFAULT_255_2_778
10
25.7994935
20
202.8052216
40
0.7911595
50
359.8533901
51
39.5154338
0
ARC
8
DEFAULT_255_2_778
10
25.7991693
20
-1.986351
40
0.7914836
50
309.4761667
51
0.1482649
0
ARC
8
DEFAULT_255_2_778
10
25.798898
20
-1.9867821
40
0.7913235
50
269.8517415
51
309.511178
0
ARC
8
DEFAULT_255_2_778
10
3.569842
20
-1.9867239
40
0.7913815
50
219.1282118
51
270.1454017
0
ARC
8
DEFAULT_255_2_778
10
3.5695247
20
-1.9863414
40
0.7913769
50
179.8524075
51
219.1641908
0
LINE
8
DEFAULT_255_2_778
10
3.5718503
20
203.5968971
11
25.7968503
21
203.5968971
0
LINE
8
DEFAULT_255_2_778
10
26.5906503
20
202.8031971
11
26.5906503
21
-1.9843029
0
LINE
8
DEFAULT_255_2_778
10
25.7968503
20
-2.7781029
11
3.5718503
21
-2.7781029
0
LINE
8
DEFAULT_255_2_778
10
2.7781503
20
-1.9843029
11
2.7781503
21
202.8031971
0
LINE
8
DEFAULT_255_1_388
10
5.8453015
20
0.6766934
11
5.8751191
21
0.6766934
0
LINE
8
DEFAULT_255_1_388
10
5.8751191
20
0.6766934
11
5.8751191
21
0.5348338
0
LINE
8
DEFAULT_255_1_388
10
5.8751191
20
0.5348338
11
5.8443979
21
0.5348338
0
LINE
8
DEFAULT_255_1_388
10
5.2290705
20
-0.1392253
11
5.2290705
21
-0.0750722
0
LINE
8
DEFAULT_255_1_388
10
5.3971335
20
-0.0967578
11
5.3971335
21
-0.1582001
0
ARC
8
DEFAULT_255_1_388
10
5.8502871
20
-0.0274174
40
0.562282
50
90.6001079
51
104.5146616
0
ARC
8
DEFAULT_255_1_388
10
5.806583
20
0.13511
40
0.3939917
50
104.2855758
51
133.8630124
0
ARC
8
DEFAULT_255_1_388
10
5.8250083
20
0.1229243
40
0.4155734
50
134.5304124
51
161.6210222
0
ARC
8
DEFAULT_255_1_388
10
6.0110015
20
0.0573421
40
0.6127682
50
161.2850533
51
174.2074364
0
ARC
8
DEFAULT_255_1_388
10
6.1699582
20
0.0354437
40
0.7731446
50
173.7817938
51
174.9251711
0
ARC
8
DEFAULT_255_1_388
10
5.6573775
20
-0.120073
40
0.3412588
50
95.8332067
51
138.995412
0
ARC
8
DEFAULT_255_1_388
10
5.6825056
20
-0.2639305
40
0.4870358
50
89.8755506
51
97.0540979
0
ARC
8
DEFAULT_255_1_388
10
5.6878445
20
-0.1699159
40
0.3930432
50
71.6407016
51
90.6240821
0
ARC
8
DEFAULT_255_1_388
10
5.7047838
20
-0.1075567
40
0.3285421
50
39.6368051
51
71.0190743
0
ARC
8
DEFAULT_255_1_388
10
5.6331746
20
-0.1694414
40
0.4231706
50
10.6588054
51
39.9044509
0
ARC
8
DEFAULT_255_1_388
10
5.4590291
20
-0.2072777
40
0.60133
50
359.6827842
51
11.1326896
0
ARC
8
DEFAULT_255_1_388
10
5.4545627
20
-0.2152285
40
0.6058047
50
347.2485908
51
0.4371098
0
ARC
8
DEFAULT_255_1_388
10
5.6421413
20
-0.2603621
40
0.4128987
50
318.1408565
51
347.6118497
0
ARC
8
DEFAULT_255_1_388
10
5.6787009
20
-0.2904097
40
0.3656244
50
275.6342406
51
317.824739
0
ARC
8
DEFAULT_255_1_388
10
5.653853
20
-0.1442173
40
0.513655
50
269.8872513
51
276.7916069
0
ARC
8
DEFAULT_255_1_388
10
5.6476723
20
-0.2595819
40
0.398323
50
246.9139443
51
270.7436787
0
ARC
8
DEFAULT_255_1_388
10
5.6483919
20
-0.2755956
40
0.3839368
50
218.1665534
51
245.8780431
0
ARC
8
DEFAULT_255_1_388
10
5.7473291
20
-0.1928097
40
0.5128958
50
191.4115343
51
218.6077624
0
ARC
8
DEFAULT_255_1_388
10
5.9653607
20
-0.1439223
40
0.7363054
50
179.6344971
51
191.7836758
0
ARC
8
DEFAULT_255_1_388
10
6.5933482
20
-0.0675505
40
1.3642984
50
171.4523743
51
180.3158856
0
ARC
8
DEFAULT_255_1_388
10
6.0989209
20
0.0093895
40
0.8639311
50
157.9802296
51
171.6246761
0
ARC
8
DEFAULT_255_1_388
10
5.8498559
20
0.1087038
40
0.5958004
50
141.4299236
51
157.8541251
0
ARC
8
DEFAULT_255_1_388
10
5.7776643
20
0.1597746
40
0.5075416
50
102.871586
51
140.8564533
0
ARC
8
DEFAULT_255_1_388
10
5.8505195
20
-0.1147057
40
0.7914163
50
90.377773
51
103.5868422
0
ARC
8
DEFAULT_255_1_388
10
5.6549717
20
-0.1827457
40
0.2667015
50
89.8751238
51
126.2072139
0
ARC
8
DEFAULT_255_1_388
10
5.6601188
20
-0.2001153
40
0.2838229
50
124.9742447
51
144.8960197
0
ARC
8
DEFAULT_255_1_388
10
5.6403433
20
-0.1840019
40
0.2583845
50
145.2974778
51
160.2660922
0
ARC
8
DEFAULT_255_1_388
10
5.9859921
20
-0.1617849
40
0.5888695
50
179.6512124
51
190.285571
0
ARC
8
DEFAULT_255_1_388
10
5.7954401
20
-0.1977032
40
0.3949683
50
190.0944895
51
207.5099647
0
ARC
8
DEFAULT_255_1_388
10
5.7317982
20
-0.2279823
40
0.3245464
50
207.9585471
51
216.325377
0
ARC
8
DEFAULT_255_1_388
10
5.6935619
20
-0.2594288
40
0.2751259
50
215.7661336
51
232.5457193
0
ARC
8
DEFAULT_255_1_388
10
5.6504735
20
-0.3141727
40
0.2054668
50
232.8005815
51
270.6605497
0
ARC
8
DEFAULT_255_1_388
10
5.655616
20
-0.2732147
40
0.2464268
50
269.3550767
51
288.474612
0
ARC
8
DEFAULT_255_1_388
10
5.6660667
20
-0.3125279
40
0.2058436
50
289.1831976
51
322.9685307
0
ARC
8
DEFAULT_255_1_388
10
5.5972768
20
-0.2582721
40
0.2934408
50
322.6007085
51
346.5183319
0
ARC
8
DEFAULT_255_1_388
10
5.4670524
20
-0.2250566
40
0.4278249
50
346.2584622
51
358.7739592
0
ARC
8
DEFAULT_255_1_388
10
5.35191
20
-0.2188171
40
0.5430876
50
358.3757628
51
0.0082477
0
ARC
8
DEFAULT_255_1_388
10
5.4375918
20
-0.2157144
40
0.4574157
50
359.6211417
51
11.28403
0
ARC
8
DEFAULT_255_1_388
10
5.5812524
20
-0.1857465
40
0.3106708
50
11.0483152
51
31.8145585
0
ARC
8
DEFAULT_255_1_388
10
5.6160229
20
-0.1668955
40
0.2711963
50
32.3028554
51
38.0820598
0
ARC
8
DEFAULT_255_1_388
10
5.6633462
20
-0.1240283
40
0.2075566
50
36.8249851
51
85.741667
0
ARC
8
DEFAULT_255_1_388
10
5.6557875
20
-0.1803935
40
0.2643487
50
85.0150021
51
90.050843
0
LINE
8
DEFAULT_255_1_388
10
7.0452351
20
0.1101585
11
7.0452351
21
-0.0317011
0
LINE
8
DEFAULT_255_1_388
10
7.0452351
20
-0.0317011
11
6.4750859
21
-0.0317011
0
LINE
8
DEFAULT_255_1_388
10
6.4750859
20
-0.0317011
11
6.4750859
21
-0.4979404
0
LINE
8
DEFAULT_255_1_388
10
6.4750859
20
-0.4979404
11
7.1373986
21
-0.4979404
0
LINE
8
DEFAULT_255_1_388
10
7.1373986
20
-0.4979404
11
7.1373986
21
-0.6398
0
LINE
8
DEFAULT_255_1_388
10
7.1373986
20
-0.6398
11
6.3016015
21
-0.6398
0
LINE
8
DEFAULT_255_1_388
10
6.3016015
20
-0.6398
11
6.3016015
21
0.6757898
0
LINE
8
DEFAULT_255_1_388
10
6.3016015
20
0.6757898
11
7.128363
21
0.6757898
0
LINE
8
DEFAULT_255_1_388
10
7.128363
20
0.6757898
11
7.128363
21
0.5330267
0
LINE
8
DEFAULT_255_1_388
10
7.128363
20
0.5330267
11
6.4750859
21
0.5330267
0
LINE
8
DEFAULT_255_1_388
10
6.4750859
20
0.5330267
11
6.4750859
21
0.1101585
0
LINE
8
DEFAULT_255_1_388
10
6.4750859
20
0.1101585
11
7.0452351
21
0.1101585
0
LINE
8
DEFAULT_255_1_388
10
8.2261938
20
0.2953892
11
8.0518059
21
0.2953892
0
LINE
8
DEFAULT_255_1_388
10
7.2729333
20
-0.2584958
11
7.4473212
21
-0.2584958
0
ARC
8
DEFAULT_255_1_388
10
8.1258786
20
1.3017821
40
1.4087688
50
248.9196578
51
254.1442424
0
ARC
8
DEFAULT_255_1_388
10
7.9368666
20
0.8151805
40
0.8867498
50
241.6337352
51
249.0064643
0
ARC
8
DEFAULT_255_1_388
10
7.7648979
20
0.5000764
40
0.5277799
50
230.4982261
51
241.8087583
0
ARC
8
DEFAULT_255_1_388
10
7.676675
20
0.3876686
40
0.3849419
50
227.4062979
51
229.9877433
0
ARC
8
DEFAULT_255_1_388
10
7.6218097
20
0.3341155
40
0.3084129
50
200.6782127
51
228.1765252
0
ARC
8
DEFAULT_255_1_388
10
7.6299466
20
0.3324277
40
0.315461
50
179.506278
51
199.8695278
0
ARC
8
DEFAULT_255_1_388
10
7.6289054
20
0.3407671
40
0.3144584
50
132.4834401
51
181.0242352
0
ARC
8
DEFAULT_255_1_388
10
7.6958259
20
0.2775788
40
0.4063094
50
129.2526113
51
133.4249077
0
ARC
8
DEFAULT_255_1_388
10
7.7123851
20
0.2527619
40
0.436014
50
101.9878945
51
128.8741833
0
ARC
8
DEFAULT_255_1_388
10
7.7572267
20
0.059136
40
0.6347415
50
89.5906376
51
102.3170567
0
ARC
8
DEFAULT_255_1_388
10
7.7651578
20
0.0949586
40
0.5989122
50
77.2359491
51
90.3248968
0
ARC
8
DEFAULT_255_1_388
10
7.7884509
20
0.2037554
40
0.4876594
50
63.8379856
51
77.0808925
0
ARC
8
DEFAULT_255_1_388
10
7.8197043
20
0.2619882
40
0.4216191
50
45.9863127
51
64.1608798
0
ARC
8
DEFAULT_255_1_388
10
7.8490436
20
0.295499
40
0.3771394
50
32.2747934
51
45.6544796
0
ARC
8
DEFAULT_255_1_388
10
7.8565243
20
0.2976426
40
0.3696765
50
359.6507495
51
32.6129943
0
ARC
8
DEFAULT_255_1_388
10
7.7504425
20
0.2981788
40
0.3013762
50
359.469654
51
14.983205
0
ARC
8
DEFAULT_255_1_388
10
7.8297678
20
0.3194288
40
0.2192542
50
14.9781954
51
48.2004799
0
ARC
8
DEFAULT_255_1_388
10
7.8112788
20
0.2961937
40
0.2489048
50
48.5926661
51
74.1242559
0
ARC
8
DEFAULT_255_1_388
10
7.7737591
20
0.1723607
40
0.3782845
50
73.7889321
51
86.6653996
0
ARC
8
DEFAULT_255_1_388
10
7.7622405
20
0.0365955
40
0.5145025
50
86.2642725
51
90.0533288
0
ARC
8
DEFAULT_255_1_388
10
7.7590498
20
0.0810376
40
0.4700681
50
89.669455
51
99.2313411
0
ARC
8
DEFAULT_255_1_388
10
7.7317658
20
0.2435401
40
0.3052945
50
99.0695987
51
113.7659242
0
ARC
8
DEFAULT_255_1_388
10
7.7009652
20
0.3161772
40
0.226407
50
114.0402885
51
127.9848946
0
ARC
8
DEFAULT_255_1_388
10
7.6739129
20
0.3494884
40
0.1835045
50
127.7287217
51
176.7106493
0
ARC
8
DEFAULT_255_1_388
10
7.7502794
20
0.338121
40
0.2604907
50
175.1780759
51
180.0581213
0
ARC
8
DEFAULT_255_1_388
10
7.6554137
20
0.3367411
40
0.1656287
50
179.6140658
51
228.124674
0
ARC
8
DEFAULT_255_1_388
10
7.7051495
20
0.382794
40
0.2332038
50
226.5785315
51
230.8792476
0
ARC
8
DEFAULT_255_1_388
10
7.7580981
20
0.4530908
40
0.3211664
50
231.4636401
51
241.9261664
0
ARC
8
DEFAULT_255_1_388
10
7.8927765
20
0.7009349
40
0.6032345
50
241.7177136
51
248.3259138
0
ARC
8
DEFAULT_255_1_388
10
8.0486359
20
1.0870771
40
1.0196417
50
248.2007377
51
252.4527713
0
ARC
8
DEFAULT_255_1_388
10
8.1839886
20
1.5055092
40
1.4594143
50
252.3388938
51
254.347037
0
ARC
8
DEFAULT_255_1_388
10
7.3355187
20
-1.5292905
40
1.6917621
50
71.0197462
51
74.4085467
0
ARC
8
DEFAULT_255_1_388
10
7.5262275
20
-0.9787856
40
1.1091618
50
66.1845203
51
71.086519
0
ARC
8
DEFAULT_255_1_388
10
7.7012823
20
-0.5846561
40
0.6779073
50
59.3537334
51
66.269255
0
ARC
8
DEFAULT_255_1_388
10
7.8012549
20
-0.4155223
40
0.4814366
50
49.1021732
51
59.3294421
0
ARC
8
DEFAULT_255_1_388
10
7.8933538
20
-0.3105425
40
0.3417875
50
32.7924183
51
49.2503526
0
ARC
8
DEFAULT_255_1_388
10
7.9283152
20
-0.2855689
40
0.2988789
50
31.121225
51
32.3977355
0
ARC
8
DEFAULT_255_1_388
10
7.919533
20
-0.2888272
40
0.3080861
50
8.1116803
51
30.7958224
0
ARC
8
DEFAULT_255_1_388
10
7.8283675
20
-0.3043563
40
0.4005385
50
359.8390945
51
8.4707348
0
ARC
8
DEFAULT_255_1_388
10
7.8987723
20
-0.3098249
40
0.3301608
50
337.4732479
51
0.7538283
0
ARC
8
DEFAULT_255_1_388
10
7.9188748
20
-0.3120446
40
0.3107929
50
307.5917028
51
336.4313755
0
ARC
8
DEFAULT_255_1_388
10
7.8677806
20
-0.2552491
40
0.3870096
50
307.6560665
51
308.4561779
0
ARC
8
DEFAULT_255_1_388
10
7.8412022
20
-0.2144168
40
0.435591
50
284.3733666
51
307.1426212
0
ARC
8
DEFAULT_255_1_388
10
7.7854917
20
-0.0094609
40
0.6479685
50
272.4384566
51
284.6464689
0
ARC
8
DEFAULT_255_1_388
10
7.7712302
20
0.1929434
40
0.8508149
50
269.9708517
51
272.8180721
0
ARC
8
DEFAULT_255_1_388
10
7.7663984
20
-0.0362717
40
0.6216151
50
248.2707343
51
270.4054609
0
ARC
8
DEFAULT_255_1_388
10
7.7602856
20
-0.0577327
40
0.5994203
50
246.1380358
51
248.054058
0
ARC
8
DEFAULT_255_1_388
10
7.7131998
20
-0.1566295
40
0.4899388
50
233.1671897
51
246.4951656
0
ARC
8
DEFAULT_255_1_388
10
7.6508633
20
-0.2407863
40
0.3852115
50
215.3403381
51
233.084328
0
ARC
8
DEFAULT_255_1_388
10
7.6201997
20
-0.2630907
40
0.3472969
50
179.2419235
51
215.2648426
0
ARC
8
DEFAULT_255_1_388
10
7.7065548
20
-0.2615021
40
0.259251
50
179.3355796
51
199.1045873
0
ARC
8
DEFAULT_255_1_388
10
7.669169
20
-0.2712777
40
0.2207454
50
199.8830064
51
232.7061328
0
ARC
8
DEFAULT_255_1_388
10
7.7222965
20
-0.2044544
40
0.306101
50
232.3736206
51
255.5136621
0
ARC
8
DEFAULT_255_1_388
10
7.760647
20
-0.0644823
40
0.4512213
50
255.2447928
51
267.5318292
0
ARC
8
DEFAULT_255_1_388
10
7.7704937
20
0.0741709
40
0.5901825
50
267.1564563
51
270.0294721
0
ARC
8
DEFAULT_255_1_388
10
7.7736263
20
0.0242623
40
0.5402814
50
269.6999944
51
278.1662446
0
ARC
8
DEFAULT_255_1_388
10
7.802429
20
-0.1704026
40
0.3435003
50
278.0229022
51
290.6255326
0
ARC
8
DEFAULT_255_1_388
10
7.8415457
20
-0.2747453
40
0.2320666
50
290.6616368
51
307.0374127
0
ARC
8
DEFAULT_255_1_388
10
7.8753357
20
-0.316196
40
0.1786372
50
306.3942078
51
355.303191
0
ARC
8
DEFAULT_255_1_388
10
7.817765
20
-0.3075814
40
0.2367516
50
354.3662092
51
0.0709489
0
ARC
8
DEFAULT_255_1_388
10
7.8337518
20
-0.3050439
40
0.2207761
50
359.4175379
51
16.1975911
0
ARC
8
DEFAULT_255_1_388
10
7.8849636
20
-0.2910046
40
0.1676828
50
16.4721294
51
52.6261798
0
ARC
8
DEFAULT_255_1_388
10
7.7926144
20
-0.4129394
40
0.3206412
50
52.7381828
51
62.4979144
0
ARC
8
DEFAULT_255_1_388
10
7.6367896
20
-0.7061764
40
0.6527035
50
62.2517425
51
68.1219454
0
ARC
8
DEFAULT_255_1_388
10
7.4433384
20
-1.1816049
40
1.1659797
50
68.006043
51
71.8055127
0
ARC
8
DEFAULT_255_1_388
10
7.2413292
20
-1.7874277
40
1.8045908
50
71.718361
51
73.9260743
0
LINE
8
DEFAULT_255_1_388
10
9.2571608
20
0.6757898
11
9.2571608
21
0.5818191
0
LINE
8
DEFAULT_255_1_388
10
9.2571608
20
0.5818191
11
8.7123115
21
-0.6398
0
LINE
8
DEFAULT_255_1_388
10
8.7123115
20
-0.6398
11
8.53702
21
-0.6398
0
LINE
8
DEFAULT_255_1_388
10
8.53702
20
-0.6398
11
9.0800622
21
0.538448
0
LINE
8
DEFAULT_255_1_388
10
9.0800622
20
0.538448
11
8.3680534
21
0.538448
0
LINE
8
DEFAULT_255_1_388
10
8.3680534
20
0.538448
11
8.3680534
21
0.6757898
0
LINE
8
DEFAULT_255_1_388
10
8.3680534
20
0.6757898
11
9.2571608
21
0.6757898
0
LINE
8
DEFAULT_255_1_388
10
9.6899682
20
-0.0371225
11
9.6899682
21
0.0993157
0
LINE
8
DEFAULT_255_1_388
10
9.6899682
20
0.0993157
11
9.8155637
21
0.0993157
0
LINE
8
DEFAULT_255_1_388
10
9.6014189
20
0.3306282
11
9.4342595
21
0.3306282
0
LINE
8
DEFAULT_255_1_388
10
9.4225131
20
-0.2928313
11
9.5905761
21
-0.2928313
0
LINE
8
DEFAULT_255_1_388
10
9.8155637
20
-0.0371225
11
9.6899682
21
-0.0371225
0
ARC
8
DEFAULT_255_1_388
10
9.8122863
20
0.4809922
40
0.3816905
50
270.491971
51
281.8953028
0
ARC
8
DEFAULT_255_1_388
10
9.839429
20
0.3570199
40
0.2547877
50
281.6690378
51
301.2943765
0
ARC
8
DEFAULT_255_1_388
10
9.8585741
20
0.3219926
40
0.2149197
50
301.7834992
51
311.754567
0
ARC
8
DEFAULT_255_1_388
10
9.8688783
20
0.310565
40
0.1995326
50
311.7325027
51
354.2803031
0
ARC
8
DEFAULT_255_1_388
10
9.7871199
20
0.324628
40
0.2823461
50
353.0941646
51
0.1174696
0
ARC
8
DEFAULT_255_1_388
10
9.7352757
20
0.3299874
40
0.3342238
50
359.1804452
51
15.0452323
0
ARC
8
DEFAULT_255_1_388
10
9.8866815
20
0.3741546
40
0.1765747
50
13.957816
51
77.6713812
0
ARC
8
DEFAULT_255_1_388
10
9.8432051
20
0.2183464
40
0.3381982
50
76.111571
51
90.7028736
0
ARC
8
DEFAULT_255_1_388
10
9.8365463
20
0.249125
40
0.3074046
50
89.5321574
51
103.5319393
0
ARC
8
DEFAULT_255_1_388
10
9.8139847
20
0.3390443
40
0.2147041
50
103.2930114
51
133.5619756
0
ARC
8
DEFAULT_255_1_388
10
9.8089788
20
0.3457351
40
0.2064084
50
133.8349761
51
173.5343225
0
ARC
8
DEFAULT_255_1_388
10
9.8903446
20
0.3313144
40
0.2889266
50
172.5097183
51
180.1360699
0
ARC
8
DEFAULT_255_1_388
10
9.783321
20
0.335188
40
0.3490913
50
155.3483706
51
180.7484035
0
ARC
8
DEFAULT_255_1_388
10
9.7778185
20
0.3319519
40
0.3454798
50
131.5745177
51
154.4799474
0
ARC
8
DEFAULT_255_1_388
10
9.8130468
20
0.2963422
40
0.3955058
50
96.9874487
51
131.9690874
0
ARC
8
DEFAULT_255_1_388
10
9.837736
20
0.1562407
40
0.537622
50
89.8592909
51
97.7827481
0
ARC
8
DEFAULT_255_1_388
10
9.8431469
20
0.126736
40
0.5671399
50
78.3654493
51
90.4132586
0
ARC
8
DEFAULT_255_1_388
10
9.8834111
20
0.3133918
40
0.3762034
50
56.6229818
51
78.6387103
0
ARC
8
DEFAULT_255_1_388
10
9.907594
20
0.3556846
40
0.3275964
50
47.0254604
51
56.085558
0
ARC
8
DEFAULT_255_1_388
10
9.9098191
20
0.3601189
40
0.3228382
50
10.9207523
51
46.777927
0
ARC
8
DEFAULT_255_1_388
10
9.7563785
20
0.3246401
40
0.4802559
50
359.6364235
51
11.6087615
0
ARC
8
DEFAULT_255_1_388
10
9.962795
20
0.3229404
40
0.273833
50
332.3549969
51
359.7179765
0
ARC
8
DEFAULT_255_1_388
10
9.8896351
20
0.3576285
40
0.3547505
50
325.2332381
51
332.8746682
0
ARC
8
DEFAULT_255_1_388
10
9.9067934
20
0.3456763
40
0.3338396
50
292.9803892
51
325.2391113
0
ARC
8
DEFAULT_255_1_388
10
9.875713
20
0.4061679
40
0.4016959
50
292.542178
51
293.6931461
0
ARC
8
DEFAULT_255_1_388
10
9.9200702
20
-0.3203964
40
0.372079
50
57.643292
51
72.8626085
0
ARC
8
DEFAULT_255_1_388
10
9.9599536
20
-0.2557727
40
0.2961455
50
36.7246661
51
57.4701329
0
ARC
8
DEFAULT_255_1_388
10
9.9586693
20
-0.254353
40
0.2963321
50
8.054535
51
36.3561529
0
ARC
8
DEFAULT_255_1_388
10
9.8616366
20
-0.2717927
40
0.3948682
50
359.8316595
51
8.5873361
0
ARC
8
DEFAULT_255_1_388
10
9.819384
20
-0.277203
40
0.4371398
50
343.9831631
51
0.557075
0
ARC
8
DEFAULT_255_1_388
10
9.9190889
20
-0.3045037
40
0.3337749
50
311.6358204
51
343.7652116
0
ARC
8
DEFAULT_255_1_388
10
9.8765143
20
-0.2565045
40
0.3979351
50
279.7829743
51
311.625622
0
ARC
8
DEFAULT_255_1_388
10
9.8426278
20
-0.0948358
40
0.5630417
50
269.7285092
51
280.3857694
0
ARC
8
DEFAULT_255_1_388
10
9.8356591
20
-0.0994759
40
0.5584119
50
256.6827433
51
270.4412869
0
ARC
8
DEFAULT_255_1_388
10
9.7975578
20
-0.2552302
40
0.3980715
50
229.4223821
51
256.8554507
0
ARC
8
DEFAULT_255_1_388
10
9.7509131
20
-0.3077317
40
0.3278564
50
181.8183354
51
229.6455015
0
ARC
8
DEFAULT_255_1_388
10
9.8678741
20
-0.2930175
40
0.4453611
50
179.9760419
51
183.2330638
0
ARC
8
DEFAULT_255_1_388
10
9.8485293
20
-0.2953219
40
0.2579652
50
179.4467996
51
196.2871626
0
ARC
8
DEFAULT_255_1_388
10
9.7936747
20
-0.3103291
40
0.2011057
50
196.5661293
51
227.7059371
0
ARC
8
DEFAULT_255_1_388
10
9.8121354
20
-0.2896845
40
0.2287994
50
227.7653015
51
257.8763321
0
ARC
8
DEFAULT_255_1_388
10
9.8374437
20
-0.1836039
40
0.3378385
50
257.4583525
51
270.4267406
0
ARC
8
DEFAULT_255_1_388
10
9.8425686
20
-0.150977
40
0.3704652
50
269.5965319
51
280.8788143
0
ARC
8
DEFAULT_255_1_388
10
9.8683915
20
-0.2799471
40
0.2389415
50
280.6347277
51
299.8594068
0
ARC
8
DEFAULT_255_1_388
10
9.8898684
20
-0.3207264
40
0.19289
50
300.3575552
51
314.5515667
0
ARC
8
DEFAULT_255_1_388
10
9.880536
20
-0.3138975
40
0.204312
50
315.0730962
51
345.0429362
0
ARC
8
DEFAULT_255_1_388
10
9.7766867
20
-0.2836461
40
0.31246
50
344.598526
51
357.9270698
0
ARC
8
DEFAULT_255_1_388
10
9.6757172
20
-0.2767295
40
0.4136265
50
357.4755098
51
0.0224936
0
ARC
8
DEFAULT_255_1_388
10
9.791005
20
-0.2739901
40
0.2983498
50
359.5051035
51
13.4236939
0
ARC
8
DEFAULT_255_1_388
10
9.888514
20
-0.2490363
40
0.1977186
50
12.9497905
51
48.7550905
0
ARC
8
DEFAULT_255_1_388
10
9.8680062
20
-0.2770627
40
0.2323321
50
49.509109
51
72.1832965
0
ARC
8
DEFAULT_255_1_388
10
9.827753
20
-0.3965368
40
0.358397
50
71.9008458
51
84.3555134
0
ARC
8
DEFAULT_255_1_388
10
9.8095925
20
-0.5497288
40
0.512641
50
84.019632
51
89.3326067
0
LINE
8
DEFAULT_255_1_388
10
11.348009
20
-0.5033618
11
11.348009
21
-0.6398
0
LINE
8
DEFAULT_255_1_388
10
11.348009
20
-0.6398
11
10.4860085
21
-0.6398
0
LINE
8
DEFAULT_255_1_388
10
10.4860085
20
-0.6398
11
10.4860085
21
-0.5196259
0
LINE
8
DEFAULT_255_1_388
10
10.4860085
20
-0.5196259
11
10.941405
21
-0.0136298
0
LINE
8
DEFAULT_255_1_388
10
10.6278681
20
0.2881607
11
10.4607087
21
0.2881607
0
LINE
8
DEFAULT_255_1_388
10
11.0398935
20
-0.121154
11
10.6875034
21
-0.5033618
0
LINE
8
DEFAULT_255_1_388
10
10.6875034
20
-0.5033618
11
11.348009
21
-0.5033618
0
ARC
8
DEFAULT_255_1_388
10
9.4238109
20
1.3283983
40
2.0258655
50
318.5132526
51
320.7829045
0
ARC
8
DEFAULT_255_1_388
10
10.0186066
20
0.8442929
40
1.2589638
50
320.7372878
51
323.9739031
0
ARC
8
DEFAULT_255_1_388
10
10.4594998
20
0.5248554
40
0.7145141
50
323.8962701
51
328.64194
0
ARC
8
DEFAULT_255_1_388
10
10.6897255
20
0.3828545
40
0.4440242
50
328.8294576
51
331.7891185
0
ARC
8
DEFAULT_255_1_388
10
10.8019576
20
0.3249374
40
0.3177517
50
331.4254512
51
352.9365785
0
ARC
8
DEFAULT_255_1_388
10
10.8172576
20
0.321505
40
0.3021496
50
353.2257659
51
0.0166158
0
ARC
8
DEFAULT_255_1_388
10
10.8409336
20
0.3240894
40
0.2784847
50
359.486299
51
15.9343185
0
ARC
8
DEFAULT_255_1_388
10
10.8979603
20
0.3394269
40
0.2194403
50
16.1712913
51
43.5286088
0
ARC
8
DEFAULT_255_1_388
10
10.9066548
20
0.3481191
40
0.2071504
50
43.4417391
51
83.1661095
0
ARC
8
DEFAULT_255_1_388
10
10.8915709
20
0.2652316
40
0.2912888
50
82.160179
51
90.1505708
0
ARC
8
DEFAULT_255_1_388
10
10.888019
20
0.2048279
40
0.3517025
50
89.5460741
51
102.5418361
0
ARC
8
DEFAULT_255_1_388
10
10.860691
20
0.3207933
40
0.2325748
50
102.1738499
51
129.206123
0
ARC
8
DEFAULT_255_1_388
10
10.8518364
20
0.3347664
40
0.2161591
50
129.72865
51
135.753947
0
ARC
8
DEFAULT_255_1_388
10
10.8654846
20
0.3238728
40
0.2335433
50
136.1757367
51
166.3673339
0
ARC
8
DEFAULT_255_1_388
10
10.9787534
20
0.2935148
40
0.3507873
50
165.9090694
51
178.8684636
0
ARC
8
DEFAULT_255_1_388
10
11.0763306
20
0.2882263
40
0.4484624
50
178.4391136
51
180.0083808
0
ARC
8
DEFAULT_255_1_388
10
10.9184007
20
0.2926197
40
0.4577138
50
163.2878482
51
180.5581842
0
ARC
8
DEFAULT_255_1_388
10
10.8282048
20
0.3174393
40
0.3641968
50
133.4540601
51
162.947111
0
ARC
8
DEFAULT_255_1_388
10
10.848293
20
0.2960789
40
0.3935189
50
100.7869829
51
133.4382499
0
ARC
8
DEFAULT_255_1_388
10
10.8874175
20
0.1218399
40
0.5720313
50
89.660664
51
101.3702276
0
ARC
8
DEFAULT_255_1_388
10
10.8948784
20
0.1287263
40
0.5651495
50
78.2172678
51
90.412935
0
ARC
8
DEFAULT_255_1_388
10
10.934825
20
0.3114511
40
0.378122
50
55.9269121
51
78.4888449
0
ARC
8
DEFAULT_255_1_388
10
10.9568965
20
0.3495187
40
0.3342379
50
47.929771
51
55.4049217
0
ARC
8
DEFAULT_255_1_388
10
10.9683495
20
0.3611618
40
0.3179217
50
4.334829
51
48.0560205
0
ARC
8
DEFAULT_255_1_388
10
10.8451297
20
0.3420487
40
0.442341
50
359.9251713
51
5.5971671
0
ARC
8
DEFAULT_255_1_388
10
10.8933452
20
0.3483728
40
0.3941854
50
337.8914027
51
358.9967534
0
ARC
8
DEFAULT_255_1_388
10
10.5881022
20
0.4661295
40
0.7213271
50
326.9132501
51
338.3508308
0
ARC
8
DEFAULT_255_1_388
10
10.1397134
20
0.7535105
40
1.2538973
50
319.6471833
51
327.0959558
0
ARC
8
DEFAULT_255_1_388
10
9.7083792
20
1.109305
40
1.8129975
50
317.2588228
51
319.9045804
0
LINE
8
DEFAULT_255_1_388
10
12.3871081
20
-0.5033618
11
12.3871081
21
-0.6398
0
LINE
8
DEFAULT_255_1_388
10
12.3871081
20
-0.6398
11
11.5251076
21
-0.6398
0
LINE
8
DEFAULT_255_1_388
10
11.5251076
20
-0.6398
11
11.5251076
21
-0.5196259
0
LINE
8
DEFAULT_255_1_388
10
11.5251076
20
-0.5196259
11
11.9805041
21
-0.0136298
0
LINE
8
DEFAULT_255_1_388
10
11.6669672
20
0.2881607
11
11.4998078
21
0.2881607
0
LINE
8
DEFAULT_255_1_388
10
12.0789926
20
-0.121154
11
11.7266025
21
-0.5033618
0
LINE
8
DEFAULT_255_1_388
10
11.7266025
20
-0.5033618
11
12.3871081
21
-0.5033618
0
ARC
8
DEFAULT_255_1_388
10
10.4629101
20
1.3283983
40
2.0258655
50
318.5132526
51
320.7829045
0
ARC
8
DEFAULT_255_1_388
10
11.0577057
20
0.8442929
40
1.2589638
50
320.7372878
51
323.9739031
0
ARC
8
DEFAULT_255_1_388
10
11.4985989
20
0.5248554
40
0.7145141
50
323.8962701
51
328.64194
0
ARC
8
DEFAULT_255_1_388
10
11.7288247
20
0.3828545
40
0.4440242
50
328.8294576
51
331.7891185
0
ARC
8
DEFAULT_255_1_388
10
11.8410567
20
0.3249374
40
0.3177517
50
331.4254512
51
352.9365785
0
ARC
8
DEFAULT_255_1_388
10
11.8563567
20
0.321505
40
0.3021496
50
353.2257659
51
0.0166158
0
ARC
8
DEFAULT_255_1_388
10
11.8800327
20
0.3240894
40
0.2784847
50
359.486299
51
15.9343185
0
ARC
8
DEFAULT_255_1_388
10
11.9370594
20
0.3394269
40
0.2194403
50
16.1712913
51
43.5286088
0
ARC
8
DEFAULT_255_1_388
10
11.9457539
20
0.3481191
40
0.2071504
50
43.4417391
51
83.1661095
0
ARC
8
DEFAULT_255_1_388
10
11.93067
20
0.2652316
40
0.2912888
50
82.160179
51
90.1505708
0
ARC
8
DEFAULT_255_1_388
10
11.9271182
20
0.2048279
40
0.3517025
50
89.5460741
51
102.5418361
0
ARC
8
DEFAULT_255_1_388
10
11.8997902
20
0.3207933
40
0.2325748
50
102.1738499
51
129.206123
0
ARC
8
DEFAULT_255_1_388
10
11.8909355
20
0.3347664
40
0.2161591
50
129.72865
51
135.753947
0
ARC
8
DEFAULT_255_1_388
10
11.9045837
20
0.3238728
40
0.2335433
50
136.1757367
51
166.3673339
0
ARC
8
DEFAULT_255_1_388
10
12.0178526
20
0.2935148
40
0.3507873
50
165.9090694
51
178.8684636
0
ARC
8
DEFAULT_255_1_388
10
12.1154297
20
0.2882263
40
0.4484624
50
178.4391136
51
180.0083808
0
ARC
8
DEFAULT_255_1_388
10
11.9574998
20
0.2926197
40
0.4577138
50
163.2878482
51
180.5581842
0
ARC
8
DEFAULT_255_1_388
10
11.867304
20
0.3174393
40
0.3641968
50
133.4540601
51
162.947111
0
ARC
8
DEFAULT_255_1_388
10
11.8873921
20
0.2960789
40
0.3935189
50
100.7869829
51
133.4382499
0
ARC
8
DEFAULT_255_1_388
10
11.9265166
20
0.1218399
40
0.5720313
50
89.660664
51
101.3702276
0
ARC
8
DEFAULT_255_1_388
10
11.9339775
20
0.1287263
40
0.5651495
50
78.2172678
51
90.412935
0
ARC
8
DEFAULT_255_1_388
10
11.9739241
20
0.3114511
40
0.378122
50
55.9269121
51
78.4888449
0
ARC
8
DEFAULT_255_1_388
10
11.9959956
20
0.3495187
40
0.3342379
50
47.929771
51
55.4049217
0
ARC
8
DEFAULT_255_1_388
10
12.0074487
20
0.3611618
40
0.3179217
50
4.334829
51
48.0560205
0
ARC
8
DEFAULT_255_1_388
10
11.8842288
20
0.3420487
40
0.442341
50
359.9251713
51
5.5971671
0
ARC
8
DEFAULT_255_1_388
10
11.9324443
20
0.3483728
40
0.3941854
50
337.8914027
51
358.9967534
0
ARC
8
DEFAULT_255_1_388
10
11.6272013
20
0.4661295
40
0.7213271
50
326.9132501
51
338.3508308
0
ARC
8
DEFAULT_255_1_388
10
11.1788125
20
0.7535105
40
1.2538973
50
319.6471833
51
327.0959558
0
ARC
8
DEFAULT_255_1_388
10
10.7474783
20
1.109305
40
1.8129975
50
317.2588228
51
319.9045804
0
LINE
8
DEFAULT_255_1_388
10
12.9292468
20
-0.0127263
11
12.9292468
21
-0.1491645
0
LINE
8
DEFAULT_255_1_388
10
12.9292468
20
-0.1491645
11
12.4883073
21
-0.1491645
0
LINE
8
DEFAULT_255_1_388
10
12.4883073
20
-0.1491645
11
12.4883073
21
-0.0127263
0
LINE
8
DEFAULT_255_1_388
10
12.4883073
20
-0.0127263
11
12.9292468
21
-0.0127263
0
LINE
8
DEFAULT_255_1_388
10
13.6240878
20
0.6821148
11
13.6240878
21
-0.6398
0
LINE
8
DEFAULT_255_1_388
10
13.6240878
20
-0.6398
11
13.4560249
21
-0.6398
0
LINE
8
DEFAULT_255_1_388
10
13.4560249
20
-0.6398
11
13.4560249
21
0.474295
0
LINE
8
DEFAULT_255_1_388
10
13.4560249
20
0.474295
11
13.1189953
21
0.3505066
0
LINE
8
DEFAULT_255_1_388
10
13.1189953
20
0.3505066
11
13.1189953
21
0.5023055
0
LINE
8
DEFAULT_255_1_388
10
13.1189953
20
0.5023055
11
13.5978845
21
0.6821148
0
LINE
8
DEFAULT_255_1_388
10
13.5978845
20
0.6821148
11
13.6240878
21
0.6821148
0
LINE
8
DEFAULT_255_1_388
10
14.6134909
20
-0.6398
11
14.1571909
21
-0.6398
0
LINE
8
DEFAULT_255_1_388
10
14.1571909
20
-0.6398
11
14.1571909
21
0.6757898
0
LINE
8
DEFAULT_255_1_388
10
14.1571909
20
0.6757898
11
14.5872875
21
0.6757898
0
LINE
8
DEFAULT_255_1_388
10
14.6198159
20
-0.0244726
11
14.3306752
21
-0.0244726
0
LINE
8
DEFAULT_255_1_388
10
14.3306752
20
-0.0244726
11
14.3306752
21
-0.4979404
0
LINE
8
DEFAULT_255_1_388
10
14.3306752
20
-0.4979404
11
14.6171052
21
-0.4979404
0
LINE
8
DEFAULT_255_1_388
10
14.3306752
20
0.5330267
11
14.3306752
21
0.1146763
0
LINE
8
DEFAULT_255_1_388
10
14.3306752
20
0.1146763
11
14.5927089
21
0.1146763
0
LINE
8
DEFAULT_255_1_388
10
14.5872875
20
0.5330267
11
14.3306752
21
0.5330267
0
ARC
8
DEFAULT_255_1_388
10
14.5915296
20
-0.1530176
40
0.8288183
50
82.1256322
51
90.2932506
0
ARC
8
DEFAULT_255_1_388
10
14.6352871
20
0.152759
40
0.5199321
50
69.9044202
51
82.2857574
0
ARC
8
DEFAULT_255_1_388
10
14.6994863
20
0.3262993
40
0.3348993
50
51.1840204
51
70.018125
0
ARC
8
DEFAULT_255_1_388
10
14.7281696
20
0.3679945
40
0.2844579
50
12.1018086
51
50.421322
0
ARC
8
DEFAULT_255_1_388
10
14.5724567
20
0.3288937
40
0.4449429
50
359.5252354
51
12.8212369
0
ARC
8
DEFAULT_255_1_388
10
14.7501997
20
0.3210943
40
0.2672162
50
323.4907456
51
0.8818258
0
ARC
8
DEFAULT_255_1_388
10
14.7031409
20
0.3574523
40
0.3266736
50
298.6824053
51
323.2758285
0
ARC
8
DEFAULT_255_1_388
10
14.6624701
20
0.4250509
40
0.4055105
50
293.1994739
51
299.139634
0
ARC
8
DEFAULT_255_1_388
10
14.7381651
20
-0.2595349
40
0.3229926
50
54.0009997
51
74.9168635
0
ARC
8
DEFAULT_255_1_388
10
14.7512577
20
-0.2373489
40
0.2973581
50
36.3578854
51
53.5293172
0
ARC
8
DEFAULT_255_1_388
10
14.7369946
20
-0.247515
40
0.3148715
50
4.8189348
51
36.3090187
0
ARC
8
DEFAULT_255_1_388
10
14.649297
20
-0.2598617
40
0.4033265
50
359.9373213
51
5.5201284
0
ARC
8
DEFAULT_255_1_388
10
14.61283
20
-0.2644267
40
0.4398126
50
344.7479357
51
0.5372278
0
ARC
8
DEFAULT_255_1_388
10
14.7243198
20
-0.2944795
40
0.3243441
50
311.1785587
51
344.6887681
0
ARC
8
DEFAULT_255_1_388
10
14.6914742
20
-0.2535916
40
0.3767511
50
286.0417804
51
310.8440924
0
ARC
8
DEFAULT_255_1_388
10
14.6344151
20
-0.0683115
40
0.5705957
50
274.1044074
51
286.4070149
0
ARC
8
DEFAULT_255_1_388
10
14.6145366
20
0.1434901
40
0.7832907
50
269.9235077
51
274.4458593
0
ARC
8
DEFAULT_255_1_388
10
14.6197085
20
-0.1196538
40
0.3782955
50
269.6057074
51
281.3740795
0
ARC
8
DEFAULT_255_1_388
10
14.6456583
20
-0.2426431
40
0.2526069
50
281.105298
51
302.5134029
0
ARC
8
DEFAULT_255_1_388
10
14.6621971
20
-0.2723056
40
0.2187131
50
303.0365425
51
311.8818034
0
ARC
8
DEFAULT_255_1_388
10
14.6702148
20
-0.2818398
40
0.2062624
50
311.9916937
51
351.7143773
0
ARC
8
DEFAULT_255_1_388
10
14.5783173
20
-0.2632729
40
0.2999202
50
350.7343295
51
0.2221526
0
ARC
8
DEFAULT_255_1_388
10
14.5662261
20
-0.256913
40
0.3120525
50
359.045729
51
17.2295312
0
ARC
8
DEFAULT_255_1_388
10
14.6831291
20
-0.2221845
40
0.1901144
50
17.6685208
51
78.9940245
0
ARC
8
DEFAULT_255_1_388
10
14.6249652
20
-0.4309989
40
0.4065575
50
76.565218
51
90.7103392
0
LINE
8
DEFAULT_255_1_388
10
14.6199249
20
-0.0244726
11
14.6198159
21
-0.0244726
0
ARC
8
DEFAULT_255_1_388
10
14.5952478
20
0.4842949
40
0.3696273
50
269.6064514
51
281.4533785
0
ARC
8
DEFAULT_255_1_388
10
14.6203119
20
0.3660283
40
0.2487412
50
281.2044438
51
302.5143998
0
ARC
8
DEFAULT_255_1_388
10
14.6357372
20
0.3382576
40
0.2170405
50
303.0211308
51
309.8378766
0
ARC
8
DEFAULT_255_1_388
10
14.656349
20
0.3151486
40
0.1860946
50
309.5229446
51
356.9509628
0
ARC
8
DEFAULT_255_1_388
10
14.5817616
20
0.3258831
40
0.2612347
50
355.4699226
51
0.0498632
0
ARC
8
DEFAULT_255_1_388
10
14.5503289
20
0.3283789
40
0.2926762
50
359.5558955
51
11.2092924
0
ARC
8
DEFAULT_255_1_388
10
14.6580257
20
0.3506667
40
0.1827036
50
10.9185717
51
31.322519
0
ARC
8
DEFAULT_255_1_388
10
14.6901805
20
0.3685571
40
0.1459418
50
31.8850633
51
52.1415586
0
ARC
8
DEFAULT_255_1_388
10
14.6593234
20
0.3249674
40
0.1993088
50
52.8283418
51
71.9850132
0
ARC
8
DEFAULT_255_1_388
10
14.6170395
20
0.2005158
40
0.3307407
50
71.686634
51
82.8453416
0
ARC
8
DEFAULT_255_1_388
10
14.5901042
20
-0.0030108
40
0.536039
50
82.6981895
51
90.1730083
0
ARC
8
DEFAULT_255_1_388
10
14.5875873
20
0.0848836
40
0.4481429
50
89.8851568
51
90.0383283
0
LINE
8
DEFAULT_255_1_388
10
15.4836235
20
0.6757898
11
15.4836235
21
-0.4979404
0
LINE
8
DEFAULT_255_1_388
10
15.4836235
20
-0.4979404
11
16.107083
21
-0.4979404
0
LINE
8
DEFAULT_255_1_388
10
16.107083
20
-0.4979404
11
16.107083
21
-0.6398
0
LINE
8
DEFAULT_255_1_388
10
16.107083
20
-0.6398
11
15.3092355
21
-0.6398
0
LINE
8
DEFAULT_255_1_388
10
15.3092355
20
-0.6398
11
15.3092355
21
0.6757898
0
LINE
8
DEFAULT_255_1_388
10
15.3092355
20
0.6757898
11
15.4836235
21
0.6757898
0
LINE
8
DEFAULT_255_1_388
10
17.0865468
20
0.138169
11
17.0865468
21
-0.0786865
0
LINE
8
DEFAULT_255_1_388
10
16.2561711
20
-0.1012756
11
16.2561711
21
0.1219048
0
LINE
8
DEFAULT_255_1_388
10
16.9193874
20
-0.1238647
11
16.9193874
21
0.1499153
0
LINE
8
DEFAULT_255_1_388
10
16.4233305
20
0.1625652
11
16.4233305
21
-0.1048898
0
ARC
8
DEFAULT_255_1_388
10
15.7087802
20
-0.0841882
40
1.3777776
50
353.8440855
51
0.2287917
0
ARC
8
DEFAULT_255_1_388
10
16.230682
20
-0.1424586
40
0.852639
50
344.4934746
51
353.9763743
0
ARC
8
DEFAULT_255_1_388
10
16.5673627
20
-0.2381809
40
0.5026273
50
329.2803599
51
344.7473406
0
ARC
8
DEFAULT_255_1_388
10
16.6789123
20
-0.2993962
40
0.3754848
50
324.9361395
51
328.6153007
0
ARC
8
DEFAULT_255_1_388
10
16.7214772
20
-0.3291414
40
0.3235566
50
280.5801797
51
324.9173226
0
ARC
8
DEFAULT_255_1_388
10
16.6763401
20
-0.1411764
40
0.5167077
50
269.5979457
51
281.6732777
0
ARC
8
DEFAULT_255_1_388
10
16.6682305
20
-0.1546887
40
0.5032026
50
256.6228565
51
270.5105488
0
ARC
8
DEFAULT_255_1_388
10
16.6230047
20
-0.3288655
40
0.3233092
50
215.8618351
51
257.2787793
0
ARC
8
DEFAULT_255_1_388
10
16.7378754
20
-0.2517894
40
0.4615831
50
197.9695203
51
215.2622745
0
ARC
8
DEFAULT_255_1_388
10
17.017443
20
-0.1574359
40
0.7566307
50
187.8816486
51
198.2346584
0
ARC
8
DEFAULT_255_1_388
10
17.4627668
20
-0.0931547
40
1.2065653
50
180.8977266
51
188.0054894
0
ARC
8
DEFAULT_255_1_388
10
17.7677882
20
-0.08166
40
1.5117443
50
180.7434591
51
181.152202
0
ARC
8
DEFAULT_255_1_388
10
17.6002878
20
0.1273371
40
1.3441277
50
173.7674302
51
180.2315596
0
ARC
8
DEFAULT_255_1_388
10
17.0920747
20
0.1847779
40
0.8326847
50
164.3058537
51
173.9000553
0
ARC
8
DEFAULT_255_1_388
10
16.7644747
20
0.2791652
40
0.4917711
50
148.7922028
51
164.5682288
0
ARC
8
DEFAULT_255_1_388
10
16.6575484
20
0.3388457
40
0.3694204
50
144.5883979
51
148.1161588
0
ARC
8
DEFAULT_255_1_388
10
16.6188229
20
0.3658667
40
0.322202
50
101.6440149
51
144.5142619
0
ARC
8
DEFAULT_255_1_388
10
16.6666422
20
0.1758337
40
0.5180451
50
89.528284
51
102.5820197
0
ARC
8
DEFAULT_255_1_388
10
16.6755414
20
0.1714376
40
0.5224441
50
77.0437914
51
90.508231
0
ARC
8
DEFAULT_255_1_388
10
16.7207667
20
0.3562272
40
0.3322297
50
48.2777708
51
77.4996087
0
ARC
8
DEFAULT_255_1_388
10
16.7289407
20
0.3707557
40
0.315966
50
36.3141586
51
47.6307332
0
ARC
8
DEFAULT_255_1_388
10
16.6312129
20
0.3049159
40
0.4337313
50
18.2931065
51
35.6770203
0
ARC
8
DEFAULT_255_1_388
10
16.345097
20
0.2067107
40
0.7362203
50
8.0246996
51
18.5605636
0
ARC
8
DEFAULT_255_1_388
10
15.8767326
20
0.1375432
40
1.2096583
50
1.127539
51
8.1718423
0
ARC
8
DEFAULT_255_1_388
10
15.5118459
20
0.1232374
40
1.5747719
50
0.5432713
51
1.38669
0
ARC
8
DEFAULT_255_1_388
10
15.7175838
20
0.1539163
40
1.2018103
50
359.8092569
51
4.9408001
0
ARC
8
DEFAULT_255_1_388
10
16.1912419
20
0.19619
40
0.7262727
50
4.8364937
51
12.2906017
0
ARC
8
DEFAULT_255_1_388
10
16.5011884
20
0.2652485
40
0.4087324
50
12.0806994
51
23.8171225
0
ARC
8
DEFAULT_255_1_388
10
16.633228
20
0.3211508
40
0.2653719
50
24.2874621
51
31.3934353
0
ARC
8
DEFAULT_255_1_388
10
16.6922716
20
0.3597822
40
0.1948607
50
30.7407708
51
82.4658033
0
ARC
8
DEFAULT_255_1_388
10
16.6720377
20
0.2604017
40
0.2961198
50
81.1057101
51
90.2187368
0
ARC
8
DEFAULT_255_1_388
10
16.6680189
20
0.2894421
40
0.2670929
50
89.380395
51
105.6763916
0
ARC
8
DEFAULT_255_1_388
10
16.647391
20
0.364432
40
0.1893189
50
105.7980655
51
149.7387869
0
ARC
8
DEFAULT_255_1_388
10
16.7671051
20
0.2924719
40
0.3289892
50
149.4208441
51
163.628295
0
ARC
8
DEFAULT_255_1_388
10
17.002328
20
0.2207345
40
0.5749004
50
163.3764549
51
172.141138
0
ARC
8
DEFAULT_255_1_388
10
17.3736002
20
0.1675582
40
0.9499585
50
172.0258462
51
178.0705453
0
ARC
8
DEFAULT_255_1_388
10
17.7157554
20
0.1513682
40
1.2924734
50
177.8639301
51
179.5036263
0
ARC
8
DEFAULT_255_1_388
10
17.5938573
20
-0.1089849
40
1.170534
50
179.7995545
51
185.246089
0
ARC
8
DEFAULT_255_1_388
10
17.1390166
20
-0.1520596
40
0.7136613
50
185.1411911
51
193.0082205
0
ARC
8
DEFAULT_255_1_388
10
16.8416427
20
-0.2223559
40
0.4080987
50
192.7897338
51
205.2507384
0
ARC
8
DEFAULT_255_1_388
10
16.7238637
20
-0.2749462
40
0.2791522
50
205.8001921
51
211.2545876
0
ARC
8
DEFAULT_255_1_388
10
16.6650176
20
-0.3143868
40
0.2084074
50
210.3789935
51
238.4007996
0
ARC
8
DEFAULT_255_1_388
10
16.6628262
20
-0.3091214
40
0.2117943
50
239.6521916
51
265.9793852
0
ARC
8
DEFAULT_255_1_388
10
16.6724111
20
-0.2334642
40
0.2879689
50
265.1324455
51
270.0603288
0
ARC
8
DEFAULT_255_1_388
10
16.6756488
20
-0.2699582
40
0.2514919
50
269.3314378
51
287.2180039
0
ARC
8
DEFAULT_255_1_388
10
16.691157
20
-0.3265709
40
0.1928357
50
287.7957942
51
329.0808983
0
ARC
8
DEFAULT_255_1_388
10
16.5834327
20
-0.2593349
40
0.319808
50
328.6635261
51
343.3325043
0
ARC
8
DEFAULT_255_1_388
10
16.3389786
20
-0.1831805
40
0.5758408
50
343.0498092
51
351.9392499
0
ARC
8
DEFAULT_255_1_388
10
15.9489107
20
-0.1256795
40
0.9701202
50
351.8071632
51
357.7957897
0
ARC
8
DEFAULT_255_1_388
10
15.5854584
20
-0.1068276
40
1.3340376
50
357.5870923
51
359.2682493
0
LINE
8
DEFAULT_255_1_388
10
18.1256459
20
0.138169
11
18.1256459
21
-0.0786865
0
LINE
8
DEFAULT_255_1_388
10
17.2952702
20
-0.1012756
11
17.2952702
21
0.1219048
0
LINE
8
DEFAULT_255_1_388
10
17.9584865
20
-0.1238647
11
17.9584865
21
0.1499153
0
LINE
8
DEFAULT_255_1_388
10
17.4624296
20
0.1625652
11
17.4624296
21
-0.1048898
0
ARC
8
DEFAULT_255_1_388
10
16.7478793
20
-0.0841882
40
1.3777776
50
353.8440855
51
0.2287917
0
ARC
8
DEFAULT_255_1_388
10
17.2697811
20
-0.1424586
40
0.852639
50
344.4934746
51
353.9763743
0
ARC
8
DEFAULT_255_1_388
10
17.6064618
20
-0.2381809
40
0.5026273
50
329.2803599
51
344.7473406
0
ARC
8
DEFAULT_255_1_388
10
17.7180114
20
-0.2993962
40
0.3754848
50
324.9361395
51
328.6153007
0
ARC
8
DEFAULT_255_1_388
10
17.7605764
20
-0.3291414
40
0.3235566
50
280.5801797
51
324.9173226
0
ARC
8
DEFAULT_255_1_388
10
17.7154392
20
-0.1411764
40
0.5167077
50
269.5979457
51
281.6732777
0
ARC
8
DEFAULT_255_1_388
10
17.7073296
20
-0.1546887
40
0.5032026
50
256.6228565
51
270.5105488
0
ARC
8
DEFAULT_255_1_388
10
17.6621038
20
-0.3288655
40
0.3233092
50
215.8618351
51
257.2787793
0
ARC
8
DEFAULT_255_1_388
10
17.7769745
20
-0.2517894
40
0.4615831
50
197.9695203
51
215.2622745
0
ARC
8
DEFAULT_255_1_388
10
18.0565421
20
-0.1574359
40
0.7566307
50
187.8816486
51
198.2346584
0
ARC
8
DEFAULT_255_1_388
10
18.5018659
20
-0.0931547
40
1.2065653
50
180.8977266
51
188.0054894
0
ARC
8
DEFAULT_255_1_388
10
18.8068873
20
-0.08166
40
1.5117443
50
180.7434591
51
181.152202
0
ARC
8
DEFAULT_255_1_388
10
18.6393869
20
0.1273371
40
1.3441277
50
173.7674302
51
180.2315596
0
ARC
8
DEFAULT_255_1_388
10
18.1311738
20
0.1847779
40
0.8326847
50
164.3058537
51
173.9000553
0
ARC
8
DEFAULT_255_1_388
10
17.8035738
20
0.2791652
40
0.4917711
50
148.7922028
51
164.5682288
0
ARC
8
DEFAULT_255_1_388
10
17.6966475
20
0.3388457
40
0.3694204
50
144.5883979
51
148.1161588
0
ARC
8
DEFAULT_255_1_388
10
17.6579221
20
0.3658667
40
0.322202
50
101.6440149
51
144.5142619
0
ARC
8
DEFAULT_255_1_388
10
17.7057413
20
0.1758337
40
0.5180451
50
89.528284
51
102.5820197
0
ARC
8
DEFAULT_255_1_388
10
17.7146405
20
0.1714376
40
0.5224441
50
77.0437914
51
90.508231
0
ARC
8
DEFAULT_255_1_388
10
17.7598658
20
0.3562272
40
0.3322297
50
48.2777708
51
77.4996087
0
ARC
8
DEFAULT_255_1_388
10
17.7680398
20
0.3707557
40
0.315966
50
36.3141586
51
47.6307332
0
ARC
8
DEFAULT_255_1_388
10
17.6703121
20
0.3049159
40
0.4337313
50
18.2931065
51
35.6770203
0
ARC
8
DEFAULT_255_1_388
10
17.3841961
20
0.2067107
40
0.7362203
50
8.0246996
51
18.5605636
0
ARC
8
DEFAULT_255_1_388
10
16.9158317
20
0.1375432
40
1.2096583
50
1.127539
51
8.1718423
0
ARC
8
DEFAULT_255_1_388
10
16.550945
20
0.1232374
40
1.5747719
50
0.5432713
51
1.38669
0
ARC
8
DEFAULT_255_1_388
10
16.7566829
20
0.1539163
40
1.2018103
50
359.8092569
51
4.9408001
0
ARC
8
DEFAULT_255_1_388
10
17.230341
20
0.19619
40
0.7262727
50
4.8364937
51
12.2906017
0
ARC
8
DEFAULT_255_1_388
10
17.5402875
20
0.2652485
40
0.4087324
50
12.0806994
51
23.8171225
0
ARC
8
DEFAULT_255_1_388
10
17.6723271
20
0.3211508
40
0.2653719
50
24.2874621
51
31.3934353
0
ARC
8
DEFAULT_255_1_388
10
17.7313707
20
0.3597822
40
0.1948607
50
30.7407708
51
82.4658033
0
ARC
8
DEFAULT_255_1_388
10
17.7111368
20
0.2604017
40
0.2961198
50
81.1057101
51
90.2187368
0
ARC
8
DEFAULT_255_1_388
10
17.707118
20
0.2894421
40
0.2670929
50
89.380395
51
105.6763916
0
ARC
8
DEFAULT_255_1_388
10
17.6864902
20
0.364432
40
0.1893189
50
105.7980655
51
149.7387869
0
ARC
8
DEFAULT_255_1_388
10
17.8062042
20
0.2924719
40
0.3289892
50
149.4208441
51
163.628295
0
ARC
8
DEFAULT_255_1_388
10
18.0414271
20
0.2207345
40
0.5749004
50
163.3764549
51
172.141138
0
ARC
8
DEFAULT_255_1_388
10
18.4126993
20
0.1675582
40
0.9499585
50
172.0258462
51
178.0705453
0
ARC
8
DEFAULT_255_1_388
10
18.7548546
20
0.1513682
40
1.2924734
50
177.8639301
51
179.5036263
0
ARC
8
DEFAULT_255_1_388
10
18.6329564
20
-0.1089849
40
1.170534
50
179.7995545
51
185.246089
0
ARC
8
DEFAULT_255_1_388
10
18.1781157
20
-0.1520596
40
0.7136613
50
185.1411911
51
193.0082205
0
ARC
8
DEFAULT_255_1_388
10
17.8807418
20
-0.2223559
40
0.4080987
50
192.7897338
51
205.2507384
0
ARC
8
DEFAULT_255_1_388
10
17.7629628
20
-0.2749462
40
0.2791522
50
205.8001921
51
211.2545876
0
ARC
8
DEFAULT_255_1_388
10
17.7041167
20
-0.3143868
40
0.2084074
50
210.3789935
51
238.4007996
0
ARC
8
DEFAULT_255_1_388
10
17.7019253
20
-0.3091214
40
0.2117943
50
239.6521916
51
265.9793852
0
ARC
8
DEFAULT_255_1_388
10
17.7115102
20
-0.2334642
40
0.2879689
50
265.1324455
51
270.0603288
0
ARC
8
DEFAULT_255_1_388
10
17.7147479
20
-0.2699582
40
0.2514919
50
269.3314378
51
287.2180039
0
ARC
8
DEFAULT_255_1_388
10
17.7302561
20
-0.3265709
40
0.1928357
50
287.7957942
51
329.0808983
0
ARC
8
DEFAULT_255_1_388
10
17.6225318
20
-0.2593349
40
0.319808
50
328.6635261
51
343.3325043
0
ARC
8
DEFAULT_255_1_388
10
17.3780777
20
-0.1831805
40
0.5758408
50
343.0498092
51
351.9392499
0
ARC
8
DEFAULT_255_1_388
10
16.9880099
20
-0.1256795
40
0.9701202
50
351.8071632
51
357.7957897
0
ARC
8
DEFAULT_255_1_388
10
16.6245576
20
-0.1068276
40
1.3340376
50
357.5870923
51
359.2682493
0
LINE
8
DEFAULT_255_1_388
10
18.7048308
20
-0.0127263
11
18.7048308
21
-0.1491645
0
LINE
8
DEFAULT_255_1_388
10
18.7048308
20
-0.1491645
11
18.2638913
21
-0.1491645
0
LINE
8
DEFAULT_255_1_388
10
18.2638913
20
-0.1491645
11
18.2638913
21
-0.0127263
0
LINE
8
DEFAULT_255_1_388
10
18.2638913
20
-0.0127263
11
18.7048308
21
-0.0127263
0
LINE
8
DEFAULT_255_1_388
10
19.675259
20
0.138169
11
19.675259
21
-0.0786865
0
LINE
8
DEFAULT_255_1_388
10
18.8448833
20
-0.1012756
11
18.8448833
21
0.1219048
0
LINE
8
DEFAULT_255_1_388
10
19.5080996
20
-0.1238647
11
19.5080996
21
0.1499153
0
LINE
8
DEFAULT_255_1_388
10
19.0120427
20
0.1625652
11
19.0120427
21
-0.1048898
0
ARC
8
DEFAULT_255_1_388
10
18.2974924
20
-0.0841882
40
1.3777776
50
353.8440855
51
0.2287917
0
ARC
8
DEFAULT_255_1_388
10
18.8193941
20
-0.1424586
40
0.852639
50
344.4934746
51
353.9763743
0
ARC
8
DEFAULT_255_1_388
10
19.1560748
20
-0.2381809
40
0.5026273
50
329.2803599
51
344.7473406
0
ARC
8
DEFAULT_255_1_388
10
19.2676244
20
-0.2993962
40
0.3754848
50
324.9361395
51
328.6153007
0
ARC
8
DEFAULT_255_1_388
10
19.3101894
20
-0.3291414
40
0.3235566
50
280.5801797
51
324.9173226
0
ARC
8
DEFAULT_255_1_388
10
19.2650523
20
-0.1411764
40
0.5167077
50
269.5979457
51
281.6732777
0
ARC
8
DEFAULT_255_1_388
10
19.2569426
20
-0.1546887
40
0.5032026
50
256.6228565
51
270.5105488
0
ARC
8
DEFAULT_255_1_388
10
19.2117169
20
-0.3288655
40
0.3233092
50
215.8618351
51
257.2787793
0
ARC
8
DEFAULT_255_1_388
10
19.3265876
20
-0.2517894
40
0.4615831
50
197.9695203
51
215.2622745
0
ARC
8
DEFAULT_255_1_388
10
19.6061551
20
-0.1574359
40
0.7566307
50
187.8816486
51
198.2346584
0
ARC
8
DEFAULT_255_1_388
10
20.051479
20
-0.0931547
40
1.2065653
50
180.8977266
51
188.0054894
0
ARC
8
DEFAULT_255_1_388
10
20.3565003
20
-0.08166
40
1.5117443
50
180.7434591
51
181.152202
0
ARC
8
DEFAULT_255_1_388
10
20.1889999
20
0.1273371
40
1.3441277
50
173.7674302
51
180.2315596
0
ARC
8
DEFAULT_255_1_388
10
19.6807868
20
0.1847779
40
0.8326847
50
164.3058537
51
173.9000553
0
ARC
8
DEFAULT_255_1_388
10
19.3531868
20
0.2791652
40
0.4917711
50
148.7922028
51
164.5682288
0
ARC
8
DEFAULT_255_1_388
10
19.2462606
20
0.3388457
40
0.3694204
50
144.5883979
51
148.1161588
0
ARC
8
DEFAULT_255_1_388
10
19.2075351
20
0.3658667
40
0.322202
50
101.6440149
51
144.5142619
0
ARC
8
DEFAULT_255_1_388
10
19.2553543
20
0.1758337
40
0.5180451
50
89.528284
51
102.5820197
0
ARC
8
DEFAULT_255_1_388
10
19.2642535
20
0.1714376
40
0.5224441
50
77.0437914
51
90.508231
0
ARC
8
DEFAULT_255_1_388
10
19.3094789
20
0.3562272
40
0.3322297
50
48.2777708
51
77.4996087
0
ARC
8
DEFAULT_255_1_388
10
19.3176529
20
0.3707557
40
0.315966
50
36.3141586
51
47.6307332
0
ARC
8
DEFAULT_255_1_388
10
19.2199251
20
0.3049159
40
0.4337313
50
18.2931065
51
35.6770203
0
ARC
8
DEFAULT_255_1_388
10
18.9338092
20
0.2067107
40
0.7362203
50
8.0246996
51
18.5605636
0
ARC
8
DEFAULT_255_1_388
10
18.4654447
20
0.1375432
40
1.2096583
50
1.127539
51
8.1718423
0
ARC
8
DEFAULT_255_1_388
10
18.1005581
20
0.1232374
40
1.5747719
50
0.5432713
51
1.38669
0
ARC
8
DEFAULT_255_1_388
10
18.3062959
20
0.1539163
40
1.2018103
50
359.8092569
51
4.9408001
0
ARC
8
DEFAULT_255_1_388
10
18.7799541
20
0.19619
40
0.7262727
50
4.8364937
51
12.2906017
0
ARC
8
DEFAULT_255_1_388
10
19.0899006
20
0.2652485
40
0.4087324
50
12.0806994
51
23.8171225
0
ARC
8
DEFAULT_255_1_388
10
19.2219402
20
0.3211508
40
0.2653719
50
24.2874621
51
31.3934353
0
ARC
8
DEFAULT_255_1_388
10
19.2809837
20
0.3597822
40
0.1948607
50
30.7407708
51
82.4658033
0
ARC
8
DEFAULT_255_1_388
10
19.2607498
20
0.2604017
40
0.2961198
50
81.1057101
51
90.2187368
0
ARC
8
DEFAULT_255_1_388
10
19.256731
20
0.2894421
40
0.2670929
50
89.380395
51
105.6763916
0
ARC
8
DEFAULT_255_1_388
10
19.2361032
20
0.364432
40
0.1893189
50
105.7980655
51
149.7387869
0
ARC
8
DEFAULT_255_1_388
10
19.3558172
20
0.2924719
40
0.3289892
50
149.4208441
51
163.628295
0
ARC
8
DEFAULT_255_1_388
10
19.5910402
20
0.2207345
40
0.5749004
50
163.3764549
51
172.141138
0
ARC
8
DEFAULT_255_1_388
10
19.9623123
20
0.1675582
40
0.9499585
50
172.0258462
51
178.0705453
0
ARC
8
DEFAULT_255_1_388
10
20.3044676
20
0.1513682
40
1.2924734
50
177.8639301
51
179.5036263
0
ARC
8
DEFAULT_255_1_388
10
20.1825695
20
-0.1089849
40
1.170534
50
179.7995545
51
185.246089
0
ARC
8
DEFAULT_255_1_388
10
19.7277288
20
-0.1520596
40
0.7136613
50
185.1411911
51
193.0082205
0
ARC
8
DEFAULT_255_1_388
10
19.4303548
20
-0.2223559
40
0.4080987
50
192.7897338
51
205.2507384
0
ARC
8
DEFAULT_255_1_388
10
19.3125758
20
-0.2749462
40
0.2791522
50
205.8001921
51
211.2545876
0
ARC
8
DEFAULT_255_1_388
10
19.2537298
20
-0.3143868
40
0.2084074
50
210.3789935
51
238.4007996
0
ARC
8
DEFAULT_255_1_388
10
19.2515384
20
-0.3091214
40
0.2117943
50
239.6521916
51
265.9793852
0
ARC
8
DEFAULT_255_1_388
10
19.2611233
20
-0.2334642
40
0.2879689
50
265.1324455
51
270.0603288
0
ARC
8
DEFAULT_255_1_388
10
19.264361
20
-0.2699582
40
0.2514919
50
269.3314378
51
287.2180039
0
ARC
8
DEFAULT_255_1_388
10
19.2798692
20
-0.3265709
40
0.1928357
50
287.7957942
51
329.0808983
0
ARC
8
DEFAULT_255_1_388
10
19.1721449
20
-0.2593349
40
0.319808
50
328.6635261
51
343.3325043
0
ARC
8
DEFAULT_255_1_388
10
18.9276908
20
-0.1831805
40
0.5758408
50
343.0498092
51
351.9392499
0
ARC
8
DEFAULT_255_1_388
10
18.5376229
20
-0.1256795
40
0.9701202
50
351.8071632
51
357.7957897
0
ARC
8
DEFAULT_255_1_388
10
18.1741706
20
-0.1068276
40
1.3340376
50
357.5870923
51
359.2682493
0
LINE
8
DEFAULT_255_1_388
10
20.7848361
20
-0.6398
11
20.6592407
21
-0.2964455
0
LINE
8
DEFAULT_255_1_388
10
20.6592407
20
-0.2964455
11
20.1080664
21
-0.2964455
0
LINE
8
DEFAULT_255_1_388
10
20.1080664
20
-0.2964455
11
19.984278
21
-0.6398
0
LINE
8
DEFAULT_255_1_388
10
19.984278
20
-0.6398
11
19.8053723
21
-0.6398
0
LINE
8
DEFAULT_255_1_388
10
19.8053723
20
-0.6398
11
20.3077541
21
0.6757898
0
LINE
8
DEFAULT_255_1_388
10
20.3077541
20
0.6757898
11
20.4595529
21
0.6757898
0
LINE
8
DEFAULT_255_1_388
10
20.4595529
20
0.6757898
11
20.9628383
21
-0.6398
0
LINE
8
DEFAULT_255_1_388
10
20.9628383
20
-0.6398
11
20.7848361
21
-0.6398
0
LINE
8
DEFAULT_255_1_388
10
20.3836535
20
0.4616451
11
20.1604731
21
-0.1536823
0
LINE
8
DEFAULT_255_1_388
10
20.1604731
20
-0.1536823
11
20.6077375
21
-0.1536823
0
LINE
8
DEFAULT_255_1_388
10
20.6077375
20
-0.1536823
11
20.3836535
21
0.4616451
0
LINE
8
DEFAULT_255_1_388
10
21.9919982
20
-0.6398
11
21.8664028
21
-0.2964455
0
LINE
8
DEFAULT_255_1_388
10
21.8664028
20
-0.2964455
11
21.3152285
21
-0.2964455
0
LINE
8
DEFAULT_255_1_388
10
21.3152285
20
-0.2964455
11
21.1914401
21
-0.6398
0
LINE
8
DEFAULT_255_1_388
10
21.1914401
20
-0.6398
11
21.0125344
21
-0.6398
0
LINE
8
DEFAULT_255_1_388
10
21.0125344
20
-0.6398
11
21.5149162
21
0.6757898
0
LINE
8
DEFAULT_255_1_388
10
21.5149162
20
0.6757898
11
21.666715
21
0.6757898
0
LINE
8
DEFAULT_255_1_388
10
21.666715
20
0.6757898
11
22.1700004
21
-0.6398
0
LINE
8
DEFAULT_255_1_388
10
22.1700004
20
-0.6398
11
21.9919982
21
-0.6398
0
LINE
8
DEFAULT_255_1_388
10
21.5908156
20
0.4616451
11
21.3676352
21
-0.1536823
0
LINE
8
DEFAULT_255_1_388
10
21.3676352
20
-0.1536823
11
21.8148996
21
-0.1536823
0
LINE
8
DEFAULT_255_1_388
10
21.8148996
20
-0.1536823
11
21.5908156
21
0.4616451
0
LINE
8
DEFAULT_255_1_388
10
23.1286823
20
0.138169
11
23.1286823
21
-0.0786865
0
LINE
8
DEFAULT_255_1_388
10
22.2983066
20
-0.1012756
11
22.2983066
21
0.1219048
0
LINE
8
DEFAULT_255_1_388
10
22.9615229
20
-0.1238647
11
22.9615229
21
0.1499153
0
LINE
8
DEFAULT_255_1_388
10
22.465466
20
0.1625652
11
22.465466
21
-0.1048898
0
ARC
8
DEFAULT_255_1_388
10
21.7509157
20
-0.0841882
40
1.3777776
50
353.8440855
51
0.2287917
0
ARC
8
DEFAULT_255_1_388
10
22.2728175
20
-0.1424586
40
0.852639
50
344.4934746
51
353.9763743
0
ARC
8
DEFAULT_255_1_388
10
22.6094982
20
-0.2381809
40
0.5026273
50
329.2803599
51
344.7473406
0
ARC
8
DEFAULT_255_1_388
10
22.7210478
20
-0.2993962
40
0.3754848
50
324.9361395
51
328.6153007
0
ARC
8
DEFAULT_255_1_388
10
22.7636127
20
-0.3291414
40
0.3235566
50
280.5801797
51
324.9173226
0
ARC
8
DEFAULT_255_1_388
10
22.7184756
20
-0.1411764
40
0.5167077
50
269.5979457
51
281.6732777
0
ARC
8
DEFAULT_255_1_388
10
22.7103659
20
-0.1546887
40
0.5032026
50
256.6228565
51
270.5105488
0
ARC
8
DEFAULT_255_1_388
10
22.6651402
20
-0.3288655
40
0.3233092
50
215.8618351
51
257.2787793
0
ARC
8
DEFAULT_255_1_388
10
22.7800109
20
-0.2517894
40
0.4615831
50
197.9695203
51
215.2622745
0
ARC
8
DEFAULT_255_1_388
10
23.0595785
20
-0.1574359
40
0.7566307
50
187.8816486
51
198.2346584
0
ARC
8
DEFAULT_255_1_388
10
23.5049023
20
-0.0931547
40
1.2065653
50
180.8977266
51
188.0054894
0
ARC
8
DEFAULT_255_1_388
10
23.8099237
20
-0.08166
40
1.5117443
50
180.7434591
51
181.152202
0
ARC
8
DEFAULT_255_1_388
10
23.6424233
20
0.1273371
40
1.3441277
50
173.7674302
51
180.2315596
0
ARC
8
DEFAULT_255_1_388
10
23.1342102
20
0.1847779
40
0.8326847
50
164.3058537
51
173.9000553
0
ARC
8
DEFAULT_255_1_388
10
22.8066102
20
0.2791652
40
0.4917711
50
148.7922028
51
164.5682288
0
ARC
8
DEFAULT_255_1_388
10
22.6996839
20
0.3388457
40
0.3694204
50
144.5883979
51
148.1161588
0
ARC
8
DEFAULT_255_1_388
10
22.6609584
20
0.3658667
40
0.322202
50
101.6440149
51
144.5142619
0
ARC
8
DEFAULT_255_1_388
10
22.7087777
20
0.1758337
40
0.5180451
50
89.528284
51
102.5820197
0
ARC
8
DEFAULT_255_1_388
10
22.7176769
20
0.1714376
40
0.5224441
50
77.0437914
51
90.508231
0
ARC
8
DEFAULT_255_1_388
10
22.7629022
20
0.3562272
40
0.3322297
50
48.2777708
51
77.4996087
0
ARC
8
DEFAULT_255_1_388
10
22.7710762
20
0.3707557
40
0.315966
50
36.3141586
51
47.6307332
0
ARC
8
DEFAULT_255_1_388
10
22.6733484
20
0.3049159
40
0.4337313
50
18.2931065
51
35.6770203
0
ARC
8
DEFAULT_255_1_388
10
22.3872325
20
0.2067107
40
0.7362203
50
8.0246996
51
18.5605636
0
ARC
8
DEFAULT_255_1_388
10
21.9188681
20
0.1375432
40
1.2096583
50
1.127539
51
8.1718423
0
ARC
8
DEFAULT_255_1_388
10
21.5539814
20
0.1232374
40
1.5747719
50
0.5432713
51
1.38669
0
ARC
8
DEFAULT_255_1_388
10
21.7597193
20
0.1539163
40
1.2018103
50
359.8092569
51
4.9408001
0
ARC
8
DEFAULT_255_1_388
10
22.2333774
20
0.19619
40
0.7262727
50
4.8364937
51
12.2906017
0
ARC
8
DEFAULT_255_1_388
10
22.5433239
20
0.2652485
40
0.4087324
50
12.0806994
51
23.8171225
0
ARC
8
DEFAULT_255_1_388
10
22.6753635
20
0.3211508
40
0.2653719
50
24.2874621
51
31.3934353
0
ARC
8
DEFAULT_255_1_388
10
22.7344071
20
0.3597822
40
0.1948607
50
30.7407708
51
82.4658033
0
ARC
8
DEFAULT_255_1_388
10
22.7141732
20
0.2604017
40
0.2961198
50
81.1057101
51
90.2187368
0
ARC
8
DEFAULT_255_1_388
10
22.7101544
20
0.2894421
40
0.2670929
50
89.380395
51
105.6763916
0
ARC
8
DEFAULT_255_1_388
10
22.6895265
20
0.364432
40
0.1893189
50
105.7980655
51
149.7387869
0
ARC
8
DEFAULT_255_1_388
10
22.8092406
20
0.2924719
40
0.3289892
50
149.4208441
51
163.628295
0
ARC
8
DEFAULT_255_1_388
10
23.0444635
20
0.2207345
40
0.5749004
50
163.3764549
51
172.141138
0
ARC
8
DEFAULT_255_1_388
10
23.4157357
20
0.1675582
40
0.9499585
50
172.0258462
51
178.0705453
0
ARC
8
DEFAULT_255_1_388
10
23.7578909
20
0.1513682
40
1.2924734
50
177.8639301
51
179.5036263
0
ARC
8
DEFAULT_255_1_388
10
23.6359928
20
-0.1089849
40
1.170534
50
179.7995545
51
185.246089
0
ARC
8
DEFAULT_255_1_388
10
23.1811521
20
-0.1520596
40
0.7136613
50
185.1411911
51
193.0082205
0
ARC
8
DEFAULT_255_1_388
10
22.8837782
20
-0.2223559
40
0.4080987
50
192.7897338
51
205.2507384
0
ARC
8
DEFAULT_255_1_388
10
22.7659992
20
-0.2749462
40
0.2791522
50
205.8001921
51
211.2545876
0
ARC
8
DEFAULT_255_1_388
10
22.7071531
20
-0.3143868
40
0.2084074
50
210.3789935
51
238.4007996
0
ARC
8
DEFAULT_255_1_388
10
22.7049617
20
-0.3091214
40
0.2117943
50
239.6521916
51
265.9793852
0
ARC
8
DEFAULT_255_1_388
10
22.7145466
20
-0.2334642
40
0.2879689
50
265.1324455
51
270.0603288
0
ARC
8
DEFAULT_255_1_388
10
22.7177843
20
-0.2699582
40
0.2514919
50
269.3314378
51
287.2180039
0
ARC
8
DEFAULT_255_1_388
10
22.7332925
20
-0.3265709
40
0.1928357
50
287.7957942
51
329.0808983
0
ARC
8
DEFAULT_255_1_388
10
22.6255682
20
-0.2593349
40
0.319808
50
328.6635261
51
343.3325043
0
ARC
8
DEFAULT_255_1_388
10
22.3811141
20
-0.1831805
40
0.5758408
50
343.0498092
51
351.9392499
0
ARC
8
DEFAULT_255_1_388
10
21.9910462
20
-0.1256795
40
0.9701202
50
351.8071632
51
357.7957897
0
ARC
8
DEFAULT_255_1_388
10
21.6275939
20
-0.1068276
40
1.3340376
50
357.5870923
51
359.2682493
0
ARC
8
DEFAULT_255_2_778
10
7.7537338
20
203.1512992
40
3.0484709
50
251.6854144
51
258.6071955
0
ARC
8
DEFAULT_255_2_778
10
7.539521
20
202.0696738
40
1.9458471
50
258.4992492
51
268.3986479
0
ARC
8
DEFAULT_255_2_778
10
7.5172314
20
201.6394206
40
1.5151737
50
268.7865272
51
269.9950384
0
ARC
8
DEFAULT_255_2_778
10
7.5277432
20
201.1882355
40
1.0640417
50
269.426895
51
279.6711067
0
ARC
8
DEFAULT_255_2_778
10
7.6417753
20
200.5586746
40
0.4243233
50
278.7731084
51
300.3324923
0
ARC
8
DEFAULT_255_2_778
10
7.760746
20
200.3560552
40
0.1893587
50
300.2240287
51
1.9041213
0
ARC
8
DEFAULT_255_2_778
10
7.7452705
20
200.3652089
40
0.2047497
50
359.1991369
51
359.99965
0
ARC
8
DEFAULT_255_2_778
10
7.7523233
20
200.3660378
40
0.1976988
50
359.7594145
51
47.1793976
0
ARC
8
DEFAULT_255_2_778
10
7.6187277
20
200.217431
40
0.3975169
50
47.6144502
51
60.8366176
0
ARC
8
DEFAULT_255_2_778
10
7.0190958
20
199.2014865
40
1.5771337
50
59.799464
51
64.8885807
0
ARC
8
DEFAULT_255_2_778
10
6.0948833
20
197.2724682
40
3.7160912
50
64.6076081
51
66.8386974
0
ARC
8
DEFAULT_255_2_778
10
9.6419609
20
205.6355052
40
5.368109
50
244.3032309
51
247.1393781
0
ARC
8
DEFAULT_255_2_778
10
8.5507088
20
203.375518
40
2.8584574
50
240.2323579
51
244.3709759
0
ARC
8
DEFAULT_255_2_778
10
7.7800475
20
202.0386591
40
1.315392
50
233.2209971
51
240.4606284
0
ARC
8
DEFAULT_255_2_778
10
7.3561477
20
201.4675187
40
0.6041399
50
225.6990744
51
232.9899679
0
ARC
8
DEFAULT_255_2_778
10
7.3965073
20
201.4919214
40
0.6499005
50
178.2783416
51
224.6550883
0
ARC
8
DEFAULT_255_2_778
10
7.5059624
20
201.5252974
40
0.7591885
50
157.033673
51
181.0453383
0
ARC
8
DEFAULT_255_2_778
10
7.378439
20
201.5661396
40
0.6259551
50
124.9113017
51
155.9211516
0
ARC
8
DEFAULT_255_2_778
10
7.5960466
20
201.2575681
40
1.0035357
50
100.4079723
51
125.0168617
0
ARC
8
DEFAULT_255_2_778
10
7.6991199
20
200.7635046
40
1.5081396
50
89.6483922
51
100.8684975
0
ARC
8
DEFAULT_255_2_778
10
7.7083242
20
200.4112988
40
1.8603169
50
89.5079487
51
89.9984402
0
ARC
8
DEFAULT_255_2_778
10
7.7099573
20
200.3460694
40
1.9255311
50
83.9170631
51
89.5732113
0
ARC
8
DEFAULT_255_2_778
10
7.5071517
20
198.3384957
40
3.9433074
50
80.7325723
51
84.0779772
0
ARC
8
DEFAULT_255_2_778
10
7.0208457
20
195.315582
40
7.0050837
50
78.5086351
51
80.7886813
0
ARC
8
DEFAULT_255_2_778
10
7.6620177
20
199.9150544
40
1.9415426
50
67.135818
51
78.0934208
0
ARC
8
DEFAULT_255_2_778
10
7.7851814
20
200.4854809
40
1.3579807
50
78.2126325
51
89.7333975
0
ARC
8
DEFAULT_255_2_778
10
7.7793853
20
200.9006211
40
0.9429038
50
89.2638155
51
100.5666868
0
ARC
8
DEFAULT_255_2_778
10
7.6660949
20
201.4704419
40
0.362036
50
99.4784875
51
124.329414
0
ARC
8
DEFAULT_255_2_778
10
7.5705593
20
201.618551
40
0.1859067
50
125.7571195
51
182.2824883
0
ARC
8
DEFAULT_255_2_778
10
7.5493239
20
201.6118629
40
0.1645253
50
180.2492993
51
239.8144161
0
ARC
8
DEFAULT_255_2_778
10
7.932718
20
202.2119128
40
0.876484
50
237.8725734
51
242.8068846
0
ARC
8
DEFAULT_255_2_778
10
9.4175857
20
205.0284958
40
4.0604642
50
242.3328458
51
244.031083
0
ARC
8
DEFAULT_255_2_778
10
12.3804066
20
211.0769314
40
10.7955807
50
243.950624
51
244.8024316
0
ARC
8
DEFAULT_255_2_778
10
15.4009918
20
217.4609175
40
17.8580926
50
244.7535425
51
244.9563234
0
ARC
8
DEFAULT_255_2_778
10
5.8652927
20
196.9593264
40
4.7527588
50
62.2505456
51
65.4301556
0
ARC
8
DEFAULT_255_2_778
10
6.9275435
20
198.9674172
40
2.4810291
50
57.2951304
51
62.3684211
0
ARC
8
DEFAULT_255_2_778
10
7.6807233
20
200.1307235
40
1.0952081
50
48.7345704
51
57.5685367
0
ARC
8
DEFAULT_255_2_778
10
8.0117486
20
200.5182722
40
0.5856147
50
44.3236031
51
48.0704418
0
ARC
8
DEFAULT_255_2_778
10
7.9783002
20
200.4982468
40
0.6236013
50
1.3523843
51
43.4925744
0
ARC
8
DEFAULT_255_2_778
10
7.7103531
20
200.4653151
40
0.8926473
50
359.9763756
51
3.0599076
0
ARC
8
DEFAULT_255_2_778
10
7.8645343
20
200.4502407
40
0.7386124
50
333.0361889
51
1.1408766
0
ARC
8
DEFAULT_255_2_778
10
7.8947908
20
200.4571919
40
0.7150741
50
300.8430083
51
331.4403095
0
ARC
8
DEFAULT_255_2_778
10
7.694568
20
200.7707162
40
1.0869673
50
281.4258583
51
301.4316118
0
ARC
8
DEFAULT_255_2_778
10
7.5632666
20
201.3789414
40
1.7091691
50
270.2273513
51
281.7010805
0
ARC
8
DEFAULT_255_2_778
10
7.5453797
20
201.8556043
40
2.1859577
50
269.9983113
51
270.6466065
0
LINE
8
DEFAULT_255_2_778
10
7.5453153
20
199.6696465
11
7.5438002
21
199.669647
0
ARC
8
DEFAULT_255_2_778
10
7.5509161
20
202.8525969
40
3.1829579
50
256.2431122
51
269.871909
0
ARC
8
DEFAULT_255_2_778
10
21.7538511
20
203.0771629
40
2.9720345
50
251.5709223
51
258.7508181
0
ARC
8
DEFAULT_255_2_778
10
21.5538128
20
202.0539385
40
1.9294488
50
258.6495077
51
268.8281511
0
ARC
8
DEFAULT_255_2_778
10
21.5355488
20
201.6591193
40
1.5343723
50
269.2085037
51
269.9981866
0
ARC
8
DEFAULT_255_2_778
10
21.5473849
20
201.1907184
40
1.0660376
50
269.3612297
51
279.5899087
0
ARC
8
DEFAULT_255_2_778
10
21.6608439
20
200.5592324
40
0.424527
50
278.6895227
51
300.2363944
0
ARC
8
DEFAULT_255_2_778
10
21.7799083
20
200.3557793
40
0.188796
50
300.1108484
51
1.9024905
0
ARC
8
DEFAULT_255_2_778
10
21.7439577
20
200.3664221
40
0.2246851
50
358.8842611
51
0.0019649
0
ARC
8
DEFAULT_255_2_778
10
21.7769791
20
200.3703385
40
0.1917038
50
358.831716
51
47.0900458
0
ARC
8
DEFAULT_255_2_778
10
21.6364654
20
200.210984
40
0.4041259
50
47.8812665
51
61.174665
0
ARC
8
DEFAULT_255_2_778
10
21.0418848
20
199.1910117
40
1.5846568
50
60.1210877
51
65.1917015
0
ARC
8
DEFAULT_255_2_778
10
20.1415278
20
197.2854122
40
3.6922188
50
64.9168629
51
67.1565628
0
ARC
8
DEFAULT_255_2_778
10
23.6275467
20
205.5569888
40
5.2839333
50
244.2656926
51
247.1407051
0
ARC
8
DEFAULT_255_2_778
10
22.5594997
20
203.348765
40
2.8309849
50
240.1545061
51
244.3326325
0
ARC
8
DEFAULT_255_2_778
10
21.7856548
20
202.0127346
40
1.2870531
50
232.697515
51
240.4357497
0
ARC
8
DEFAULT_255_2_778
10
21.3705506
20
201.4617218
40
0.5972006
50
225.5850892
51
232.3393736
0
ARC
8
DEFAULT_255_2_778
10
21.4133941
20
201.4912933
40
0.6483829
50
178.7795739
51
224.7095916
0
ARC
8
DEFAULT_255_2_778
10
21.6669319
20
201.5153135
40
0.9018316
50
179.997867
51
180.6487041
0
ARC
8
DEFAULT_255_2_778
10
21.5167738
20
201.5291249
40
0.7517998
50
156.9195758
51
181.050088
0
ARC
8
DEFAULT_255_2_778
10
21.3928482
20
201.5685712
40
0.6224513
50
124.7111133
51
155.7879672
0
ARC
8
DEFAULT_255_2_778
10
21.6055459
20
201.2766942
40
0.9835402
50
101.7934503
51
125.2143527
0
ARC
8
DEFAULT_255_2_778
10
21.729848
20
200.7241326
40
1.5498677
50
89.5248728
51
102.1166783
0
ARC
8
DEFAULT_255_2_778
10
21.7283109
20
200.1705834
40
2.1034129
50
83.2889725
51
89.6080411
0
ARC
8
DEFAULT_255_2_778
10
21.529975
20
198.4027668
40
3.8823067
50
79.4764054
51
83.4308492
0
ARC
8
DEFAULT_255_2_778
10
21.2186357
20
196.6495673
40
5.6628977
50
78.2224868
51
79.6190915
0
ARC
8
DEFAULT_255_2_778
10
21.6838473
20
199.9270715
40
1.9311543
50
67.1323814
51
78.3148813
0
ARC
8
DEFAULT_255_2_778
10
21.801359
20
200.4785614
40
1.3672981
50
78.4565774
51
89.7552271
0
ARC
8
DEFAULT_255_2_778
10
21.7951366
20
200.909447
40
0.9364778
50
89.2619009
51
100.5950934
0
ARC
8
DEFAULT_255_2_778
10
21.6824182
20
201.4749169
40
0.3599879
50
99.5087086
51
124.406715
0
ARC
8
DEFAULT_255_2_778
10
21.5878565
20
201.621343
40
0.1858061
50
125.8630185
51
182.2986975
0
ARC
8
DEFAULT_255_2_778
10
21.5497296
20
201.6138047
40
0.1475296
50
179.9666559
51
180.100057
0
ARC
8
DEFAULT_255_2_778
10
21.566185
20
201.613793
40
0.163985
50
180.0859454
51
239.8819968
0
ARC
8
DEFAULT_255_2_778
10
21.9379018
20
202.2005619
40
0.8584853
50
238.072871
51
243.0442008
0
ARC
8
DEFAULT_255_2_778
10
23.4872034
20
205.1655845
40
4.2038426
50
242.5409111
51
244.1884903
0
ARC
8
DEFAULT_255_2_778
10
26.6463384
20
211.660196
40
11.4260319
50
244.1076525
51
244.9219574
0
ARC
8
DEFAULT_255_2_778
10
29.9038827
20
218.583855
40
19.0777309
50
244.8743531
51
245.066969
0
ARC
8
DEFAULT_255_2_778
10
19.8865272
20
196.9916274
40
4.7250654
50
62.0340028
51
65.293009
0
ARC
8
DEFAULT_255_2_778
10
20.9507744
20
198.9865758
40
2.464003
50
57.1127289
51
62.13736
0
ARC
8
DEFAULT_255_2_778
10
21.7037139
20
200.1402906
40
1.0863604
50
48.3695509
51
57.4197129
0
ARC
8
DEFAULT_255_2_778
10
22.0286268
20
200.5170419
40
0.5889589
50
44.472493
51
47.6467012
0
ARC
8
DEFAULT_255_2_778
10
21.9979457
20
200.4999032
40
0.6229283
50
1.2061613
51
43.6203607
0
ARC
8
DEFAULT_255_2_778
10
21.7312413
20
200.4674903
40
0.890659
50
359.9779196
51
2.9299178
0
ARC
8
DEFAULT_255_2_778
10
21.8802547
20
200.4523837
40
0.7417924
50
333.172934
51
1.140392
0
ARC
8
DEFAULT_255_2_778
10
21.9146167
20
200.4570736
40
0.7135172
50
300.9808035
51
331.5913995
0
ARC
8
DEFAULT_255_2_778
10
21.7182603
20
200.7669862
40
1.0803281
50
281.9040909
51
301.4483918
0
ARC
8
DEFAULT_255_2_778
10
21.5848425
20
201.3655518
40
1.6935565
50
270.5796874
51
282.1436175
0
ARC
8
DEFAULT_255_2_778
10
21.5636722
20
201.8604735
40
2.1887267
50
269.9959074
51
271.0027751
0
LINE
8
DEFAULT_255_2_778
10
21.5635158
20
199.6717468
11
21.5625002
21
199.671747
0
ARC
8
DEFAULT_255_2_778
10
21.5700221
20
202.8605174
40
3.1887792
50
256.2556596
51
269.8648469
0
LINE
8
DEFAULT_255_2_778
10
6.7958002
20
199.762547
11
6.7958002
21
200.257247
0
LINE
8
DEFAULT_255_2_778
10
8.4164002
20
202.180247
11
8.4164002
21
201.704047
0
LINE
8
DEFAULT_255_2_778
10
6.7940002
20
199.760947
11
6.7958002
21
199.762547
0
LINE
8
DEFAULT_255_2_778
10
8.9866002
20
202.229747
11
9.6629002
21
202.229747
0
LINE
8
DEFAULT_255_2_778
10
9.6629002
20
202.229747
11
9.6629002
21
199.722347
0
LINE
8
DEFAULT_255_2_778
10
9.6629002
20
199.722347
11
8.9866002
21
199.722347
0
LINE
8
DEFAULT_255_2_778
10
8.9866002
20
199.722347
11
8.9866002
21
202.229747
0
LINE
8
DEFAULT_255_2_778
10
10.2809002
20
199.722347
11
10.2809002
21
202.229747
0
LINE
8
DEFAULT_255_2_778
10
10.2809002
20
202.229747
11
12.0132002
21
202.229747
0
LINE
8
DEFAULT_255_2_778
10
12.0132002
20
202.229747
11
12.0132002
21
201.776047
0
LINE
8
DEFAULT_255_2_778
10
12.0132002
20
201.776047
11
10.9321002
21
201.776047
0
LINE
8
DEFAULT_255_2_778
10
10.9321002
20
201.776047
11
10.9321002
21
201.209747
0
LINE
8
DEFAULT_255_2_778
10
10.9321002
20
201.209747
11
11.8735002
21
201.209747
0
LINE
8
DEFAULT_255_2_778
10
11.8735002
20
201.209747
11
11.8735002
21
200.796247
0
LINE
8
DEFAULT_255_2_778
10
11.8735002
20
200.796247
11
10.9321002
21
200.796247
0
LINE
8
DEFAULT_255_2_778
10
10.9321002
20
200.796247
11
10.9321002
21
200.200947
0
LINE
8
DEFAULT_255_2_778
10
10.9321002
20
200.200947
11
12.0412002
21
200.200947
0
LINE
8
DEFAULT_255_2_778
10
12.0412002
20
200.200947
11
12.0412002
21
199.720747
0
LINE
8
DEFAULT_255_2_778
10
12.0412002
20
199.720747
11
10.2809002
21
199.722347
0
LINE
8
DEFAULT_255_2_778
10
12.4817002
20
199.722347
11
12.4817002
21
202.229747
0
LINE
8
DEFAULT_255_2_778
10
12.4817002
20
202.229747
11
13.3575002
21
202.229747
0
LINE
8
DEFAULT_255_2_778
10
13.3575002
20
202.229747
11
13.9671002
21
200.627447
0
LINE
8
DEFAULT_255_2_778
10
13.9671002
20
200.627447
11
14.5897002
21
202.229747
0
LINE
8
DEFAULT_255_2_778
10
14.5897002
20
202.229747
11
15.4215002
21
202.229747
0
LINE
8
DEFAULT_255_2_778
10
15.4215002
20
202.229747
11
15.4215002
21
199.722347
0
LINE
8
DEFAULT_255_2_778
10
15.4215002
20
199.722347
11
14.7812002
21
199.722347
0
LINE
8
DEFAULT_255_2_778
10
14.7812002
20
199.722347
11
14.7812002
21
201.498147
0
LINE
8
DEFAULT_255_2_778
10
14.7812002
20
201.498147
11
14.0724002
21
199.697947
0
LINE
8
DEFAULT_255_2_778
10
14.0724002
20
199.697947
11
13.6515002
21
199.697947
0
LINE
8
DEFAULT_255_2_778
10
13.6515002
20
199.697947
11
12.9559002
21
201.498147
0
LINE
8
DEFAULT_255_2_778
10
12.9559002
20
201.498147
11
12.9559002
21
199.722047
0
LINE
8
DEFAULT_255_2_778
10
12.9559002
20
199.722047
11
12.4817002
21
199.722347
0
LINE
8
DEFAULT_255_2_778
10
16.0409002
20
199.722347
11
16.0409002
21
202.229747
0
LINE
8
DEFAULT_255_2_778
10
16.0409002
20
202.229747
11
17.7731002
21
202.229747
0
LINE
8
DEFAULT_255_2_778
10
17.7731002
20
202.229747
11
17.7731002
21
201.776047
0
LINE
8
DEFAULT_255_2_778
10
17.7731002
20
201.776047
11
16.6921002
21
201.776047
0
LINE
8
DEFAULT_255_2_778
10
16.6921002
20
201.776047
11
16.6921002
21
201.209747
0
LINE
8
DEFAULT_255_2_778
10
16.6921002
20
201.209747
11
17.6334002
21
201.209747
0
LINE
8
DEFAULT_255_2_778
10
17.6334002
20
201.209747
11
17.6334002
21
200.796247
0
LINE
8
DEFAULT_255_2_778
10
17.6334002
20
200.796247
11
16.6921002
21
200.796247
0
LINE
8
DEFAULT_255_2_778
10
16.6921002
20
200.796247
11
16.6921002
21
200.200947
0
LINE
8
DEFAULT_255_2_778
10
16.6921002
20
200.200947
11
17.8030002
21
200.200947
0
LINE
8
DEFAULT_255_2_778
10
17.8030002
20
200.200947
11
17.8030002
21
199.720747
0
LINE
8
DEFAULT_255_2_778
10
17.8030002
20
199.720747
11
16.0409002
21
199.722347
0
LINE
8
DEFAULT_255_2_778
10
18.2454002
20
199.722347
11
18.2454002
21
202.229747
0
LINE
8
DEFAULT_255_2_778
10
18.2454002
20
202.229747
11
19.0283002
21
202.229747
0
LINE
8
DEFAULT_255_2_778
10
19.0283002
20
202.229747
11
19.8586002
21
200.550947
0
LINE
8
DEFAULT_255_2_778
10
19.8586002
20
200.550947
11
19.8586002
21
202.229747
0
LINE
8
DEFAULT_255_2_778
10
19.8586002
20
202.229747
11
20.3343002
21
202.229747
0
LINE
8
DEFAULT_255_2_778
10
20.3343002
20
202.229747
11
20.3343002
21
199.722347
0
LINE
8
DEFAULT_255_2_778
10
20.3343002
20
199.722347
11
19.5739002
21
199.722347
0
LINE
8
DEFAULT_255_2_778
10
19.5739002
20
199.722347
11
18.7214002
21
201.423547
0
LINE
8
DEFAULT_255_2_778
10
18.7214002
20
201.423547
11
18.7214002
21
199.722347
0
LINE
8
DEFAULT_255_2_778
10
18.7214002
20
199.722347
11
18.2454002
21
199.722347
0
LINE
8
DEFAULT_255_2_778
10
20.8143002
20
199.762747
11
20.8143002
21
200.257547
0
LINE
8
DEFAULT_255_2_778
10
22.3745002
20
202.193247
11
22.4343002
21
202.182647
0
LINE
8
DEFAULT_255_2_778
10
22.4343002
20
202.182647
11
22.4343002
21
201.706447
0
LINE
8
DEFAULT_255_2_778
10
20.8124002
20
199.763047
11
20.8143002
21
199.762747
0
LINE
8
DEFAULT_255_1_388
10
8.5124457
20
198.1134892
11
8.3380577
21
198.1134892
0
LINE
8
DEFAULT_255_1_388
10
7.5591852
20
197.5596042
11
7.7335731
21
197.5596042
0
ARC
8
DEFAULT_255_1_388
10
8.4121304
20
199.1198821
40
1.4087688
50
248.9196578
51
254.1442424
0
ARC
8
DEFAULT_255_1_388
10
8.2231184
20
198.6332805
40
0.8867498
50
241.6337352
51
249.0064643
0
ARC
8
DEFAULT_255_1_388
10
8.0511498
20
198.3181764
40
0.5277799
50
230.4982261
51
241.8087583
0
ARC
8
DEFAULT_255_1_388
10
7.9629269
20
198.2057686
40
0.3849419
50
227.4062979
51
229.9877433
0
ARC
8
DEFAULT_255_1_388
10
7.9080615
20
198.1522155
40
0.3084129
50
200.6782127
51
228.1765252
0
ARC
8
DEFAULT_255_1_388
10
7.9161984
20
198.1505277
40
0.315461
50
179.506278
51
199.8695278
0
ARC
8
DEFAULT_255_1_388
10
7.9151573
20
198.1588671
40
0.3144584
50
132.4834401
51
181.0242352
0
ARC
8
DEFAULT_255_1_388
10
7.9820777
20
198.0956788
40
0.4063094
50
129.2526113
51
133.4249077
0
ARC
8
DEFAULT_255_1_388
10
7.998637
20
198.0708619
40
0.436014
50
101.9878945
51
128.8741833
0
ARC
8
DEFAULT_255_1_388
10
8.0434785
20
197.877236
40
0.6347415
50
89.5906376
51
102.3170567
0
ARC
8
DEFAULT_255_1_388
10
8.0514097
20
197.9130586
40
0.5989122
50
77.2359491
51
90.3248968
0
ARC
8
DEFAULT_255_1_388
10
8.0747028
20
198.0218554
40
0.4876594
50
63.8379856
51
77.0808925
0
ARC
8
DEFAULT_255_1_388
10
8.1059561
20
198.0800882
40
0.4216191
50
45.9863127
51
64.1608798
0
ARC
8
DEFAULT_255_1_388
10
8.1352955
20
198.113599
40
0.3771394
50
32.2747934
51
45.6544796
0
ARC
8
DEFAULT_255_1_388
10
8.1427761
20
198.1157426
40
0.3696765
50
359.6507495
51
32.6129943
0
ARC
8
DEFAULT_255_1_388
10
8.0366944
20
198.1162788
40
0.3013762
50
359.469654
51
14.983205
0
ARC
8
DEFAULT_255_1_388
10
8.1160196
20
198.1375288
40
0.2192542
50
14.9781954
51
48.2004799
0
ARC
8
DEFAULT_255_1_388
10
8.0975307
20
198.1142937
40
0.2489048
50
48.5926661
51
74.1242559
0
ARC
8
DEFAULT_255_1_388
10
8.0600109
20
197.9904607
40
0.3782845
50
73.7889321
51
86.6653996
0
ARC
8
DEFAULT_255_1_388
10
8.0484924
20
197.8546955
40
0.5145025
50
86.2642725
51
90.0533288
0
ARC
8
DEFAULT_255_1_388
10
8.0453017
20
197.8991376
40
0.4700681
50
89.669455
51
99.2313411
0
ARC
8
DEFAULT_255_1_388
10
8.0180176
20
198.0616401
40
0.3052945
50
99.0695987
51
113.7659242
0
ARC
8
DEFAULT_255_1_388
10
7.9872171
20
198.1342772
40
0.226407
50
114.0402885
51
127.9848946
0
ARC
8
DEFAULT_255_1_388
10
7.9601647
20
198.1675884
40
0.1835045
50
127.7287217
51
176.7106493
0
ARC
8
DEFAULT_255_1_388
10
8.0365312
20
198.156221
40
0.2604907
50
175.1780759
51
180.0581213
0
ARC
8
DEFAULT_255_1_388
10
7.9416656
20
198.1548411
40
0.1656287
50
179.6140658
51
228.124674
0
ARC
8
DEFAULT_255_1_388
10
7.9914013
20
198.200894
40
0.2332038
50
226.5785315
51
230.8792476
0
ARC
8
DEFAULT_255_1_388
10
8.04435
20
198.2711908
40
0.3211664
50
231.4636401
51
241.9261664
0
ARC
8
DEFAULT_255_1_388
10
8.1790283
20
198.5190349
40
0.6032345
50
241.7177136
51
248.3259138
0
ARC
8
DEFAULT_255_1_388
10
8.3348878
20
198.9051771
40
1.0196417
50
248.2007377
51
252.4527713
0
ARC
8
DEFAULT_255_1_388
10
8.4702405
20
199.3236092
40
1.4594143
50
252.3388938
51
254.347037
0
ARC
8
DEFAULT_255_1_388
10
7.6217705
20
196.2888095
40
1.6917621
50
71.0197462
51
74.4085467
0
ARC
8
DEFAULT_255_1_388
10
7.8124793
20
196.8393144
40
1.1091618
50
66.1845203
51
71.086519
0
ARC
8
DEFAULT_255_1_388
10
7.9875342
20
197.2334439
40
0.6779073
50
59.3537334
51
66.269255
0
ARC
8
DEFAULT_255_1_388
10
8.0875068
20
197.4025777
40
0.4814366
50
49.1021732
51
59.3294421
0
ARC
8
DEFAULT_255_1_388
10
8.1796056
20
197.5075575
40
0.3417875
50
32.7924183
51
49.2503526
0
ARC
8
DEFAULT_255_1_388
10
8.214567
20
197.5325311
40
0.2988789
50
31.121225
51
32.3977355
0
ARC
8
DEFAULT_255_1_388
10
8.2057848
20
197.5292728
40
0.3080861
50
8.1116803
51
30.7958224
0
ARC
8
DEFAULT_255_1_388
10
8.1146194
20
197.5137437
40
0.4005385
50
359.8390945
51
8.4707348
0
ARC
8
DEFAULT_255_1_388
10
8.1850242
20
197.5082751
40
0.3301608
50
337.4732479
51
0.7538283
0
ARC
8
DEFAULT_255_1_388
10
8.2051267
20
197.5060554
40
0.3107929
50
307.5917028
51
336.4313755
0
ARC
8
DEFAULT_255_1_388
10
8.1540324
20
197.5628509
40
0.3870096
50
307.6560665
51
308.4561779
0
ARC
8
DEFAULT_255_1_388
10
8.1274541
20
197.6036832
40
0.435591
50
284.3733666
51
307.1426212
0
ARC
8
DEFAULT_255_1_388
10
8.0717435
20
197.8086391
40
0.6479685
50
272.4384566
51
284.6464689
0
ARC
8
DEFAULT_255_1_388
10
8.057482
20
198.0110434
40
0.8508149
50
269.9708517
51
272.8180721
0
ARC
8
DEFAULT_255_1_388
10
8.0526503
20
197.7818283
40
0.6216151
50
248.2707343
51
270.4054609
0
ARC
8
DEFAULT_255_1_388
10
8.0465374
20
197.7603673
40
0.5994203
50
246.1380358
51
248.054058
0
ARC
8
DEFAULT_255_1_388
10
7.9994517
20
197.6614705
40
0.4899388
50
233.1671897
51
246.4951656
0
ARC
8
DEFAULT_255_1_388
10
7.9371152
20
197.5773137
40
0.3852115
50
215.3403381
51
233.084328
0
ARC
8
DEFAULT_255_1_388
10
7.9064516
20
197.5550093
40
0.3472969
50
179.2419235
51
215.2648426
0
ARC
8
DEFAULT_255_1_388
10
7.9928067
20
197.5565979
40
0.259251
50
179.3355796
51
199.1045873
0
ARC
8
DEFAULT_255_1_388
10
7.9554209
20
197.5468223
40
0.2207454
50
199.8830064
51
232.7061328
0
ARC
8
DEFAULT_255_1_388
10
8.0085483
20
197.6136456
40
0.306101
50
232.3736206
51
255.5136621
0
ARC
8
DEFAULT_255_1_388
10
8.0468989
20
197.7536177
40
0.4512213
50
255.2447928
51
267.5318292
0
ARC
8
DEFAULT_255_1_388
10
8.0567456
20
197.8922709
40
0.5901825
50
267.1564563
51
270.0294721
0
ARC
8
DEFAULT_255_1_388
10
8.0598781
20
197.8423623
40
0.5402814
50
269.6999944
51
278.1662446
0
ARC
8
DEFAULT_255_1_388
10
8.0886809
20
197.6476974
40
0.3435003
50
278.0229022
51
290.6255326
0
ARC
8
DEFAULT_255_1_388
10
8.1277975
20
197.5433547
40
0.2320666
50
290.6616368
51
307.0374127
0
ARC
8
DEFAULT_255_1_388
10
8.1615875
20
197.501904
40
0.1786372
50
306.3942078
51
355.303191
0
ARC
8
DEFAULT_255_1_388
10
8.1040168
20
197.5105186
40
0.2367516
50
354.3662092
51
0.0709489
0
ARC
8
DEFAULT_255_1_388
10
8.1200037
20
197.5130561
40
0.2207761
50
359.4175379
51
16.1975911
0
ARC
8
DEFAULT_255_1_388
10
8.1712155
20
197.5270954
40
0.1676828
50
16.4721294
51
52.6261798
0
ARC
8
DEFAULT_255_1_388
10
8.0788662
20
197.4051606
40
0.3206412
50
52.7381828
51
62.4979144
0
ARC
8
DEFAULT_255_1_388
10
7.9230415
20
197.1119236
40
0.6527035
50
62.2517425
51
68.1219454
0
ARC
8
DEFAULT_255_1_388
10
7.7295903
20
196.6364951
40
1.1659797
50
68.006043
51
71.8055127
0
ARC
8
DEFAULT_255_1_388
10
7.5275811
20
196.0306723
40
1.8045908
50
71.718361
51
73.9260743
0
LINE
8
DEFAULT_255_1_388
10
8.9235675
20
198.4938898
11
8.9235675
21
197.1783
0
LINE
8
DEFAULT_255_1_388
10
8.9235675
20
197.1783
11
8.7500831
21
197.1783
0
LINE
8
DEFAULT_255_1_388
10
8.7500831
20
197.1783
11
8.7500831
21
198.4938898
0
LINE
8
DEFAULT_255_1_388
10
8.7500831
20
198.4938898
11
8.9235675
21
198.4938898
0
LINE
8
DEFAULT_255_1_388
10
9.2407186
20
198.4938898
11
9.4648026
21
198.4938898
0
LINE
8
DEFAULT_255_1_388
10
9.4648026
20
198.4938898
11
9.8948993
21
197.4204553
0
LINE
8
DEFAULT_255_1_388
10
9.8948993
20
197.4204553
11
10.3249959
21
198.4938898
0
LINE
8
DEFAULT_255_1_388
10
10.3249959
20
198.4938898
11
10.5499835
21
198.4938898
0
LINE
8
DEFAULT_255_1_388
10
10.5499835
20
198.4938898
11
10.5499835
21
197.1783
0
LINE
8
DEFAULT_255_1_388
10
10.5499835
20
197.1783
11
10.3764991
21
197.1783
0
LINE
8
DEFAULT_255_1_388
10
10.3764991
20
197.1783
11
10.3764991
21
197.690621
0
LINE
8
DEFAULT_255_1_388
10
10.3764991
20
197.690621
11
10.3927633
21
198.2436025
0
LINE
8
DEFAULT_255_1_388
10
10.3927633
20
198.2436025
11
9.9608595
21
197.1783
0
LINE
8
DEFAULT_255_1_388
10
9.9608595
20
197.1783
11
9.8280355
21
197.1783
0
LINE
8
DEFAULT_255_1_388
10
9.8280355
20
197.1783
11
9.3970353
21
198.2408918
0
LINE
8
DEFAULT_255_1_388
10
9.3970353
20
198.2408918
11
9.414203
21
197.690621
0
LINE
8
DEFAULT_255_1_388
10
9.414203
20
197.690621
11
9.414203
21
197.1783
0
LINE
8
DEFAULT_255_1_388
10
9.414203
20
197.1783
11
9.2407186
21
197.1783
0
LINE
8
DEFAULT_255_1_388
10
9.2407186
20
197.1783
11
9.2407186
21
198.4938898
0
LINE
8
DEFAULT_255_1_388
10
11.7246173
20
197.1783
11
11.5990218
21
197.5216545
0
LINE
8
DEFAULT_255_1_388
10
11.5990218
20
197.5216545
11
11.0478475
21
197.5216545
0
LINE
8
DEFAULT_255_1_388
10
11.0478475
20
197.5216545
11
10.9240592
21
197.1783
0
LINE
8
DEFAULT_255_1_388
10
10.9240592
20
197.1783
11
10.7451534
21
197.1783
0
LINE
8
DEFAULT_255_1_388
10
10.7451534
20
197.1783
11
11.2475353
21
198.4938898
0
LINE
8
DEFAULT_255_1_388
10
11.2475353
20
198.4938898
11
11.3993341
21
198.4938898
0
LINE
8
DEFAULT_255_1_388
10
11.3993341
20
198.4938898
11
11.9026195
21
197.1783
0
LINE
8
DEFAULT_255_1_388
10
11.9026195
20
197.1783
11
11.7246173
21
197.1783
0
LINE
8
DEFAULT_255_1_388
10
11.3234347
20
198.2797451
11
11.1002542
21
197.6644177
0
LINE
8
DEFAULT_255_1_388
10
11.1002542
20
197.6644177
11
11.5475187
21
197.6644177
0
LINE
8
DEFAULT_255_1_388
10
11.5475187
20
197.6644177
11
11.3234347
21
198.2797451
0
LINE
8
DEFAULT_255_1_388
10
12.8721441
20
198.4938898
11
12.8721441
21
198.3511267
0
LINE
8
DEFAULT_255_1_388
10
12.8721441
20
198.3511267
11
12.449276
21
198.3511267
0
LINE
8
DEFAULT_255_1_388
10
12.449276
20
198.3511267
11
12.449276
21
197.1783
0
LINE
8
DEFAULT_255_1_388
10
12.449276
20
197.1783
11
12.2766952
21
197.1783
0
LINE
8
DEFAULT_255_1_388
10
12.2766952
20
197.1783
11
12.2766952
21
198.3511267
0
LINE
8
DEFAULT_255_1_388
10
12.2766952
20
198.3511267
11
11.8547306
21
198.3511267
0
LINE
8
DEFAULT_255_1_388
10
11.8547306
20
198.3511267
11
11.8547306
21
198.4938898
0
LINE
8
DEFAULT_255_1_388
10
11.8547306
20
198.4938898
11
12.8721441
21
198.4938898
0
LINE
8
DEFAULT_255_1_388
10
13.2534483
20
198.4938898
11
13.2534483
21
197.1783
0
LINE
8
DEFAULT_255_1_388
10
13.2534483
20
197.1783
11
13.079964
21
197.1783
0
LINE
8
DEFAULT_255_1_388
10
13.079964
20
197.1783
11
13.079964
21
198.4938898
0
LINE
8
DEFAULT_255_1_388
10
13.079964
20
198.4938898
11
13.2534483
21
198.4938898
0
LINE
8
DEFAULT_255_1_388
10
14.3639291
20
197.5957468
11
14.538317
21
197.5957468
0
LINE
8
DEFAULT_255_1_388
10
13.5254212
20
197.7746525
11
13.5254212
21
197.9011516
0
LINE
8
DEFAULT_255_1_388
10
14.538317
20
198.0710217
11
14.3639291
21
198.0710217
0
LINE
8
DEFAULT_255_1_388
10
13.6998092
20
197.8966337
11
13.6998092
21
197.7692312
0
ARC
8
DEFAULT_255_1_388
10
13.9217404
20
197.6629329
40
0.6202263
50
340.1774904
51
353.7812217
0
ARC
8
DEFAULT_255_1_388
10
14.0985257
20
197.5970893
40
0.4315926
50
311.4560052
51
340.4420756
0
ARC
8
DEFAULT_255_1_388
10
14.0947796
20
197.6095665
40
0.4434573
50
282.4332229
51
310.7514507
0
ARC
8
DEFAULT_255_1_388
10
14.0453614
20
197.8137703
40
0.6535262
50
269.9358869
51
282.8096729
0
ARC
8
DEFAULT_255_1_388
10
14.0395554
20
197.9650329
40
0.8048043
50
269.9995752
51
270.3612856
0
ARC
8
DEFAULT_255_1_388
10
14.0336044
20
197.6851781
40
0.5249831
50
250.7885263
51
270.6488451
0
ARC
8
DEFAULT_255_1_388
10
14.0146868
20
197.6134853
40
0.4510942
50
219.3628377
51
250.0611024
0
ARC
8
DEFAULT_255_1_388
10
14.1079743
20
197.6927653
40
0.5735046
50
193.5480293
51
219.5755675
0
ARC
8
DEFAULT_255_1_388
10
14.3747952
20
197.762052
40
0.849146
50
181.1220183
51
193.8754971
0
ARC
8
DEFAULT_255_1_388
10
14.6071185
20
197.7744914
40
1.0816971
50
179.9914644
51
181.5398227
0
ARC
8
DEFAULT_255_1_388
10
14.3994495
20
197.9053586
40
0.8740384
50
169.5837606
51
180.275782
0
ARC
8
DEFAULT_255_1_388
10
14.1927844
20
197.9435439
40
0.6638751
50
155.0367033
51
169.6002779
0
ARC
8
DEFAULT_255_1_388
10
14.0650302
20
198.0051336
40
0.5220662
50
136.7831557
51
155.2472983
0
ARC
8
DEFAULT_255_1_388
10
14.0212092
20
198.0423577
40
0.4646502
50
121.7633063
51
136.4281161
0
ARC
8
DEFAULT_255_1_388
10
14.0363932
20
198.0143049
40
0.4964979
50
95.6460018
51
121.5489589
0
ARC
8
DEFAULT_255_1_388
10
14.0540907
20
197.8895704
40
0.6223912
50
89.9245727
51
96.1375919
0
ARC
8
DEFAULT_255_1_388
10
14.0597612
20
197.9029721
40
0.6090084
50
76.6779212
51
90.456405
0
ARC
8
DEFAULT_255_1_388
10
14.1040425
20
198.081906
40
0.42469
50
47.4858803
51
76.9287069
0
ARC
8
DEFAULT_255_1_388
10
14.0875038
20
198.0706623
40
0.4441778
50
16.5424081
51
46.8934505
0
ARC
8
DEFAULT_255_1_388
10
13.9066088
20
198.0112265
40
0.6345318
50
5.4072971
51
17.0363711
0
ARC
8
DEFAULT_255_1_388
10
13.7447813
20
197.9852304
40
0.6250632
50
7.8888693
51
15.9242022
0
ARC
8
DEFAULT_255_1_388
10
13.9682799
20
198.0501309
40
0.3923364
50
15.7650676
51
27.9410069
0
ARC
8
DEFAULT_255_1_388
10
14.0924968
20
198.1166317
40
0.2514401
50
27.8167196
51
46.4007942
0
ARC
8
DEFAULT_255_1_388
10
14.0980809
20
198.1159882
40
0.2480958
50
47.4372362
51
75.0695672
0
ARC
8
DEFAULT_255_1_388
10
14.0633646
20
197.9951277
40
0.3738281
50
74.7009379
51
87.8124314
0
ARC
8
DEFAULT_255_1_388
10
14.0551262
20
197.8767659
40
0.4924321
50
87.3802571
51
90.0251599
0
ARC
8
DEFAULT_255_1_388
10
14.050791
20
198.0087997
40
0.3604218
50
89.3451886
51
108.5744412
0
ARC
8
DEFAULT_255_1_388
10
14.0353902
20
198.0665836
40
0.3007661
50
109.2998307
51
143.3037387
0
ARC
8
DEFAULT_255_1_388
10
14.1211192
20
198.0006584
40
0.4089031
50
143.075267
51
163.1918576
0
ARC
8
DEFAULT_255_1_388
10
14.3407026
20
197.9313652
40
0.6391492
50
162.9375929
51
174.6208776
0
ARC
8
DEFAULT_255_1_388
10
14.6361408
20
197.8989711
40
0.9363344
50
174.342123
51
180.1430283
0
ARC
8
DEFAULT_255_1_388
10
14.5313949
20
197.7646117
40
0.8315986
50
179.6817261
51
189.150555
0
ARC
8
DEFAULT_255_1_388
10
14.2500698
20
197.7177559
40
0.5464044
50
188.9911061
51
203.5772363
0
ARC
8
DEFAULT_255_1_388
10
14.128599
20
197.6673539
40
0.4149206
50
203.9075402
51
215.1312435
0
ARC
8
DEFAULT_255_1_388
10
14.0247788
20
197.5868907
40
0.2837747
50
213.9071511
51
263.8848919
0
ARC
8
DEFAULT_255_1_388
10
14.0388781
20
197.6751519
40
0.3730641
50
263.1757928
51
270.1031044
0
ARC
8
DEFAULT_255_1_388
10
14.042486
20
197.8154511
40
0.5133712
50
269.6722503
51
279.0606936
0
ARC
8
DEFAULT_255_1_388
10
14.0725016
20
197.634015
40
0.3294739
50
278.8749101
51
293.6349581
0
ARC
8
DEFAULT_255_1_388
10
14.1085219
20
197.5494251
40
0.2375405
50
293.8553806
51
310.0518171
0
ARC
8
DEFAULT_255_1_388
10
14.1090728
20
197.5424021
40
0.2318463
50
311.0644687
51
332.0111037
0
ARC
8
DEFAULT_255_1_388
10
13.9749402
20
197.6163702
40
0.3850112
50
331.6586806
51
343.2877423
0
ARC
8
DEFAULT_255_1_388
10
13.7428867
20
197.6876806
40
0.6277712
50
343.1446576
51
351.0103568
0
ARC
8
DEFAULT_255_1_388
10
13.579619
20
197.7176873
40
0.7937327
50
350.71248
51
351.1626997
0
LINE
8
DEFAULT_255_1_388
10
16.1060013
20
198.1134892
11
15.9316134
21
198.1134892
0
LINE
8
DEFAULT_255_1_388
10
15.1527408
20
197.5596042
11
15.3271288
21
197.5596042
0
ARC
8
DEFAULT_255_1_388
10
16.0056861
20
199.1198821
40
1.4087688
50
248.9196578
51
254.1442424
0
ARC
8
DEFAULT_255_1_388
10
15.8166741
20
198.6332805
40
0.8867498
50
241.6337352
51
249.0064643
0
ARC
8
DEFAULT_255_1_388
10
15.6447054
20
198.3181764
40
0.5277799
50
230.4982261
51
241.8087583
0
ARC
8
DEFAULT_255_1_388
10
15.5564825
20
198.2057686
40
0.3849419
50
227.4062979
51
229.9877433
0
ARC
8
DEFAULT_255_1_388
10
15.5016172
20
198.1522155
40
0.3084129
50
200.6782127
51
228.1765252
0
ARC
8
DEFAULT_255_1_388
10
15.5097541
20
198.1505277
40
0.315461
50
179.506278
51
199.8695278
0
ARC
8
DEFAULT_255_1_388
10
15.508713
20
198.1588671
40
0.3144584
50
132.4834401
51
181.0242352
0
ARC
8
DEFAULT_255_1_388
10
15.5756334
20
198.0956788
40
0.4063094
50
129.2526113
51
133.4249077
0
ARC
8
DEFAULT_255_1_388
10
15.5921926
20
198.0708619
40
0.436014
50
101.9878945
51
128.8741833
0
ARC
8
DEFAULT_255_1_388
10
15.6370342
20
197.877236
40
0.6347415
50
89.5906376
51
102.3170567
0
ARC
8
DEFAULT_255_1_388
10
15.6449653
20
197.9130586
40
0.5989122
50
77.2359491
51
90.3248968
0
ARC
8
DEFAULT_255_1_388
10
15.6682584
20
198.0218554
40
0.4876594
50
63.8379856
51
77.0808925
0
ARC
8
DEFAULT_255_1_388
10
15.6995118
20
198.0800882
40
0.4216191
50
45.9863127
51
64.1608798
0
ARC
8
DEFAULT_255_1_388
10
15.7288511
20
198.113599
40
0.3771394
50
32.2747934
51
45.6544796
0
ARC
8
DEFAULT_255_1_388
10
15.7363318
20
198.1157426
40
0.3696765
50
359.6507495
51
32.6129943
0
ARC
8
DEFAULT_255_1_388
10
15.6302501
20
198.1162788
40
0.3013762
50
359.469654
51
14.983205
0
ARC
8
DEFAULT_255_1_388
10
15.7095753
20
198.1375288
40
0.2192542
50
14.9781954
51
48.2004799
0
ARC
8
DEFAULT_255_1_388
10
15.6910864
20
198.1142937
40
0.2489048
50
48.5926661
51
74.1242559
0
ARC
8
DEFAULT_255_1_388
10
15.6535666
20
197.9904607
40
0.3782845
50
73.7889321
51
86.6653996
0
ARC
8
DEFAULT_255_1_388
10
15.6420481
20
197.8546955
40
0.5145025
50
86.2642725
51
90.0533288
0
ARC
8
DEFAULT_255_1_388
10
15.6388573
20
197.8991376
40
0.4700681
50
89.669455
51
99.2313411
0
ARC
8
DEFAULT_255_1_388
10
15.6115733
20
198.0616401
40
0.3052945
50
99.0695987
51
113.7659242
0
ARC
8
DEFAULT_255_1_388
10
15.5807728
20
198.1342772
40
0.226407
50
114.0402885
51
127.9848946
0
ARC
8
DEFAULT_255_1_388
10
15.5537204
20
198.1675884
40
0.1835045
50
127.7287217
51
176.7106493
0
ARC
8
DEFAULT_255_1_388
10
15.6300869
20
198.156221
40
0.2604907
50
175.1780759
51
180.0581213
0
ARC
8
DEFAULT_255_1_388
10
15.5352212
20
198.1548411
40
0.1656287
50
179.6140658
51
228.124674
0
ARC
8
DEFAULT_255_1_388
10
15.584957
20
198.200894
40
0.2332038
50
226.5785315
51
230.8792476
0
ARC
8
DEFAULT_255_1_388
10
15.6379056
20
198.2711908
40
0.3211664
50
231.4636401
51
241.9261664
0
ARC
8
DEFAULT_255_1_388
10
15.772584
20
198.5190349
40
0.6032345
50
241.7177136
51
248.3259138
0
ARC
8
DEFAULT_255_1_388
10
15.9284435
20
198.9051771
40
1.0196417
50
248.2007377
51
252.4527713
0
ARC
8
DEFAULT_255_1_388
10
16.0637961
20
199.3236092
40
1.4594143
50
252.3388938
51
254.347037
0
ARC
8
DEFAULT_255_1_388
10
15.2153262
20
196.2888095
40
1.6917621
50
71.0197462
51
74.4085467
0
ARC
8
DEFAULT_255_1_388
10
15.406035
20
196.8393144
40
1.1091618
50
66.1845203
51
71.086519
0
ARC
8
DEFAULT_255_1_388
10
15.5810899
20
197.2334439
40
0.6779073
50
59.3537334
51
66.269255
0
ARC
8
DEFAULT_255_1_388
10
15.6810625
20
197.4025777
40
0.4814366
50
49.1021732
51
59.3294421
0
ARC
8
DEFAULT_255_1_388
10
15.7731613
20
197.5075575
40
0.3417875
50
32.7924183
51
49.2503526
0
ARC
8
DEFAULT_255_1_388
10
15.8081227
20
197.5325311
40
0.2988789
50
31.121225
51
32.3977355
0
ARC
8
DEFAULT_255_1_388
10
15.7993405
20
197.5292728
40
0.3080861
50
8.1116803
51
30.7958224
0
ARC
8
DEFAULT_255_1_388
10
15.7081751
20
197.5137437
40
0.4005385
50
359.8390945
51
8.4707348
0
ARC
8
DEFAULT_255_1_388
10
15.7785798
20
197.5082751
40
0.3301608
50
337.4732479
51
0.7538283
0
ARC
8
DEFAULT_255_1_388
10
15.7986823
20
197.5060554
40
0.3107929
50
307.5917028
51
336.4313755
0
ARC
8
DEFAULT_255_1_388
10
15.7475881
20
197.5628509
40
0.3870096
50
307.6560665
51
308.4561779
0
ARC
8
DEFAULT_255_1_388
10
15.7210098
20
197.6036832
40
0.435591
50
284.3733666
51
307.1426212
0
ARC
8
DEFAULT_255_1_388
10
15.6652992
20
197.8086391
40
0.6479685
50
272.4384566
51
284.6464689
0
ARC
8
DEFAULT_255_1_388
10
15.6510377
20
198.0110434
40
0.8508149
50
269.9708517
51
272.8180721
0
ARC
8
DEFAULT_255_1_388
10
15.6462059
20
197.7818283
40
0.6216151
50
248.2707343
51
270.4054609
0
ARC
8
DEFAULT_255_1_388
10
15.6400931
20
197.7603673
40
0.5994203
50
246.1380358
51
248.054058
0
ARC
8
DEFAULT_255_1_388
10
15.5930073
20
197.6614705
40
0.4899388
50
233.1671897
51
246.4951656
0
ARC
8
DEFAULT_255_1_388
10
15.5306709
20
197.5773137
40
0.3852115
50
215.3403381
51
233.084328
0
ARC
8
DEFAULT_255_1_388
10
15.5000073
20
197.5550093
40
0.3472969
50
179.2419235
51
215.2648426
0
ARC
8
DEFAULT_255_1_388
10
15.5863624
20
197.5565979
40
0.259251
50
179.3355796
51
199.1045873
0
ARC
8
DEFAULT_255_1_388
10
15.5489765
20
197.5468223
40
0.2207454
50
199.8830064
51
232.7061328
0
ARC
8
DEFAULT_255_1_388
10
15.602104
20
197.6136456
40
0.306101
50
232.3736206
51
255.5136621
0
ARC
8
DEFAULT_255_1_388
10
15.6404546
20
197.7536177
40
0.4512213
50
255.2447928
51
267.5318292
0
ARC
8
DEFAULT_255_1_388
10
15.6503013
20
197.8922709
40
0.5901825
50
267.1564563
51
270.0294721
0
ARC
8
DEFAULT_255_1_388
10
15.6534338
20
197.8423623
40
0.5402814
50
269.6999944
51
278.1662446
0
ARC
8
DEFAULT_255_1_388
10
15.6822365
20
197.6476974
40
0.3435003
50
278.0229022
51
290.6255326
0
ARC
8
DEFAULT_255_1_388
10
15.7213532
20
197.5433547
40
0.2320666
50
290.6616368
51
307.0374127
0
ARC
8
DEFAULT_255_1_388
10
15.7551432
20
197.501904
40
0.1786372
50
306.3942078
51
355.303191
0
ARC
8
DEFAULT_255_1_388
10
15.6975725
20
197.5105186
40
0.2367516
50
354.3662092
51
0.0709489
0
ARC
8
DEFAULT_255_1_388
10
15.7135594
20
197.5130561
40
0.2207761
50
359.4175379
51
16.1975911
0
ARC
8
DEFAULT_255_1_388
10
15.7647711
20
197.5270954
40
0.1676828
50
16.4721294
51
52.6261798
0
ARC
8
DEFAULT_255_1_388
10
15.6724219
20
197.4051606
40
0.3206412
50
52.7381828
51
62.4979144
0
ARC
8
DEFAULT_255_1_388
10
15.5165972
20
197.1119236
40
0.6527035
50
62.2517425
51
68.1219454
0
ARC
8
DEFAULT_255_1_388
10
15.323146
20
196.6364951
40
1.1659797
50
68.006043
51
71.8055127
0
ARC
8
DEFAULT_255_1_388
10
15.1211368
20
196.0306723
40
1.8045908
50
71.718361
51
73.9260743
0
LINE
8
DEFAULT_255_1_388
10
17.1369684
20
198.4938898
11
17.1369684
21
198.3999191
0
LINE
8
DEFAULT_255_1_388
10
17.1369684
20
198.3999191
11
16.592119
21
197.1783
0
LINE
8
DEFAULT_255_1_388
10
16.592119
20
197.1783
11
16.4168275
21
197.1783
0
LINE
8
DEFAULT_255_1_388
10
16.4168275
20
197.1783
11
16.9598697
21
198.356548
0
LINE
8
DEFAULT_255_1_388
10
16.9598697
20
198.356548
11
16.2478609
21
198.356548
0
LINE
8
DEFAULT_255_1_388
10
16.2478609
20
198.356548
11
16.2478609
21
198.4938898
0
LINE
8
DEFAULT_255_1_388
10
16.2478609
20
198.4938898
11
17.1369684
21
198.4938898
0
LINE
8
DEFAULT_255_1_388
10
17.6917569
20
197.8053737
11
17.6917569
21
197.6689355
0
LINE
8
DEFAULT_255_1_388
10
17.6917569
20
197.6689355
11
17.2508175
21
197.6689355
0
LINE
8
DEFAULT_255_1_388
10
17.2508175
20
197.6689355
11
17.2508175
21
197.8053737
0
LINE
8
DEFAULT_255_1_388
10
17.2508175
20
197.8053737
11
17.6917569
21
197.8053737
0
LINE
8
DEFAULT_255_1_388
10
18.0802896
20
197.7809775
11
18.0802896
21
197.9174157
0
LINE
8
DEFAULT_255_1_388
10
18.0802896
20
197.9174157
11
18.2058851
21
197.9174157
0
LINE
8
DEFAULT_255_1_388
10
17.9917403
20
198.1487282
11
17.8245809
21
198.1487282
0
LINE
8
DEFAULT_255_1_388
10
17.8128346
20
197.5252688
11
17.9808976
21
197.5252688
0
LINE
8
DEFAULT_255_1_388
10
18.2058851
20
197.7809775
11
18.0802896
21
197.7809775
0
ARC
8
DEFAULT_255_1_388
10
18.2026078
20
198.2990922
40
0.3816905
50
270.491971
51
281.8953028
0
ARC
8
DEFAULT_255_1_388
10
18.2297505
20
198.1751199
40
0.2547877
50
281.6690378
51
301.2943765
0
ARC
8
DEFAULT_255_1_388
10
18.2488956
20
198.1400926
40
0.2149197
50
301.7834992
51
311.754567
0
ARC
8
DEFAULT_255_1_388
10
18.2591997
20
198.128665
40
0.1995326
50
311.7325027
51
354.2803031
0
ARC
8
DEFAULT_255_1_388
10
18.1774413
20
198.142728
40
0.2823461
50
353.0941646
51
0.1174696
0
ARC
8
DEFAULT_255_1_388
10
18.1255971
20
198.1480874
40
0.3342238
50
359.1804452
51
15.0452323
0
ARC
8
DEFAULT_255_1_388
10
18.2770029
20
198.1922546
40
0.1765747
50
13.957816
51
77.6713812
0
ARC
8
DEFAULT_255_1_388
10
18.2335265
20
198.0364464
40
0.3381982
50
76.111571
51
90.7028736
0
ARC
8
DEFAULT_255_1_388
10
18.2268677
20
198.067225
40
0.3074046
50
89.5321574
51
103.5319393
0
ARC
8
DEFAULT_255_1_388
10
18.2043061
20
198.1571443
40
0.2147041
50
103.2930114
51
133.5619756
0
ARC
8
DEFAULT_255_1_388
10
18.1993002
20
198.1638351
40
0.2064084
50
133.8349761
51
173.5343225
0
ARC
8
DEFAULT_255_1_388
10
18.280666
20
198.1494144
40
0.2889266
50
172.5097183
51
180.1360699
0
ARC
8
DEFAULT_255_1_388
10
18.1736424
20
198.153288
40
0.3490913
50
155.3483706
51
180.7484035
0
ARC
8
DEFAULT_255_1_388
10
18.16814
20
198.1500519
40
0.3454798
50
131.5745177
51
154.4799474
0
ARC
8
DEFAULT_255_1_388
10
18.2033682
20
198.1144422
40
0.3955058
50
96.9874487
51
131.9690874
0
ARC
8
DEFAULT_255_1_388
10
18.2280575
20
197.9743407
40
0.537622
50
89.8592909
51
97.7827481
0
ARC
8
DEFAULT_255_1_388
10
18.2334684
20
197.944836
40
0.5671399
50
78.3654493
51
90.4132586
0
ARC
8
DEFAULT_255_1_388
10
18.2737325
20
198.1314918
40
0.3762034
50
56.6229818
51
78.6387103
0
ARC
8
DEFAULT_255_1_388
10
18.2979154
20
198.1737846
40
0.3275964
50
47.0254604
51
56.085558
0
ARC
8
DEFAULT_255_1_388
10
18.3001405
20
198.1782189
40
0.3228382
50
10.9207523
51
46.777927
0
ARC
8
DEFAULT_255_1_388
10
18.1466999
20
198.1427401
40
0.4802559
50
359.6364235
51
11.6087615
0
ARC
8
DEFAULT_255_1_388
10
18.3531165
20
198.1410404
40
0.273833
50
332.3549969
51
359.7179765
0
ARC
8
DEFAULT_255_1_388
10
18.2799565
20
198.1757285
40
0.3547505
50
325.2332381
51
332.8746682
0
ARC
8
DEFAULT_255_1_388
10
18.2971148
20
198.1637763
40
0.3338396
50
292.9803892
51
325.2391113
0
ARC
8
DEFAULT_255_1_388
10
18.2660344
20
198.2242679
40
0.4016959
50
292.542178
51
293.6931461
0
ARC
8
DEFAULT_255_1_388
10
18.3103916
20
197.4977036
40
0.372079
50
57.643292
51
72.8626085
0
ARC
8
DEFAULT_255_1_388
10
18.3502751
20
197.5623273
40
0.2961455
50
36.7246661
51
57.4701329
0
ARC
8
DEFAULT_255_1_388
10
18.3489907
20
197.563747
40
0.2963321
50
8.054535
51
36.3561529
0
ARC
8
DEFAULT_255_1_388
10
18.251958
20
197.5463073
40
0.3948682
50
359.8316595
51
8.5873361
0
ARC
8
DEFAULT_255_1_388
10
18.2097054
20
197.540897
40
0.4371398
50
343.9831631
51
0.557075
0
ARC
8
DEFAULT_255_1_388
10
18.3094104
20
197.5135963
40
0.3337749
50
311.6358204
51
343.7652116
0
ARC
8
DEFAULT_255_1_388
10
18.2668357
20
197.5615955
40
0.3979351
50
279.7829743
51
311.625622
0
ARC
8
DEFAULT_255_1_388
10
18.2329493
20
197.7232642
40
0.5630417
50
269.7285092
51
280.3857694
0
ARC
8
DEFAULT_255_1_388
10
18.2259806
20
197.7186241
40
0.5584119
50
256.6827433
51
270.4412869
0
ARC
8
DEFAULT_255_1_388
10
18.1878792
20
197.5628698
40
0.3980715
50
229.4223821
51
256.8554507
0
ARC
8
DEFAULT_255_1_388
10
18.1412345
20
197.5103683
40
0.3278564
50
181.8183354
51
229.6455015
0
ARC
8
DEFAULT_255_1_388
10
18.2581955
20
197.5250825
40
0.4453611
50
179.9760419
51
183.2330638
0
ARC
8
DEFAULT_255_1_388
10
18.2388507
20
197.5227781
40
0.2579652
50
179.4467996
51
196.2871626
0
ARC
8
DEFAULT_255_1_388
10
18.1839961
20
197.5077709
40
0.2011057
50
196.5661293
51
227.7059371
0
ARC
8
DEFAULT_255_1_388
10
18.2024568
20
197.5284155
40
0.2287994
50
227.7653015
51
257.8763321
0
ARC
8
DEFAULT_255_1_388
10
18.2277651
20
197.6344961
40
0.3378385
50
257.4583525
51
270.4267406
0
ARC
8
DEFAULT_255_1_388
10
18.2328901
20
197.667123
40
0.3704652
50
269.5965319
51
280.8788143
0
ARC
8
DEFAULT_255_1_388
10
18.2587129
20
197.5381529
40
0.2389415
50
280.6347277
51
299.8594068
0
ARC
8
DEFAULT_255_1_388
10
18.2801899
20
197.4973736
40
0.19289
50
300.3575552
51
314.5515667
0
ARC
8
DEFAULT_255_1_388
10
18.2708574
20
197.5042025
40
0.204312
50
315.0730962
51
345.0429362
0
ARC
8
DEFAULT_255_1_388
10
18.1670082
20
197.5344539
40
0.31246
50
344.598526
51
357.9270698
0
ARC
8
DEFAULT_255_1_388
10
18.0660387
20
197.5413705
40
0.4136265
50
357.4755098
51
0.0224936
0
ARC
8
DEFAULT_255_1_388
10
18.1813264
20
197.5441099
40
0.2983498
50
359.5051035
51
13.4236939
0
ARC
8
DEFAULT_255_1_388
10
18.2788354
20
197.5690637
40
0.1977186
50
12.9497905
51
48.7550905
0
ARC
8
DEFAULT_255_1_388
10
18.2583276
20
197.5410373
40
0.2323321
50
49.509109
51
72.1832965
0
ARC
8
DEFAULT_255_1_388
10
18.2180744
20
197.4215632
40
0.358397
50
71.9008458
51
84.3555134
0
ARC
8
DEFAULT_255_1_388
10
18.1999139
20
197.2683712
40
0.512641
50
84.019632
51
89.3326067
0
LINE
8
DEFAULT_255_1_388
10
19.7012843
20
197.956269
11
19.7012843
21
197.7394135
0
LINE
8
DEFAULT_255_1_388
10
18.8709085
20
197.7168244
11
18.8709085
21
197.9400048
0
LINE
8
DEFAULT_255_1_388
10
19.5341249
20
197.6942353
11
19.5341249
21
197.9680153
0
LINE
8
DEFAULT_255_1_388
10
19.038068
20
197.9806652
11
19.038068
21
197.7132102
0
ARC
8
DEFAULT_255_1_388
10
18.3235177
20
197.7339118
40
1.3777776
50
353.8440855
51
0.2287917
0
ARC
8
DEFAULT_255_1_388
10
18.8454194
20
197.6756414
40
0.852639
50
344.4934746
51
353.9763743
0
ARC
8
DEFAULT_255_1_388
10
19.1821001
20
197.5799191
40
0.5026273
50
329.2803599
51
344.7473406
0
ARC
8
DEFAULT_255_1_388
10
19.2936497
20
197.5187038
40
0.3754848
50
324.9361395
51
328.6153007
0
ARC
8
DEFAULT_255_1_388
10
19.3362147
20
197.4889586
40
0.3235566
50
280.5801797
51
324.9173226
0
ARC
8
DEFAULT_255_1_388
10
19.2910776
20
197.6769236
40
0.5167077
50
269.5979457
51
281.6732777
0
ARC
8
DEFAULT_255_1_388
10
19.2829679
20
197.6634113
40
0.5032026
50
256.6228565
51
270.5105488
0
ARC
8
DEFAULT_255_1_388
10
19.2377422
20
197.4892345
40
0.3233092
50
215.8618351
51
257.2787793
0
ARC
8
DEFAULT_255_1_388
10
19.3526129
20
197.5663106
40
0.4615831
50
197.9695203
51
215.2622745
0
ARC
8
DEFAULT_255_1_388
10
19.6321804
20
197.6606641
40
0.7566307
50
187.8816486
51
198.2346584
0
ARC
8
DEFAULT_255_1_388
10
20.0775043
20
197.7249453
40
1.2065653
50
180.8977266
51
188.0054894
0
ARC
8
DEFAULT_255_1_388
10
20.3825256
20
197.73644
40
1.5117443
50
180.7434591
51
181.152202
0
ARC
8
DEFAULT_255_1_388
10
20.2150252
20
197.9454371
40
1.3441277
50
173.7674302
51
180.2315596
0
ARC
8
DEFAULT_255_1_388
10
19.7068121
20
198.0028779
40
0.8326847
50
164.3058537
51
173.9000553
0
ARC
8
DEFAULT_255_1_388
10
19.3792121
20
198.0972652
40
0.4917711
50
148.7922028
51
164.5682288
0
ARC
8
DEFAULT_255_1_388
10
19.2722859
20
198.1569457
40
0.3694204
50
144.5883979
51
148.1161588
0
ARC
8
DEFAULT_255_1_388
10
19.2335604
20
198.1839667
40
0.322202
50
101.6440149
51
144.5142619
0
ARC
8
DEFAULT_255_1_388
10
19.2813796
20
197.9939337
40
0.5180451
50
89.528284
51
102.5820197
0
ARC
8
DEFAULT_255_1_388
10
19.2902788
20
197.9895376
40
0.5224441
50
77.0437914
51
90.508231
0
ARC
8
DEFAULT_255_1_388
10
19.3355042
20
198.1743272
40
0.3322297
50
48.2777708
51
77.4996087
0
ARC
8
DEFAULT_255_1_388
10
19.3436782
20
198.1888557
40
0.315966
50
36.3141586
51
47.6307332
0
ARC
8
DEFAULT_255_1_388
10
19.2459504
20
198.1230159
40
0.4337313
50
18.2931065
51
35.6770203
0
ARC
8
DEFAULT_255_1_388
10
18.9598345
20
198.0248107
40
0.7362203
50
8.0246996
51
18.5605636
0
ARC
8
DEFAULT_255_1_388
10
18.49147
20
197.9556432
40
1.2096583
50
1.127539
51
8.1718423
0
ARC
8
DEFAULT_255_1_388
10
18.1265834
20
197.9413374
40
1.5747719
50
0.5432713
51
1.38669
0
ARC
8
DEFAULT_255_1_388
10
18.3323212
20
197.9720163
40
1.2018103
50
359.8092569
51
4.9408001
0
ARC
8
DEFAULT_255_1_388
10
18.8059794
20
198.01429
40
0.7262727
50
4.8364937
51
12.2906017
0
ARC
8
DEFAULT_255_1_388
10
19.1159258
20
198.0833485
40
0.4087324
50
12.0806994
51
23.8171225
0
ARC
8
DEFAULT_255_1_388
10
19.2479654
20
198.1392508
40
0.2653719
50
24.2874621
51
31.3934353
0
ARC
8
DEFAULT_255_1_388
10
19.307009
20
198.1778822
40
0.1948607
50
30.7407708
51
82.4658033
0
ARC
8
DEFAULT_255_1_388
10
19.2867751
20
198.0785017
40
0.2961198
50
81.1057101
51
90.2187368
0
ARC
8
DEFAULT_255_1_388
10
19.2827563
20
198.1075421
40
0.2670929
50
89.380395
51
105.6763916
0
ARC
8
DEFAULT_255_1_388
10
19.2621285
20
198.182532
40
0.1893189
50
105.7980655
51
149.7387869
0
ARC
8
DEFAULT_255_1_388
10
19.3818425
20
198.1105719
40
0.3289892
50
149.4208441
51
163.628295
0
ARC
8
DEFAULT_255_1_388
10
19.6170655
20
198.0388345
40
0.5749004
50
163.3764549
51
172.141138
0
ARC
8
DEFAULT_255_1_388
10
19.9883376
20
197.9856582
40
0.9499585
50
172.0258462
51
178.0705453
0
ARC
8
DEFAULT_255_1_388
10
20.3304929
20
197.9694682
40
1.2924734
50
177.8639301
51
179.5036263
0
ARC
8
DEFAULT_255_1_388
10
20.2085948
20
197.7091151
40
1.170534
50
179.7995545
51
185.246089
0
ARC
8
DEFAULT_255_1_388
10
19.7537541
20
197.6660404
40
0.7136613
50
185.1411911
51
193.0082205
0
ARC
8
DEFAULT_255_1_388
10
19.4563801
20
197.5957441
40
0.4080987
50
192.7897338
51
205.2507384
0
ARC
8
DEFAULT_255_1_388
10
19.3386011
20
197.5431538
40
0.2791522
50
205.8001921
51
211.2545876
0
ARC
8
DEFAULT_255_1_388
10
19.2797551
20
197.5037132
40
0.2084074
50
210.3789935
51
238.4007996
0
ARC
8
DEFAULT_255_1_388
10
19.2775637
20
197.5089786
40
0.2117943
50
239.6521916
51
265.9793852
0
ARC
8
DEFAULT_255_1_388
10
19.2871485
20
197.5846358
40
0.2879689
50
265.1324455
51
270.0603288
0
ARC
8
DEFAULT_255_1_388
10
19.2903863
20
197.5481418
40
0.2514919
50
269.3314378
51
287.2180039
0
ARC
8
DEFAULT_255_1_388
10
19.3058945
20
197.4915291
40
0.1928357
50
287.7957942
51
329.0808983
0
ARC
8
DEFAULT_255_1_388
10
19.1981702
20
197.5587651
40
0.319808
50
328.6635261
51
343.3325043
0
ARC
8
DEFAULT_255_1_388
10
18.953716
20
197.6349195
40
0.5758408
50
343.0498092
51
351.9392499
0
ARC
8
DEFAULT_255_1_388
10
18.5636482
20
197.6924205
40
0.9701202
50
351.8071632
51
357.7957897
0
ARC
8
DEFAULT_255_1_388
10
18.2001959
20
197.7112724
40
1.3340376
50
357.5870923
51
359.2682493
0
LINE
8
DEFAULT_255_1_388
10
20.7403834
20
197.956269
11
20.7403834
21
197.7394135
0
LINE
8
DEFAULT_255_1_388
10
19.9100077
20
197.7168244
11
19.9100077
21
197.9400048
0
LINE
8
DEFAULT_255_1_388
10
20.573224
20
197.6942353
11
20.573224
21
197.9680153
0
LINE
8
DEFAULT_255_1_388
10
20.0771671
20
197.9806652
11
20.0771671
21
197.7132102
0
ARC
8
DEFAULT_255_1_388
10
19.3626168
20
197.7339118
40
1.3777776
50
353.8440855
51
0.2287917
0
ARC
8
DEFAULT_255_1_388
10
19.8845185
20
197.6756414
40
0.852639
50
344.4934746
51
353.9763743
0
ARC
8
DEFAULT_255_1_388
10
20.2211993
20
197.5799191
40
0.5026273
50
329.2803599
51
344.7473406
0
ARC
8
DEFAULT_255_1_388
10
20.3327488
20
197.5187038
40
0.3754848
50
324.9361395
51
328.6153007
0
ARC
8
DEFAULT_255_1_388
10
20.3753138
20
197.4889586
40
0.3235566
50
280.5801797
51
324.9173226
0
ARC
8
DEFAULT_255_1_388
10
20.3301767
20
197.6769236
40
0.5167077
50
269.5979457
51
281.6732777
0
ARC
8
DEFAULT_255_1_388
10
20.322067
20
197.6634113
40
0.5032026
50
256.6228565
51
270.5105488
0
ARC
8
DEFAULT_255_1_388
10
20.2768413
20
197.4892345
40
0.3233092
50
215.8618351
51
257.2787793
0
ARC
8
DEFAULT_255_1_388
10
20.391712
20
197.5663106
40
0.4615831
50
197.9695203
51
215.2622745
0
ARC
8
DEFAULT_255_1_388
10
20.6712796
20
197.6606641
40
0.7566307
50
187.8816486
51
198.2346584
0
ARC
8
DEFAULT_255_1_388
10
21.1166034
20
197.7249453
40
1.2065653
50
180.8977266
51
188.0054894
0
ARC
8
DEFAULT_255_1_388
10
21.4216248
20
197.73644
40
1.5117443
50
180.7434591
51
181.152202
0
ARC
8
DEFAULT_255_1_388
10
21.2541243
20
197.9454371
40
1.3441277
50
173.7674302
51
180.2315596
0
ARC
8
DEFAULT_255_1_388
10
20.7459112
20
198.0028779
40
0.8326847
50
164.3058537
51
173.9000553
0
ARC
8
DEFAULT_255_1_388
10
20.4183112
20
198.0972652
40
0.4917711
50
148.7922028
51
164.5682288
0
ARC
8
DEFAULT_255_1_388
10
20.311385
20
198.1569457
40
0.3694204
50
144.5883979
51
148.1161588
0
ARC
8
DEFAULT_255_1_388
10
20.2726595
20
198.1839667
40
0.322202
50
101.6440149
51
144.5142619
0
ARC
8
DEFAULT_255_1_388
10
20.3204787
20
197.9939337
40
0.5180451
50
89.528284
51
102.5820197
0
ARC
8
DEFAULT_255_1_388
10
20.3293779
20
197.9895376
40
0.5224441
50
77.0437914
51
90.508231
0
ARC
8
DEFAULT_255_1_388
10
20.3746033
20
198.1743272
40
0.3322297
50
48.2777708
51
77.4996087
0
ARC
8
DEFAULT_255_1_388
10
20.3827773
20
198.1888557
40
0.315966
50
36.3141586
51
47.6307332
0
ARC
8
DEFAULT_255_1_388
10
20.2850495
20
198.1230159
40
0.4337313
50
18.2931065
51
35.6770203
0
ARC
8
DEFAULT_255_1_388
10
19.9989336
20
198.0248107
40
0.7362203
50
8.0246996
51
18.5605636
0
ARC
8
DEFAULT_255_1_388
10
19.5305691
20
197.9556432
40
1.2096583
50
1.127539
51
8.1718423
0
ARC
8
DEFAULT_255_1_388
10
19.1656825
20
197.9413374
40
1.5747719
50
0.5432713
51
1.38669
0
ARC
8
DEFAULT_255_1_388
10
19.3714204
20
197.9720163
40
1.2018103
50
359.8092569
51
4.9408001
0
ARC
8
DEFAULT_255_1_388
10
19.8450785
20
198.01429
40
0.7262727
50
4.8364937
51
12.2906017
0
ARC
8
DEFAULT_255_1_388
10
20.155025
20
198.0833485
40
0.4087324
50
12.0806994
51
23.8171225
0
ARC
8
DEFAULT_255_1_388
10
20.2870646
20
198.1392508
40
0.2653719
50
24.2874621
51
31.3934353
0
ARC
8
DEFAULT_255_1_388
10
20.3461082
20
198.1778822
40
0.1948607
50
30.7407708
51
82.4658033
0
ARC
8
DEFAULT_255_1_388
10
20.3258742
20
198.0785017
40
0.2961198
50
81.1057101
51
90.2187368
0
ARC
8
DEFAULT_255_1_388
10
20.3218554
20
198.1075421
40
0.2670929
50
89.380395
51
105.6763916
0
ARC
8
DEFAULT_255_1_388
10
20.3012276
20
198.182532
40
0.1893189
50
105.7980655
51
149.7387869
0
ARC
8
DEFAULT_255_1_388
10
20.4209416
20
198.1105719
40
0.3289892
50
149.4208441
51
163.628295
0
ARC
8
DEFAULT_255_1_388
10
20.6561646
20
198.0388345
40
0.5749004
50
163.3764549
51
172.141138
0
ARC
8
DEFAULT_255_1_388
10
21.0274367
20
197.9856582
40
0.9499585
50
172.0258462
51
178.0705453
0
ARC
8
DEFAULT_255_1_388
10
21.369592
20
197.9694682
40
1.2924734
50
177.8639301
51
179.5036263
0
ARC
8
DEFAULT_255_1_388
10
21.2476939
20
197.7091151
40
1.170534
50
179.7995545
51
185.246089
0
ARC
8
DEFAULT_255_1_388
10
20.7928532
20
197.6660404
40
0.7136613
50
185.1411911
51
193.0082205
0
ARC
8
DEFAULT_255_1_388
10
20.4954793
20
197.5957441
40
0.4080987
50
192.7897338
51
205.2507384
0
ARC
8
DEFAULT_255_1_388
10
20.3777003
20
197.5431538
40
0.2791522
50
205.8001921
51
211.2545876
0
ARC
8
DEFAULT_255_1_388
10
20.3188542
20
197.5037132
40
0.2084074
50
210.3789935
51
238.4007996
0
ARC
8
DEFAULT_255_1_388
10
20.3166628
20
197.5089786
40
0.2117943
50
239.6521916
51
265.9793852
0
ARC
8
DEFAULT_255_1_388
10
20.3262477
20
197.5846358
40
0.2879689
50
265.1324455
51
270.0603288
0
ARC
8
DEFAULT_255_1_388
10
20.3294854
20
197.5481418
40
0.2514919
50
269.3314378
51
287.2180039
0
ARC
8
DEFAULT_255_1_388
10
20.3449936
20
197.4915291
40
0.1928357
50
287.7957942
51
329.0808983
0
ARC
8
DEFAULT_255_1_388
10
20.2372693
20
197.5587651
40
0.319808
50
328.6635261
51
343.3325043
0
ARC
8
DEFAULT_255_1_388
10
19.9928152
20
197.6349195
40
0.5758408
50
343.0498092
51
351.9392499
0
ARC
8
DEFAULT_255_1_388
10
19.6027473
20
197.6924205
40
0.9701202
50
351.8071632
51
357.7957897
0
ARC
8
DEFAULT_255_1_388
10
19.239295
20
197.7112724
40
1.3340376
50
357.5870923
51
359.2682493
0
LINE
8
DEFAULT_255_2_778
10
19.9760417
20
187.7639475
11
18.6531417
21
187.7639475
0
LINE
8
DEFAULT_255_2_778
10
18.6531417
20
187.7639475
11
18.6531417
21
99.1285475
0
LINE
8
DEFAULT_255_2_778
10
19.9760417
20
93.8368475
11
19.9760417
21
5.2014475
0
LINE
8
DEFAULT_255_2_778
10
19.9760417
20
5.2014475
11
18.6531417
21
5.2014475
0
LINE
8
DEFAULT_255_2_778
10
17.3301834
20
99.1285333
11
19.9759834
21
99.1285333
0
LINE
8
DEFAULT_255_2_778
10
19.9759834
20
99.1285333
11
19.9759834
21
93.8368333
0
LINE
8
DEFAULT_255_2_778
10
19.9759834
20
93.8368333
11
17.3301834
21
93.8368333
0
LINE
8
DEFAULT_255_2_778
10
17.3301834
20
93.8368333
11
17.3301834
21
99.1285333
0
LINE
8
DEFAULT_255_2_778
10
18.124
20
94.3660666
11
18.124
21
98.5993666
0
LINE
8
DEFAULT_255_2_778
10
17.8594167
20
97.805675
11
18.1240167
21
98.599375
0
LINE
8
DEFAULT_255_2_778
10
18.1240167
20
98.599375
11
18.3886167
21
97.805675
0
LINE
8
DEFAULT_255_2_778
10
18.3886167
20
97.805675
11
17.8594167
21
97.805675
0
LINE
8
DEFAULT_255_2_778
10
19.1823
20
98.5993666
11
19.1823
21
94.3660666
0
LINE
8
DEFAULT_255_2_778
10
18.9177167
20
95.159775
11
19.1823167
21
94.366075
0
LINE
8
DEFAULT_255_2_778
10
19.1823167
20
94.366075
11
19.4469167
21
95.159775
0
LINE
8
DEFAULT_255_2_778
10
19.4469167
20
95.159775
11
18.9177167
21
95.159775
0
LINE
8
DEFAULT_255_1_388
10
4.1701903
20
196.4674898
11
4.1701903
21
195.2937596
0
LINE
8
DEFAULT_255_1_388
10
4.1701903
20
195.2937596
11
4.7936498
21
195.2937596
0
LINE
8
DEFAULT_255_1_388
10
4.7936498
20
195.2937596
11
4.7936498
21
195.1519
0
LINE
8
DEFAULT_255_1_388
10
4.7936498
20
195.1519
11
3.9958024
21
195.1519
0
LINE
8
DEFAULT_255_1_388
10
3.9958024
20
195.1519
11
3.9958024
21
196.4674898
0
LINE
8
DEFAULT_255_1_388
10
3.9958024
20
196.4674898
11
4.1701903
21
196.4674898
0
LINE
8
DEFAULT_255_1_388
10
5.4442162
20
196.2415987
11
5.4442162
21
195.8575838
0
LINE
8
DEFAULT_255_1_388
10
5.4442162
20
195.8575838
11
5.8110634
21
195.8575838
0
LINE
8
DEFAULT_255_1_388
10
5.8110634
20
195.8575838
11
5.8110634
21
195.6994601
0
LINE
8
DEFAULT_255_1_388
10
5.8110634
20
195.6994601
11
5.4442162
21
195.6994601
0
LINE
8
DEFAULT_255_1_388
10
5.4442162
20
195.6994601
11
5.4442162
21
195.2838204
0
LINE
8
DEFAULT_255_1_388
10
5.4442162
20
195.2838204
11
5.2761532
21
195.2838204
0
LINE
8
DEFAULT_255_1_388
10
5.2761532
20
195.2838204
11
5.2761532
21
195.6994601
0
LINE
8
DEFAULT_255_1_388
10
5.2761532
20
195.6994601
11
4.9093061
21
195.6994601
0
LINE
8
DEFAULT_255_1_388
10
4.9093061
20
195.6994601
11
4.9093061
21
195.8575838
0
LINE
8
DEFAULT_255_1_388
10
4.9093061
20
195.8575838
11
5.2761532
21
195.8575838
0
LINE
8
DEFAULT_255_1_388
10
5.2761532
20
195.8575838
11
5.2761532
21
196.2415987
0
LINE
8
DEFAULT_255_1_388
10
5.2761532
20
196.2415987
11
5.4442162
21
196.2415987
0
LINE
8
DEFAULT_255_1_388
10
23.0058024
20
196.4674898
11
23.2298864
21
196.4674898
0
LINE
8
DEFAULT_255_1_388
10
23.2298864
20
196.4674898
11
23.6599831
21
195.3940553
0
LINE
8
DEFAULT_255_1_388
10
23.6599831
20
195.3940553
11
24.0900797
21
196.4674898
0
LINE
8
DEFAULT_255_1_388
10
24.0900797
20
196.4674898
11
24.3150673
21
196.4674898
0
LINE
8
DEFAULT_255_1_388
10
24.3150673
20
196.4674898
11
24.3150673
21
195.1519
0
LINE
8
DEFAULT_255_1_388
10
24.3150673
20
195.1519
11
24.1415829
21
195.1519
0
LINE
8
DEFAULT_255_1_388
10
24.1415829
20
195.1519
11
24.1415829
21
195.664221
0
LINE
8
DEFAULT_255_1_388
10
24.1415829
20
195.664221
11
24.1578471
21
196.2172025
0
LINE
8
DEFAULT_255_1_388
10
24.1578471
20
196.2172025
11
23.7259433
21
195.1519
0
LINE
8
DEFAULT_255_1_388
10
23.7259433
20
195.1519
11
23.5931193
21
195.1519
0
LINE
8
DEFAULT_255_1_388
10
23.5931193
20
195.1519
11
23.162119
21
196.2144918
0
LINE
8
DEFAULT_255_1_388
10
23.162119
20
196.2144918
11
23.1792868
21
195.664221
0
LINE
8
DEFAULT_255_1_388
10
23.1792868
20
195.664221
11
23.1792868
21
195.1519
0
LINE
8
DEFAULT_255_1_388
10
23.1792868
20
195.1519
11
23.0058024
21
195.1519
0
LINE
8
DEFAULT_255_1_388
10
23.0058024
20
195.1519
11
23.0058024
21
196.4674898
0
LINE
8
DEFAULT_255_1_388
10
22.8706318
20
4.7883382
11
22.8706318
21
4.6519
0
LINE
8
DEFAULT_255_1_388
10
22.8706318
20
4.6519
11
22.0086313
21
4.6519
0
LINE
8
DEFAULT_255_1_388
10
22.0086313
20
4.6519
11
22.0086313
21
4.7720741
0
LINE
8
DEFAULT_255_1_388
10
22.0086313
20
4.7720741
11
22.4640278
21
5.2780702
0
LINE
8
DEFAULT_255_1_388
10
22.1504909
20
5.5798607
11
21.9833315
21
5.5798607
0
LINE
8
DEFAULT_255_1_388
10
22.5625163
20
5.170546
11
22.2101262
21
4.7883382
0
LINE
8
DEFAULT_255_1_388
10
22.2101262
20
4.7883382
11
22.8706318
21
4.7883382
0
ARC
8
DEFAULT_255_1_388
10
20.9464337
20
6.6200983
40
2.0258655
50
318.5132526
51
320.7829045
0
ARC
8
DEFAULT_255_1_388
10
21.5412294
20
6.1359929
40
1.2589638
50
320.7372878
51
323.9739031
0
ARC
8
DEFAULT_255_1_388
10
21.9821226
20
5.8165554
40
0.7145141
50
323.8962701
51
328.64194
0
ARC
8
DEFAULT_255_1_388
10
22.2123484
20
5.6745545
40
0.4440242
50
328.8294576
51
331.7891185
0
ARC
8
DEFAULT_255_1_388
10
22.3245804
20
5.6166374
40
0.3177517
50
331.4254512
51
352.9365785
0
ARC
8
DEFAULT_255_1_388
10
22.3398804
20
5.613205
40
0.3021496
50
353.2257659
51
0.0166158
0
ARC
8
DEFAULT_255_1_388
10
22.3635564
20
5.6157894
40
0.2784847
50
359.486299
51
15.9343185
0
ARC
8
DEFAULT_255_1_388
10
22.4205831
20
5.6311269
40
0.2194403
50
16.1712913
51
43.5286088
0
ARC
8
DEFAULT_255_1_388
10
22.4292776
20
5.6398191
40
0.2071504
50
43.4417391
51
83.1661095
0
ARC
8
DEFAULT_255_1_388
10
22.4141937
20
5.5569316
40
0.2912888
50
82.160179
51
90.1505708
0
ARC
8
DEFAULT_255_1_388
10
22.4106418
20
5.4965279
40
0.3517025
50
89.5460741
51
102.5418361
0
ARC
8
DEFAULT_255_1_388
10
22.3833138
20
5.6124933
40
0.2325748
50
102.1738499
51
129.206123
0
ARC
8
DEFAULT_255_1_388
10
22.3744592
20
5.6264664
40
0.2161591
50
129.72865
51
135.753947
0
ARC
8
DEFAULT_255_1_388
10
22.3881074
20
5.6155728
40
0.2335433
50
136.1757367
51
166.3673339
0
ARC
8
DEFAULT_255_1_388
10
22.5013762
20
5.5852148
40
0.3507873
50
165.9090694
51
178.8684636
0
ARC
8
DEFAULT_255_1_388
10
22.5989534
20
5.5799263
40
0.4484624
50
178.4391136
51
180.0083808
0
ARC
8
DEFAULT_255_1_388
10
22.4410235
20
5.5843197
40
0.4577138
50
163.2878482
51
180.5581842
0
ARC
8
DEFAULT_255_1_388
10
22.3508276
20
5.6091393
40
0.3641968
50
133.4540601
51
162.947111
0
ARC
8
DEFAULT_255_1_388
10
22.3709158
20
5.5877789
40
0.3935189
50
100.7869829
51
133.4382499
0
ARC
8
DEFAULT_255_1_388
10
22.4100403
20
5.4135399
40
0.5720313
50
89.660664
51
101.3702276
0
ARC
8
DEFAULT_255_1_388
10
22.4175012
20
5.4204263
40
0.5651495
50
78.2172678
51
90.412935
0
ARC
8
DEFAULT_255_1_388
10
22.4574478
20
5.6031511
40
0.378122
50
55.9269121
51
78.4888449
0
ARC
8
DEFAULT_255_1_388
10
22.4795193
20
5.6412187
40
0.3342379
50
47.929771
51
55.4049217
0
ARC
8
DEFAULT_255_1_388
10
22.4909723
20
5.6528618
40
0.3179217
50
4.334829
51
48.0560205
0
ARC
8
DEFAULT_255_1_388
10
22.3677525
20
5.6337487
40
0.442341
50
359.9251713
51
5.5971671
0
ARC
8
DEFAULT_255_1_388
10
22.415968
20
5.6400728
40
0.3941854
50
337.8914027
51
358.9967534
0
ARC
8
DEFAULT_255_1_388
10
22.110725
20
5.7578295
40
0.7213271
50
326.9132501
51
338.3508308
0
ARC
8
DEFAULT_255_1_388
10
21.6623362
20
6.0452105
40
1.2538973
50
319.6471833
51
327.0959558
0
ARC
8
DEFAULT_255_1_388
10
21.231002
20
6.401005
40
1.8129975
50
317.2588228
51
319.9045804
0
ARC
8
DEFAULT_255_1_388
10
23.1889138
20
4.7406142
40
0.1204062
50
163.5412609
51
180.5084512
0
ARC
8
DEFAULT_255_1_388
10
23.1673037
20
4.746446
40
0.0980307
50
138.1652
51
163.2315563
0
ARC
8
DEFAULT_255_1_388
10
23.1546778
20
4.7571456
40
0.0814881
50
105.6860499
51
137.8492655
0
ARC
8
DEFAULT_255_1_388
10
23.1679979
20
4.7139109
40
0.126719
50
92.6078949
51
106.199173
0
ARC
8
DEFAULT_255_1_388
10
23.1714169
20
4.6693207
40
0.1714243
50
89.9659531
51
93.0713334
0
ARC
8
DEFAULT_255_1_388
10
23.1726205
20
4.6943484
40
0.1464007
50
78.4379126
51
90.4311892
0
ARC
8
DEFAULT_255_1_388
10
23.1834852
20
4.7450017
40
0.094599
50
56.8961942
51
78.7357785
0
ARC
8
DEFAULT_255_1_388
10
23.1905963
20
4.7574075
40
0.0803272
50
42.6503148
51
56.3122241
0
ARC
8
DEFAULT_255_1_388
10
23.1761864
20
4.7441661
40
0.099897
50
3.8141057
51
42.636595
0
ARC
8
DEFAULT_255_1_388
10
23.1439186
20
4.7396616
40
0.1324137
50
359.9498843
51
4.8301897
0
ARC
8
DEFAULT_255_1_388
10
23.1694324
20
4.7384722
40
0.1069053
50
340.9378148
51
0.5753733
0
ARC
8
DEFAULT_255_1_388
10
23.1820906
20
4.7350569
40
0.0938301
50
316.0798885
51
340.3845117
0
ARC
8
DEFAULT_255_1_388
10
23.1886217
20
4.729052
40
0.0849605
50
285.8512844
51
315.941661
0
ARC
8
DEFAULT_255_1_388
10
23.1754097
20
4.771762
40
0.1296594
50
273.1293204
51
286.3125006
0
ARC
8
DEFAULT_255_1_388
10
23.1716607
20
4.8169586
40
0.1749979
50
269.9535313
51
273.5471598
0
ARC
8
DEFAULT_255_1_388
10
23.1704213
20
4.7923833
40
0.1504266
50
259.0487117
51
270.4180248
0
ARC
8
DEFAULT_255_1_388
10
23.1595825
20
4.7386783
40
0.0956414
50
239.7583641
51
259.3115656
0
ARC
8
DEFAULT_255_1_388
10
23.1504758
20
4.7217048
40
0.0763945
50
222.6243303
51
239.2473835
0
ARC
8
DEFAULT_255_1_388
10
23.1655929
20
4.7355572
40
0.0968985
50
182.9231258
51
222.598101
0
ARC
8
DEFAULT_255_1_388
10
23.1959129
20
4.7394696
40
0.1274004
50
179.9657458
51
183.9850364
0
LINE
8
DEFAULT_255_1_388
10
24.3841022
20
5.9674898
11
24.3841022
21
5.8735191
0
LINE
8
DEFAULT_255_1_388
10
24.3841022
20
5.8735191
11
23.8392529
21
4.6519
0
LINE
8
DEFAULT_255_1_388
10
23.8392529
20
4.6519
11
23.6639614
21
4.6519
0
LINE
8
DEFAULT_255_1_388
10
23.6639614
20
4.6519
11
24.2070036
21
5.830148
0
LINE
8
DEFAULT_255_1_388
10
24.2070036
20
5.830148
11
23.4949948
21
5.830148
0
LINE
8
DEFAULT_255_1_388
10
23.4949948
20
5.830148
11
23.4949948
21
5.9674898
0
LINE
8
DEFAULT_255_1_388
10
23.4949948
20
5.9674898
11
24.3841022
21
5.9674898
0
LINE
8
DEFAULT_255_1_388
10
22.8706318
20
12.7258382
11
22.8706318
21
12.5894
0
LINE
8
DEFAULT_255_1_388
10
22.8706318
20
12.5894
11
22.0086313
21
12.5894
0
LINE
8
DEFAULT_255_1_388
10
22.0086313
20
12.5894
11
22.0086313
21
12.7095741
0
LINE
8
DEFAULT_255_1_388
10
22.0086313
20
12.7095741
11
22.4640278
21
13.2155702
0
LINE
8
DEFAULT_255_1_388
10
22.1504909
20
13.5173607
11
21.9833315
21
13.5173607
0
LINE
8
DEFAULT_255_1_388
10
22.5625163
20
13.108046
11
22.2101262
21
12.7258382
0
LINE
8
DEFAULT_255_1_388
10
22.2101262
20
12.7258382
11
22.8706318
21
12.7258382
0
ARC
8
DEFAULT_255_1_388
10
20.9464337
20
14.5575983
40
2.0258655
50
318.5132526
51
320.7829045
0
ARC
8
DEFAULT_255_1_388
10
21.5412294
20
14.0734929
40
1.2589638
50
320.7372878
51
323.9739031
0
ARC
8
DEFAULT_255_1_388
10
21.9821226
20
13.7540554
40
0.7145141
50
323.8962701
51
328.64194
0
ARC
8
DEFAULT_255_1_388
10
22.2123484
20
13.6120545
40
0.4440242
50
328.8294576
51
331.7891185
0
ARC
8
DEFAULT_255_1_388
10
22.3245804
20
13.5541374
40
0.3177517
50
331.4254512
51
352.9365785
0
ARC
8
DEFAULT_255_1_388
10
22.3398804
20
13.550705
40
0.3021496
50
353.2257659
51
0.0166158
0
ARC
8
DEFAULT_255_1_388
10
22.3635564
20
13.5532894
40
0.2784847
50
359.486299
51
15.9343185
0
ARC
8
DEFAULT_255_1_388
10
22.4205831
20
13.5686269
40
0.2194403
50
16.1712913
51
43.5286088
0
ARC
8
DEFAULT_255_1_388
10
22.4292776
20
13.5773191
40
0.2071504
50
43.4417391
51
83.1661095
0
ARC
8
DEFAULT_255_1_388
10
22.4141937
20
13.4944316
40
0.2912888
50
82.160179
51
90.1505708
0
ARC
8
DEFAULT_255_1_388
10
22.4106418
20
13.4340279
40
0.3517025
50
89.5460741
51
102.5418361
0
ARC
8
DEFAULT_255_1_388
10
22.3833138
20
13.5499933
40
0.2325748
50
102.1738499
51
129.206123
0
ARC
8
DEFAULT_255_1_388
10
22.3744592
20
13.5639664
40
0.2161591
50
129.72865
51
135.753947
0
ARC
8
DEFAULT_255_1_388
10
22.3881074
20
13.5530728
40
0.2335433
50
136.1757367
51
166.3673339
0
ARC
8
DEFAULT_255_1_388
10
22.5013762
20
13.5227148
40
0.3507873
50
165.9090694
51
178.8684636
0
ARC
8
DEFAULT_255_1_388
10
22.5989534
20
13.5174263
40
0.4484624
50
178.4391136
51
180.0083808
0
ARC
8
DEFAULT_255_1_388
10
22.4410235
20
13.5218197
40
0.4577138
50
163.2878482
51
180.5581842
0
ARC
8
DEFAULT_255_1_388
10
22.3508276
20
13.5466393
40
0.3641968
50
133.4540601
51
162.947111
0
ARC
8
DEFAULT_255_1_388
10
22.3709158
20
13.5252789
40
0.3935189
50
100.7869829
51
133.4382499
0
ARC
8
DEFAULT_255_1_388
10
22.4100403
20
13.3510399
40
0.5720313
50
89.660664
51
101.3702276
0
ARC
8
DEFAULT_255_1_388
10
22.4175012
20
13.3579263
40
0.5651495
50
78.2172678
51
90.412935
0
ARC
8
DEFAULT_255_1_388
10
22.4574478
20
13.5406511
40
0.378122
50
55.9269121
51
78.4888449
0
ARC
8
DEFAULT_255_1_388
10
22.4795193
20
13.5787187
40
0.3342379
50
47.929771
51
55.4049217
0
ARC
8
DEFAULT_255_1_388
10
22.4909723
20
13.5903618
40
0.3179217
50
4.334829
51
48.0560205
0
ARC
8
DEFAULT_255_1_388
10
22.3677525
20
13.5712487
40
0.442341
50
359.9251713
51
5.5971671
0
ARC
8
DEFAULT_255_1_388
10
22.415968
20
13.5775728
40
0.3941854
50
337.8914027
51
358.9967534
0
ARC
8
DEFAULT_255_1_388
10
22.110725
20
13.6953295
40
0.7213271
50
326.9132501
51
338.3508308
0
ARC
8
DEFAULT_255_1_388
10
21.6623362
20
13.9827105
40
1.2538973
50
319.6471833
51
327.0959558
0
ARC
8
DEFAULT_255_1_388
10
21.231002
20
14.338505
40
1.8129975
50
317.2588228
51
319.9045804
0
ARC
8
DEFAULT_255_1_388
10
23.1889138
20
12.6781142
40
0.1204062
50
163.5412609
51
180.5084512
0
ARC
8
DEFAULT_255_1_388
10
23.1673037
20
12.683946
40
0.0980307
50
138.1652
51
163.2315563
0
ARC
8
DEFAULT_255_1_388
10
23.1546778
20
12.6946456
40
0.0814881
50
105.6860499
51
137.8492655
0
ARC
8
DEFAULT_255_1_388
10
23.1679979
20
12.6514109
40
0.126719
50
92.6078949
51
106.199173
0
ARC
8
DEFAULT_255_1_388
10
23.1714169
20
12.6068207
40
0.1714243
50
89.9659531
51
93.0713334
0
ARC
8
DEFAULT_255_1_388
10
23.1726205
20
12.6318484
40
0.1464007
50
78.4379126
51
90.4311892
0
ARC
8
DEFAULT_255_1_388
10
23.1834852
20
12.6825017
40
0.094599
50
56.8961942
51
78.7357785
0
ARC
8
DEFAULT_255_1_388
10
23.1905963
20
12.6949075
40
0.0803272
50
42.6503148
51
56.3122241
0
ARC
8
DEFAULT_255_1_388
10
23.1761864
20
12.6816661
40
0.099897
50
3.8141057
51
42.636595
0
ARC
8
DEFAULT_255_1_388
10
23.1439186
20
12.6771616
40
0.1324137
50
359.9498843
51
4.8301897
0
ARC
8
DEFAULT_255_1_388
10
23.1694324
20
12.6759722
40
0.1069053
50
340.9378148
51
0.5753733
0
ARC
8
DEFAULT_255_1_388
10
23.1820906
20
12.6725569
40
0.0938301
50
316.0798885
51
340.3845117
0
ARC
8
DEFAULT_255_1_388
10
23.1886217
20
12.666552
40
0.0849605
50
285.8512844
51
315.941661
0
ARC
8
DEFAULT_255_1_388
10
23.1754097
20
12.709262
40
0.1296594
50
273.1293204
51
286.3125006
0
ARC
8
DEFAULT_255_1_388
10
23.1716607
20
12.7544586
40
0.1749979
50
269.9535313
51
273.5471598
0
ARC
8
DEFAULT_255_1_388
10
23.1704213
20
12.7298833
40
0.1504266
50
259.0487117
51
270.4180248
0
ARC
8
DEFAULT_255_1_388
10
23.1595825
20
12.6761783
40
0.0956414
50
239.7583641
51
259.3115656
0
ARC
8
DEFAULT_255_1_388
10
23.1504758
20
12.6592048
40
0.0763945
50
222.6243303
51
239.2473835
0
ARC
8
DEFAULT_255_1_388
10
23.1655929
20
12.6730572
40
0.0968985
50
182.9231258
51
222.598101
0
ARC
8
DEFAULT_255_1_388
10
23.1959129
20
12.6769696
40
0.1274004
50
179.9657458
51
183.9850364
0
LINE
8
DEFAULT_255_1_388
10
24.1609218
20
13.9058934
11
24.1907395
21
13.9058934
0
LINE
8
DEFAULT_255_1_388
10
24.1907395
20
13.9058934
11
24.1907395
21
13.7640338
0
LINE
8
DEFAULT_255_1_388
10
24.1907395
20
13.7640338
11
24.1600183
21
13.7640338
0
LINE
8
DEFAULT_255_1_388
10
23.5446909
20
13.0899747
11
23.5446909
21
13.1541278
0
LINE
8
DEFAULT_255_1_388
10
23.7127539
20
13.1324422
11
23.7127539
21
13.0709999
0
ARC
8
DEFAULT_255_1_388
10
24.1659074
20
13.2017826
40
0.562282
50
90.6001079
51
104.5146616
0
ARC
8
DEFAULT_255_1_388
10
24.1222034
20
13.36431
40
0.3939917
50
104.2855758
51
133.8630124
0
ARC
8
DEFAULT_255_1_388
10
24.1406286
20
13.3521243
40
0.4155734
50
134.5304124
51
161.6210222
0
ARC
8
DEFAULT_255_1_388
10
24.3266219
20
13.2865421
40
0.6127682
50
161.2850533
51
174.2074364
0
ARC
8
DEFAULT_255_1_388
10
24.4855785
20
13.2646437
40
0.7731446
50
173.7817938
51
174.9251711
0
ARC
8
DEFAULT_255_1_388
10
23.9729979
20
13.109127
40
0.3412588
50
95.8332067
51
138.995412
0
ARC
8
DEFAULT_255_1_388
10
23.9981259
20
12.9652695
40
0.4870358
50
89.8755506
51
97.0540979
0
ARC
8
DEFAULT_255_1_388
10
24.0034648
20
13.0592841
40
0.3930432
50
71.6407016
51
90.6240821
0
ARC
8
DEFAULT_255_1_388
10
24.0204042
20
13.1216433
40
0.3285421
50
39.6368051
51
71.0190743
0
ARC
8
DEFAULT_255_1_388
10
23.9487949
20
13.0597586
40
0.4231706
50
10.6588054
51
39.9044509
0
ARC
8
DEFAULT_255_1_388
10
23.7746495
20
13.0219223
40
0.60133
50
359.6827842
51
11.1326896
0
ARC
8
DEFAULT_255_1_388
10
23.7701831
20
13.0139715
40
0.6058047
50
347.2485908
51
0.4371098
0
ARC
8
DEFAULT_255_1_388
10
23.9577616
20
12.9688379
40
0.4128987
50
318.1408565
51
347.6118497
0
ARC
8
DEFAULT_255_1_388
10
23.9943213
20
12.9387903
40
0.3656244
50
275.6342406
51
317.824739
0
ARC
8
DEFAULT_255_1_388
10
23.9694734
20
13.0849827
40
0.513655
50
269.8872513
51
276.7916069
0
ARC
8
DEFAULT_255_1_388
10
23.9632927
20
12.9696181
40
0.398323
50
246.9139443
51
270.7436787
0
ARC
8
DEFAULT_255_1_388
10
23.9640122
20
12.9536044
40
0.3839368
50
218.1665534
51
245.8780431
0
ARC
8
DEFAULT_255_1_388
10
24.0629495
20
13.0363903
40
0.5128958
50
191.4115343
51
218.6077624
0
ARC
8
DEFAULT_255_1_388
10
24.2809811
20
13.0852777
40
0.7363054
50
179.6344971
51
191.7836758
0
ARC
8
DEFAULT_255_1_388
10
24.9089685
20
13.1616495
40
1.3642984
50
171.4523743
51
180.3158856
0
ARC
8
DEFAULT_255_1_388
10
24.4145412
20
13.2385895
40
0.8639311
50
157.9802296
51
171.6246761
0
ARC
8
DEFAULT_255_1_388
10
24.1654763
20
13.3379038
40
0.5958004
50
141.4299236
51
157.8541251
0
ARC
8
DEFAULT_255_1_388
10
24.0932846
20
13.3889746
40
0.5075416
50
102.871586
51
140.8564533
0
ARC
8
DEFAULT_255_1_388
10
24.1661399
20
13.1144943
40
0.7914163
50
90.377773
51
103.5868422
0
ARC
8
DEFAULT_255_1_388
10
23.970592
20
13.0464543
40
0.2667015
50
89.8751238
51
126.2072139
0
ARC
8
DEFAULT_255_1_388
10
23.9757391
20
13.0290847
40
0.2838229
50
124.9742447
51
144.8960197
0
ARC
8
DEFAULT_255_1_388
10
23.9559636
20
13.0451981
40
0.2583845
50
145.2974778
51
160.2660922
0
ARC
8
DEFAULT_255_1_388
10
24.3016125
20
13.0674151
40
0.5888695
50
179.6512124
51
190.285571
0
ARC
8
DEFAULT_255_1_388
10
24.1110604
20
13.0314968
40
0.3949683
50
190.0944895
51
207.5099647
0
ARC
8
DEFAULT_255_1_388
10
24.0474186
20
13.0012177
40
0.3245464
50
207.9585471
51
216.325377
0
ARC
8
DEFAULT_255_1_388
10
24.0091823
20
12.9697712
40
0.2751259
50
215.7661336
51
232.5457193
0
ARC
8
DEFAULT_255_1_388
10
23.9660939
20
12.9150273
40
0.2054668
50
232.8005815
51
270.6605497
0
ARC
8
DEFAULT_255_1_388
10
23.9712363
20
12.9559853
40
0.2464268
50
269.3550767
51
288.474612
0
ARC
8
DEFAULT_255_1_388
10
23.981687
20
12.9166721
40
0.2058436
50
289.1831976
51
322.9685307
0
ARC
8
DEFAULT_255_1_388
10
23.9128972
20
12.9709279
40
0.2934408
50
322.6007085
51
346.5183319
0
ARC
8
DEFAULT_255_1_388
10
23.7826728
20
13.0041434
40
0.4278249
50
346.2584622
51
358.7739592
0
ARC
8
DEFAULT_255_1_388
10
23.6675303
20
13.0103829
40
0.5430876
50
358.3757628
51
0.0082477
0
ARC
8
DEFAULT_255_1_388
10
23.7532122
20
13.0134856
40
0.4574157
50
359.6211417
51
11.28403
0
ARC
8
DEFAULT_255_1_388
10
23.8968728
20
13.0434535
40
0.3106708
50
11.0483152
51
31.8145585
0
ARC
8
DEFAULT_255_1_388
10
23.9316433
20
13.0623045
40
0.2711963
50
32.3028554
51
38.0820598
0
ARC
8
DEFAULT_255_1_388
10
23.9789666
20
13.1051717
40
0.2075566
50
36.8249851
51
85.741667
0
ARC
8
DEFAULT_255_1_388
10
23.9714079
20
13.0488065
40
0.2643487
50
85.0150021
51
90.050843
0
LINE
8
DEFAULT_255_1_388
10
22.8706318
20
20.6633382
11
22.8706318
21
20.5269
0
LINE
8
DEFAULT_255_1_388
10
22.8706318
20
20.5269
11
22.0086313
21
20.5269
0
LINE
8
DEFAULT_255_1_388
10
22.0086313
20
20.5269
11
22.0086313
21
20.6470741
0
LINE
8
DEFAULT_255_1_388
10
22.0086313
20
20.6470741
11
22.4640278
21
21.1530702
0
LINE
8
DEFAULT_255_1_388
10
22.1504909
20
21.4548607
11
21.9833315
21
21.4548607
0
LINE
8
DEFAULT_255_1_388
10
22.5625163
20
21.045546
11
22.2101262
21
20.6633382
0
LINE
8
DEFAULT_255_1_388
10
22.2101262
20
20.6633382
11
22.8706318
21
20.6633382
0
ARC
8
DEFAULT_255_1_388
10
20.9464337
20
22.4950983
40
2.0258655
50
318.5132526
51
320.7829045
0
ARC
8
DEFAULT_255_1_388
10
21.5412294
20
22.0109929
40
1.2589638
50
320.7372878
51
323.9739031
0
ARC
8
DEFAULT_255_1_388
10
21.9821226
20
21.6915554
40
0.7145141
50
323.8962701
51
328.64194
0
ARC
8
DEFAULT_255_1_388
10
22.2123484
20
21.5495545
40
0.4440242
50
328.8294576
51
331.7891185
0
ARC
8
DEFAULT_255_1_388
10
22.3245804
20
21.4916374
40
0.3177517
50
331.4254512
51
352.9365785
0
ARC
8
DEFAULT_255_1_388
10
22.3398804
20
21.488205
40
0.3021496
50
353.2257659
51
0.0166158
0
ARC
8
DEFAULT_255_1_388
10
22.3635564
20
21.4907894
40
0.2784847
50
359.486299
51
15.9343185
0
ARC
8
DEFAULT_255_1_388
10
22.4205831
20
21.5061269
40
0.2194403
50
16.1712913
51
43.5286088
0
ARC
8
DEFAULT_255_1_388
10
22.4292776
20
21.5148191
40
0.2071504
50
43.4417391
51
83.1661095
0
ARC
8
DEFAULT_255_1_388
10
22.4141937
20
21.4319316
40
0.2912888
50
82.160179
51
90.1505708
0
ARC
8
DEFAULT_255_1_388
10
22.4106418
20
21.3715279
40
0.3517025
50
89.5460741
51
102.5418361
0
ARC
8
DEFAULT_255_1_388
10
22.3833138
20
21.4874933
40
0.2325748
50
102.1738499
51
129.206123
0
ARC
8
DEFAULT_255_1_388
10
22.3744592
20
21.5014664
40
0.2161591
50
129.72865
51
135.753947
0
ARC
8
DEFAULT_255_1_388
10
22.3881074
20
21.4905728
40
0.2335433
50
136.1757367
51
166.3673339
0
ARC
8
DEFAULT_255_1_388
10
22.5013762
20
21.4602148
40
0.3507873
50
165.9090694
51
178.8684636
0
ARC
8
DEFAULT_255_1_388
10
22.5989534
20
21.4549263
40
0.4484624
50
178.4391136
51
180.0083808
0
ARC
8
DEFAULT_255_1_388
10
22.4410235
20
21.4593197
40
0.4577138
50
163.2878482
51
180.5581842
0
ARC
8
DEFAULT_255_1_388
10
22.3508276
20
21.4841393
40
0.3641968
50
133.4540601
51
162.947111
0
ARC
8
DEFAULT_255_1_388
10
22.3709158
20
21.4627789
40
0.3935189
50
100.7869829
51
133.4382499
0
ARC
8
DEFAULT_255_1_388
10
22.4100403
20
21.2885399
40
0.5720313
50
89.660664
51
101.3702276
0
ARC
8
DEFAULT_255_1_388
10
22.4175012
20
21.2954263
40
0.5651495
50
78.2172678
51
90.412935
0
ARC
8
DEFAULT_255_1_388
10
22.4574478
20
21.4781511
40
0.378122
50
55.9269121
51
78.4888449
0
ARC
8
DEFAULT_255_1_388
10
22.4795193
20
21.5162187
40
0.3342379
50
47.929771
51
55.4049217
0
ARC
8
DEFAULT_255_1_388
10
22.4909723
20
21.5278618
40
0.3179217
50
4.334829
51
48.0560205
0
ARC
8
DEFAULT_255_1_388
10
22.3677525
20
21.5087487
40
0.442341
50
359.9251713
51
5.5971671
0
ARC
8
DEFAULT_255_1_388
10
22.415968
20
21.5150728
40
0.3941854
50
337.8914027
51
358.9967534
0
ARC
8
DEFAULT_255_1_388
10
22.110725
20
21.6328295
40
0.7213271
50
326.9132501
51
338.3508308
0
ARC
8
DEFAULT_255_1_388
10
21.6623362
20
21.9202105
40
1.2538973
50
319.6471833
51
327.0959558
0
ARC
8
DEFAULT_255_1_388
10
21.231002
20
22.276005
40
1.8129975
50
317.2588228
51
319.9045804
0
ARC
8
DEFAULT_255_1_388
10
23.1889138
20
20.6156142
40
0.1204062
50
163.5412609
51
180.5084512
0
ARC
8
DEFAULT_255_1_388
10
23.1673037
20
20.621446
40
0.0980307
50
138.1652
51
163.2315563
0
ARC
8
DEFAULT_255_1_388
10
23.1546778
20
20.6321456
40
0.0814881
50
105.6860499
51
137.8492655
0
ARC
8
DEFAULT_255_1_388
10
23.1679979
20
20.5889109
40
0.126719
50
92.6078949
51
106.199173
0
ARC
8
DEFAULT_255_1_388
10
23.1714169
20
20.5443207
40
0.1714243
50
89.9659531
51
93.0713334
0
ARC
8
DEFAULT_255_1_388
10
23.1726205
20
20.5693484
40
0.1464007
50
78.4379126
51
90.4311892
0
ARC
8
DEFAULT_255_1_388
10
23.1834852
20
20.6200017
40
0.094599
50
56.8961942
51
78.7357785
0
ARC
8
DEFAULT_255_1_388
10
23.1905963
20
20.6324075
40
0.0803272
50
42.6503148
51
56.3122241
0
ARC
8
DEFAULT_255_1_388
10
23.1761864
20
20.6191661
40
0.099897
50
3.8141057
51
42.636595
0
ARC
8
DEFAULT_255_1_388
10
23.1439186
20
20.6146616
40
0.1324137
50
359.9498843
51
4.8301897
0
ARC
8
DEFAULT_255_1_388
10
23.1694324
20
20.6134722
40
0.1069053
50
340.9378148
51
0.5753733
0
ARC
8
DEFAULT_255_1_388
10
23.1820906
20
20.6100569
40
0.0938301
50
316.0798885
51
340.3845117
0
ARC
8
DEFAULT_255_1_388
10
23.1886217
20
20.604052
40
0.0849605
50
285.8512844
51
315.941661
0
ARC
8
DEFAULT_255_1_388
10
23.1754097
20
20.646762
40
0.1296594
50
273.1293204
51
286.3125006
0
ARC
8
DEFAULT_255_1_388
10
23.1716607
20
20.6919586
40
0.1749979
50
269.9535313
51
273.5471598
0
ARC
8
DEFAULT_255_1_388
10
23.1704213
20
20.6673833
40
0.1504266
50
259.0487117
51
270.4180248
0
ARC
8
DEFAULT_255_1_388
10
23.1595825
20
20.6136783
40
0.0956414
50
239.7583641
51
259.3115656
0
ARC
8
DEFAULT_255_1_388
10
23.1504758
20
20.5967048
40
0.0763945
50
222.6243303
51
239.2473835
0
ARC
8
DEFAULT_255_1_388
10
23.1655929
20
20.6105572
40
0.0968985
50
182.9231258
51
222.598101
0
ARC
8
DEFAULT_255_1_388
10
23.1959129
20
20.6144696
40
0.1274004
50
179.9657458
51
183.9850364
0
LINE
8
DEFAULT_255_1_388
10
23.7452822
20
21.1521666
11
23.6115546
21
21.1865021
0
LINE
8
DEFAULT_255_1_388
10
23.6115546
20
21.1865021
11
23.6784184
21
21.8424898
0
LINE
8
DEFAULT_255_1_388
10
23.6784184
20
21.8424898
11
24.3524775
21
21.8424898
0
LINE
8
DEFAULT_255_1_388
10
24.3524775
20
21.8424898
11
24.3524775
21
21.6879803
0
LINE
8
DEFAULT_255_1_388
10
24.3524775
20
21.6879803
11
23.820278
21
21.6879803
0
LINE
8
DEFAULT_255_1_388
10
23.820278
20
21.6879803
11
23.7805212
21
21.3292652
0
LINE
8
DEFAULT_255_1_388
10
23.5645693
20
20.8729652
11
23.7226931
21
20.8729652
0
LINE
8
DEFAULT_255_1_388
10
23.7895568
20
21.1883092
11
23.7452822
21
21.1521666
0
ARC
8
DEFAULT_255_1_388
10
23.9891825
20
20.9715241
40
0.4141476
50
93.7181681
51
120.253934
0
ARC
8
DEFAULT_255_1_388
10
23.9997878
20
20.8806284
40
0.5055616
50
89.9660471
51
94.2495185
0
ARC
8
DEFAULT_255_1_388
10
24.00437
20
20.9469154
40
0.4392953
50
73.8045384
51
90.5585736
0
ARC
8
DEFAULT_255_1_388
10
24.0307957
20
21.043452
40
0.3392225
50
41.3071072
51
73.543002
0
ARC
8
DEFAULT_255_1_388
10
23.9839777
20
21.0031461
40
0.4009977
50
13.5075837
51
41.2174839
0
ARC
8
DEFAULT_255_1_388
10
23.7992875
20
20.9547907
40
0.5918864
50
1.1330171
51
13.8830737
0
ARC
8
DEFAULT_255_1_388
10
23.639652
20
20.9462522
40
0.7516787
50
359.9925091
51
1.5431298
0
ARC
8
DEFAULT_255_1_388
10
23.7841135
20
20.9416027
40
0.6072343
50
347.8572712
51
0.4294349
0
ARC
8
DEFAULT_255_1_388
10
23.981027
20
20.8969898
40
0.4053482
50
323.6727442
51
348.1674594
0
ARC
8
DEFAULT_255_1_388
10
24.0141235
20
20.8768175
40
0.3667495
50
316.8171818
51
323.1486802
0
ARC
8
DEFAULT_255_1_388
10
24.0210358
20
20.8726612
40
0.358869
50
281.839603
51
316.5458142
0
ARC
8
DEFAULT_255_1_388
10
23.9787646
20
21.0476363
40
0.5388223
50
269.5770964
51
282.4214641
0
ARC
8
DEFAULT_255_1_388
10
23.9707567
20
21.023593
40
0.5147801
50
256.2425863
51
270.4486481
0
ARC
8
DEFAULT_255_1_388
10
23.9371094
20
20.8886124
40
0.3756708
50
228.9024379
51
256.33135
0
ARC
8
DEFAULT_255_1_388
10
23.9288075
20
20.8755054
40
0.360344
50
193.7536029
51
228.5272638
0
ARC
8
DEFAULT_255_1_388
10
24.068064
20
20.9163463
40
0.5053599
50
184.9244437
51
194.4976052
0
ARC
8
DEFAULT_255_1_388
10
24.0897281
20
20.9203722
40
0.3700839
50
187.3596909
51
198.6733728
0
ARC
8
DEFAULT_255_1_388
10
23.9716524
20
20.8794373
40
0.2451195
50
198.4453795
51
217.7945479
0
ARC
8
DEFAULT_255_1_388
10
23.9383697
20
20.8558563
40
0.2043754
50
218.2887146
51
228.5613203
0
ARC
8
DEFAULT_255_1_388
10
23.9493704
20
20.8706902
40
0.2227819
50
228.9652423
51
258.1237049
0
ARC
8
DEFAULT_255_1_388
10
23.9725141
20
20.9697964
40
0.3245374
50
257.7260585
51
270.4013717
0
ARC
8
DEFAULT_255_1_388
10
23.9775639
20
20.9197255
40
0.2744726
50
269.4204315
51
286.420998
0
ARC
8
DEFAULT_255_1_388
10
23.9942695
20
20.8590705
40
0.2115721
50
286.7250065
51
320.6004665
0
ARC
8
DEFAULT_255_1_388
10
23.951161
20
20.8940527
40
0.2670878
50
320.6712228
51
344.5440474
0
ARC
8
DEFAULT_255_1_388
10
23.8210324
20
20.9322394
40
0.4026927
50
344.241448
51
356.735803
0
ARC
8
DEFAULT_255_1_388
10
23.6806631
20
20.9438656
40
0.5435085
50
356.3547471
51
0.0507222
0
ARC
8
DEFAULT_255_1_388
10
23.8308896
20
20.9473812
40
0.3932934
50
359.5579289
51
12.9534322
0
ARC
8
DEFAULT_255_1_388
10
23.9495736
20
20.9761586
40
0.2711827
50
12.6489751
51
41.608121
0
ARC
8
DEFAULT_255_1_388
10
23.9754896
20
20.9981946
40
0.2371737
50
41.7851122
51
85.9892156
0
ARC
8
DEFAULT_255_1_388
10
23.9616206
20
20.9066738
40
0.3295244
50
84.6965848
51
90.0672125
0
ARC
8
DEFAULT_255_1_388
10
23.9589774
20
20.8315118
40
0.4046926
50
89.6804991
51
99.161352
0
ARC
8
DEFAULT_255_1_388
10
23.9358783
20
20.9695848
40
0.2647044
50
98.9836248
51
113.8905702
0
ARC
8
DEFAULT_255_1_388
10
23.9100458
20
21.0305118
40
0.1985386
50
114.195234
51
127.3641866
0
LINE
8
DEFAULT_255_1_388
10
22.7383318
20
28.6008382
11
22.7383318
21
28.4644
0
LINE
8
DEFAULT_255_1_388
10
22.7383318
20
28.4644
11
21.8763313
21
28.4644
0
LINE
8
DEFAULT_255_1_388
10
21.8763313
20
28.4644
11
21.8763313
21
28.5845741
0
LINE
8
DEFAULT_255_1_388
10
21.8763313
20
28.5845741
11
22.3317278
21
29.0905702
0
LINE
8
DEFAULT_255_1_388
10
22.0181909
20
29.3923607
11
21.8510315
21
29.3923607
0
LINE
8
DEFAULT_255_1_388
10
22.4302163
20
28.983046
11
22.0778262
21
28.6008382
0
LINE
8
DEFAULT_255_1_388
10
22.0778262
20
28.6008382
11
22.7383318
21
28.6008382
0
ARC
8
DEFAULT_255_1_388
10
20.8141337
20
30.4325983
40
2.0258655
50
318.5132526
51
320.7829045
0
ARC
8
DEFAULT_255_1_388
10
21.4089294
20
29.9484929
40
1.2589638
50
320.7372878
51
323.9739031
0
ARC
8
DEFAULT_255_1_388
10
21.8498226
20
29.6290554
40
0.7145141
50
323.8962701
51
328.64194
0
ARC
8
DEFAULT_255_1_388
10
22.0800484
20
29.4870545
40
0.4440242
50
328.8294576
51
331.7891185
0
ARC
8
DEFAULT_255_1_388
10
22.1922804
20
29.4291374
40
0.3177517
50
331.4254512
51
352.9365785
0
ARC
8
DEFAULT_255_1_388
10
22.2075804
20
29.425705
40
0.3021496
50
353.2257659
51
0.0166158
0
ARC
8
DEFAULT_255_1_388
10
22.2312564
20
29.4282894
40
0.2784847
50
359.486299
51
15.9343185
0
ARC
8
DEFAULT_255_1_388
10
22.2882831
20
29.4436269
40
0.2194403
50
16.1712913
51
43.5286088
0
ARC
8
DEFAULT_255_1_388
10
22.2969776
20
29.4523191
40
0.2071504
50
43.4417391
51
83.1661095
0
ARC
8
DEFAULT_255_1_388
10
22.2818937
20
29.3694316
40
0.2912888
50
82.160179
51
90.1505708
0
ARC
8
DEFAULT_255_1_388
10
22.2783418
20
29.3090279
40
0.3517025
50
89.5460741
51
102.5418361
0
ARC
8
DEFAULT_255_1_388
10
22.2510138
20
29.4249933
40
0.2325748
50
102.1738499
51
129.206123
0
ARC
8
DEFAULT_255_1_388
10
22.2421592
20
29.4389664
40
0.2161591
50
129.72865
51
135.753947
0
ARC
8
DEFAULT_255_1_388
10
22.2558074
20
29.4280728
40
0.2335433
50
136.1757367
51
166.3673339
0
ARC
8
DEFAULT_255_1_388
10
22.3690762
20
29.3977148
40
0.3507873
50
165.9090694
51
178.8684636
0
ARC
8
DEFAULT_255_1_388
10
22.4666534
20
29.3924263
40
0.4484624
50
178.4391136
51
180.0083808
0
ARC
8
DEFAULT_255_1_388
10
22.3087235
20
29.3968197
40
0.4577138
50
163.2878482
51
180.5581842
0
ARC
8
DEFAULT_255_1_388
10
22.2185276
20
29.4216393
40
0.3641968
50
133.4540601
51
162.947111
0
ARC
8
DEFAULT_255_1_388
10
22.2386158
20
29.4002789
40
0.3935189
50
100.7869829
51
133.4382499
0
ARC
8
DEFAULT_255_1_388
10
22.2777403
20
29.2260399
40
0.5720313
50
89.660664
51
101.3702276
0
ARC
8
DEFAULT_255_1_388
10
22.2852012
20
29.2329263
40
0.5651495
50
78.2172678
51
90.412935
0
ARC
8
DEFAULT_255_1_388
10
22.3251478
20
29.4156511
40
0.378122
50
55.9269121
51
78.4888449
0
ARC
8
DEFAULT_255_1_388
10
22.3472193
20
29.4537187
40
0.3342379
50
47.929771
51
55.4049217
0
ARC
8
DEFAULT_255_1_388
10
22.3586723
20
29.4653618
40
0.3179217
50
4.334829
51
48.0560205
0
ARC
8
DEFAULT_255_1_388
10
22.2354525
20
29.4462487
40
0.442341
50
359.9251713
51
5.5971671
0
ARC
8
DEFAULT_255_1_388
10
22.283668
20
29.4525728
40
0.3941854
50
337.8914027
51
358.9967534
0
ARC
8
DEFAULT_255_1_388
10
21.978425
20
29.5703295
40
0.7213271
50
326.9132501
51
338.3508308
0
ARC
8
DEFAULT_255_1_388
10
21.5300362
20
29.8577105
40
1.2538973
50
319.6471833
51
327.0959558
0
ARC
8
DEFAULT_255_1_388
10
21.098702
20
30.213505
40
1.8129975
50
317.2588228
51
319.9045804
0
ARC
8
DEFAULT_255_1_388
10
23.0566138
20
28.5531142
40
0.1204062
50
163.5412609
51
180.5084512
0
ARC
8
DEFAULT_255_1_388
10
23.0350037
20
28.558946
40
0.0980307
50
138.1652
51
163.2315563
0
ARC
8
DEFAULT_255_1_388
10
23.0223778
20
28.5696456
40
0.0814881
50
105.6860499
51
137.8492655
0
ARC
8
DEFAULT_255_1_388
10
23.0356979
20
28.5264109
40
0.126719
50
92.6078949
51
106.199173
0
ARC
8
DEFAULT_255_1_388
10
23.0391169
20
28.4818207
40
0.1714243
50
89.9659531
51
93.0713334
0
ARC
8
DEFAULT_255_1_388
10
23.0403205
20
28.5068484
40
0.1464007
50
78.4379126
51
90.4311892
0
ARC
8
DEFAULT_255_1_388
10
23.0511852
20
28.5575017
40
0.094599
50
56.8961942
51
78.7357785
0
ARC
8
DEFAULT_255_1_388
10
23.0582963
20
28.5699075
40
0.0803272
50
42.6503148
51
56.3122241
0
ARC
8
DEFAULT_255_1_388
10
23.0438864
20
28.5566661
40
0.099897
50
3.8141057
51
42.636595
0
ARC
8
DEFAULT_255_1_388
10
23.0116186
20
28.5521616
40
0.1324137
50
359.9498843
51
4.8301897
0
ARC
8
DEFAULT_255_1_388
10
23.0371324
20
28.5509722
40
0.1069053
50
340.9378148
51
0.5753733
0
ARC
8
DEFAULT_255_1_388
10
23.0497906
20
28.5475569
40
0.0938301
50
316.0798885
51
340.3845117
0
ARC
8
DEFAULT_255_1_388
10
23.0563217
20
28.541552
40
0.0849605
50
285.8512844
51
315.941661
0
ARC
8
DEFAULT_255_1_388
10
23.0431097
20
28.584262
40
0.1296594
50
273.1293204
51
286.3125006
0
ARC
8
DEFAULT_255_1_388
10
23.0393607
20
28.6294586
40
0.1749979
50
269.9535313
51
273.5471598
0
ARC
8
DEFAULT_255_1_388
10
23.0381213
20
28.6048833
40
0.1504266
50
259.0487117
51
270.4180248
0
ARC
8
DEFAULT_255_1_388
10
23.0272825
20
28.5511783
40
0.0956414
50
239.7583641
51
259.3115656
0
ARC
8
DEFAULT_255_1_388
10
23.0181758
20
28.5342048
40
0.0763945
50
222.6243303
51
239.2473835
0
ARC
8
DEFAULT_255_1_388
10
23.0332929
20
28.5480572
40
0.0968985
50
182.9231258
51
222.598101
0
ARC
8
DEFAULT_255_1_388
10
23.0636129
20
28.5519696
40
0.1274004
50
179.9657458
51
183.9850364
0
LINE
8
DEFAULT_255_1_388
10
24.1081355
20
29.7799898
11
24.1081355
21
28.906243
0
LINE
8
DEFAULT_255_1_388
10
24.1081355
20
28.906243
11
24.2906555
21
28.906243
0
LINE
8
DEFAULT_255_1_388
10
24.2906555
20
28.906243
11
24.2906555
21
28.7698048
0
LINE
8
DEFAULT_255_1_388
10
24.2906555
20
28.7698048
11
24.1081355
21
28.7698048
0
LINE
8
DEFAULT_255_1_388
10
24.1081355
20
28.7698048
11
24.1081355
21
28.4644
0
LINE
8
DEFAULT_255_1_388
10
24.1081355
20
28.4644
11
23.9400725
21
28.4644
0
LINE
8
DEFAULT_255_1_388
10
23.9400725
20
28.4644
11
23.9400725
21
28.7698048
0
LINE
8
DEFAULT_255_1_388
10
23.9400725
20
28.7698048
11
23.3410093
21
28.7698048
0
LINE
8
DEFAULT_255_1_388
10
23.3410093
20
28.7698048
11
23.3410093
21
28.8682933
0
LINE
8
DEFAULT_255_1_388
10
23.3410093
20
28.8682933
11
23.9301333
21
29.7799898
0
LINE
8
DEFAULT_255_1_388
10
23.9301333
20
29.7799898
11
24.1081355
21
29.7799898
0
LINE
8
DEFAULT_255_1_388
10
23.9201941
20
29.5152455
11
23.5307578
21
28.906243
0
LINE
8
DEFAULT_255_1_388
10
23.5307578
20
28.906243
11
23.9400725
21
28.906243
0
LINE
8
DEFAULT_255_1_388
10
23.9400725
20
28.906243
11
23.9400725
21
29.551388
0
LINE
8
DEFAULT_255_1_388
10
23.9400725
20
29.551388
11
23.9201941
21
29.5152455
0
LINE
8
DEFAULT_255_1_388
10
22.8706318
20
36.5383382
11
22.8706318
21
36.4019
0
LINE
8
DEFAULT_255_1_388
10
22.8706318
20
36.4019
11
22.0086313
21
36.4019
0
LINE
8
DEFAULT_255_1_388
10
22.0086313
20
36.4019
11
22.0086313
21
36.5220741
0
LINE
8
DEFAULT_255_1_388
10
22.0086313
20
36.5220741
11
22.4640278
21
37.0280702
0
LINE
8
DEFAULT_255_1_388
10
22.1504909
20
37.3298607
11
21.9833315
21
37.3298607
0
LINE
8
DEFAULT_255_1_388
10
22.5625163
20
36.920546
11
22.2101262
21
36.5383382
0
LINE
8
DEFAULT_255_1_388
10
22.2101262
20
36.5383382
11
22.8706318
21
36.5383382
0
ARC
8
DEFAULT_255_1_388
10
20.9464337
20
38.3700983
40
2.0258655
50
318.5132526
51
320.7829045
0
ARC
8
DEFAULT_255_1_388
10
21.5412294
20
37.8859929
40
1.2589638
50
320.7372878
51
323.9739031
0
ARC
8
DEFAULT_255_1_388
10
21.9821226
20
37.5665554
40
0.7145141
50
323.8962701
51
328.64194
0
ARC
8
DEFAULT_255_1_388
10
22.2123484
20
37.4245545
40
0.4440242
50
328.8294576
51
331.7891185
0
ARC
8
DEFAULT_255_1_388
10
22.3245804
20
37.3666374
40
0.3177517
50
331.4254512
51
352.9365785
0
ARC
8
DEFAULT_255_1_388
10
22.3398804
20
37.363205
40
0.3021496
50
353.2257659
51
0.0166158
0
ARC
8
DEFAULT_255_1_388
10
22.3635564
20
37.3657894
40
0.2784847
50
359.486299
51
15.9343185
0
ARC
8
DEFAULT_255_1_388
10
22.4205831
20
37.3811269
40
0.2194403
50
16.1712913
51
43.5286088
0
ARC
8
DEFAULT_255_1_388
10
22.4292776
20
37.3898191
40
0.2071504
50
43.4417391
51
83.1661095
0
ARC
8
DEFAULT_255_1_388
10
22.4141937
20
37.3069316
40
0.2912888
50
82.160179
51
90.1505708
0
ARC
8
DEFAULT_255_1_388
10
22.4106418
20
37.2465279
40
0.3517025
50
89.5460741
51
102.5418361
0
ARC
8
DEFAULT_255_1_388
10
22.3833138
20
37.3624933
40
0.2325748
50
102.1738499
51
129.206123
0
ARC
8
DEFAULT_255_1_388
10
22.3744592
20
37.3764664
40
0.2161591
50
129.72865
51
135.753947
0
ARC
8
DEFAULT_255_1_388
10
22.3881074
20
37.3655728
40
0.2335433
50
136.1757367
51
166.3673339
0
ARC
8
DEFAULT_255_1_388
10
22.5013762
20
37.3352148
40
0.3507873
50
165.9090694
51
178.8684636
0
ARC
8
DEFAULT_255_1_388
10
22.5989534
20
37.3299263
40
0.4484624
50
178.4391136
51
180.0083808
0
ARC
8
DEFAULT_255_1_388
10
22.4410235
20
37.3343197
40
0.4577138
50
163.2878482
51
180.5581842
0
ARC
8
DEFAULT_255_1_388
10
22.3508276
20
37.3591393
40
0.3641968
50
133.4540601
51
162.947111
0
ARC
8
DEFAULT_255_1_388
10
22.3709158
20
37.3377789
40
0.3935189
50
100.7869829
51
133.4382499
0
ARC
8
DEFAULT_255_1_388
10
22.4100403
20
37.1635399
40
0.5720313
50
89.660664
51
101.3702276
0
ARC
8
DEFAULT_255_1_388
10
22.4175012
20
37.1704263
40
0.5651495
50
78.2172678
51
90.412935
0
ARC
8
DEFAULT_255_1_388
10
22.4574478
20
37.3531511
40
0.378122
50
55.9269121
51
78.4888449
0
ARC
8
DEFAULT_255_1_388
10
22.4795193
20
37.3912187
40
0.3342379
50
47.929771
51
55.4049217
0
ARC
8
DEFAULT_255_1_388
10
22.4909723
20
37.4028618
40
0.3179217
50
4.334829
51
48.0560205
0
ARC
8
DEFAULT_255_1_388
10
22.3677525
20
37.3837487
40
0.442341
50
359.9251713
51
5.5971671
0
ARC
8
DEFAULT_255_1_388
10
22.415968
20
37.3900728
40
0.3941854
50
337.8914027
51
358.9967534
0
ARC
8
DEFAULT_255_1_388
10
22.110725
20
37.5078295
40
0.7213271
50
326.9132501
51
338.3508308
0
ARC
8
DEFAULT_255_1_388
10
21.6623362
20
37.7952105
40
1.2538973
50
319.6471833
51
327.0959558
0
ARC
8
DEFAULT_255_1_388
10
21.231002
20
38.151005
40
1.8129975
50
317.2588228
51
319.9045804
0
ARC
8
DEFAULT_255_1_388
10
23.1889138
20
36.4906142
40
0.1204062
50
163.5412609
51
180.5084512
0
ARC
8
DEFAULT_255_1_388
10
23.1673037
20
36.496446
40
0.0980307
50
138.1652
51
163.2315563
0
ARC
8
DEFAULT_255_1_388
10
23.1546778
20
36.5071456
40
0.0814881
50
105.6860499
51
137.8492655
0
ARC
8
DEFAULT_255_1_388
10
23.1679979
20
36.4639109
40
0.126719
50
92.6078949
51
106.199173
0
ARC
8
DEFAULT_255_1_388
10
23.1714169
20
36.4193207
40
0.1714243
50
89.9659531
51
93.0713334
0
ARC
8
DEFAULT_255_1_388
10
23.1726205
20
36.4443484
40
0.1464007
50
78.4379126
51
90.4311892
0
ARC
8
DEFAULT_255_1_388
10
23.1834852
20
36.4950017
40
0.094599
50
56.8961942
51
78.7357785
0
ARC
8
DEFAULT_255_1_388
10
23.1905963
20
36.5074075
40
0.0803272
50
42.6503148
51
56.3122241
0
ARC
8
DEFAULT_255_1_388
10
23.1761864
20
36.4941661
40
0.099897
50
3.8141057
51
42.636595
0
ARC
8
DEFAULT_255_1_388
10
23.1439186
20
36.4896616
40
0.1324137
50
359.9498843
51
4.8301897
0
ARC
8
DEFAULT_255_1_388
10
23.1694324
20
36.4884722
40
0.1069053
50
340.9378148
51
0.5753733
0
ARC
8
DEFAULT_255_1_388
10
23.1820906
20
36.4850569
40
0.0938301
50
316.0798885
51
340.3845117
0
ARC
8
DEFAULT_255_1_388
10
23.1886217
20
36.479052
40
0.0849605
50
285.8512844
51
315.941661
0
ARC
8
DEFAULT_255_1_388
10
23.1754097
20
36.521762
40
0.1296594
50
273.1293204
51
286.3125006
0
ARC
8
DEFAULT_255_1_388
10
23.1716607
20
36.5669586
40
0.1749979
50
269.9535313
51
273.5471598
0
ARC
8
DEFAULT_255_1_388
10
23.1704213
20
36.5423833
40
0.1504266
50
259.0487117
51
270.4180248
0
ARC
8
DEFAULT_255_1_388
10
23.1595825
20
36.4886783
40
0.0956414
50
239.7583641
51
259.3115656
0
ARC
8
DEFAULT_255_1_388
10
23.1504758
20
36.4717048
40
0.0763945
50
222.6243303
51
239.2473835
0
ARC
8
DEFAULT_255_1_388
10
23.1655929
20
36.4855572
40
0.0968985
50
182.9231258
51
222.598101
0
ARC
8
DEFAULT_255_1_388
10
23.1959129
20
36.4894696
40
0.1274004
50
179.9657458
51
183.9850364
0
LINE
8
DEFAULT_255_1_388
10
23.7778105
20
37.0045775
11
23.7778105
21
37.1410157
0
LINE
8
DEFAULT_255_1_388
10
23.7778105
20
37.1410157
11
23.903406
21
37.1410157
0
LINE
8
DEFAULT_255_1_388
10
23.6892612
20
37.3723282
11
23.5221018
21
37.3723282
0
LINE
8
DEFAULT_255_1_388
10
23.5103554
20
36.7488688
11
23.6784184
21
36.7488688
0
LINE
8
DEFAULT_255_1_388
10
23.903406
20
37.0045775
11
23.7778105
21
37.0045775
0
ARC
8
DEFAULT_255_1_388
10
23.9001286
20
37.5226922
40
0.3816905
50
270.491971
51
281.8953028
0
ARC
8
DEFAULT_255_1_388
10
23.9272713
20
37.3987199
40
0.2547877
50
281.6690378
51
301.2943765
0
ARC
8
DEFAULT_255_1_388
10
23.9464164
20
37.3636926
40
0.2149197
50
301.7834992
51
311.754567
0
ARC
8
DEFAULT_255_1_388
10
23.9567206
20
37.352265
40
0.1995326
50
311.7325027
51
354.2803031
0
ARC
8
DEFAULT_255_1_388
10
23.8749622
20
37.366328
40
0.2823461
50
353.0941646
51
0.1174696
0
ARC
8
DEFAULT_255_1_388
10
23.823118
20
37.3716874
40
0.3342238
50
359.1804452
51
15.0452323
0
ARC
8
DEFAULT_255_1_388
10
23.9745238
20
37.4158546
40
0.1765747
50
13.957816
51
77.6713812
0
ARC
8
DEFAULT_255_1_388
10
23.9310474
20
37.2600464
40
0.3381982
50
76.111571
51
90.7028736
0
ARC
8
DEFAULT_255_1_388
10
23.9243886
20
37.290825
40
0.3074046
50
89.5321574
51
103.5319393
0
ARC
8
DEFAULT_255_1_388
10
23.9018269
20
37.3807443
40
0.2147041
50
103.2930114
51
133.5619756
0
ARC
8
DEFAULT_255_1_388
10
23.8968211
20
37.3874351
40
0.2064084
50
133.8349761
51
173.5343225
0
ARC
8
DEFAULT_255_1_388
10
23.9781868
20
37.3730144
40
0.2889266
50
172.5097183
51
180.1360699
0
ARC
8
DEFAULT_255_1_388
10
23.8711632
20
37.376888
40
0.3490913
50
155.3483706
51
180.7484035
0
ARC
8
DEFAULT_255_1_388
10
23.8656608
20
37.3736519
40
0.3454798
50
131.5745177
51
154.4799474
0
ARC
8
DEFAULT_255_1_388
10
23.9008891
20
37.3380422
40
0.3955058
50
96.9874487
51
131.9690874
0
ARC
8
DEFAULT_255_1_388
10
23.9255783
20
37.1979407
40
0.537622
50
89.8592909
51
97.7827481
0
ARC
8
DEFAULT_255_1_388
10
23.9309892
20
37.168436
40
0.5671399
50
78.3654493
51
90.4132586
0
ARC
8
DEFAULT_255_1_388
10
23.9712533
20
37.3550918
40
0.3762034
50
56.6229818
51
78.6387103
0
ARC
8
DEFAULT_255_1_388
10
23.9954363
20
37.3973846
40
0.3275964
50
47.0254604
51
56.085558
0
ARC
8
DEFAULT_255_1_388
10
23.9976614
20
37.4018189
40
0.3228382
50
10.9207523
51
46.777927
0
ARC
8
DEFAULT_255_1_388
10
23.8442208
20
37.3663401
40
0.4802559
50
359.6364235
51
11.6087615
0
ARC
8
DEFAULT_255_1_388
10
24.0506373
20
37.3646404
40
0.273833
50
332.3549969
51
359.7179765
0
ARC
8
DEFAULT_255_1_388
10
23.9774774
20
37.3993285
40
0.3547505
50
325.2332381
51
332.8746682
0
ARC
8
DEFAULT_255_1_388
10
23.9946357
20
37.3873763
40
0.3338396
50
292.9803892
51
325.2391113
0
ARC
8
DEFAULT_255_1_388
10
23.9635553
20
37.4478679
40
0.4016959
50
292.542178
51
293.6931461
0
ARC
8
DEFAULT_255_1_388
10
24.0079125
20
36.7213036
40
0.372079
50
57.643292
51
72.8626085
0
ARC
8
DEFAULT_255_1_388
10
24.0477959
20
36.7859273
40
0.2961455
50
36.7246661
51
57.4701329
0
ARC
8
DEFAULT_255_1_388
10
24.0465116
20
36.787347
40
0.2963321
50
8.054535
51
36.3561529
0
ARC
8
DEFAULT_255_1_388
10
23.9494788
20
36.7699073
40
0.3948682
50
359.8316595
51
8.5873361
0
ARC
8
DEFAULT_255_1_388
10
23.9072263
20
36.764497
40
0.4371398
50
343.9831631
51
0.557075
0
ARC
8
DEFAULT_255_1_388
10
24.0069312
20
36.7371963
40
0.3337749
50
311.6358204
51
343.7652116
0
ARC
8
DEFAULT_255_1_388
10
23.9643566
20
36.7851955
40
0.3979351
50
279.7829743
51
311.625622
0
ARC
8
DEFAULT_255_1_388
10
23.9304701
20
36.9468642
40
0.5630417
50
269.7285092
51
280.3857694
0
ARC
8
DEFAULT_255_1_388
10
23.9235014
20
36.9422241
40
0.5584119
50
256.6827433
51
270.4412869
0
ARC
8
DEFAULT_255_1_388
10
23.8854001
20
36.7864698
40
0.3980715
50
229.4223821
51
256.8554507
0
ARC
8
DEFAULT_255_1_388
10
23.8387554
20
36.7339683
40
0.3278564
50
181.8183354
51
229.6455015
0
ARC
8
DEFAULT_255_1_388
10
23.9557163
20
36.7486825
40
0.4453611
50
179.9760419
51
183.2330638
0
ARC
8
DEFAULT_255_1_388
10
23.9363716
20
36.7463781
40
0.2579652
50
179.4467996
51
196.2871626
0
ARC
8
DEFAULT_255_1_388
10
23.8815169
20
36.7313709
40
0.2011057
50
196.5661293
51
227.7059371
0
ARC
8
DEFAULT_255_1_388
10
23.8999777
20
36.7520155
40
0.2287994
50
227.7653015
51
257.8763321
0
ARC
8
DEFAULT_255_1_388
10
23.925286
20
36.8580961
40
0.3378385
50
257.4583525
51
270.4267406
0
ARC
8
DEFAULT_255_1_388
10
23.9304109
20
36.890723
40
0.3704652
50
269.5965319
51
280.8788143
0
ARC
8
DEFAULT_255_1_388
10
23.9562337
20
36.7617529
40
0.2389415
50
280.6347277
51
299.8594068
0
ARC
8
DEFAULT_255_1_388
10
23.9777107
20
36.7209736
40
0.19289
50
300.3575552
51
314.5515667
0
ARC
8
DEFAULT_255_1_388
10
23.9683783
20
36.7278025
40
0.204312
50
315.0730962
51
345.0429362
0
ARC
8
DEFAULT_255_1_388
10
23.864529
20
36.7580539
40
0.31246
50
344.598526
51
357.9270698
0
ARC
8
DEFAULT_255_1_388
10
23.7635595
20
36.7649705
40
0.4136265
50
357.4755098
51
0.0224936
0
ARC
8
DEFAULT_255_1_388
10
23.8788473
20
36.7677099
40
0.2983498
50
359.5051035
51
13.4236939
0
ARC
8
DEFAULT_255_1_388
10
23.9763563
20
36.7926637
40
0.1977186
50
12.9497905
51
48.7550905
0
ARC
8
DEFAULT_255_1_388
10
23.9558484
20
36.7646373
40
0.2323321
50
49.509109
51
72.1832965
0
ARC
8
DEFAULT_255_1_388
10
23.9155953
20
36.6451632
40
0.358397
50
71.9008458
51
84.3555134
0
ARC
8
DEFAULT_255_1_388
10
23.8974347
20
36.4919712
40
0.512641
50
84.019632
51
89.3326067
0
LINE
8
DEFAULT_255_1_388
10
22.8706318
20
44.4758382
11
22.8706318
21
44.3394
0
LINE
8
DEFAULT_255_1_388
10
22.8706318
20
44.3394
11
22.0086313
21
44.3394
0
LINE
8
DEFAULT_255_1_388
10
22.0086313
20
44.3394
11
22.0086313
21
44.4595741
0
LINE
8
DEFAULT_255_1_388
10
22.0086313
20
44.4595741
11
22.4640278
21
44.9655702
0
LINE
8
DEFAULT_255_1_388
10
22.1504909
20
45.2673607
11
21.9833315
21
45.2673607
0
LINE
8
DEFAULT_255_1_388
10
22.5625163
20
44.858046
11
22.2101262
21
44.4758382
0
LINE
8
DEFAULT_255_1_388
10
22.2101262
20
44.4758382
11
22.8706318
21
44.4758382
0
ARC
8
DEFAULT_255_1_388
10
20.9464337
20
46.3075983
40
2.0258655
50
318.5132526
51
320.7829045
0
ARC
8
DEFAULT_255_1_388
10
21.5412294
20
45.8234929
40
1.2589638
50
320.7372878
51
323.9739031
0
ARC
8
DEFAULT_255_1_388
10
21.9821226
20
45.5040554
40
0.7145141
50
323.8962701
51
328.64194
0
ARC
8
DEFAULT_255_1_388
10
22.2123484
20
45.3620545
40
0.4440242
50
328.8294576
51
331.7891185
0
ARC
8
DEFAULT_255_1_388
10
22.3245804
20
45.3041374
40
0.3177517
50
331.4254512
51
352.9365785
0
ARC
8
DEFAULT_255_1_388
10
22.3398804
20
45.300705
40
0.3021496
50
353.2257659
51
0.0166158
0
ARC
8
DEFAULT_255_1_388
10
22.3635564
20
45.3032894
40
0.2784847
50
359.486299
51
15.9343185
0
ARC
8
DEFAULT_255_1_388
10
22.4205831
20
45.3186269
40
0.2194403
50
16.1712913
51
43.5286088
0
ARC
8
DEFAULT_255_1_388
10
22.4292776
20
45.3273191
40
0.2071504
50
43.4417391
51
83.1661095
0
ARC
8
DEFAULT_255_1_388
10
22.4141937
20
45.2444316
40
0.2912888
50
82.160179
51
90.1505708
0
ARC
8
DEFAULT_255_1_388
10
22.4106418
20
45.1840279
40
0.3517025
50
89.5460741
51
102.5418361
0
ARC
8
DEFAULT_255_1_388
10
22.3833138
20
45.2999933
40
0.2325748
50
102.1738499
51
129.206123
0
ARC
8
DEFAULT_255_1_388
10
22.3744592
20
45.3139664
40
0.2161591
50
129.72865
51
135.753947
0
ARC
8
DEFAULT_255_1_388
10
22.3881074
20
45.3030728
40
0.2335433
50
136.1757367
51
166.3673339
0
ARC
8
DEFAULT_255_1_388
10
22.5013762
20
45.2727148
40
0.3507873
50
165.9090694
51
178.8684636
0
ARC
8
DEFAULT_255_1_388
10
22.5989534
20
45.2674263
40
0.4484624
50
178.4391136
51
180.0083808
0
ARC
8
DEFAULT_255_1_388
10
22.4410235
20
45.2718197
40
0.4577138
50
163.2878482
51
180.5581842
0
ARC
8
DEFAULT_255_1_388
10
22.3508276
20
45.2966393
40
0.3641968
50
133.4540601
51
162.947111
0
ARC
8
DEFAULT_255_1_388
10
22.3709158
20
45.2752789
40
0.3935189
50
100.7869829
51
133.4382499
0
ARC
8
DEFAULT_255_1_388
10
22.4100403
20
45.1010399
40
0.5720313
50
89.660664
51
101.3702276
0
ARC
8
DEFAULT_255_1_388
10
22.4175012
20
45.1079263
40
0.5651495
50
78.2172678
51
90.412935
0
ARC
8
DEFAULT_255_1_388
10
22.4574478
20
45.2906511
40
0.378122
50
55.9269121
51
78.4888449
0
ARC
8
DEFAULT_255_1_388
10
22.4795193
20
45.3287187
40
0.3342379
50
47.929771
51
55.4049217
0
ARC
8
DEFAULT_255_1_388
10
22.4909723
20
45.3403618
40
0.3179217
50
4.334829
51
48.0560205
0
ARC
8
DEFAULT_255_1_388
10
22.3677525
20
45.3212487
40
0.442341
50
359.9251713
51
5.5971671
0
ARC
8
DEFAULT_255_1_388
10
22.415968
20
45.3275728
40
0.3941854
50
337.8914027
51
358.9967534
0
ARC
8
DEFAULT_255_1_388
10
22.110725
20
45.4453295
40
0.7213271
50
326.9132501
51
338.3508308
0
ARC
8
DEFAULT_255_1_388
10
21.6623362
20
45.7327105
40
1.2538973
50
319.6471833
51
327.0959558
0
ARC
8
DEFAULT_255_1_388
10
21.231002
20
46.088505
40
1.8129975
50
317.2588228
51
319.9045804
0
ARC
8
DEFAULT_255_1_388
10
23.1889138
20
44.4281142
40
0.1204062
50
163.5412609
51
180.5084512
0
ARC
8
DEFAULT_255_1_388
10
23.1673037
20
44.433946
40
0.0980307
50
138.1652
51
163.2315563
0
ARC
8
DEFAULT_255_1_388
10
23.1546778
20
44.4446456
40
0.0814881
50
105.6860499
51
137.8492655
0
ARC
8
DEFAULT_255_1_388
10
23.1679979
20
44.4014109
40
0.126719
50
92.6078949
51
106.199173
0
ARC
8
DEFAULT_255_1_388
10
23.1714169
20
44.3568207
40
0.1714243
50
89.9659531
51
93.0713334
0
ARC
8
DEFAULT_255_1_388
10
23.1726205
20
44.3818484
40
0.1464007
50
78.4379126
51
90.4311892
0
ARC
8
DEFAULT_255_1_388
10
23.1834852
20
44.4325017
40
0.094599
50
56.8961942
51
78.7357785
0
ARC
8
DEFAULT_255_1_388
10
23.1905963
20
44.4449075
40
0.0803272
50
42.6503148
51
56.3122241
0
ARC
8
DEFAULT_255_1_388
10
23.1761864
20
44.4316661
40
0.099897
50
3.8141057
51
42.636595
0
ARC
8
DEFAULT_255_1_388
10
23.1439186
20
44.4271616
40
0.1324137
50
359.9498843
51
4.8301897
0
ARC
8
DEFAULT_255_1_388
10
23.1694324
20
44.4259722
40
0.1069053
50
340.9378148
51
0.5753733
0
ARC
8
DEFAULT_255_1_388
10
23.1820906
20
44.4225569
40
0.0938301
50
316.0798885
51
340.3845117
0
ARC
8
DEFAULT_255_1_388
10
23.1886217
20
44.416552
40
0.0849605
50
285.8512844
51
315.941661
0
ARC
8
DEFAULT_255_1_388
10
23.1754097
20
44.459262
40
0.1296594
50
273.1293204
51
286.3125006
0
ARC
8
DEFAULT_255_1_388
10
23.1716607
20
44.5044586
40
0.1749979
50
269.9535313
51
273.5471598
0
ARC
8
DEFAULT_255_1_388
10
23.1704213
20
44.4798833
40
0.1504266
50
259.0487117
51
270.4180248
0
ARC
8
DEFAULT_255_1_388
10
23.1595825
20
44.4261783
40
0.0956414
50
239.7583641
51
259.3115656
0
ARC
8
DEFAULT_255_1_388
10
23.1504758
20
44.4092048
40
0.0763945
50
222.6243303
51
239.2473835
0
ARC
8
DEFAULT_255_1_388
10
23.1655929
20
44.4230572
40
0.0968985
50
182.9231258
51
222.598101
0
ARC
8
DEFAULT_255_1_388
10
23.1959129
20
44.4269696
40
0.1274004
50
179.9657458
51
183.9850364
0
LINE
8
DEFAULT_255_1_388
10
24.3967521
20
44.4758382
11
24.3967521
21
44.3394
0
LINE
8
DEFAULT_255_1_388
10
24.3967521
20
44.3394
11
23.5347517
21
44.3394
0
LINE
8
DEFAULT_255_1_388
10
23.5347517
20
44.3394
11
23.5347517
21
44.4595741
0
LINE
8
DEFAULT_255_1_388
10
23.5347517
20
44.4595741
11
23.9901481
21
44.9655702
0
LINE
8
DEFAULT_255_1_388
10
23.6766113
20
45.2673607
11
23.5094519
21
45.2673607
0
LINE
8
DEFAULT_255_1_388
10
24.0886367
20
44.858046
11
23.7362465
21
44.4758382
0
LINE
8
DEFAULT_255_1_388
10
23.7362465
20
44.4758382
11
24.3967521
21
44.4758382
0
ARC
8
DEFAULT_255_1_388
10
22.4725541
20
46.3075983
40
2.0258655
50
318.5132526
51
320.7829045
0
ARC
8
DEFAULT_255_1_388
10
23.0673498
20
45.8234929
40
1.2589638
50
320.7372878
51
323.9739031
0
ARC
8
DEFAULT_255_1_388
10
23.508243
20
45.5040554
40
0.7145141
50
323.8962701
51
328.64194
0
ARC
8
DEFAULT_255_1_388
10
23.7384687
20
45.3620545
40
0.4440242
50
328.8294576
51
331.7891185
0
ARC
8
DEFAULT_255_1_388
10
23.8507007
20
45.3041374
40
0.3177517
50
331.4254512
51
352.9365785
0
ARC
8
DEFAULT_255_1_388
10
23.8660007
20
45.300705
40
0.3021496
50
353.2257659
51
0.0166158
0
ARC
8
DEFAULT_255_1_388
10
23.8896768
20
45.3032894
40
0.2784847
50
359.486299
51
15.9343185
0
ARC
8
DEFAULT_255_1_388
10
23.9467035
20
45.3186269
40
0.2194403
50
16.1712913
51
43.5286088
0
ARC
8
DEFAULT_255_1_388
10
23.9553979
20
45.3273191
40
0.2071504
50
43.4417391
51
83.1661095
0
ARC
8
DEFAULT_255_1_388
10
23.940314
20
45.2444316
40
0.2912888
50
82.160179
51
90.1505708
0
ARC
8
DEFAULT_255_1_388
10
23.9367622
20
45.1840279
40
0.3517025
50
89.5460741
51
102.5418361
0
ARC
8
DEFAULT_255_1_388
10
23.9094342
20
45.2999933
40
0.2325748
50
102.1738499
51
129.206123
0
ARC
8
DEFAULT_255_1_388
10
23.9005795
20
45.3139664
40
0.2161591
50
129.72865
51
135.753947
0
ARC
8
DEFAULT_255_1_388
10
23.9142277
20
45.3030728
40
0.2335433
50
136.1757367
51
166.3673339
0
ARC
8
DEFAULT_255_1_388
10
24.0274966
20
45.2727148
40
0.3507873
50
165.9090694
51
178.8684636
0
ARC
8
DEFAULT_255_1_388
10
24.1250737
20
45.2674263
40
0.4484624
50
178.4391136
51
180.0083808
0
ARC
8
DEFAULT_255_1_388
10
23.9671439
20
45.2718197
40
0.4577138
50
163.2878482
51
180.5581842
0
ARC
8
DEFAULT_255_1_388
10
23.876948
20
45.2966393
40
0.3641968
50
133.4540601
51
162.947111
0
ARC
8
DEFAULT_255_1_388
10
23.8970362
20
45.2752789
40
0.3935189
50
100.7869829
51
133.4382499
0
ARC
8
DEFAULT_255_1_388
10
23.9361607
20
45.1010399
40
0.5720313
50
89.660664
51
101.3702276
0
ARC
8
DEFAULT_255_1_388
10
23.9436216
20
45.1079263
40
0.5651495
50
78.2172678
51
90.412935
0
ARC
8
DEFAULT_255_1_388
10
23.9835681
20
45.2906511
40
0.378122
50
55.9269121
51
78.4888449
0
ARC
8
DEFAULT_255_1_388
10
24.0056397
20
45.3287187
40
0.3342379
50
47.929771
51
55.4049217
0
ARC
8
DEFAULT_255_1_388
10
24.0170927
20
45.3403618
40
0.3179217
50
4.334829
51
48.0560205
0
ARC
8
DEFAULT_255_1_388
10
23.8938729
20
45.3212487
40
0.442341
50
359.9251713
51
5.5971671
0
ARC
8
DEFAULT_255_1_388
10
23.9420883
20
45.3275728
40
0.3941854
50
337.8914027
51
358.9967534
0
ARC
8
DEFAULT_255_1_388
10
23.6368453
20
45.4453295
40
0.7213271
50
326.9132501
51
338.3508308
0
ARC
8
DEFAULT_255_1_388
10
23.1884565
20
45.7327105
40
1.2538973
50
319.6471833
51
327.0959558
0
ARC
8
DEFAULT_255_1_388
10
22.7571223
20
46.088505
40
1.8129975
50
317.2588228
51
319.9045804
0
LINE
8
DEFAULT_255_1_388
10
22.8777318
20
52.4133382
11
22.8777318
21
52.2769
0
LINE
8
DEFAULT_255_1_388
10
22.8777318
20
52.2769
11
22.0157313
21
52.2769
0
LINE
8
DEFAULT_255_1_388
10
22.0157313
20
52.2769
11
22.0157313
21
52.3970741
0
LINE
8
DEFAULT_255_1_388
10
22.0157313
20
52.3970741
11
22.4711278
21
52.9030702
0
LINE
8
DEFAULT_255_1_388
10
22.1575909
20
53.2048607
11
21.9904315
21
53.2048607
0
LINE
8
DEFAULT_255_1_388
10
22.5696163
20
52.795546
11
22.2172262
21
52.4133382
0
LINE
8
DEFAULT_255_1_388
10
22.2172262
20
52.4133382
11
22.8777318
21
52.4133382
0
ARC
8
DEFAULT_255_1_388
10
20.9535337
20
54.2450983
40
2.0258655
50
318.5132526
51
320.7829045
0
ARC
8
DEFAULT_255_1_388
10
21.5483294
20
53.7609929
40
1.2589638
50
320.7372878
51
323.9739031
0
ARC
8
DEFAULT_255_1_388
10
21.9892226
20
53.4415554
40
0.7145141
50
323.8962701
51
328.64194
0
ARC
8
DEFAULT_255_1_388
10
22.2194484
20
53.2995545
40
0.4440242
50
328.8294576
51
331.7891185
0
ARC
8
DEFAULT_255_1_388
10
22.3316804
20
53.2416374
40
0.3177517
50
331.4254512
51
352.9365785
0
ARC
8
DEFAULT_255_1_388
10
22.3469804
20
53.238205
40
0.3021496
50
353.2257659
51
0.0166158
0
ARC
8
DEFAULT_255_1_388
10
22.3706564
20
53.2407894
40
0.2784847
50
359.486299
51
15.9343185
0
ARC
8
DEFAULT_255_1_388
10
22.4276831
20
53.2561269
40
0.2194403
50
16.1712913
51
43.5286088
0
ARC
8
DEFAULT_255_1_388
10
22.4363776
20
53.2648191
40
0.2071504
50
43.4417391
51
83.1661095
0
ARC
8
DEFAULT_255_1_388
10
22.4212937
20
53.1819316
40
0.2912888
50
82.160179
51
90.1505708
0
ARC
8
DEFAULT_255_1_388
10
22.4177418
20
53.1215279
40
0.3517025
50
89.5460741
51
102.5418361
0
ARC
8
DEFAULT_255_1_388
10
22.3904138
20
53.2374933
40
0.2325748
50
102.1738499
51
129.206123
0
ARC
8
DEFAULT_255_1_388
10
22.3815592
20
53.2514664
40
0.2161591
50
129.72865
51
135.753947
0
ARC
8
DEFAULT_255_1_388
10
22.3952074
20
53.2405728
40
0.2335433
50
136.1757367
51
166.3673339
0
ARC
8
DEFAULT_255_1_388
10
22.5084762
20
53.2102148
40
0.3507873
50
165.9090694
51
178.8684636
0
ARC
8
DEFAULT_255_1_388
10
22.6060534
20
53.2049263
40
0.4484624
50
178.4391136
51
180.0083808
0
ARC
8
DEFAULT_255_1_388
10
22.4481235
20
53.2093197
40
0.4577138
50
163.2878482
51
180.5581842
0
ARC
8
DEFAULT_255_1_388
10
22.3579276
20
53.2341393
40
0.3641968
50
133.4540601
51
162.947111
0
ARC
8
DEFAULT_255_1_388
10
22.3780158
20
53.2127789
40
0.3935189
50
100.7869829
51
133.4382499
0
ARC
8
DEFAULT_255_1_388
10
22.4171403
20
53.0385399
40
0.5720313
50
89.660664
51
101.3702276
0
ARC
8
DEFAULT_255_1_388
10
22.4246012
20
53.0454263
40
0.5651495
50
78.2172678
51
90.412935
0
ARC
8
DEFAULT_255_1_388
10
22.4645478
20
53.2281511
40
0.378122
50
55.9269121
51
78.4888449
0
ARC
8
DEFAULT_255_1_388
10
22.4866193
20
53.2662187
40
0.3342379
50
47.929771
51
55.4049217
0
ARC
8
DEFAULT_255_1_388
10
22.4980723
20
53.2778618
40
0.3179217
50
4.334829
51
48.0560205
0
ARC
8
DEFAULT_255_1_388
10
22.3748525
20
53.2587487
40
0.442341
50
359.9251713
51
5.5971671
0
ARC
8
DEFAULT_255_1_388
10
22.423068
20
53.2650728
40
0.3941854
50
337.8914027
51
358.9967534
0
ARC
8
DEFAULT_255_1_388
10
22.117825
20
53.3828295
40
0.7213271
50
326.9132501
51
338.3508308
0
ARC
8
DEFAULT_255_1_388
10
21.6694362
20
53.6702105
40
1.2538973
50
319.6471833
51
327.0959558
0
ARC
8
DEFAULT_255_1_388
10
21.238102
20
54.026005
40
1.8129975
50
317.2588228
51
319.9045804
0
ARC
8
DEFAULT_255_1_388
10
23.1960138
20
52.3656142
40
0.1204062
50
163.5412609
51
180.5084512
0
ARC
8
DEFAULT_255_1_388
10
23.1744037
20
52.371446
40
0.0980307
50
138.1652
51
163.2315563
0
ARC
8
DEFAULT_255_1_388
10
23.1617778
20
52.3821456
40
0.0814881
50
105.6860499
51
137.8492655
0
ARC
8
DEFAULT_255_1_388
10
23.1750979
20
52.3389109
40
0.126719
50
92.6078949
51
106.199173
0
ARC
8
DEFAULT_255_1_388
10
23.1785169
20
52.2943207
40
0.1714243
50
89.9659531
51
93.0713334
0
ARC
8
DEFAULT_255_1_388
10
23.1797205
20
52.3193484
40
0.1464007
50
78.4379126
51
90.4311892
0
ARC
8
DEFAULT_255_1_388
10
23.1905852
20
52.3700017
40
0.094599
50
56.8961942
51
78.7357785
0
ARC
8
DEFAULT_255_1_388
10
23.1976963
20
52.3824075
40
0.0803272
50
42.6503148
51
56.3122241
0
ARC
8
DEFAULT_255_1_388
10
23.1832864
20
52.3691661
40
0.099897
50
3.8141057
51
42.636595
0
ARC
8
DEFAULT_255_1_388
10
23.1510186
20
52.3646616
40
0.1324137
50
359.9498843
51
4.8301897
0
ARC
8
DEFAULT_255_1_388
10
23.1765324
20
52.3634722
40
0.1069053
50
340.9378148
51
0.5753733
0
ARC
8
DEFAULT_255_1_388
10
23.1891906
20
52.3600569
40
0.0938301
50
316.0798885
51
340.3845117
0
ARC
8
DEFAULT_255_1_388
10
23.1957217
20
52.354052
40
0.0849605
50
285.8512844
51
315.941661
0
ARC
8
DEFAULT_255_1_388
10
23.1825097
20
52.396762
40
0.1296594
50
273.1293204
51
286.3125006
0
ARC
8
DEFAULT_255_1_388
10
23.1787607
20
52.4419586
40
0.1749979
50
269.9535313
51
273.5471598
0
ARC
8
DEFAULT_255_1_388
10
23.1775213
20
52.4173833
40
0.1504266
50
259.0487117
51
270.4180248
0
ARC
8
DEFAULT_255_1_388
10
23.1666825
20
52.3636783
40
0.0956414
50
239.7583641
51
259.3115656
0
ARC
8
DEFAULT_255_1_388
10
23.1575758
20
52.3467048
40
0.0763945
50
222.6243303
51
239.2473835
0
ARC
8
DEFAULT_255_1_388
10
23.1726929
20
52.3605572
40
0.0968985
50
182.9231258
51
222.598101
0
ARC
8
DEFAULT_255_1_388
10
23.2030129
20
52.3644696
40
0.1274004
50
179.9657458
51
183.9850364
0
LINE
8
DEFAULT_255_1_388
10
24.0912188
20
53.5988148
11
24.0912188
21
52.2769
0
LINE
8
DEFAULT_255_1_388
10
24.0912188
20
52.2769
11
23.9231559
21
52.2769
0
LINE
8
DEFAULT_255_1_388
10
23.9231559
20
52.2769
11
23.9231559
21
53.390995
0
LINE
8
DEFAULT_255_1_388
10
23.9231559
20
53.390995
11
23.5861263
21
53.2672066
0
LINE
8
DEFAULT_255_1_388
10
23.5861263
20
53.2672066
11
23.5861263
21
53.4190055
0
LINE
8
DEFAULT_255_1_388
10
23.5861263
20
53.4190055
11
24.0650155
21
53.5988148
0
LINE
8
DEFAULT_255_1_388
10
24.0650155
20
53.5988148
11
24.0912188
21
53.5988148
0
LINE
8
DEFAULT_255_1_388
10
22.8706318
20
60.3508382
11
22.8706318
21
60.2144
0
LINE
8
DEFAULT_255_1_388
10
22.8706318
20
60.2144
11
22.0086313
21
60.2144
0
LINE
8
DEFAULT_255_1_388
10
22.0086313
20
60.2144
11
22.0086313
21
60.3345741
0
LINE
8
DEFAULT_255_1_388
10
22.0086313
20
60.3345741
11
22.4640278
21
60.8405702
0
LINE
8
DEFAULT_255_1_388
10
22.1504909
20
61.1423607
11
21.9833315
21
61.1423607
0
LINE
8
DEFAULT_255_1_388
10
22.5625163
20
60.733046
11
22.2101262
21
60.3508382
0
LINE
8
DEFAULT_255_1_388
10
22.2101262
20
60.3508382
11
22.8706318
21
60.3508382
0
ARC
8
DEFAULT_255_1_388
10
20.9464337
20
62.1825983
40
2.0258655
50
318.5132526
51
320.7829045
0
ARC
8
DEFAULT_255_1_388
10
21.5412294
20
61.6984929
40
1.2589638
50
320.7372878
51
323.9739031
0
ARC
8
DEFAULT_255_1_388
10
21.9821226
20
61.3790554
40
0.7145141
50
323.8962701
51
328.64194
0
ARC
8
DEFAULT_255_1_388
10
22.2123484
20
61.2370545
40
0.4440242
50
328.8294576
51
331.7891185
0
ARC
8
DEFAULT_255_1_388
10
22.3245804
20
61.1791374
40
0.3177517
50
331.4254512
51
352.9365785
0
ARC
8
DEFAULT_255_1_388
10
22.3398804
20
61.175705
40
0.3021496
50
353.2257659
51
0.0166158
0
ARC
8
DEFAULT_255_1_388
10
22.3635564
20
61.1782894
40
0.2784847
50
359.486299
51
15.9343185
0
ARC
8
DEFAULT_255_1_388
10
22.4205831
20
61.1936269
40
0.2194403
50
16.1712913
51
43.5286088
0
ARC
8
DEFAULT_255_1_388
10
22.4292776
20
61.2023191
40
0.2071504
50
43.4417391
51
83.1661095
0
ARC
8
DEFAULT_255_1_388
10
22.4141937
20
61.1194316
40
0.2912888
50
82.160179
51
90.1505708
0
ARC
8
DEFAULT_255_1_388
10
22.4106418
20
61.0590279
40
0.3517025
50
89.5460741
51
102.5418361
0
ARC
8
DEFAULT_255_1_388
10
22.3833138
20
61.1749933
40
0.2325748
50
102.1738499
51
129.206123
0
ARC
8
DEFAULT_255_1_388
10
22.3744592
20
61.1889664
40
0.2161591
50
129.72865
51
135.753947
0
ARC
8
DEFAULT_255_1_388
10
22.3881074
20
61.1780728
40
0.2335433
50
136.1757367
51
166.3673339
0
ARC
8
DEFAULT_255_1_388
10
22.5013762
20
61.1477148
40
0.3507873
50
165.9090694
51
178.8684636
0
ARC
8
DEFAULT_255_1_388
10
22.5989534
20
61.1424263
40
0.4484624
50
178.4391136
51
180.0083808
0
ARC
8
DEFAULT_255_1_388
10
22.4410235
20
61.1468197
40
0.4577138
50
163.2878482
51
180.5581842
0
ARC
8
DEFAULT_255_1_388
10
22.3508276
20
61.1716393
40
0.3641968
50
133.4540601
51
162.947111
0
ARC
8
DEFAULT_255_1_388
10
22.3709158
20
61.1502789
40
0.3935189
50
100.7869829
51
133.4382499
0
ARC
8
DEFAULT_255_1_388
10
22.4100403
20
60.9760399
40
0.5720313
50
89.660664
51
101.3702276
0
ARC
8
DEFAULT_255_1_388
10
22.4175012
20
60.9829263
40
0.5651495
50
78.2172678
51
90.412935
0
ARC
8
DEFAULT_255_1_388
10
22.4574478
20
61.1656511
40
0.378122
50
55.9269121
51
78.4888449
0
ARC
8
DEFAULT_255_1_388
10
22.4795193
20
61.2037187
40
0.3342379
50
47.929771
51
55.4049217
0
ARC
8
DEFAULT_255_1_388
10
22.4909723
20
61.2153618
40
0.3179217
50
4.334829
51
48.0560205
0
ARC
8
DEFAULT_255_1_388
10
22.3677525
20
61.1962487
40
0.442341
50
359.9251713
51
5.5971671
0
ARC
8
DEFAULT_255_1_388
10
22.415968
20
61.2025728
40
0.3941854
50
337.8914027
51
358.9967534
0
ARC
8
DEFAULT_255_1_388
10
22.110725
20
61.3203295
40
0.7213271
50
326.9132501
51
338.3508308
0
ARC
8
DEFAULT_255_1_388
10
21.6623362
20
61.6077105
40
1.2538973
50
319.6471833
51
327.0959558
0
ARC
8
DEFAULT_255_1_388
10
21.231002
20
61.963505
40
1.8129975
50
317.2588228
51
319.9045804
0
ARC
8
DEFAULT_255_1_388
10
23.1889138
20
60.3031142
40
0.1204062
50
163.5412609
51
180.5084512
0
ARC
8
DEFAULT_255_1_388
10
23.1673037
20
60.308946
40
0.0980307
50
138.1652
51
163.2315563
0
ARC
8
DEFAULT_255_1_388
10
23.1546778
20
60.3196456
40
0.0814881
50
105.6860499
51
137.8492655
0
ARC
8
DEFAULT_255_1_388
10
23.1679979
20
60.2764109
40
0.126719
50
92.6078949
51
106.199173
0
ARC
8
DEFAULT_255_1_388
10
23.1714169
20
60.2318207
40
0.1714243
50
89.9659531
51
93.0713334
0
ARC
8
DEFAULT_255_1_388
10
23.1726205
20
60.2568484
40
0.1464007
50
78.4379126
51
90.4311892
0
ARC
8
DEFAULT_255_1_388
10
23.1834852
20
60.3075017
40
0.094599
50
56.8961942
51
78.7357785
0
ARC
8
DEFAULT_255_1_388
10
23.1905963
20
60.3199075
40
0.0803272
50
42.6503148
51
56.3122241
0
ARC
8
DEFAULT_255_1_388
10
23.1761864
20
60.3066661
40
0.099897
50
3.8141057
51
42.636595
0
ARC
8
DEFAULT_255_1_388
10
23.1439186
20
60.3021616
40
0.1324137
50
359.9498843
51
4.8301897
0
ARC
8
DEFAULT_255_1_388
10
23.1694324
20
60.3009722
40
0.1069053
50
340.9378148
51
0.5753733
0
ARC
8
DEFAULT_255_1_388
10
23.1820906
20
60.2975569
40
0.0938301
50
316.0798885
51
340.3845117
0
ARC
8
DEFAULT_255_1_388
10
23.1886217
20
60.291552
40
0.0849605
50
285.8512844
51
315.941661
0
ARC
8
DEFAULT_255_1_388
10
23.1754097
20
60.334262
40
0.1296594
50
273.1293204
51
286.3125006
0
ARC
8
DEFAULT_255_1_388
10
23.1716607
20
60.3794586
40
0.1749979
50
269.9535313
51
273.5471598
0
ARC
8
DEFAULT_255_1_388
10
23.1704213
20
60.3548833
40
0.1504266
50
259.0487117
51
270.4180248
0
ARC
8
DEFAULT_255_1_388
10
23.1595825
20
60.3011783
40
0.0956414
50
239.7583641
51
259.3115656
0
ARC
8
DEFAULT_255_1_388
10
23.1504758
20
60.2842048
40
0.0763945
50
222.6243303
51
239.2473835
0
ARC
8
DEFAULT_255_1_388
10
23.1655929
20
60.2980572
40
0.0968985
50
182.9231258
51
222.598101
0
ARC
8
DEFAULT_255_1_388
10
23.1959129
20
60.3019696
40
0.1274004
50
179.9657458
51
183.9850364
0
LINE
8
DEFAULT_255_1_388
10
24.359706
20
60.992369
11
24.359706
21
60.7755135
0
LINE
8
DEFAULT_255_1_388
10
23.5293303
20
60.7529244
11
23.5293303
21
60.9761048
0
LINE
8
DEFAULT_255_1_388
10
24.1925466
20
60.7303353
11
24.1925466
21
61.0041153
0
LINE
8
DEFAULT_255_1_388
10
23.6964897
20
61.0167652
11
23.6964897
21
60.7493102
0
ARC
8
DEFAULT_255_1_388
10
22.9819394
20
60.7700118
40
1.3777776
50
353.8440855
51
0.2287917
0
ARC
8
DEFAULT_255_1_388
10
23.5038411
20
60.7117414
40
0.852639
50
344.4934746
51
353.9763743
0
ARC
8
DEFAULT_255_1_388
10
23.8405219
20
60.6160191
40
0.5026273
50
329.2803599
51
344.7473406
0
ARC
8
DEFAULT_255_1_388
10
23.9520714
20
60.5548038
40
0.3754848
50
324.9361395
51
328.6153007
0
ARC
8
DEFAULT_255_1_388
10
23.9946364
20
60.5250586
40
0.3235566
50
280.5801797
51
324.9173226
0
ARC
8
DEFAULT_255_1_388
10
23.9494993
20
60.7130236
40
0.5167077
50
269.5979457
51
281.6732777
0
ARC
8
DEFAULT_255_1_388
10
23.9413896
20
60.6995113
40
0.5032026
50
256.6228565
51
270.5105488
0
ARC
8
DEFAULT_255_1_388
10
23.8961639
20
60.5253345
40
0.3233092
50
215.8618351
51
257.2787793
0
ARC
8
DEFAULT_255_1_388
10
24.0110346
20
60.6024106
40
0.4615831
50
197.9695203
51
215.2622745
0
ARC
8
DEFAULT_255_1_388
10
24.2906022
20
60.6967641
40
0.7566307
50
187.8816486
51
198.2346584
0
ARC
8
DEFAULT_255_1_388
10
24.735926
20
60.7610453
40
1.2065653
50
180.8977266
51
188.0054894
0
ARC
8
DEFAULT_255_1_388
10
25.0409474
20
60.77254
40
1.5117443
50
180.7434591
51
181.152202
0
ARC
8
DEFAULT_255_1_388
10
24.873447
20
60.9815371
40
1.3441277
50
173.7674302
51
180.2315596
0
ARC
8
DEFAULT_255_1_388
10
24.3652338
20
61.0389779
40
0.8326847
50
164.3058537
51
173.9000553
0
ARC
8
DEFAULT_255_1_388
10
24.0376339
20
61.1333652
40
0.4917711
50
148.7922028
51
164.5682288
0
ARC
8
DEFAULT_255_1_388
10
23.9307076
20
61.1930457
40
0.3694204
50
144.5883979
51
148.1161588
0
ARC
8
DEFAULT_255_1_388
10
23.8919821
20
61.2200667
40
0.322202
50
101.6440149
51
144.5142619
0
ARC
8
DEFAULT_255_1_388
10
23.9398013
20
61.0300337
40
0.5180451
50
89.528284
51
102.5820197
0
ARC
8
DEFAULT_255_1_388
10
23.9487005
20
61.0256376
40
0.5224441
50
77.0437914
51
90.508231
0
ARC
8
DEFAULT_255_1_388
10
23.9939259
20
61.2104272
40
0.3322297
50
48.2777708
51
77.4996087
0
ARC
8
DEFAULT_255_1_388
10
24.0020999
20
61.2249557
40
0.315966
50
36.3141586
51
47.6307332
0
ARC
8
DEFAULT_255_1_388
10
23.9043721
20
61.1591159
40
0.4337313
50
18.2931065
51
35.6770203
0
ARC
8
DEFAULT_255_1_388
10
23.6182562
20
61.0609107
40
0.7362203
50
8.0246996
51
18.5605636
0
ARC
8
DEFAULT_255_1_388
10
23.1498918
20
60.9917432
40
1.2096583
50
1.127539
51
8.1718423
0
ARC
8
DEFAULT_255_1_388
10
22.7850051
20
60.9774374
40
1.5747719
50
0.5432713
51
1.38669
0
ARC
8
DEFAULT_255_1_388
10
22.990743
20
61.0081163
40
1.2018103
50
359.8092569
51
4.9408001
0
ARC
8
DEFAULT_255_1_388
10
23.4644011
20
61.05039
40
0.7262727
50
4.8364937
51
12.2906017
0
ARC
8
DEFAULT_255_1_388
10
23.7743476
20
61.1194485
40
0.4087324
50
12.0806994
51
23.8171225
0
ARC
8
DEFAULT_255_1_388
10
23.9063872
20
61.1753508
40
0.2653719
50
24.2874621
51
31.3934353
0
ARC
8
DEFAULT_255_1_388
10
23.9654308
20
61.2139822
40
0.1948607
50
30.7407708
51
82.4658033
0
ARC
8
DEFAULT_255_1_388
10
23.9451968
20
61.1146017
40
0.2961198
50
81.1057101
51
90.2187368
0
ARC
8
DEFAULT_255_1_388
10
23.941178
20
61.1436421
40
0.2670929
50
89.380395
51
105.6763916
0
ARC
8
DEFAULT_255_1_388
10
23.9205502
20
61.218632
40
0.1893189
50
105.7980655
51
149.7387869
0
ARC
8
DEFAULT_255_1_388
10
24.0402642
20
61.1466719
40
0.3289892
50
149.4208441
51
163.628295
0
ARC
8
DEFAULT_255_1_388
10
24.2754872
20
61.0749345
40
0.5749004
50
163.3764549
51
172.141138
0
ARC
8
DEFAULT_255_1_388
10
24.6467593
20
61.0217582
40
0.9499585
50
172.0258462
51
178.0705453
0
ARC
8
DEFAULT_255_1_388
10
24.9889146
20
61.0055682
40
1.2924734
50
177.8639301
51
179.5036263
0
ARC
8
DEFAULT_255_1_388
10
24.8670165
20
60.7452151
40
1.170534
50
179.7995545
51
185.246089
0
ARC
8
DEFAULT_255_1_388
10
24.4121758
20
60.7021404
40
0.7136613
50
185.1411911
51
193.0082205
0
ARC
8
DEFAULT_255_1_388
10
24.1148019
20
60.6318441
40
0.4080987
50
192.7897338
51
205.2507384
0
ARC
8
DEFAULT_255_1_388
10
23.9970229
20
60.5792538
40
0.2791522
50
205.8001921
51
211.2545876
0
ARC
8
DEFAULT_255_1_388
10
23.9381768
20
60.5398132
40
0.2084074
50
210.3789935
51
238.4007996
0
ARC
8
DEFAULT_255_1_388
10
23.9359854
20
60.5450786
40
0.2117943
50
239.6521916
51
265.9793852
0
ARC
8
DEFAULT_255_1_388
10
23.9455703
20
60.6207358
40
0.2879689
50
265.1324455
51
270.0603288
0
ARC
8
DEFAULT_255_1_388
10
23.948808
20
60.5842418
40
0.2514919
50
269.3314378
51
287.2180039
0
ARC
8
DEFAULT_255_1_388
10
23.9643162
20
60.5276291
40
0.1928357
50
287.7957942
51
329.0808983
0
ARC
8
DEFAULT_255_1_388
10
23.8565919
20
60.5948651
40
0.319808
50
328.6635261
51
343.3325043
0
ARC
8
DEFAULT_255_1_388
10
23.6121378
20
60.6710195
40
0.5758408
50
343.0498092
51
351.9392499
0
ARC
8
DEFAULT_255_1_388
10
23.2220699
20
60.7285205
40
0.9701202
50
351.8071632
51
357.7957897
0
ARC
8
DEFAULT_255_1_388
10
22.8586176
20
60.7473724
40
1.3340376
50
357.5870923
51
359.2682493
0
LINE
8
DEFAULT_255_1_388
10
22.5579985
20
69.4738148
11
22.5579985
21
68.1519
0
LINE
8
DEFAULT_255_1_388
10
22.5579985
20
68.1519
11
22.3899355
21
68.1519
0
LINE
8
DEFAULT_255_1_388
10
22.3899355
20
68.1519
11
22.3899355
21
69.265995
0
LINE
8
DEFAULT_255_1_388
10
22.3899355
20
69.265995
11
22.052906
21
69.1422066
0
LINE
8
DEFAULT_255_1_388
10
22.052906
20
69.1422066
11
22.052906
21
69.2940055
0
LINE
8
DEFAULT_255_1_388
10
22.052906
20
69.2940055
11
22.5317951
21
69.4738148
0
LINE
8
DEFAULT_255_1_388
10
22.5317951
20
69.4738148
11
22.5579985
21
69.4738148
0
ARC
8
DEFAULT_255_1_388
10
23.1889138
20
68.2406142
40
0.1204062
50
163.5412609
51
180.5084512
0
ARC
8
DEFAULT_255_1_388
10
23.1673037
20
68.246446
40
0.0980307
50
138.1652
51
163.2315563
0
ARC
8
DEFAULT_255_1_388
10
23.1546778
20
68.2571456
40
0.0814881
50
105.6860499
51
137.8492655
0
ARC
8
DEFAULT_255_1_388
10
23.1679979
20
68.2139109
40
0.126719
50
92.6078949
51
106.199173
0
ARC
8
DEFAULT_255_1_388
10
23.1714169
20
68.1693207
40
0.1714243
50
89.9659531
51
93.0713334
0
ARC
8
DEFAULT_255_1_388
10
23.1726205
20
68.1943484
40
0.1464007
50
78.4379126
51
90.4311892
0
ARC
8
DEFAULT_255_1_388
10
23.1834852
20
68.2450017
40
0.094599
50
56.8961942
51
78.7357785
0
ARC
8
DEFAULT_255_1_388
10
23.1905963
20
68.2574075
40
0.0803272
50
42.6503148
51
56.3122241
0
ARC
8
DEFAULT_255_1_388
10
23.1761864
20
68.2441661
40
0.099897
50
3.8141057
51
42.636595
0
ARC
8
DEFAULT_255_1_388
10
23.1439186
20
68.2396616
40
0.1324137
50
359.9498843
51
4.8301897
0
ARC
8
DEFAULT_255_1_388
10
23.1694324
20
68.2384722
40
0.1069053
50
340.9378148
51
0.5753733
0
ARC
8
DEFAULT_255_1_388
10
23.1820906
20
68.2350569
40
0.0938301
50
316.0798885
51
340.3845117
0
ARC
8
DEFAULT_255_1_388
10
23.1886217
20
68.229052
40
0.0849605
50
285.8512844
51
315.941661
0
ARC
8
DEFAULT_255_1_388
10
23.1754097
20
68.271762
40
0.1296594
50
273.1293204
51
286.3125006
0
ARC
8
DEFAULT_255_1_388
10
23.1716607
20
68.3169586
40
0.1749979
50
269.9535313
51
273.5471598
0
ARC
8
DEFAULT_255_1_388
10
23.1704213
20
68.2923833
40
0.1504266
50
259.0487117
51
270.4180248
0
ARC
8
DEFAULT_255_1_388
10
23.1595825
20
68.2386783
40
0.0956414
50
239.7583641
51
259.3115656
0
ARC
8
DEFAULT_255_1_388
10
23.1504758
20
68.2217048
40
0.0763945
50
222.6243303
51
239.2473835
0
ARC
8
DEFAULT_255_1_388
10
23.1655929
20
68.2355572
40
0.0968985
50
182.9231258
51
222.598101
0
ARC
8
DEFAULT_255_1_388
10
23.1959129
20
68.2394696
40
0.1274004
50
179.9657458
51
183.9850364
0
LINE
8
DEFAULT_255_1_388
10
24.3841022
20
69.4674898
11
24.3841022
21
69.3735191
0
LINE
8
DEFAULT_255_1_388
10
24.3841022
20
69.3735191
11
23.8392529
21
68.1519
0
LINE
8
DEFAULT_255_1_388
10
23.8392529
20
68.1519
11
23.6639614
21
68.1519
0
LINE
8
DEFAULT_255_1_388
10
23.6639614
20
68.1519
11
24.2070036
21
69.330148
0
LINE
8
DEFAULT_255_1_388
10
24.2070036
20
69.330148
11
23.4949948
21
69.330148
0
LINE
8
DEFAULT_255_1_388
10
23.4949948
20
69.330148
11
23.4949948
21
69.4674898
0
LINE
8
DEFAULT_255_1_388
10
23.4949948
20
69.4674898
11
24.3841022
21
69.4674898
0
LINE
8
DEFAULT_255_1_388
10
22.5579985
20
77.4113148
11
22.5579985
21
76.0894
0
LINE
8
DEFAULT_255_1_388
10
22.5579985
20
76.0894
11
22.3899355
21
76.0894
0
LINE
8
DEFAULT_255_1_388
10
22.3899355
20
76.0894
11
22.3899355
21
77.203495
0
LINE
8
DEFAULT_255_1_388
10
22.3899355
20
77.203495
11
22.052906
21
77.0797066
0
LINE
8
DEFAULT_255_1_388
10
22.052906
20
77.0797066
11
22.052906
21
77.2315055
0
LINE
8
DEFAULT_255_1_388
10
22.052906
20
77.2315055
11
22.5317951
21
77.4113148
0
LINE
8
DEFAULT_255_1_388
10
22.5317951
20
77.4113148
11
22.5579985
21
77.4113148
0
ARC
8
DEFAULT_255_1_388
10
23.1889138
20
76.1781142
40
0.1204062
50
163.5412609
51
180.5084512
0
ARC
8
DEFAULT_255_1_388
10
23.1673037
20
76.183946
40
0.0980307
50
138.1652
51
163.2315563
0
ARC
8
DEFAULT_255_1_388
10
23.1546778
20
76.1946456
40
0.0814881
50
105.6860499
51
137.8492655
0
ARC
8
DEFAULT_255_1_388
10
23.1679979
20
76.1514109
40
0.126719
50
92.6078949
51
106.199173
0
ARC
8
DEFAULT_255_1_388
10
23.1714169
20
76.1068207
40
0.1714243
50
89.9659531
51
93.0713334
0
ARC
8
DEFAULT_255_1_388
10
23.1726205
20
76.1318484
40
0.1464007
50
78.4379126
51
90.4311892
0
ARC
8
DEFAULT_255_1_388
10
23.1834852
20
76.1825017
40
0.094599
50
56.8961942
51
78.7357785
0
ARC
8
DEFAULT_255_1_388
10
23.1905963
20
76.1949075
40
0.0803272
50
42.6503148
51
56.3122241
0
ARC
8
DEFAULT_255_1_388
10
23.1761864
20
76.1816661
40
0.099897
50
3.8141057
51
42.636595
0
ARC
8
DEFAULT_255_1_388
10
23.1439186
20
76.1771616
40
0.1324137
50
359.9498843
51
4.8301897
0
ARC
8
DEFAULT_255_1_388
10
23.1694324
20
76.1759722
40
0.1069053
50
340.9378148
51
0.5753733
0
ARC
8
DEFAULT_255_1_388
10
23.1820906
20
76.1725569
40
0.0938301
50
316.0798885
51
340.3845117
0
ARC
8
DEFAULT_255_1_388
10
23.1886217
20
76.166552
40
0.0849605
50
285.8512844
51
315.941661
0
ARC
8
DEFAULT_255_1_388
10
23.1754097
20
76.209262
40
0.1296594
50
273.1293204
51
286.3125006
0
ARC
8
DEFAULT_255_1_388
10
23.1716607
20
76.2544586
40
0.1749979
50
269.9535313
51
273.5471598
0
ARC
8
DEFAULT_255_1_388
10
23.1704213
20
76.2298833
40
0.1504266
50
259.0487117
51
270.4180248
0
ARC
8
DEFAULT_255_1_388
10
23.1595825
20
76.1761783
40
0.0956414
50
239.7583641
51
259.3115656
0
ARC
8
DEFAULT_255_1_388
10
23.1504758
20
76.1592048
40
0.0763945
50
222.6243303
51
239.2473835
0
ARC
8
DEFAULT_255_1_388
10
23.1655929
20
76.1730572
40
0.0968985
50
182.9231258
51
222.598101
0
ARC
8
DEFAULT_255_1_388
10
23.1959129
20
76.1769696
40
0.1274004
50
179.9657458
51
183.9850364
0
LINE
8
DEFAULT_255_1_388
10
24.1609218
20
77.4058934
11
24.1907395
21
77.4058934
0
LINE
8
DEFAULT_255_1_388
10
24.1907395
20
77.4058934
11
24.1907395
21
77.2640338
0
LINE
8
DEFAULT_255_1_388
10
24.1907395
20
77.2640338
11
24.1600183
21
77.2640338
0
LINE
8
DEFAULT_255_1_388
10
23.5446909
20
76.5899747
11
23.5446909
21
76.6541278
0
LINE
8
DEFAULT_255_1_388
10
23.7127539
20
76.6324422
11
23.7127539
21
76.5709999
0
ARC
8
DEFAULT_255_1_388
10
24.1659074
20
76.7017826
40
0.562282
50
90.6001079
51
104.5146616
0
ARC
8
DEFAULT_255_1_388
10
24.1222034
20
76.86431
40
0.3939917
50
104.2855758
51
133.8630124
0
ARC
8
DEFAULT_255_1_388
10
24.1406286
20
76.8521243
40
0.4155734
50
134.5304124
51
161.6210222
0
ARC
8
DEFAULT_255_1_388
10
24.3266219
20
76.7865421
40
0.6127682
50
161.2850533
51
174.2074364
0
ARC
8
DEFAULT_255_1_388
10
24.4855785
20
76.7646437
40
0.7731446
50
173.7817938
51
174.9251711
0
ARC
8
DEFAULT_255_1_388
10
23.9729979
20
76.609127
40
0.3412588
50
95.8332067
51
138.995412
0
ARC
8
DEFAULT_255_1_388
10
23.9981259
20
76.4652695
40
0.4870358
50
89.8755506
51
97.0540979
0
ARC
8
DEFAULT_255_1_388
10
24.0034648
20
76.5592841
40
0.3930432
50
71.6407016
51
90.6240821
0
ARC
8
DEFAULT_255_1_388
10
24.0204042
20
76.6216433
40
0.3285421
50
39.6368051
51
71.0190743
0
ARC
8
DEFAULT_255_1_388
10
23.9487949
20
76.5597586
40
0.4231706
50
10.6588054
51
39.9044509
0
ARC
8
DEFAULT_255_1_388
10
23.7746495
20
76.5219223
40
0.60133
50
359.6827842
51
11.1326896
0
ARC
8
DEFAULT_255_1_388
10
23.7701831
20
76.5139715
40
0.6058047
50
347.2485908
51
0.4371098
0
ARC
8
DEFAULT_255_1_388
10
23.9577616
20
76.4688379
40
0.4128987
50
318.1408565
51
347.6118497
0
ARC
8
DEFAULT_255_1_388
10
23.9943213
20
76.4387903
40
0.3656244
50
275.6342406
51
317.824739
0
ARC
8
DEFAULT_255_1_388
10
23.9694734
20
76.5849827
40
0.513655
50
269.8872513
51
276.7916069
0
ARC
8
DEFAULT_255_1_388
10
23.9632927
20
76.4696181
40
0.398323
50
246.9139443
51
270.7436787
0
ARC
8
DEFAULT_255_1_388
10
23.9640122
20
76.4536044
40
0.3839368
50
218.1665534
51
245.8780431
0
ARC
8
DEFAULT_255_1_388
10
24.0629495
20
76.5363903
40
0.5128958
50
191.4115343
51
218.6077624
0
ARC
8
DEFAULT_255_1_388
10
24.2809811
20
76.5852777
40
0.7363054
50
179.6344971
51
191.7836758
0
ARC
8
DEFAULT_255_1_388
10
24.9089685
20
76.6616495
40
1.3642984
50
171.4523743
51
180.3158856
0
ARC
8
DEFAULT_255_1_388
10
24.4145412
20
76.7385895
40
0.8639311
50
157.9802296
51
171.6246761
0
ARC
8
DEFAULT_255_1_388
10
24.1654763
20
76.8379038
40
0.5958004
50
141.4299236
51
157.8541251
0
ARC
8
DEFAULT_255_1_388
10
24.0932846
20
76.8889746
40
0.5075416
50
102.871586
51
140.8564533
0
ARC
8
DEFAULT_255_1_388
10
24.1661399
20
76.6144943
40
0.7914163
50
90.377773
51
103.5868422
0
ARC
8
DEFAULT_255_1_388
10
23.970592
20
76.5464543
40
0.2667015
50
89.8751238
51
126.2072139
0
ARC
8
DEFAULT_255_1_388
10
23.9757391
20
76.5290847
40
0.2838229
50
124.9742447
51
144.8960197
0
ARC
8
DEFAULT_255_1_388
10
23.9559636
20
76.5451981
40
0.2583845
50
145.2974778
51
160.2660922
0
ARC
8
DEFAULT_255_1_388
10
24.3016125
20
76.5674151
40
0.5888695
50
179.6512124
51
190.285571
0
ARC
8
DEFAULT_255_1_388
10
24.1110604
20
76.5314968
40
0.3949683
50
190.0944895
51
207.5099647
0
ARC
8
DEFAULT_255_1_388
10
24.0474186
20
76.5012177
40
0.3245464
50
207.9585471
51
216.325377
0
ARC
8
DEFAULT_255_1_388
10
24.0091823
20
76.4697712
40
0.2751259
50
215.7661336
51
232.5457193
0
ARC
8
DEFAULT_255_1_388
10
23.9660939
20
76.4150273
40
0.2054668
50
232.8005815
51
270.6605497
0
ARC
8
DEFAULT_255_1_388
10
23.9712363
20
76.4559853
40
0.2464268
50
269.3550767
51
288.474612
0
ARC
8
DEFAULT_255_1_388
10
23.981687
20
76.4166721
40
0.2058436
50
289.1831976
51
322.9685307
0
ARC
8
DEFAULT_255_1_388
10
23.9128972
20
76.4709279
40
0.2934408
50
322.6007085
51
346.5183319
0
ARC
8
DEFAULT_255_1_388
10
23.7826728
20
76.5041434
40
0.4278249
50
346.2584622
51
358.7739592
0
ARC
8
DEFAULT_255_1_388
10
23.6675303
20
76.5103829
40
0.5430876
50
358.3757628
51
0.0082477
0
ARC
8
DEFAULT_255_1_388
10
23.7532122
20
76.5134856
40
0.4574157
50
359.6211417
51
11.28403
0
ARC
8
DEFAULT_255_1_388
10
23.8968728
20
76.5434535
40
0.3106708
50
11.0483152
51
31.8145585
0
ARC
8
DEFAULT_255_1_388
10
23.9316433
20
76.5623045
40
0.2711963
50
32.3028554
51
38.0820598
0
ARC
8
DEFAULT_255_1_388
10
23.9789666
20
76.6051717
40
0.2075566
50
36.8249851
51
85.741667
0
ARC
8
DEFAULT_255_1_388
10
23.9714079
20
76.5488065
40
0.2643487
50
85.0150021
51
90.050843
0
LINE
8
DEFAULT_255_1_388
10
22.5579985
20
85.3488148
11
22.5579985
21
84.0269
0
LINE
8
DEFAULT_255_1_388
10
22.5579985
20
84.0269
11
22.3899355
21
84.0269
0
LINE
8
DEFAULT_255_1_388
10
22.3899355
20
84.0269
11
22.3899355
21
85.140995
0
LINE
8
DEFAULT_255_1_388
10
22.3899355
20
85.140995
11
22.052906
21
85.0172066
0
LINE
8
DEFAULT_255_1_388
10
22.052906
20
85.0172066
11
22.052906
21
85.1690055
0
LINE
8
DEFAULT_255_1_388
10
22.052906
20
85.1690055
11
22.5317951
21
85.3488148
0
LINE
8
DEFAULT_255_1_388
10
22.5317951
20
85.3488148
11
22.5579985
21
85.3488148
0
ARC
8
DEFAULT_255_1_388
10
23.1889138
20
84.1156142
40
0.1204062
50
163.5412609
51
180.5084512
0
ARC
8
DEFAULT_255_1_388
10
23.1673037
20
84.121446
40
0.0980307
50
138.1652
51
163.2315563
0
ARC
8
DEFAULT_255_1_388
10
23.1546778
20
84.1321456
40
0.0814881
50
105.6860499
51
137.8492655
0
ARC
8
DEFAULT_255_1_388
10
23.1679979
20
84.0889109
40
0.126719
50
92.6078949
51
106.199173
0
ARC
8
DEFAULT_255_1_388
10
23.1714169
20
84.0443207
40
0.1714243
50
89.9659531
51
93.0713334
0
ARC
8
DEFAULT_255_1_388
10
23.1726205
20
84.0693484
40
0.1464007
50
78.4379126
51
90.4311892
0
ARC
8
DEFAULT_255_1_388
10
23.1834852
20
84.1200017
40
0.094599
50
56.8961942
51
78.7357785
0
ARC
8
DEFAULT_255_1_388
10
23.1905963
20
84.1324075
40
0.0803272
50
42.6503148
51
56.3122241
0
ARC
8
DEFAULT_255_1_388
10
23.1761864
20
84.1191661
40
0.099897
50
3.8141057
51
42.636595
0
ARC
8
DEFAULT_255_1_388
10
23.1439186
20
84.1146616
40
0.1324137
50
359.9498843
51
4.8301897
0
ARC
8
DEFAULT_255_1_388
10
23.1694324
20
84.1134722
40
0.1069053
50
340.9378148
51
0.5753733
0
ARC
8
DEFAULT_255_1_388
10
23.1820906
20
84.1100569
40
0.0938301
50
316.0798885
51
340.3845117
0
ARC
8
DEFAULT_255_1_388
10
23.1886217
20
84.104052
40
0.0849605
50
285.8512844
51
315.941661
0
ARC
8
DEFAULT_255_1_388
10
23.1754097
20
84.146762
40
0.1296594
50
273.1293204
51
286.3125006
0
ARC
8
DEFAULT_255_1_388
10
23.1716607
20
84.1919586
40
0.1749979
50
269.9535313
51
273.5471598
0
ARC
8
DEFAULT_255_1_388
10
23.1704213
20
84.1673833
40
0.1504266
50
259.0487117
51
270.4180248
0
ARC
8
DEFAULT_255_1_388
10
23.1595825
20
84.1136783
40
0.0956414
50
239.7583641
51
259.3115656
0
ARC
8
DEFAULT_255_1_388
10
23.1504758
20
84.0967048
40
0.0763945
50
222.6243303
51
239.2473835
0
ARC
8
DEFAULT_255_1_388
10
23.1655929
20
84.1105572
40
0.0968985
50
182.9231258
51
222.598101
0
ARC
8
DEFAULT_255_1_388
10
23.1959129
20
84.1144696
40
0.1274004
50
179.9657458
51
183.9850364
0
LINE
8
DEFAULT_255_1_388
10
23.7452822
20
84.6521666
11
23.6115546
21
84.6865021
0
LINE
8
DEFAULT_255_1_388
10
23.6115546
20
84.6865021
11
23.6784184
21
85.3424898
0
LINE
8
DEFAULT_255_1_388
10
23.6784184
20
85.3424898
11
24.3524775
21
85.3424898
0
LINE
8
DEFAULT_255_1_388
10
24.3524775
20
85.3424898
11
24.3524775
21
85.1879803
0
LINE
8
DEFAULT_255_1_388
10
24.3524775
20
85.1879803
11
23.820278
21
85.1879803
0
LINE
8
DEFAULT_255_1_388
10
23.820278
20
85.1879803
11
23.7805212
21
84.8292652
0
LINE
8
DEFAULT_255_1_388
10
23.5645693
20
84.3729652
11
23.7226931
21
84.3729652
0
LINE
8
DEFAULT_255_1_388
10
23.7895568
20
84.6883092
11
23.7452822
21
84.6521666
0
ARC
8
DEFAULT_255_1_388
10
23.9891825
20
84.4715241
40
0.4141476
50
93.7181681
51
120.253934
0
ARC
8
DEFAULT_255_1_388
10
23.9997878
20
84.3806284
40
0.5055616
50
89.9660471
51
94.2495185
0
ARC
8
DEFAULT_255_1_388
10
24.00437
20
84.4469154
40
0.4392953
50
73.8045384
51
90.5585736
0
ARC
8
DEFAULT_255_1_388
10
24.0307957
20
84.543452
40
0.3392225
50
41.3071072
51
73.543002
0
ARC
8
DEFAULT_255_1_388
10
23.9839777
20
84.5031461
40
0.4009977
50
13.5075837
51
41.2174839
0
ARC
8
DEFAULT_255_1_388
10
23.7992875
20
84.4547907
40
0.5918864
50
1.1330171
51
13.8830737
0
ARC
8
DEFAULT_255_1_388
10
23.639652
20
84.4462522
40
0.7516787
50
359.9925091
51
1.5431298
0
ARC
8
DEFAULT_255_1_388
10
23.7841135
20
84.4416027
40
0.6072343
50
347.8572712
51
0.4294349
0
ARC
8
DEFAULT_255_1_388
10
23.981027
20
84.3969898
40
0.4053482
50
323.6727442
51
348.1674594
0
ARC
8
DEFAULT_255_1_388
10
24.0141235
20
84.3768175
40
0.3667495
50
316.8171818
51
323.1486802
0
ARC
8
DEFAULT_255_1_388
10
24.0210358
20
84.3726612
40
0.358869
50
281.839603
51
316.5458142
0
ARC
8
DEFAULT_255_1_388
10
23.9787646
20
84.5476363
40
0.5388223
50
269.5770964
51
282.4214641
0
ARC
8
DEFAULT_255_1_388
10
23.9707567
20
84.523593
40
0.5147801
50
256.2425863
51
270.4486481
0
ARC
8
DEFAULT_255_1_388
10
23.9371094
20
84.3886124
40
0.3756708
50
228.9024379
51
256.33135
0
ARC
8
DEFAULT_255_1_388
10
23.9288075
20
84.3755054
40
0.360344
50
193.7536029
51
228.5272638
0
ARC
8
DEFAULT_255_1_388
10
24.068064
20
84.4163463
40
0.5053599
50
184.9244437
51
194.4976052
0
ARC
8
DEFAULT_255_1_388
10
24.0897281
20
84.4203722
40
0.3700839
50
187.3596909
51
198.6733728
0
ARC
8
DEFAULT_255_1_388
10
23.9716524
20
84.3794373
40
0.2451195
50
198.4453795
51
217.7945479
0
ARC
8
DEFAULT_255_1_388
10
23.9383697
20
84.3558563
40
0.2043754
50
218.2887146
51
228.5613203
0
ARC
8
DEFAULT_255_1_388
10
23.9493704
20
84.3706902
40
0.2227819
50
228.9652423
51
258.1237049
0
ARC
8
DEFAULT_255_1_388
10
23.9725141
20
84.4697964
40
0.3245374
50
257.7260585
51
270.4013717
0
ARC
8
DEFAULT_255_1_388
10
23.9775639
20
84.4197255
40
0.2744726
50
269.4204315
51
286.420998
0
ARC
8
DEFAULT_255_1_388
10
23.9942695
20
84.3590705
40
0.2115721
50
286.7250065
51
320.6004665
0
ARC
8
DEFAULT_255_1_388
10
23.951161
20
84.3940527
40
0.2670878
50
320.6712228
51
344.5440474
0
ARC
8
DEFAULT_255_1_388
10
23.8210324
20
84.4322394
40
0.4026927
50
344.241448
51
356.735803
0
ARC
8
DEFAULT_255_1_388
10
23.6806631
20
84.4438656
40
0.5435085
50
356.3547471
51
0.0507222
0
ARC
8
DEFAULT_255_1_388
10
23.8308896
20
84.4473812
40
0.3932934
50
359.5579289
51
12.9534322
0
ARC
8
DEFAULT_255_1_388
10
23.9495736
20
84.4761586
40
0.2711827
50
12.6489751
51
41.608121
0
ARC
8
DEFAULT_255_1_388
10
23.9754896
20
84.4981946
40
0.2371737
50
41.7851122
51
85.9892156
0
ARC
8
DEFAULT_255_1_388
10
23.9616206
20
84.4066738
40
0.3295244
50
84.6965848
51
90.0672125
0
ARC
8
DEFAULT_255_1_388
10
23.9589774
20
84.3315118
40
0.4046926
50
89.6804991
51
99.161352
0
ARC
8
DEFAULT_255_1_388
10
23.9358783
20
84.4695848
40
0.2647044
50
98.9836248
51
113.8905702
0
ARC
8
DEFAULT_255_1_388
10
23.9100458
20
84.5305118
40
0.1985386
50
114.195234
51
127.3641866
0
LINE
8
DEFAULT_255_1_388
10
22.4256985
20
93.2863148
11
22.4256985
21
91.9644
0
LINE
8
DEFAULT_255_1_388
10
22.4256985
20
91.9644
11
22.2576355
21
91.9644
0
LINE
8
DEFAULT_255_1_388
10
22.2576355
20
91.9644
11
22.2576355
21
93.078495
0
LINE
8
DEFAULT_255_1_388
10
22.2576355
20
93.078495
11
21.920606
21
92.9547066
0
LINE
8
DEFAULT_255_1_388
10
21.920606
20
92.9547066
11
21.920606
21
93.1065055
0
LINE
8
DEFAULT_255_1_388
10
21.920606
20
93.1065055
11
22.3994951
21
93.2863148
0
LINE
8
DEFAULT_255_1_388
10
22.3994951
20
93.2863148
11
22.4256985
21
93.2863148
0
ARC
8
DEFAULT_255_1_388
10
23.0566138
20
92.0531142
40
0.1204062
50
163.5412609
51
180.5084512
0
ARC
8
DEFAULT_255_1_388
10
23.0350037
20
92.058946
40
0.0980307
50
138.1652
51
163.2315563
0
ARC
8
DEFAULT_255_1_388
10
23.0223778
20
92.0696456
40
0.0814881
50
105.6860499
51
137.8492655
0
ARC
8
DEFAULT_255_1_388
10
23.0356979
20
92.0264109
40
0.126719
50
92.6078949
51
106.199173
0
ARC
8
DEFAULT_255_1_388
10
23.0391169
20
91.9818207
40
0.1714243
50
89.9659531
51
93.0713334
0
ARC
8
DEFAULT_255_1_388
10
23.0403205
20
92.0068484
40
0.1464007
50
78.4379126
51
90.4311892
0
ARC
8
DEFAULT_255_1_388
10
23.0511852
20
92.0575017
40
0.094599
50
56.8961942
51
78.7357785
0
ARC
8
DEFAULT_255_1_388
10
23.0582963
20
92.0699075
40
0.0803272
50
42.6503148
51
56.3122241
0
ARC
8
DEFAULT_255_1_388
10
23.0438864
20
92.0566661
40
0.099897
50
3.8141057
51
42.636595
0
ARC
8
DEFAULT_255_1_388
10
23.0116186
20
92.0521616
40
0.1324137
50
359.9498843
51
4.8301897
0
ARC
8
DEFAULT_255_1_388
10
23.0371324
20
92.0509722
40
0.1069053
50
340.9378148
51
0.5753733
0
ARC
8
DEFAULT_255_1_388
10
23.0497906
20
92.0475569
40
0.0938301
50
316.0798885
51
340.3845117
0
ARC
8
DEFAULT_255_1_388
10
23.0563217
20
92.041552
40
0.0849605
50
285.8512844
51
315.941661
0
ARC
8
DEFAULT_255_1_388
10
23.0431097
20
92.084262
40
0.1296594
50
273.1293204
51
286.3125006
0
ARC
8
DEFAULT_255_1_388
10
23.0393607
20
92.1294586
40
0.1749979
50
269.9535313
51
273.5471598
0
ARC
8
DEFAULT_255_1_388
10
23.0381213
20
92.1048833
40
0.1504266
50
259.0487117
51
270.4180248
0
ARC
8
DEFAULT_255_1_388
10
23.0272825
20
92.0511783
40
0.0956414
50
239.7583641
51
259.3115656
0
ARC
8
DEFAULT_255_1_388
10
23.0181758
20
92.0342048
40
0.0763945
50
222.6243303
51
239.2473835
0
ARC
8
DEFAULT_255_1_388
10
23.0332929
20
92.0480572
40
0.0968985
50
182.9231258
51
222.598101
0
ARC
8
DEFAULT_255_1_388
10
23.0636129
20
92.0519696
40
0.1274004
50
179.9657458
51
183.9850364
0
LINE
8
DEFAULT_255_1_388
10
24.1081355
20
93.2799898
11
24.1081355
21
92.406243
0
LINE
8
DEFAULT_255_1_388
10
24.1081355
20
92.406243
11
24.2906555
21
92.406243
0
LINE
8
DEFAULT_255_1_388
10
24.2906555
20
92.406243
11
24.2906555
21
92.2698048
0
LINE
8
DEFAULT_255_1_388
10
24.2906555
20
92.2698048
11
24.1081355
21
92.2698048
0
LINE
8
DEFAULT_255_1_388
10
24.1081355
20
92.2698048
11
24.1081355
21
91.9644
0
LINE
8
DEFAULT_255_1_388
10
24.1081355
20
91.9644
11
23.9400725
21
91.9644
0
LINE
8
DEFAULT_255_1_388
10
23.9400725
20
91.9644
11
23.9400725
21
92.2698048
0
LINE
8
DEFAULT_255_1_388
10
23.9400725
20
92.2698048
11
23.3410093
21
92.2698048
0
LINE
8
DEFAULT_255_1_388
10
23.3410093
20
92.2698048
11
23.3410093
21
92.3682933
0
LINE
8
DEFAULT_255_1_388
10
23.3410093
20
92.3682933
11
23.9301333
21
93.2799898
0
LINE
8
DEFAULT_255_1_388
10
23.9301333
20
93.2799898
11
24.1081355
21
93.2799898
0
LINE
8
DEFAULT_255_1_388
10
23.9201941
20
93.0152455
11
23.5307578
21
92.406243
0
LINE
8
DEFAULT_255_1_388
10
23.5307578
20
92.406243
11
23.9400725
21
92.406243
0
LINE
8
DEFAULT_255_1_388
10
23.9400725
20
92.406243
11
23.9400725
21
93.051388
0
LINE
8
DEFAULT_255_1_388
10
23.9400725
20
93.051388
11
23.9201941
21
93.0152455
0
LINE
8
DEFAULT_255_1_388
10
22.5579985
20
101.2238148
11
22.5579985
21
99.9019
0
LINE
8
DEFAULT_255_1_388
10
22.5579985
20
99.9019
11
22.3899355
21
99.9019
0
LINE
8
DEFAULT_255_1_388
10
22.3899355
20
99.9019
11
22.3899355
21
101.015995
0
LINE
8
DEFAULT_255_1_388
10
22.3899355
20
101.015995
11
22.052906
21
100.8922066
0
LINE
8
DEFAULT_255_1_388
10
22.052906
20
100.8922066
11
22.052906
21
101.0440055
0
LINE
8
DEFAULT_255_1_388
10
22.052906
20
101.0440055
11
22.5317951
21
101.2238148
0
LINE
8
DEFAULT_255_1_388
10
22.5317951
20
101.2238148
11
22.5579985
21
101.2238148
0
ARC
8
DEFAULT_255_1_388
10
23.1889138
20
99.9906142
40
0.1204062
50
163.5412609
51
180.5084512
0
ARC
8
DEFAULT_255_1_388
10
23.1673037
20
99.996446
40
0.0980307
50
138.1652
51
163.2315563
0
ARC
8
DEFAULT_255_1_388
10
23.1546778
20
100.0071456
40
0.0814881
50
105.6860499
51
137.8492655
0
ARC
8
DEFAULT_255_1_388
10
23.1679979
20
99.9639109
40
0.126719
50
92.6078949
51
106.199173
0
ARC
8
DEFAULT_255_1_388
10
23.1714169
20
99.9193207
40
0.1714243
50
89.9659531
51
93.0713334
0
ARC
8
DEFAULT_255_1_388
10
23.1726205
20
99.9443484
40
0.1464007
50
78.4379126
51
90.4311892
0
ARC
8
DEFAULT_255_1_388
10
23.1834852
20
99.9950017
40
0.094599
50
56.8961942
51
78.7357785
0
ARC
8
DEFAULT_255_1_388
10
23.1905963
20
100.0074075
40
0.0803272
50
42.6503148
51
56.3122241
0
ARC
8
DEFAULT_255_1_388
10
23.1761864
20
99.9941661
40
0.099897
50
3.8141057
51
42.636595
0
ARC
8
DEFAULT_255_1_388
10
23.1439186
20
99.9896616
40
0.1324137
50
359.9498843
51
4.8301897
0
ARC
8
DEFAULT_255_1_388
10
23.1694324
20
99.9884722
40
0.1069053
50
340.9378148
51
0.5753733
0
ARC
8
DEFAULT_255_1_388
10
23.1820906
20
99.9850569
40
0.0938301
50
316.0798885
51
340.3845117
0
ARC
8
DEFAULT_255_1_388
10
23.1886217
20
99.979052
40
0.0849605
50
285.8512844
51
315.941661
0
ARC
8
DEFAULT_255_1_388
10
23.1754097
20
100.021762
40
0.1296594
50
273.1293204
51
286.3125006
0
ARC
8
DEFAULT_255_1_388
10
23.1716607
20
100.0669586
40
0.1749979
50
269.9535313
51
273.5471598
0
ARC
8
DEFAULT_255_1_388
10
23.1704213
20
100.0423833
40
0.1504266
50
259.0487117
51
270.4180248
0
ARC
8
DEFAULT_255_1_388
10
23.1595825
20
99.9886783
40
0.0956414
50
239.7583641
51
259.3115656
0
ARC
8
DEFAULT_255_1_388
10
23.1504758
20
99.9717048
40
0.0763945
50
222.6243303
51
239.2473835
0
ARC
8
DEFAULT_255_1_388
10
23.1655929
20
99.9855572
40
0.0968985
50
182.9231258
51
222.598101
0
ARC
8
DEFAULT_255_1_388
10
23.1959129
20
99.9894696
40
0.1274004
50
179.9657458
51
183.9850364
0
LINE
8
DEFAULT_255_1_388
10
23.7778105
20
100.5045775
11
23.7778105
21
100.6410157
0
LINE
8
DEFAULT_255_1_388
10
23.7778105
20
100.6410157
11
23.903406
21
100.6410157
0
LINE
8
DEFAULT_255_1_388
10
23.6892612
20
100.8723282
11
23.5221018
21
100.8723282
0
LINE
8
DEFAULT_255_1_388
10
23.5103554
20
100.2488688
11
23.6784184
21
100.2488688
0
LINE
8
DEFAULT_255_1_388
10
23.903406
20
100.5045775
11
23.7778105
21
100.5045775
0
ARC
8
DEFAULT_255_1_388
10
23.9001286
20
101.0226922
40
0.3816905
50
270.491971
51
281.8953028
0
ARC
8
DEFAULT_255_1_388
10
23.9272713
20
100.8987199
40
0.2547877
50
281.6690378
51
301.2943765
0
ARC
8
DEFAULT_255_1_388
10
23.9464164
20
100.8636926
40
0.2149197
50
301.7834992
51
311.754567
0
ARC
8
DEFAULT_255_1_388
10
23.9567206
20
100.852265
40
0.1995326
50
311.7325027
51
354.2803031
0
ARC
8
DEFAULT_255_1_388
10
23.8749622
20
100.866328
40
0.2823461
50
353.0941646
51
0.1174696
0
ARC
8
DEFAULT_255_1_388
10
23.823118
20
100.8716874
40
0.3342238
50
359.1804452
51
15.0452323
0
ARC
8
DEFAULT_255_1_388
10
23.9745238
20
100.9158546
40
0.1765747
50
13.957816
51
77.6713812
0
ARC
8
DEFAULT_255_1_388
10
23.9310474
20
100.7600464
40
0.3381982
50
76.111571
51
90.7028736
0
ARC
8
DEFAULT_255_1_388
10
23.9243886
20
100.790825
40
0.3074046
50
89.5321574
51
103.5319393
0
ARC
8
DEFAULT_255_1_388
10
23.9018269
20
100.8807443
40
0.2147041
50
103.2930114
51
133.5619756
0
ARC
8
DEFAULT_255_1_388
10
23.8968211
20
100.8874351
40
0.2064084
50
133.8349761
51
173.5343225
0
ARC
8
DEFAULT_255_1_388
10
23.9781868
20
100.8730144
40
0.2889266
50
172.5097183
51
180.1360699
0
ARC
8
DEFAULT_255_1_388
10
23.8711632
20
100.876888
40
0.3490913
50
155.3483706
51
180.7484035
0
ARC
8
DEFAULT_255_1_388
10
23.8656608
20
100.8736519
40
0.3454798
50
131.5745177
51
154.4799474
0
ARC
8
DEFAULT_255_1_388
10
23.9008891
20
100.8380422
40
0.3955058
50
96.9874487
51
131.9690874
0
ARC
8
DEFAULT_255_1_388
10
23.9255783
20
100.6979407
40
0.537622
50
89.8592909
51
97.7827481
0
ARC
8
DEFAULT_255_1_388
10
23.9309892
20
100.668436
40
0.5671399
50
78.3654493
51
90.4132586
0
ARC
8
DEFAULT_255_1_388
10
23.9712533
20
100.8550918
40
0.3762034
50
56.6229818
51
78.6387103
0
ARC
8
DEFAULT_255_1_388
10
23.9954363
20
100.8973846
40
0.3275964
50
47.0254604
51
56.085558
0
ARC
8
DEFAULT_255_1_388
10
23.9976614
20
100.9018189
40
0.3228382
50
10.9207523
51
46.777927
0
ARC
8
DEFAULT_255_1_388
10
23.8442208
20
100.8663401
40
0.4802559
50
359.6364235
51
11.6087615
0
ARC
8
DEFAULT_255_1_388
10
24.0506373
20
100.8646404
40
0.273833
50
332.3549969
51
359.7179765
0
ARC
8
DEFAULT_255_1_388
10
23.9774774
20
100.8993285
40
0.3547505
50
325.2332381
51
332.8746682
0
ARC
8
DEFAULT_255_1_388
10
23.9946357
20
100.8873763
40
0.3338396
50
292.9803892
51
325.2391113
0
ARC
8
DEFAULT_255_1_388
10
23.9635553
20
100.9478679
40
0.4016959
50
292.542178
51
293.6931461
0
ARC
8
DEFAULT_255_1_388
10
24.0079125
20
100.2213036
40
0.372079
50
57.643292
51
72.8626085
0
ARC
8
DEFAULT_255_1_388
10
24.0477959
20
100.2859273
40
0.2961455
50
36.7246661
51
57.4701329
0
ARC
8
DEFAULT_255_1_388
10
24.0465116
20
100.287347
40
0.2963321
50
8.054535
51
36.3561529
0
ARC
8
DEFAULT_255_1_388
10
23.9494788
20
100.2699073
40
0.3948682
50
359.8316595
51
8.5873361
0
ARC
8
DEFAULT_255_1_388
10
23.9072263
20
100.264497
40
0.4371398
50
343.9831631
51
0.557075
0
ARC
8
DEFAULT_255_1_388
10
24.0069312
20
100.2371963
40
0.3337749
50
311.6358204
51
343.7652116
0
ARC
8
DEFAULT_255_1_388
10
23.9643566
20
100.2851955
40
0.3979351
50
279.7829743
51
311.625622
0
ARC
8
DEFAULT_255_1_388
10
23.9304701
20
100.4468642
40
0.5630417
50
269.7285092
51
280.3857694
0
ARC
8
DEFAULT_255_1_388
10
23.9235014
20
100.4422241
40
0.5584119
50
256.6827433
51
270.4412869
0
ARC
8
DEFAULT_255_1_388
10
23.8854001
20
100.2864698
40
0.3980715
50
229.4223821
51
256.8554507
0
ARC
8
DEFAULT_255_1_388
10
23.8387554
20
100.2339683
40
0.3278564
50
181.8183354
51
229.6455015
0
ARC
8
DEFAULT_255_1_388
10
23.9557163
20
100.2486825
40
0.4453611
50
179.9760419
51
183.2330638
0
ARC
8
DEFAULT_255_1_388
10
23.9363716
20
100.2463781
40
0.2579652
50
179.4467996
51
196.2871626
0
ARC
8
DEFAULT_255_1_388
10
23.8815169
20
100.2313709
40
0.2011057
50
196.5661293
51
227.7059371
0
ARC
8
DEFAULT_255_1_388
10
23.8999777
20
100.2520155
40
0.2287994
50
227.7653015
51
257.8763321
0
ARC
8
DEFAULT_255_1_388
10
23.925286
20
100.3580961
40
0.3378385
50
257.4583525
51
270.4267406
0
ARC
8
DEFAULT_255_1_388
10
23.9304109
20
100.390723
40
0.3704652
50
269.5965319
51
280.8788143
0
ARC
8
DEFAULT_255_1_388
10
23.9562337
20
100.2617529
40
0.2389415
50
280.6347277
51
299.8594068
0
ARC
8
DEFAULT_255_1_388
10
23.9777107
20
100.2209736
40
0.19289
50
300.3575552
51
314.5515667
0
ARC
8
DEFAULT_255_1_388
10
23.9683783
20
100.2278025
40
0.204312
50
315.0730962
51
345.0429362
0
ARC
8
DEFAULT_255_1_388
10
23.864529
20
100.2580539
40
0.31246
50
344.598526
51
357.9270698
0
ARC
8
DEFAULT_255_1_388
10
23.7635595
20
100.2649705
40
0.4136265
50
357.4755098
51
0.0224936
0
ARC
8
DEFAULT_255_1_388
10
23.8788473
20
100.2677099
40
0.2983498
50
359.5051035
51
13.4236939
0
ARC
8
DEFAULT_255_1_388
10
23.9763563
20
100.2926637
40
0.1977186
50
12.9497905
51
48.7550905
0
ARC
8
DEFAULT_255_1_388
10
23.9558484
20
100.2646373
40
0.2323321
50
49.509109
51
72.1832965
0
ARC
8
DEFAULT_255_1_388
10
23.9155953
20
100.1451632
40
0.358397
50
71.9008458
51
84.3555134
0
ARC
8
DEFAULT_255_1_388
10
23.8974347
20
99.9919712
40
0.512641
50
84.019632
51
89.3326067
0
LINE
8
DEFAULT_255_1_388
10
22.5579985
20
109.1613148
11
22.5579985
21
107.8394
0
LINE
8
DEFAULT_255_1_388
10
22.5579985
20
107.8394
11
22.3899355
21
107.8394
0
LINE
8
DEFAULT_255_1_388
10
22.3899355
20
107.8394
11
22.3899355
21
108.953495
0
LINE
8
DEFAULT_255_1_388
10
22.3899355
20
108.953495
11
22.052906
21
108.8297066
0
LINE
8
DEFAULT_255_1_388
10
22.052906
20
108.8297066
11
22.052906
21
108.9815055
0
LINE
8
DEFAULT_255_1_388
10
22.052906
20
108.9815055
11
22.5317951
21
109.1613148
0
LINE
8
DEFAULT_255_1_388
10
22.5317951
20
109.1613148
11
22.5579985
21
109.1613148
0
ARC
8
DEFAULT_255_1_388
10
23.1889138
20
107.9281142
40
0.1204062
50
163.5412609
51
180.5084512
0
ARC
8
DEFAULT_255_1_388
10
23.1673037
20
107.933946
40
0.0980307
50
138.1652
51
163.2315563
0
ARC
8
DEFAULT_255_1_388
10
23.1546778
20
107.9446456
40
0.0814881
50
105.6860499
51
137.8492655
0
ARC
8
DEFAULT_255_1_388
10
23.1679979
20
107.9014109
40
0.126719
50
92.6078949
51
106.199173
0
ARC
8
DEFAULT_255_1_388
10
23.1714169
20
107.8568207
40
0.1714243
50
89.9659531
51
93.0713334
0
ARC
8
DEFAULT_255_1_388
10
23.1726205
20
107.8818484
40
0.1464007
50
78.4379126
51
90.4311892
0
ARC
8
DEFAULT_255_1_388
10
23.1834852
20
107.9325017
40
0.094599
50
56.8961942
51
78.7357785
0
ARC
8
DEFAULT_255_1_388
10
23.1905963
20
107.9449075
40
0.0803272
50
42.6503148
51
56.3122241
0
ARC
8
DEFAULT_255_1_388
10
23.1761864
20
107.9316661
40
0.099897
50
3.8141057
51
42.636595
0
ARC
8
DEFAULT_255_1_388
10
23.1439186
20
107.9271616
40
0.1324137
50
359.9498843
51
4.8301897
0
ARC
8
DEFAULT_255_1_388
10
23.1694324
20
107.9259722
40
0.1069053
50
340.9378148
51
0.5753733
0
ARC
8
DEFAULT_255_1_388
10
23.1820906
20
107.9225569
40
0.0938301
50
316.0798885
51
340.3845117
0
ARC
8
DEFAULT_255_1_388
10
23.1886217
20
107.916552
40
0.0849605
50
285.8512844
51
315.941661
0
ARC
8
DEFAULT_255_1_388
10
23.1754097
20
107.959262
40
0.1296594
50
273.1293204
51
286.3125006
0
ARC
8
DEFAULT_255_1_388
10
23.1716607
20
108.0044586
40
0.1749979
50
269.9535313
51
273.5471598
0
ARC
8
DEFAULT_255_1_388
10
23.1704213
20
107.9798833
40
0.1504266
50
259.0487117
51
270.4180248
0
ARC
8
DEFAULT_255_1_388
10
23.1595825
20
107.9261783
40
0.0956414
50
239.7583641
51
259.3115656
0
ARC
8
DEFAULT_255_1_388
10
23.1504758
20
107.9092048
40
0.0763945
50
222.6243303
51
239.2473835
0
ARC
8
DEFAULT_255_1_388
10
23.1655929
20
107.9230572
40
0.0968985
50
182.9231258
51
222.598101
0
ARC
8
DEFAULT_255_1_388
10
23.1959129
20
107.9269696
40
0.1274004
50
179.9657458
51
183.9850364
0
LINE
8
DEFAULT_255_1_388
10
24.3967521
20
107.9758382
11
24.3967521
21
107.8394
0
LINE
8
DEFAULT_255_1_388
10
24.3967521
20
107.8394
11
23.5347517
21
107.8394
0
LINE
8
DEFAULT_255_1_388
10
23.5347517
20
107.8394
11
23.5347517
21
107.9595741
0
LINE
8
DEFAULT_255_1_388
10
23.5347517
20
107.9595741
11
23.9901481
21
108.4655702
0
LINE
8
DEFAULT_255_1_388
10
23.6766113
20
108.7673607
11
23.5094519
21
108.7673607
0
LINE
8
DEFAULT_255_1_388
10
24.0886367
20
108.358046
11
23.7362465
21
107.9758382
0
LINE
8
DEFAULT_255_1_388
10
23.7362465
20
107.9758382
11
24.3967521
21
107.9758382
0
ARC
8
DEFAULT_255_1_388
10
22.4725541
20
109.8075983
40
2.0258655
50
318.5132526
51
320.7829045
0
ARC
8
DEFAULT_255_1_388
10
23.0673498
20
109.3234929
40
1.2589638
50
320.7372878
51
323.9739031
0
ARC
8
DEFAULT_255_1_388
10
23.508243
20
109.0040554
40
0.7145141
50
323.8962701
51
328.64194
0
ARC
8
DEFAULT_255_1_388
10
23.7384687
20
108.8620545
40
0.4440242
50
328.8294576
51
331.7891185
0
ARC
8
DEFAULT_255_1_388
10
23.8507007
20
108.8041374
40
0.3177517
50
331.4254512
51
352.9365785
0
ARC
8
DEFAULT_255_1_388
10
23.8660007
20
108.800705
40
0.3021496
50
353.2257659
51
0.0166158
0
ARC
8
DEFAULT_255_1_388
10
23.8896768
20
108.8032894
40
0.2784847
50
359.486299
51
15.9343185
0
ARC
8
DEFAULT_255_1_388
10
23.9467035
20
108.8186269
40
0.2194403
50
16.1712913
51
43.5286088
0
ARC
8
DEFAULT_255_1_388
10
23.9553979
20
108.8273191
40
0.2071504
50
43.4417391
51
83.1661095
0
ARC
8
DEFAULT_255_1_388
10
23.940314
20
108.7444316
40
0.2912888
50
82.160179
51
90.1505708
0
ARC
8
DEFAULT_255_1_388
10
23.9367622
20
108.6840279
40
0.3517025
50
89.5460741
51
102.5418361
0
ARC
8
DEFAULT_255_1_388
10
23.9094342
20
108.7999933
40
0.2325748
50
102.1738499
51
129.206123
0
ARC
8
DEFAULT_255_1_388
10
23.9005795
20
108.8139664
40
0.2161591
50
129.72865
51
135.753947
0
ARC
8
DEFAULT_255_1_388
10
23.9142277
20
108.8030728
40
0.2335433
50
136.1757367
51
166.3673339
0
ARC
8
DEFAULT_255_1_388
10
24.0274966
20
108.7727148
40
0.3507873
50
165.9090694
51
178.8684636
0
ARC
8
DEFAULT_255_1_388
10
24.1250737
20
108.7674263
40
0.4484624
50
178.4391136
51
180.0083808
0
ARC
8
DEFAULT_255_1_388
10
23.9671439
20
108.7718197
40
0.4577138
50
163.2878482
51
180.5581842
0
ARC
8
DEFAULT_255_1_388
10
23.876948
20
108.7966393
40
0.3641968
50
133.4540601
51
162.947111
0
ARC
8
DEFAULT_255_1_388
10
23.8970362
20
108.7752789
40
0.3935189
50
100.7869829
51
133.4382499
0
ARC
8
DEFAULT_255_1_388
10
23.9361607
20
108.6010399
40
0.5720313
50
89.660664
51
101.3702276
0
ARC
8
DEFAULT_255_1_388
10
23.9436216
20
108.6079263
40
0.5651495
50
78.2172678
51
90.412935
0
ARC
8
DEFAULT_255_1_388
10
23.9835681
20
108.7906511
40
0.378122
50
55.9269121
51
78.4888449
0
ARC
8
DEFAULT_255_1_388
10
24.0056397
20
108.8287187
40
0.3342379
50
47.929771
51
55.4049217
0
ARC
8
DEFAULT_255_1_388
10
24.0170927
20
108.8403618
40
0.3179217
50
4.334829
51
48.0560205
0
ARC
8
DEFAULT_255_1_388
10
23.8938729
20
108.8212487
40
0.442341
50
359.9251713
51
5.5971671
0
ARC
8
DEFAULT_255_1_388
10
23.9420883
20
108.8275728
40
0.3941854
50
337.8914027
51
358.9967534
0
ARC
8
DEFAULT_255_1_388
10
23.6368453
20
108.9453295
40
0.7213271
50
326.9132501
51
338.3508308
0
ARC
8
DEFAULT_255_1_388
10
23.1884565
20
109.2327105
40
1.2538973
50
319.6471833
51
327.0959558
0
ARC
8
DEFAULT_255_1_388
10
22.7571223
20
109.588505
40
1.8129975
50
317.2588228
51
319.9045804
0
LINE
8
DEFAULT_255_1_388
10
22.5650985
20
117.0988148
11
22.5650985
21
115.7769
0
LINE
8
DEFAULT_255_1_388
10
22.5650985
20
115.7769
11
22.3970355
21
115.7769
0
LINE
8
DEFAULT_255_1_388
10
22.3970355
20
115.7769
11
22.3970355
21
116.890995
0
LINE
8
DEFAULT_255_1_388
10
22.3970355
20
116.890995
11
22.060006
21
116.7672066
0
LINE
8
DEFAULT_255_1_388
10
22.060006
20
116.7672066
11
22.060006
21
116.9190055
0
LINE
8
DEFAULT_255_1_388
10
22.060006
20
116.9190055
11
22.5388951
21
117.0988148
0
LINE
8
DEFAULT_255_1_388
10
22.5388951
20
117.0988148
11
22.5650985
21
117.0988148
0
ARC
8
DEFAULT_255_1_388
10
23.1960138
20
115.8656142
40
0.1204062
50
163.5412609
51
180.5084512
0
ARC
8
DEFAULT_255_1_388
10
23.1744037
20
115.871446
40
0.0980307
50
138.1652
51
163.2315563
0
ARC
8
DEFAULT_255_1_388
10
23.1617778
20
115.8821456
40
0.0814881
50
105.6860499
51
137.8492655
0
ARC
8
DEFAULT_255_1_388
10
23.1750979
20
115.8389109
40
0.126719
50
92.6078949
51
106.199173
0
ARC
8
DEFAULT_255_1_388
10
23.1785169
20
115.7943207
40
0.1714243
50
89.9659531
51
93.0713334
0
ARC
8
DEFAULT_255_1_388
10
23.1797205
20
115.8193484
40
0.1464007
50
78.4379126
51
90.4311892
0
ARC
8
DEFAULT_255_1_388
10
23.1905852
20
115.8700017
40
0.094599
50
56.8961942
51
78.7357785
0
ARC
8
DEFAULT_255_1_388
10
23.1976963
20
115.8824075
40
0.0803272
50
42.6503148
51
56.3122241
0
ARC
8
DEFAULT_255_1_388
10
23.1832864
20
115.8691661
40
0.099897
50
3.8141057
51
42.636595
0
ARC
8
DEFAULT_255_1_388
10
23.1510186
20
115.8646616
40
0.1324137
50
359.9498843
51
4.8301897
0
ARC
8
DEFAULT_255_1_388
10
23.1765324
20
115.8634722
40
0.1069053
50
340.9378148
51
0.5753733
0
ARC
8
DEFAULT_255_1_388
10
23.1891906
20
115.8600569
40
0.0938301
50
316.0798885
51
340.3845117
0
ARC
8
DEFAULT_255_1_388
10
23.1957217
20
115.854052
40
0.0849605
50
285.8512844
51
315.941661
0
ARC
8
DEFAULT_255_1_388
10
23.1825097
20
115.896762
40
0.1296594
50
273.1293204
51
286.3125006
0
ARC
8
DEFAULT_255_1_388
10
23.1787607
20
115.9419586
40
0.1749979
50
269.9535313
51
273.5471598
0
ARC
8
DEFAULT_255_1_388
10
23.1775213
20
115.9173833
40
0.1504266
50
259.0487117
51
270.4180248
0
ARC
8
DEFAULT_255_1_388
10
23.1666825
20
115.8636783
40
0.0956414
50
239.7583641
51
259.3115656
0
ARC
8
DEFAULT_255_1_388
10
23.1575758
20
115.8467048
40
0.0763945
50
222.6243303
51
239.2473835
0
ARC
8
DEFAULT_255_1_388
10
23.1726929
20
115.8605572
40
0.0968985
50
182.9231258
51
222.598101
0
ARC
8
DEFAULT_255_1_388
10
23.2030129
20
115.8644696
40
0.1274004
50
179.9657458
51
183.9850364
0
LINE
8
DEFAULT_255_1_388
10
24.0912188
20
117.0988148
11
24.0912188
21
115.7769
0
LINE
8
DEFAULT_255_1_388
10
24.0912188
20
115.7769
11
23.9231559
21
115.7769
0
LINE
8
DEFAULT_255_1_388
10
23.9231559
20
115.7769
11
23.9231559
21
116.890995
0
LINE
8
DEFAULT_255_1_388
10
23.9231559
20
116.890995
11
23.5861263
21
116.7672066
0
LINE
8
DEFAULT_255_1_388
10
23.5861263
20
116.7672066
11
23.5861263
21
116.9190055
0
LINE
8
DEFAULT_255_1_388
10
23.5861263
20
116.9190055
11
24.0650155
21
117.0988148
0
LINE
8
DEFAULT_255_1_388
10
24.0650155
20
117.0988148
11
24.0912188
21
117.0988148
0
LINE
8
DEFAULT_255_1_388
10
22.5579985
20
125.0363148
11
22.5579985
21
123.7144
0
LINE
8
DEFAULT_255_1_388
10
22.5579985
20
123.7144
11
22.3899355
21
123.7144
0
LINE
8
DEFAULT_255_1_388
10
22.3899355
20
123.7144
11
22.3899355
21
124.828495
0
LINE
8
DEFAULT_255_1_388
10
22.3899355
20
124.828495
11
22.052906
21
124.7047066
0
LINE
8
DEFAULT_255_1_388
10
22.052906
20
124.7047066
11
22.052906
21
124.8565055
0
LINE
8
DEFAULT_255_1_388
10
22.052906
20
124.8565055
11
22.5317951
21
125.0363148
0
LINE
8
DEFAULT_255_1_388
10
22.5317951
20
125.0363148
11
22.5579985
21
125.0363148
0
ARC
8
DEFAULT_255_1_388
10
23.1889138
20
123.8031142
40
0.1204062
50
163.5412609
51
180.5084512
0
ARC
8
DEFAULT_255_1_388
10
23.1673037
20
123.808946
40
0.0980307
50
138.1652
51
163.2315563
0
ARC
8
DEFAULT_255_1_388
10
23.1546778
20
123.8196456
40
0.0814881
50
105.6860499
51
137.8492655
0
ARC
8
DEFAULT_255_1_388
10
23.1679979
20
123.7764109
40
0.126719
50
92.6078949
51
106.199173
0
ARC
8
DEFAULT_255_1_388
10
23.1714169
20
123.7318207
40
0.1714243
50
89.9659531
51
93.0713334
0
ARC
8
DEFAULT_255_1_388
10
23.1726205
20
123.7568484
40
0.1464007
50
78.4379126
51
90.4311892
0
ARC
8
DEFAULT_255_1_388
10
23.1834852
20
123.8075017
40
0.094599
50
56.8961942
51
78.7357785
0
ARC
8
DEFAULT_255_1_388
10
23.1905963
20
123.8199075
40
0.0803272
50
42.6503148
51
56.3122241
0
ARC
8
DEFAULT_255_1_388
10
23.1761864
20
123.8066661
40
0.099897
50
3.8141057
51
42.636595
0
ARC
8
DEFAULT_255_1_388
10
23.1439186
20
123.8021616
40
0.1324137
50
359.9498843
51
4.8301897
0
ARC
8
DEFAULT_255_1_388
10
23.1694324
20
123.8009722
40
0.1069053
50
340.9378148
51
0.5753733
0
ARC
8
DEFAULT_255_1_388
10
23.1820906
20
123.7975569
40
0.0938301
50
316.0798885
51
340.3845117
0
ARC
8
DEFAULT_255_1_388
10
23.1886217
20
123.791552
40
0.0849605
50
285.8512844
51
315.941661
0
ARC
8
DEFAULT_255_1_388
10
23.1754097
20
123.834262
40
0.1296594
50
273.1293204
51
286.3125006
0
ARC
8
DEFAULT_255_1_388
10
23.1716607
20
123.8794586
40
0.1749979
50
269.9535313
51
273.5471598
0
ARC
8
DEFAULT_255_1_388
10
23.1704213
20
123.8548833
40
0.1504266
50
259.0487117
51
270.4180248
0
ARC
8
DEFAULT_255_1_388
10
23.1595825
20
123.8011783
40
0.0956414
50
239.7583641
51
259.3115656
0
ARC
8
DEFAULT_255_1_388
10
23.1504758
20
123.7842048
40
0.0763945
50
222.6243303
51
239.2473835
0
ARC
8
DEFAULT_255_1_388
10
23.1655929
20
123.7980572
40
0.0968985
50
182.9231258
51
222.598101
0
ARC
8
DEFAULT_255_1_388
10
23.1959129
20
123.8019696
40
0.1274004
50
179.9657458
51
183.9850364
0
LINE
8
DEFAULT_255_1_388
10
24.359706
20
124.492369
11
24.359706
21
124.2755135
0
LINE
8
DEFAULT_255_1_388
10
23.5293303
20
124.2529244
11
23.5293303
21
124.4761048
0
LINE
8
DEFAULT_255_1_388
10
24.1925466
20
124.2303353
11
24.1925466
21
124.5041153
0
LINE
8
DEFAULT_255_1_388
10
23.6964897
20
124.5167652
11
23.6964897
21
124.2493102
0
ARC
8
DEFAULT_255_1_388
10
22.9819394
20
124.2700118
40
1.3777776
50
353.8440855
51
0.2287917
0
ARC
8
DEFAULT_255_1_388
10
23.5038411
20
124.2117414
40
0.852639
50
344.4934746
51
353.9763743
0
ARC
8
DEFAULT_255_1_388
10
23.8405219
20
124.1160191
40
0.5026273
50
329.2803599
51
344.7473406
0
ARC
8
DEFAULT_255_1_388
10
23.9520714
20
124.0548038
40
0.3754848
50
324.9361395
51
328.6153007
0
ARC
8
DEFAULT_255_1_388
10
23.9946364
20
124.0250586
40
0.3235566
50
280.5801797
51
324.9173226
0
ARC
8
DEFAULT_255_1_388
10
23.9494993
20
124.2130236
40
0.5167077
50
269.5979457
51
281.6732777
0
ARC
8
DEFAULT_255_1_388
10
23.9413896
20
124.1995113
40
0.5032026
50
256.6228565
51
270.5105488
0
ARC
8
DEFAULT_255_1_388
10
23.8961639
20
124.0253345
40
0.3233092
50
215.8618351
51
257.2787793
0
ARC
8
DEFAULT_255_1_388
10
24.0110346
20
124.1024106
40
0.4615831
50
197.9695203
51
215.2622745
0
ARC
8
DEFAULT_255_1_388
10
24.2906022
20
124.1967641
40
0.7566307
50
187.8816486
51
198.2346584
0
ARC
8
DEFAULT_255_1_388
10
24.735926
20
124.2610453
40
1.2065653
50
180.8977266
51
188.0054894
0
ARC
8
DEFAULT_255_1_388
10
25.0409474
20
124.27254
40
1.5117443
50
180.7434591
51
181.152202
0
ARC
8
DEFAULT_255_1_388
10
24.873447
20
124.4815371
40
1.3441277
50
173.7674302
51
180.2315596
0
ARC
8
DEFAULT_255_1_388
10
24.3652338
20
124.5389779
40
0.8326847
50
164.3058537
51
173.9000553
0
ARC
8
DEFAULT_255_1_388
10
24.0376339
20
124.6333652
40
0.4917711
50
148.7922028
51
164.5682288
0
ARC
8
DEFAULT_255_1_388
10
23.9307076
20
124.6930457
40
0.3694204
50
144.5883979
51
148.1161588
0
ARC
8
DEFAULT_255_1_388
10
23.8919821
20
124.7200667
40
0.322202
50
101.6440149
51
144.5142619
0
ARC
8
DEFAULT_255_1_388
10
23.9398013
20
124.5300337
40
0.5180451
50
89.528284
51
102.5820197
0
ARC
8
DEFAULT_255_1_388
10
23.9487005
20
124.5256376
40
0.5224441
50
77.0437914
51
90.508231
0
ARC
8
DEFAULT_255_1_388
10
23.9939259
20
124.7104272
40
0.3322297
50
48.2777708
51
77.4996087
0
ARC
8
DEFAULT_255_1_388
10
24.0020999
20
124.7249557
40
0.315966
50
36.3141586
51
47.6307332
0
ARC
8
DEFAULT_255_1_388
10
23.9043721
20
124.6591159
40
0.4337313
50
18.2931065
51
35.6770203
0
ARC
8
DEFAULT_255_1_388
10
23.6182562
20
124.5609107
40
0.7362203
50
8.0246996
51
18.5605636
0
ARC
8
DEFAULT_255_1_388
10
23.1498918
20
124.4917432
40
1.2096583
50
1.127539
51
8.1718423
0
ARC
8
DEFAULT_255_1_388
10
22.7850051
20
124.4774374
40
1.5747719
50
0.5432713
51
1.38669
0
ARC
8
DEFAULT_255_1_388
10
22.990743
20
124.5081163
40
1.2018103
50
359.8092569
51
4.9408001
0
ARC
8
DEFAULT_255_1_388
10
23.4644011
20
124.55039
40
0.7262727
50
4.8364937
51
12.2906017
0
ARC
8
DEFAULT_255_1_388
10
23.7743476
20
124.6194485
40
0.4087324
50
12.0806994
51
23.8171225
0
ARC
8
DEFAULT_255_1_388
10
23.9063872
20
124.6753508
40
0.2653719
50
24.2874621
51
31.3934353
0
ARC
8
DEFAULT_255_1_388
10
23.9654308
20
124.7139822
40
0.1948607
50
30.7407708
51
82.4658033
0
ARC
8
DEFAULT_255_1_388
10
23.9451968
20
124.6146017
40
0.2961198
50
81.1057101
51
90.2187368
0
ARC
8
DEFAULT_255_1_388
10
23.941178
20
124.6436421
40
0.2670929
50
89.380395
51
105.6763916
0
ARC
8
DEFAULT_255_1_388
10
23.9205502
20
124.718632
40
0.1893189
50
105.7980655
51
149.7387869
0
ARC
8
DEFAULT_255_1_388
10
24.0402642
20
124.6466719
40
0.3289892
50
149.4208441
51
163.628295
0
ARC
8
DEFAULT_255_1_388
10
24.2754872
20
124.5749345
40
0.5749004
50
163.3764549
51
172.141138
0
ARC
8
DEFAULT_255_1_388
10
24.6467593
20
124.5217582
40
0.9499585
50
172.0258462
51
178.0705453
0
ARC
8
DEFAULT_255_1_388
10
24.9889146
20
124.5055682
40
1.2924734
50
177.8639301
51
179.5036263
0
ARC
8
DEFAULT_255_1_388
10
24.8670165
20
124.2452151
40
1.170534
50
179.7995545
51
185.246089
0
ARC
8
DEFAULT_255_1_388
10
24.4121758
20
124.2021404
40
0.7136613
50
185.1411911
51
193.0082205
0
ARC
8
DEFAULT_255_1_388
10
24.1148019
20
124.1318441
40
0.4080987
50
192.7897338
51
205.2507384
0
ARC
8
DEFAULT_255_1_388
10
23.9970229
20
124.0792538
40
0.2791522
50
205.8001921
51
211.2545876
0
ARC
8
DEFAULT_255_1_388
10
23.9381768
20
124.0398132
40
0.2084074
50
210.3789935
51
238.4007996
0
ARC
8
DEFAULT_255_1_388
10
23.9359854
20
124.0450786
40
0.2117943
50
239.6521916
51
265.9793852
0
ARC
8
DEFAULT_255_1_388
10
23.9455703
20
124.1207358
40
0.2879689
50
265.1324455
51
270.0603288
0
ARC
8
DEFAULT_255_1_388
10
23.948808
20
124.0842418
40
0.2514919
50
269.3314378
51
287.2180039
0
ARC
8
DEFAULT_255_1_388
10
23.9643162
20
124.0276291
40
0.1928357
50
287.7957942
51
329.0808983
0
ARC
8
DEFAULT_255_1_388
10
23.8565919
20
124.0948651
40
0.319808
50
328.6635261
51
343.3325043
0
ARC
8
DEFAULT_255_1_388
10
23.6121378
20
124.1710195
40
0.5758408
50
343.0498092
51
351.9392499
0
ARC
8
DEFAULT_255_1_388
10
23.2220699
20
124.2285205
40
0.9701202
50
351.8071632
51
357.7957897
0
ARC
8
DEFAULT_255_1_388
10
22.8586176
20
124.2473724
40
1.3340376
50
357.5870923
51
359.2682493
0
LINE
8
DEFAULT_255_1_388
10
22.8335856
20
132.429869
11
22.8335856
21
132.2130135
0
LINE
8
DEFAULT_255_1_388
10
22.0032099
20
132.1904244
11
22.0032099
21
132.4136048
0
LINE
8
DEFAULT_255_1_388
10
22.6664262
20
132.1678353
11
22.6664262
21
132.4416153
0
LINE
8
DEFAULT_255_1_388
10
22.1703693
20
132.4542652
11
22.1703693
21
132.1868102
0
ARC
8
DEFAULT_255_1_388
10
21.455819
20
132.2075118
40
1.3777776
50
353.8440855
51
0.2287917
0
ARC
8
DEFAULT_255_1_388
10
21.9777208
20
132.1492414
40
0.852639
50
344.4934746
51
353.9763743
0
ARC
8
DEFAULT_255_1_388
10
22.3144015
20
132.0535191
40
0.5026273
50
329.2803599
51
344.7473406
0
ARC
8
DEFAULT_255_1_388
10
22.4259511
20
131.9923038
40
0.3754848
50
324.9361395
51
328.6153007
0
ARC
8
DEFAULT_255_1_388
10
22.4685161
20
131.9625586
40
0.3235566
50
280.5801797
51
324.9173226
0
ARC
8
DEFAULT_255_1_388
10
22.4233789
20
132.1505236
40
0.5167077
50
269.5979457
51
281.6732777
0
ARC
8
DEFAULT_255_1_388
10
22.4152693
20
132.1370113
40
0.5032026
50
256.6228565
51
270.5105488
0
ARC
8
DEFAULT_255_1_388
10
22.3700435
20
131.9628345
40
0.3233092
50
215.8618351
51
257.2787793
0
ARC
8
DEFAULT_255_1_388
10
22.4849142
20
132.0399106
40
0.4615831
50
197.9695203
51
215.2622745
0
ARC
8
DEFAULT_255_1_388
10
22.7644818
20
132.1342641
40
0.7566307
50
187.8816486
51
198.2346584
0
ARC
8
DEFAULT_255_1_388
10
23.2098056
20
132.1985453
40
1.2065653
50
180.8977266
51
188.0054894
0
ARC
8
DEFAULT_255_1_388
10
23.514827
20
132.21004
40
1.5117443
50
180.7434591
51
181.152202
0
ARC
8
DEFAULT_255_1_388
10
23.3473266
20
132.4190371
40
1.3441277
50
173.7674302
51
180.2315596
0
ARC
8
DEFAULT_255_1_388
10
22.8391135
20
132.4764779
40
0.8326847
50
164.3058537
51
173.9000553
0
ARC
8
DEFAULT_255_1_388
10
22.5115135
20
132.5708652
40
0.4917711
50
148.7922028
51
164.5682288
0
ARC
8
DEFAULT_255_1_388
10
22.4045872
20
132.6305457
40
0.3694204
50
144.5883979
51
148.1161588
0
ARC
8
DEFAULT_255_1_388
10
22.3658618
20
132.6575667
40
0.322202
50
101.6440149
51
144.5142619
0
ARC
8
DEFAULT_255_1_388
10
22.413681
20
132.4675337
40
0.5180451
50
89.528284
51
102.5820197
0
ARC
8
DEFAULT_255_1_388
10
22.4225802
20
132.4631376
40
0.5224441
50
77.0437914
51
90.508231
0
ARC
8
DEFAULT_255_1_388
10
22.4678055
20
132.6479272
40
0.3322297
50
48.2777708
51
77.4996087
0
ARC
8
DEFAULT_255_1_388
10
22.4759795
20
132.6624557
40
0.315966
50
36.3141586
51
47.6307332
0
ARC
8
DEFAULT_255_1_388
10
22.3782518
20
132.5966159
40
0.4337313
50
18.2931065
51
35.6770203
0
ARC
8
DEFAULT_255_1_388
10
22.0921358
20
132.4984107
40
0.7362203
50
8.0246996
51
18.5605636
0
ARC
8
DEFAULT_255_1_388
10
21.6237714
20
132.4292432
40
1.2096583
50
1.127539
51
8.1718423
0
ARC
8
DEFAULT_255_1_388
10
21.2588847
20
132.4149374
40
1.5747719
50
0.5432713
51
1.38669
0
ARC
8
DEFAULT_255_1_388
10
21.4646226
20
132.4456163
40
1.2018103
50
359.8092569
51
4.9408001
0
ARC
8
DEFAULT_255_1_388
10
21.9382807
20
132.48789
40
0.7262727
50
4.8364937
51
12.2906017
0
ARC
8
DEFAULT_255_1_388
10
22.2482272
20
132.5569485
40
0.4087324
50
12.0806994
51
23.8171225
0
ARC
8
DEFAULT_255_1_388
10
22.3802668
20
132.6128508
40
0.2653719
50
24.2874621
51
31.3934353
0
ARC
8
DEFAULT_255_1_388
10
22.4393104
20
132.6514822
40
0.1948607
50
30.7407708
51
82.4658033
0
ARC
8
DEFAULT_255_1_388
10
22.4190765
20
132.5521017
40
0.2961198
50
81.1057101
51
90.2187368
0
ARC
8
DEFAULT_255_1_388
10
22.4150577
20
132.5811421
40
0.2670929
50
89.380395
51
105.6763916
0
ARC
8
DEFAULT_255_1_388
10
22.3944299
20
132.656132
40
0.1893189
50
105.7980655
51
149.7387869
0
ARC
8
DEFAULT_255_1_388
10
22.5141439
20
132.5841719
40
0.3289892
50
149.4208441
51
163.628295
0
ARC
8
DEFAULT_255_1_388
10
22.7493668
20
132.5124345
40
0.5749004
50
163.3764549
51
172.141138
0
ARC
8
DEFAULT_255_1_388
10
23.120639
20
132.4592582
40
0.9499585
50
172.0258462
51
178.0705453
0
ARC
8
DEFAULT_255_1_388
10
23.4627943
20
132.4430682
40
1.2924734
50
177.8639301
51
179.5036263
0
ARC
8
DEFAULT_255_1_388
10
23.3408961
20
132.1827151
40
1.170534
50
179.7995545
51
185.246089
0
ARC
8
DEFAULT_255_1_388
10
22.8860554
20
132.1396404
40
0.7136613
50
185.1411911
51
193.0082205
0
ARC
8
DEFAULT_255_1_388
10
22.5886815
20
132.0693441
40
0.4080987
50
192.7897338
51
205.2507384
0
ARC
8
DEFAULT_255_1_388
10
22.4709025
20
132.0167538
40
0.2791522
50
205.8001921
51
211.2545876
0
ARC
8
DEFAULT_255_1_388
10
22.4120564
20
131.9773132
40
0.2084074
50
210.3789935
51
238.4007996
0
ARC
8
DEFAULT_255_1_388
10
22.409865
20
131.9825786
40
0.2117943
50
239.6521916
51
265.9793852
0
ARC
8
DEFAULT_255_1_388
10
22.4194499
20
132.0582358
40
0.2879689
50
265.1324455
51
270.0603288
0
ARC
8
DEFAULT_255_1_388
10
22.4226876
20
132.0217418
40
0.2514919
50
269.3314378
51
287.2180039
0
ARC
8
DEFAULT_255_1_388
10
22.4381958
20
131.9651291
40
0.1928357
50
287.7957942
51
329.0808983
0
ARC
8
DEFAULT_255_1_388
10
22.3304715
20
132.0323651
40
0.319808
50
328.6635261
51
343.3325043
0
ARC
8
DEFAULT_255_1_388
10
22.0860174
20
132.1085195
40
0.5758408
50
343.0498092
51
351.9392499
0
ARC
8
DEFAULT_255_1_388
10
21.6959496
20
132.1660205
40
0.9701202
50
351.8071632
51
357.7957897
0
ARC
8
DEFAULT_255_1_388
10
21.3324973
20
132.1848724
40
1.3340376
50
357.5870923
51
359.2682493
0
ARC
8
DEFAULT_255_1_388
10
23.1889138
20
131.7406142
40
0.1204062
50
163.5412609
51
180.5084512
0
ARC
8
DEFAULT_255_1_388
10
23.1673037
20
131.746446
40
0.0980307
50
138.1652
51
163.2315563
0
ARC
8
DEFAULT_255_1_388
10
23.1546778
20
131.7571456
40
0.0814881
50
105.6860499
51
137.8492655
0
ARC
8
DEFAULT_255_1_388
10
23.1679979
20
131.7139109
40
0.126719
50
92.6078949
51
106.199173
0
ARC
8
DEFAULT_255_1_388
10
23.1714169
20
131.6693207
40
0.1714243
50
89.9659531
51
93.0713334
0
ARC
8
DEFAULT_255_1_388
10
23.1726205
20
131.6943484
40
0.1464007
50
78.4379126
51
90.4311892
0
ARC
8
DEFAULT_255_1_388
10
23.1834852
20
131.7450017
40
0.094599
50
56.8961942
51
78.7357785
0
ARC
8
DEFAULT_255_1_388
10
23.1905963
20
131.7574075
40
0.0803272
50
42.6503148
51
56.3122241
0
ARC
8
DEFAULT_255_1_388
10
23.1761864
20
131.7441661
40
0.099897
50
3.8141057
51
42.636595
0
ARC
8
DEFAULT_255_1_388
10
23.1439186
20
131.7396616
40
0.1324137
50
359.9498843
51
4.8301897
0
ARC
8
DEFAULT_255_1_388
10
23.1694324
20
131.7384722
40
0.1069053
50
340.9378148
51
0.5753733
0
ARC
8
DEFAULT_255_1_388
10
23.1820906
20
131.7350569
40
0.0938301
50
316.0798885
51
340.3845117
0
ARC
8
DEFAULT_255_1_388
10
23.1886217
20
131.729052
40
0.0849605
50
285.8512844
51
315.941661
0
ARC
8
DEFAULT_255_1_388
10
23.1754097
20
131.771762
40
0.1296594
50
273.1293204
51
286.3125006
0
ARC
8
DEFAULT_255_1_388
10
23.1716607
20
131.8169586
40
0.1749979
50
269.9535313
51
273.5471598
0
ARC
8
DEFAULT_255_1_388
10
23.1704213
20
131.7923833
40
0.1504266
50
259.0487117
51
270.4180248
0
ARC
8
DEFAULT_255_1_388
10
23.1595825
20
131.7386783
40
0.0956414
50
239.7583641
51
259.3115656
0
ARC
8
DEFAULT_255_1_388
10
23.1504758
20
131.7217048
40
0.0763945
50
222.6243303
51
239.2473835
0
ARC
8
DEFAULT_255_1_388
10
23.1655929
20
131.7355572
40
0.0968985
50
182.9231258
51
222.598101
0
ARC
8
DEFAULT_255_1_388
10
23.1959129
20
131.7394696
40
0.1274004
50
179.9657458
51
183.9850364
0
LINE
8
DEFAULT_255_1_388
10
24.3841022
20
132.9674898
11
24.3841022
21
132.8735191
0
LINE
8
DEFAULT_255_1_388
10
24.3841022
20
132.8735191
11
23.8392529
21
131.6519
0
LINE
8
DEFAULT_255_1_388
10
23.8392529
20
131.6519
11
23.6639614
21
131.6519
0
LINE
8
DEFAULT_255_1_388
10
23.6639614
20
131.6519
11
24.2070036
21
132.830148
0
LINE
8
DEFAULT_255_1_388
10
24.2070036
20
132.830148
11
23.4949948
21
132.830148
0
LINE
8
DEFAULT_255_1_388
10
23.4949948
20
132.830148
11
23.4949948
21
132.9674898
0
LINE
8
DEFAULT_255_1_388
10
23.4949948
20
132.9674898
11
24.3841022
21
132.9674898
0
LINE
8
DEFAULT_255_1_388
10
22.8335856
20
140.367369
11
22.8335856
21
140.1505135
0
LINE
8
DEFAULT_255_1_388
10
22.0032099
20
140.1279244
11
22.0032099
21
140.3511048
0
LINE
8
DEFAULT_255_1_388
10
22.6664262
20
140.1053353
11
22.6664262
21
140.3791153
0
LINE
8
DEFAULT_255_1_388
10
22.1703693
20
140.3917652
11
22.1703693
21
140.1243102
0
ARC
8
DEFAULT_255_1_388
10
21.455819
20
140.1450118
40
1.3777776
50
353.8440855
51
0.2287917
0
ARC
8
DEFAULT_255_1_388
10
21.9777208
20
140.0867414
40
0.852639
50
344.4934746
51
353.9763743
0
ARC
8
DEFAULT_255_1_388
10
22.3144015
20
139.9910191
40
0.5026273
50
329.2803599
51
344.7473406
0
ARC
8
DEFAULT_255_1_388
10
22.4259511
20
139.9298038
40
0.3754848
50
324.9361395
51
328.6153007
0
ARC
8
DEFAULT_255_1_388
10
22.4685161
20
139.9000586
40
0.3235566
50
280.5801797
51
324.9173226
0
ARC
8
DEFAULT_255_1_388
10
22.4233789
20
140.0880236
40
0.5167077
50
269.5979457
51
281.6732777
0
ARC
8
DEFAULT_255_1_388
10
22.4152693
20
140.0745113
40
0.5032026
50
256.6228565
51
270.5105488
0
ARC
8
DEFAULT_255_1_388
10
22.3700435
20
139.9003345
40
0.3233092
50
215.8618351
51
257.2787793
0
ARC
8
DEFAULT_255_1_388
10
22.4849142
20
139.9774106
40
0.4615831
50
197.9695203
51
215.2622745
0
ARC
8
DEFAULT_255_1_388
10
22.7644818
20
140.0717641
40
0.7566307
50
187.8816486
51
198.2346584
0
ARC
8
DEFAULT_255_1_388
10
23.2098056
20
140.1360453
40
1.2065653
50
180.8977266
51
188.0054894
0
ARC
8
DEFAULT_255_1_388
10
23.514827
20
140.14754
40
1.5117443
50
180.7434591
51
181.152202
0
ARC
8
DEFAULT_255_1_388
10
23.3473266
20
140.3565371
40
1.3441277
50
173.7674302
51
180.2315596
0
ARC
8
DEFAULT_255_1_388
10
22.8391135
20
140.4139779
40
0.8326847
50
164.3058537
51
173.9000553
0
ARC
8
DEFAULT_255_1_388
10
22.5115135
20
140.5083652
40
0.4917711
50
148.7922028
51
164.5682288
0
ARC
8
DEFAULT_255_1_388
10
22.4045872
20
140.5680457
40
0.3694204
50
144.5883979
51
148.1161588
0
ARC
8
DEFAULT_255_1_388
10
22.3658618
20
140.5950667
40
0.322202
50
101.6440149
51
144.5142619
0
ARC
8
DEFAULT_255_1_388
10
22.413681
20
140.4050337
40
0.5180451
50
89.528284
51
102.5820197
0
ARC
8
DEFAULT_255_1_388
10
22.4225802
20
140.4006376
40
0.5224441
50
77.0437914
51
90.508231
0
ARC
8
DEFAULT_255_1_388
10
22.4678055
20
140.5854272
40
0.3322297
50
48.2777708
51
77.4996087
0
ARC
8
DEFAULT_255_1_388
10
22.4759795
20
140.5999557
40
0.315966
50
36.3141586
51
47.6307332
0
ARC
8
DEFAULT_255_1_388
10
22.3782518
20
140.5341159
40
0.4337313
50
18.2931065
51
35.6770203
0
ARC
8
DEFAULT_255_1_388
10
22.0921358
20
140.4359107
40
0.7362203
50
8.0246996
51
18.5605636
0
ARC
8
DEFAULT_255_1_388
10
21.6237714
20
140.3667432
40
1.2096583
50
1.127539
51
8.1718423
0
ARC
8
DEFAULT_255_1_388
10
21.2588847
20
140.3524374
40
1.5747719
50
0.5432713
51
1.38669
0
ARC
8
DEFAULT_255_1_388
10
21.4646226
20
140.3831163
40
1.2018103
50
359.8092569
51
4.9408001
0
ARC
8
DEFAULT_255_1_388
10
21.9382807
20
140.42539
40
0.7262727
50
4.8364937
51
12.2906017
0
ARC
8
DEFAULT_255_1_388
10
22.2482272
20
140.4944485
40
0.4087324
50
12.0806994
51
23.8171225
0
ARC
8
DEFAULT_255_1_388
10
22.3802668
20
140.5503508
40
0.2653719
50
24.2874621
51
31.3934353
0
ARC
8
DEFAULT_255_1_388
10
22.4393104
20
140.5889822
40
0.1948607
50
30.7407708
51
82.4658033
0
ARC
8
DEFAULT_255_1_388
10
22.4190765
20
140.4896017
40
0.2961198
50
81.1057101
51
90.2187368
0
ARC
8
DEFAULT_255_1_388
10
22.4150577
20
140.5186421
40
0.2670929
50
89.380395
51
105.6763916
0
ARC
8
DEFAULT_255_1_388
10
22.3944299
20
140.593632
40
0.1893189
50
105.7980655
51
149.7387869
0
ARC
8
DEFAULT_255_1_388
10
22.5141439
20
140.5216719
40
0.3289892
50
149.4208441
51
163.628295
0
ARC
8
DEFAULT_255_1_388
10
22.7493668
20
140.4499345
40
0.5749004
50
163.3764549
51
172.141138
0
ARC
8
DEFAULT_255_1_388
10
23.120639
20
140.3967582
40
0.9499585
50
172.0258462
51
178.0705453
0
ARC
8
DEFAULT_255_1_388
10
23.4627943
20
140.3805682
40
1.2924734
50
177.8639301
51
179.5036263
0
ARC
8
DEFAULT_255_1_388
10
23.3408961
20
140.1202151
40
1.170534
50
179.7995545
51
185.246089
0
ARC
8
DEFAULT_255_1_388
10
22.8860554
20
140.0771404
40
0.7136613
50
185.1411911
51
193.0082205
0
ARC
8
DEFAULT_255_1_388
10
22.5886815
20
140.0068441
40
0.4080987
50
192.7897338
51
205.2507384
0
ARC
8
DEFAULT_255_1_388
10
22.4709025
20
139.9542538
40
0.2791522
50
205.8001921
51
211.2545876
0
ARC
8
DEFAULT_255_1_388
10
22.4120564
20
139.9148132
40
0.2084074
50
210.3789935
51
238.4007996
0
ARC
8
DEFAULT_255_1_388
10
22.409865
20
139.9200786
40
0.2117943
50
239.6521916
51
265.9793852
0
ARC
8
DEFAULT_255_1_388
10
22.4194499
20
139.9957358
40
0.2879689
50
265.1324455
51
270.0603288
0
ARC
8
DEFAULT_255_1_388
10
22.4226876
20
139.9592418
40
0.2514919
50
269.3314378
51
287.2180039
0
ARC
8
DEFAULT_255_1_388
10
22.4381958
20
139.9026291
40
0.1928357
50
287.7957942
51
329.0808983
0
ARC
8
DEFAULT_255_1_388
10
22.3304715
20
139.9698651
40
0.319808
50
328.6635261
51
343.3325043
0
ARC
8
DEFAULT_255_1_388
10
22.0860174
20
140.0460195
40
0.5758408
50
343.0498092
51
351.9392499
0
ARC
8
DEFAULT_255_1_388
10
21.6959496
20
140.1035205
40
0.9701202
50
351.8071632
51
357.7957897
0
ARC
8
DEFAULT_255_1_388
10
21.3324973
20
140.1223724
40
1.3340376
50
357.5870923
51
359.2682493
0
ARC
8
DEFAULT_255_1_388
10
23.1889138
20
139.6781142
40
0.1204062
50
163.5412609
51
180.5084512
0
ARC
8
DEFAULT_255_1_388
10
23.1673037
20
139.683946
40
0.0980307
50
138.1652
51
163.2315563
0
ARC
8
DEFAULT_255_1_388
10
23.1546778
20
139.6946456
40
0.0814881
50
105.6860499
51
137.8492655
0
ARC
8
DEFAULT_255_1_388
10
23.1679979
20
139.6514109
40
0.126719
50
92.6078949
51
106.199173
0
ARC
8
DEFAULT_255_1_388
10
23.1714169
20
139.6068207
40
0.1714243
50
89.9659531
51
93.0713334
0
ARC
8
DEFAULT_255_1_388
10
23.1726205
20
139.6318484
40
0.1464007
50
78.4379126
51
90.4311892
0
ARC
8
DEFAULT_255_1_388
10
23.1834852
20
139.6825017
40
0.094599
50
56.8961942
51
78.7357785
0
ARC
8
DEFAULT_255_1_388
10
23.1905963
20
139.6949075
40
0.0803272
50
42.6503148
51
56.3122241
0
ARC
8
DEFAULT_255_1_388
10
23.1761864
20
139.6816661
40
0.099897
50
3.8141057
51
42.636595
0
ARC
8
DEFAULT_255_1_388
10
23.1439186
20
139.6771616
40
0.1324137
50
359.9498843
51
4.8301897
0
ARC
8
DEFAULT_255_1_388
10
23.1694324
20
139.6759722
40
0.1069053
50
340.9378148
51
0.5753733
0
ARC
8
DEFAULT_255_1_388
10
23.1820906
20
139.6725569
40
0.0938301
50
316.0798885
51
340.3845117
0
ARC
8
DEFAULT_255_1_388
10
23.1886217
20
139.666552
40
0.0849605
50
285.8512844
51
315.941661
0
ARC
8
DEFAULT_255_1_388
10
23.1754097
20
139.709262
40
0.1296594
50
273.1293204
51
286.3125006
0
ARC
8
DEFAULT_255_1_388
10
23.1716607
20
139.7544586
40
0.1749979
50
269.9535313
51
273.5471598
0
ARC
8
DEFAULT_255_1_388
10
23.1704213
20
139.7298833
40
0.1504266
50
259.0487117
51
270.4180248
0
ARC
8
DEFAULT_255_1_388
10
23.1595825
20
139.6761783
40
0.0956414
50
239.7583641
51
259.3115656
0
ARC
8
DEFAULT_255_1_388
10
23.1504758
20
139.6592048
40
0.0763945
50
222.6243303
51
239.2473835
0
ARC
8
DEFAULT_255_1_388
10
23.1655929
20
139.6730572
40
0.0968985
50
182.9231258
51
222.598101
0
ARC
8
DEFAULT_255_1_388
10
23.1959129
20
139.6769696
40
0.1274004
50
179.9657458
51
183.9850364
0
LINE
8
DEFAULT_255_1_388
10
24.1609218
20
140.9058934
11
24.1907395
21
140.9058934
0
LINE
8
DEFAULT_255_1_388
10
24.1907395
20
140.9058934
11
24.1907395
21
140.7640338
0
LINE
8
DEFAULT_255_1_388
10
24.1907395
20
140.7640338
11
24.1600183
21
140.7640338
0
LINE
8
DEFAULT_255_1_388
10
23.5446909
20
140.0899747
11
23.5446909
21
140.1541278
0
LINE
8
DEFAULT_255_1_388
10
23.7127539
20
140.1324422
11
23.7127539
21
140.0709999
0
ARC
8
DEFAULT_255_1_388
10
24.1659074
20
140.2017826
40
0.562282
50
90.6001079
51
104.5146616
0
ARC
8
DEFAULT_255_1_388
10
24.1222034
20
140.36431
40
0.3939917
50
104.2855758
51
133.8630124
0
ARC
8
DEFAULT_255_1_388
10
24.1406286
20
140.3521243
40
0.4155734
50
134.5304124
51
161.6210222
0
ARC
8
DEFAULT_255_1_388
10
24.3266219
20
140.2865421
40
0.6127682
50
161.2850533
51
174.2074364
0
ARC
8
DEFAULT_255_1_388
10
24.4855785
20
140.2646437
40
0.7731446
50
173.7817938
51
174.9251711
0
ARC
8
DEFAULT_255_1_388
10
23.9729979
20
140.109127
40
0.3412588
50
95.8332067
51
138.995412
0
ARC
8
DEFAULT_255_1_388
10
23.9981259
20
139.9652695
40
0.4870358
50
89.8755506
51
97.0540979
0
ARC
8
DEFAULT_255_1_388
10
24.0034648
20
140.0592841
40
0.3930432
50
71.6407016
51
90.6240821
0
ARC
8
DEFAULT_255_1_388
10
24.0204042
20
140.1216433
40
0.3285421
50
39.6368051
51
71.0190743
0
ARC
8
DEFAULT_255_1_388
10
23.9487949
20
140.0597586
40
0.4231706
50
10.6588054
51
39.9044509
0
ARC
8
DEFAULT_255_1_388
10
23.7746495
20
140.0219223
40
0.60133
50
359.6827842
51
11.1326896
0
ARC
8
DEFAULT_255_1_388
10
23.7701831
20
140.0139715
40
0.6058047
50
347.2485908
51
0.4371098
0
ARC
8
DEFAULT_255_1_388
10
23.9577616
20
139.9688379
40
0.4128987
50
318.1408565
51
347.6118497
0
ARC
8
DEFAULT_255_1_388
10
23.9943213
20
139.9387903
40
0.3656244
50
275.6342406
51
317.824739
0
ARC
8
DEFAULT_255_1_388
10
23.9694734
20
140.0849827
40
0.513655
50
269.8872513
51
276.7916069
0
ARC
8
DEFAULT_255_1_388
10
23.9632927
20
139.9696181
40
0.398323
50
246.9139443
51
270.7436787
0
ARC
8
DEFAULT_255_1_388
10
23.9640122
20
139.9536044
40
0.3839368
50
218.1665534
51
245.8780431
0
ARC
8
DEFAULT_255_1_388
10
24.0629495
20
140.0363903
40
0.5128958
50
191.4115343
51
218.6077624
0
ARC
8
DEFAULT_255_1_388
10
24.2809811
20
140.0852777
40
0.7363054
50
179.6344971
51
191.7836758
0
ARC
8
DEFAULT_255_1_388
10
24.9089685
20
140.1616495
40
1.3642984
50
171.4523743
51
180.3158856
0
ARC
8
DEFAULT_255_1_388
10
24.4145412
20
140.2385895
40
0.8639311
50
157.9802296
51
171.6246761
0
ARC
8
DEFAULT_255_1_388
10
24.1654763
20
140.3379038
40
0.5958004
50
141.4299236
51
157.8541251
0
ARC
8
DEFAULT_255_1_388
10
24.0932846
20
140.3889746
40
0.5075416
50
102.871586
51
140.8564533
0
ARC
8
DEFAULT_255_1_388
10
24.1661399
20
140.1144943
40
0.7914163
50
90.377773
51
103.5868422
0
ARC
8
DEFAULT_255_1_388
10
23.970592
20
140.0464543
40
0.2667015
50
89.8751238
51
126.2072139
0
ARC
8
DEFAULT_255_1_388
10
23.9757391
20
140.0290847
40
0.2838229
50
124.9742447
51
144.8960197
0
ARC
8
DEFAULT_255_1_388
10
23.9559636
20
140.0451981
40
0.2583845
50
145.2974778
51
160.2660922
0
ARC
8
DEFAULT_255_1_388
10
24.3016125
20
140.0674151
40
0.5888695
50
179.6512124
51
190.285571
0
ARC
8
DEFAULT_255_1_388
10
24.1110604
20
140.0314968
40
0.3949683
50
190.0944895
51
207.5099647
0
ARC
8
DEFAULT_255_1_388
10
24.0474186
20
140.0012177
40
0.3245464
50
207.9585471
51
216.325377
0
ARC
8
DEFAULT_255_1_388
10
24.0091823
20
139.9697712
40
0.2751259
50
215.7661336
51
232.5457193
0
ARC
8
DEFAULT_255_1_388
10
23.9660939
20
139.9150273
40
0.2054668
50
232.8005815
51
270.6605497
0
ARC
8
DEFAULT_255_1_388
10
23.9712363
20
139.9559853
40
0.2464268
50
269.3550767
51
288.474612
0
ARC
8
DEFAULT_255_1_388
10
23.981687
20
139.9166721
40
0.2058436
50
289.1831976
51
322.9685307
0
ARC
8
DEFAULT_255_1_388
10
23.9128972
20
139.9709279
40
0.2934408
50
322.6007085
51
346.5183319
0
ARC
8
DEFAULT_255_1_388
10
23.7826728
20
140.0041434
40
0.4278249
50
346.2584622
51
358.7739592
0
ARC
8
DEFAULT_255_1_388
10
23.6675303
20
140.0103829
40
0.5430876
50
358.3757628
51
0.0082477
0
ARC
8
DEFAULT_255_1_388
10
23.7532122
20
140.0134856
40
0.4574157
50
359.6211417
51
11.28403
0
ARC
8
DEFAULT_255_1_388
10
23.8968728
20
140.0434535
40
0.3106708
50
11.0483152
51
31.8145585
0
ARC
8
DEFAULT_255_1_388
10
23.9316433
20
140.0623045
40
0.2711963
50
32.3028554
51
38.0820598
0
ARC
8
DEFAULT_255_1_388
10
23.9789666
20
140.1051717
40
0.2075566
50
36.8249851
51
85.741667
0
ARC
8
DEFAULT_255_1_388
10
23.9714079
20
140.0488065
40
0.2643487
50
85.0150021
51
90.050843
0
LINE
8
DEFAULT_255_1_388
10
22.8335856
20
148.304869
11
22.8335856
21
148.0880135
0
LINE
8
DEFAULT_255_1_388
10
22.0032099
20
148.0654244
11
22.0032099
21
148.2886048
0
LINE
8
DEFAULT_255_1_388
10
22.6664262
20
148.0428353
11
22.6664262
21
148.3166153
0
LINE
8
DEFAULT_255_1_388
10
22.1703693
20
148.3292652
11
22.1703693
21
148.0618102
0
ARC
8
DEFAULT_255_1_388
10
21.455819
20
148.0825118
40
1.3777776
50
353.8440855
51
0.2287917
0
ARC
8
DEFAULT_255_1_388
10
21.9777208
20
148.0242414
40
0.852639
50
344.4934746
51
353.9763743
0
ARC
8
DEFAULT_255_1_388
10
22.3144015
20
147.9285191
40
0.5026273
50
329.2803599
51
344.7473406
0
ARC
8
DEFAULT_255_1_388
10
22.4259511
20
147.8673038
40
0.3754848
50
324.9361395
51
328.6153007
0
ARC
8
DEFAULT_255_1_388
10
22.4685161
20
147.8375586
40
0.3235566
50
280.5801797
51
324.9173226
0
ARC
8
DEFAULT_255_1_388
10
22.4233789
20
148.0255236
40
0.5167077
50
269.5979457
51
281.6732777
0
ARC
8
DEFAULT_255_1_388
10
22.4152693
20
148.0120113
40
0.5032026
50
256.6228565
51
270.5105488
0
ARC
8
DEFAULT_255_1_388
10
22.3700435
20
147.8378345
40
0.3233092
50
215.8618351
51
257.2787793
0
ARC
8
DEFAULT_255_1_388
10
22.4849142
20
147.9149106
40
0.4615831
50
197.9695203
51
215.2622745
0
ARC
8
DEFAULT_255_1_388
10
22.7644818
20
148.0092641
40
0.7566307
50
187.8816486
51
198.2346584
0
ARC
8
DEFAULT_255_1_388
10
23.2098056
20
148.0735453
40
1.2065653
50
180.8977266
51
188.0054894
0
ARC
8
DEFAULT_255_1_388
10
23.514827
20
148.08504
40
1.5117443
50
180.7434591
51
181.152202
0
ARC
8
DEFAULT_255_1_388
10
23.3473266
20
148.2940371
40
1.3441277
50
173.7674302
51
180.2315596
0
ARC
8
DEFAULT_255_1_388
10
22.8391135
20
148.3514779
40
0.8326847
50
164.3058537
51
173.9000553
0
ARC
8
DEFAULT_255_1_388
10
22.5115135
20
148.4458652
40
0.4917711
50
148.7922028
51
164.5682288
0
ARC
8
DEFAULT_255_1_388
10
22.4045872
20
148.5055457
40
0.3694204
50
144.5883979
51
148.1161588
0
ARC
8
DEFAULT_255_1_388
10
22.3658618
20
148.5325667
40
0.322202
50
101.6440149
51
144.5142619
0
ARC
8
DEFAULT_255_1_388
10
22.413681
20
148.3425337
40
0.5180451
50
89.528284
51
102.5820197
0
ARC
8
DEFAULT_255_1_388
10
22.4225802
20
148.3381376
40
0.5224441
50
77.0437914
51
90.508231
0
ARC
8
DEFAULT_255_1_388
10
22.4678055
20
148.5229272
40
0.3322297
50
48.2777708
51
77.4996087
0
ARC
8
DEFAULT_255_1_388
10
22.4759795
20
148.5374557
40
0.315966
50
36.3141586
51
47.6307332
0
ARC
8
DEFAULT_255_1_388
10
22.3782518
20
148.4716159
40
0.4337313
50
18.2931065
51
35.6770203
0
ARC
8
DEFAULT_255_1_388
10
22.0921358
20
148.3734107
40
0.7362203
50
8.0246996
51
18.5605636
0
ARC
8
DEFAULT_255_1_388
10
21.6237714
20
148.3042432
40
1.2096583
50
1.127539
51
8.1718423
0
ARC
8
DEFAULT_255_1_388
10
21.2588847
20
148.2899374
40
1.5747719
50
0.5432713
51
1.38669
0
ARC
8
DEFAULT_255_1_388
10
21.4646226
20
148.3206163
40
1.2018103
50
359.8092569
51
4.9408001
0
ARC
8
DEFAULT_255_1_388
10
21.9382807
20
148.36289
40
0.7262727
50
4.8364937
51
12.2906017
0
ARC
8
DEFAULT_255_1_388
10
22.2482272
20
148.4319485
40
0.4087324
50
12.0806994
51
23.8171225
0
ARC
8
DEFAULT_255_1_388
10
22.3802668
20
148.4878508
40
0.2653719
50
24.2874621
51
31.3934353
0
ARC
8
DEFAULT_255_1_388
10
22.4393104
20
148.5264822
40
0.1948607
50
30.7407708
51
82.4658033
0
ARC
8
DEFAULT_255_1_388
10
22.4190765
20
148.4271017
40
0.2961198
50
81.1057101
51
90.2187368
0
ARC
8
DEFAULT_255_1_388
10
22.4150577
20
148.4561421
40
0.2670929
50
89.380395
51
105.6763916
0
ARC
8
DEFAULT_255_1_388
10
22.3944299
20
148.531132
40
0.1893189
50
105.7980655
51
149.7387869
0
ARC
8
DEFAULT_255_1_388
10
22.5141439
20
148.4591719
40
0.3289892
50
149.4208441
51
163.628295
0
ARC
8
DEFAULT_255_1_388
10
22.7493668
20
148.3874345
40
0.5749004
50
163.3764549
51
172.141138
0
ARC
8
DEFAULT_255_1_388
10
23.120639
20
148.3342582
40
0.9499585
50
172.0258462
51
178.0705453
0
ARC
8
DEFAULT_255_1_388
10
23.4627943
20
148.3180682
40
1.2924734
50
177.8639301
51
179.5036263
0
ARC
8
DEFAULT_255_1_388
10
23.3408961
20
148.0577151
40
1.170534
50
179.7995545
51
185.246089
0
ARC
8
DEFAULT_255_1_388
10
22.8860554
20
148.0146404
40
0.7136613
50
185.1411911
51
193.0082205
0
ARC
8
DEFAULT_255_1_388
10
22.5886815
20
147.9443441
40
0.4080987
50
192.7897338
51
205.2507384
0
ARC
8
DEFAULT_255_1_388
10
22.4709025
20
147.8917538
40
0.2791522
50
205.8001921
51
211.2545876
0
ARC
8
DEFAULT_255_1_388
10
22.4120564
20
147.8523132
40
0.2084074
50
210.3789935
51
238.4007996
0
ARC
8
DEFAULT_255_1_388
10
22.409865
20
147.8575786
40
0.2117943
50
239.6521916
51
265.9793852
0
ARC
8
DEFAULT_255_1_388
10
22.4194499
20
147.9332358
40
0.2879689
50
265.1324455
51
270.0603288
0
ARC
8
DEFAULT_255_1_388
10
22.4226876
20
147.8967418
40
0.2514919
50
269.3314378
51
287.2180039
0
ARC
8
DEFAULT_255_1_388
10
22.4381958
20
147.8401291
40
0.1928357
50
287.7957942
51
329.0808983
0
ARC
8
DEFAULT_255_1_388
10
22.3304715
20
147.9073651
40
0.319808
50
328.6635261
51
343.3325043
0
ARC
8
DEFAULT_255_1_388
10
22.0860174
20
147.9835195
40
0.5758408
50
343.0498092
51
351.9392499
0
ARC
8
DEFAULT_255_1_388
10
21.6959496
20
148.0410205
40
0.9701202
50
351.8071632
51
357.7957897
0
ARC
8
DEFAULT_255_1_388
10
21.3324973
20
148.0598724
40
1.3340376
50
357.5870923
51
359.2682493
0
ARC
8
DEFAULT_255_1_388
10
23.1889138
20
147.6156142
40
0.1204062
50
163.5412609
51
180.5084512
0
ARC
8
DEFAULT_255_1_388
10
23.1673037
20
147.621446
40
0.0980307
50
138.1652
51
163.2315563
0
ARC
8
DEFAULT_255_1_388
10
23.1546778
20
147.6321456
40
0.0814881
50
105.6860499
51
137.8492655
0
ARC
8
DEFAULT_255_1_388
10
23.1679979
20
147.5889109
40
0.126719
50
92.6078949
51
106.199173
0
ARC
8
DEFAULT_255_1_388
10
23.1714169
20
147.5443207
40
0.1714243
50
89.9659531
51
93.0713334
0
ARC
8
DEFAULT_255_1_388
10
23.1726205
20
147.5693484
40
0.1464007
50
78.4379126
51
90.4311892
0
ARC
8
DEFAULT_255_1_388
10
23.1834852
20
147.6200017
40
0.094599
50
56.8961942
51
78.7357785
0
ARC
8
DEFAULT_255_1_388
10
23.1905963
20
147.6324075
40
0.0803272
50
42.6503148
51
56.3122241
0
ARC
8
DEFAULT_255_1_388
10
23.1761864
20
147.6191661
40
0.099897
50
3.8141057
51
42.636595
0
ARC
8
DEFAULT_255_1_388
10
23.1439186
20
147.6146616
40
0.1324137
50
359.9498843
51
4.8301897
0
ARC
8
DEFAULT_255_1_388
10
23.1694324
20
147.6134722
40
0.1069053
50
340.9378148
51
0.5753733
0
ARC
8
DEFAULT_255_1_388
10
23.1820906
20
147.6100569
40
0.0938301
50
316.0798885
51
340.3845117
0
ARC
8
DEFAULT_255_1_388
10
23.1886217
20
147.604052
40
0.0849605
50
285.8512844
51
315.941661
0
ARC
8
DEFAULT_255_1_388
10
23.1754097
20
147.646762
40
0.1296594
50
273.1293204
51
286.3125006
0
ARC
8
DEFAULT_255_1_388
10
23.1716607
20
147.6919586
40
0.1749979
50
269.9535313
51
273.5471598
0
ARC
8
DEFAULT_255_1_388
10
23.1704213
20
147.6673833
40
0.1504266
50
259.0487117
51
270.4180248
0
ARC
8
DEFAULT_255_1_388
10
23.1595825
20
147.6136783
40
0.0956414
50
239.7583641
51
259.3115656
0
ARC
8
DEFAULT_255_1_388
10
23.1504758
20
147.5967048
40
0.0763945
50
222.6243303
51
239.2473835
0
ARC
8
DEFAULT_255_1_388
10
23.1655929
20
147.6105572
40
0.0968985
50
182.9231258
51
222.598101
0
ARC
8
DEFAULT_255_1_388
10
23.1959129
20
147.6144696
40
0.1274004
50
179.9657458
51
183.9850364
0
LINE
8
DEFAULT_255_1_388
10
23.7452822
20
148.1521666
11
23.6115546
21
148.1865021
0
LINE
8
DEFAULT_255_1_388
10
23.6115546
20
148.1865021
11
23.6784184
21
148.8424898
0
LINE
8
DEFAULT_255_1_388
10
23.6784184
20
148.8424898
11
24.3524775
21
148.8424898
0
LINE
8
DEFAULT_255_1_388
10
24.3524775
20
148.8424898
11
24.3524775
21
148.6879803
0
LINE
8
DEFAULT_255_1_388
10
24.3524775
20
148.6879803
11
23.820278
21
148.6879803
0
LINE
8
DEFAULT_255_1_388
10
23.820278
20
148.6879803
11
23.7805212
21
148.3292652
0
LINE
8
DEFAULT_255_1_388
10
23.5645693
20
147.8729652
11
23.7226931
21
147.8729652
0
LINE
8
DEFAULT_255_1_388
10
23.7895568
20
148.1883092
11
23.7452822
21
148.1521666
0
ARC
8
DEFAULT_255_1_388
10
23.9891825
20
147.9715241
40
0.4141476
50
93.7181681
51
120.253934
0
ARC
8
DEFAULT_255_1_388
10
23.9997878
20
147.8806284
40
0.5055616
50
89.9660471
51
94.2495185
0
ARC
8
DEFAULT_255_1_388
10
24.00437
20
147.9469154
40
0.4392953
50
73.8045384
51
90.5585736
0
ARC
8
DEFAULT_255_1_388
10
24.0307957
20
148.043452
40
0.3392225
50
41.3071072
51
73.543002
0
ARC
8
DEFAULT_255_1_388
10
23.9839777
20
148.0031461
40
0.4009977
50
13.5075837
51
41.2174839
0
ARC
8
DEFAULT_255_1_388
10
23.7992875
20
147.9547907
40
0.5918864
50
1.1330171
51
13.8830737
0
ARC
8
DEFAULT_255_1_388
10
23.639652
20
147.9462522
40
0.7516787
50
359.9925091
51
1.5431298
0
ARC
8
DEFAULT_255_1_388
10
23.7841135
20
147.9416027
40
0.6072343
50
347.8572712
51
0.4294349
0
ARC
8
DEFAULT_255_1_388
10
23.981027
20
147.8969898
40
0.4053482
50
323.6727442
51
348.1674594
0
ARC
8
DEFAULT_255_1_388
10
24.0141235
20
147.8768175
40
0.3667495
50
316.8171818
51
323.1486802
0
ARC
8
DEFAULT_255_1_388
10
24.0210358
20
147.8726612
40
0.358869
50
281.839603
51
316.5458142
0
ARC
8
DEFAULT_255_1_388
10
23.9787646
20
148.0476363
40
0.5388223
50
269.5770964
51
282.4214641
0
ARC
8
DEFAULT_255_1_388
10
23.9707567
20
148.023593
40
0.5147801
50
256.2425863
51
270.4486481
0
ARC
8
DEFAULT_255_1_388
10
23.9371094
20
147.8886124
40
0.3756708
50
228.9024379
51
256.33135
0
ARC
8
DEFAULT_255_1_388
10
23.9288075
20
147.8755054
40
0.360344
50
193.7536029
51
228.5272638
0
ARC
8
DEFAULT_255_1_388
10
24.068064
20
147.9163463
40
0.5053599
50
184.9244437
51
194.4976052
0
ARC
8
DEFAULT_255_1_388
10
24.0897281
20
147.9203722
40
0.3700839
50
187.3596909
51
198.6733728
0
ARC
8
DEFAULT_255_1_388
10
23.9716524
20
147.8794373
40
0.2451195
50
198.4453795
51
217.7945479
0
ARC
8
DEFAULT_255_1_388
10
23.9383697
20
147.8558563
40
0.2043754
50
218.2887146
51
228.5613203
0
ARC
8
DEFAULT_255_1_388
10
23.9493704
20
147.8706902
40
0.2227819
50
228.9652423
51
258.1237049
0
ARC
8
DEFAULT_255_1_388
10
23.9725141
20
147.9697964
40
0.3245374
50
257.7260585
51
270.4013717
0
ARC
8
DEFAULT_255_1_388
10
23.9775639
20
147.9197255
40
0.2744726
50
269.4204315
51
286.420998
0
ARC
8
DEFAULT_255_1_388
10
23.9942695
20
147.8590705
40
0.2115721
50
286.7250065
51
320.6004665
0
ARC
8
DEFAULT_255_1_388
10
23.951161
20
147.8940527
40
0.2670878
50
320.6712228
51
344.5440474
0
ARC
8
DEFAULT_255_1_388
10
23.8210324
20
147.9322394
40
0.4026927
50
344.241448
51
356.735803
0
ARC
8
DEFAULT_255_1_388
10
23.6806631
20
147.9438656
40
0.5435085
50
356.3547471
51
0.0507222
0
ARC
8
DEFAULT_255_1_388
10
23.8308896
20
147.9473812
40
0.3932934
50
359.5579289
51
12.9534322
0
ARC
8
DEFAULT_255_1_388
10
23.9495736
20
147.9761586
40
0.2711827
50
12.6489751
51
41.608121
0
ARC
8
DEFAULT_255_1_388
10
23.9754896
20
147.9981946
40
0.2371737
50
41.7851122
51
85.9892156
0
ARC
8
DEFAULT_255_1_388
10
23.9616206
20
147.9066738
40
0.3295244
50
84.6965848
51
90.0672125
0
ARC
8
DEFAULT_255_1_388
10
23.9589774
20
147.8315118
40
0.4046926
50
89.6804991
51
99.161352
0
ARC
8
DEFAULT_255_1_388
10
23.9358783
20
147.9695848
40
0.2647044
50
98.9836248
51
113.8905702
0
ARC
8
DEFAULT_255_1_388
10
23.9100458
20
148.0305118
40
0.1985386
50
114.195234
51
127.3641866
0
LINE
8
DEFAULT_255_1_388
10
22.7012856
20
156.242369
11
22.7012856
21
156.0255135
0
LINE
8
DEFAULT_255_1_388
10
21.8709099
20
156.0029244
11
21.8709099
21
156.2261048
0
LINE
8
DEFAULT_255_1_388
10
22.5341262
20
155.9803353
11
22.5341262
21
156.2541153
0
LINE
8
DEFAULT_255_1_388
10
22.0380693
20
156.2667652
11
22.0380693
21
155.9993102
0
ARC
8
DEFAULT_255_1_388
10
21.323519
20
156.0200118
40
1.3777776
50
353.8440855
51
0.2287917
0
ARC
8
DEFAULT_255_1_388
10
21.8454208
20
155.9617414
40
0.852639
50
344.4934746
51
353.9763743
0
ARC
8
DEFAULT_255_1_388
10
22.1821015
20
155.8660191
40
0.5026273
50
329.2803599
51
344.7473406
0
ARC
8
DEFAULT_255_1_388
10
22.2936511
20
155.8048038
40
0.3754848
50
324.9361395
51
328.6153007
0
ARC
8
DEFAULT_255_1_388
10
22.3362161
20
155.7750586
40
0.3235566
50
280.5801797
51
324.9173226
0
ARC
8
DEFAULT_255_1_388
10
22.2910789
20
155.9630236
40
0.5167077
50
269.5979457
51
281.6732777
0
ARC
8
DEFAULT_255_1_388
10
22.2829693
20
155.9495113
40
0.5032026
50
256.6228565
51
270.5105488
0
ARC
8
DEFAULT_255_1_388
10
22.2377435
20
155.7753345
40
0.3233092
50
215.8618351
51
257.2787793
0
ARC
8
DEFAULT_255_1_388
10
22.3526142
20
155.8524106
40
0.4615831
50
197.9695203
51
215.2622745
0
ARC
8
DEFAULT_255_1_388
10
22.6321818
20
155.9467641
40
0.7566307
50
187.8816486
51
198.2346584
0
ARC
8
DEFAULT_255_1_388
10
23.0775056
20
156.0110453
40
1.2065653
50
180.8977266
51
188.0054894
0
ARC
8
DEFAULT_255_1_388
10
23.382527
20
156.02254
40
1.5117443
50
180.7434591
51
181.152202
0
ARC
8
DEFAULT_255_1_388
10
23.2150266
20
156.2315371
40
1.3441277
50
173.7674302
51
180.2315596
0
ARC
8
DEFAULT_255_1_388
10
22.7068135
20
156.2889779
40
0.8326847
50
164.3058537
51
173.9000553
0
ARC
8
DEFAULT_255_1_388
10
22.3792135
20
156.3833652
40
0.4917711
50
148.7922028
51
164.5682288
0
ARC
8
DEFAULT_255_1_388
10
22.2722872
20
156.4430457
40
0.3694204
50
144.5883979
51
148.1161588
0
ARC
8
DEFAULT_255_1_388
10
22.2335618
20
156.4700667
40
0.322202
50
101.6440149
51
144.5142619
0
ARC
8
DEFAULT_255_1_388
10
22.281381
20
156.2800337
40
0.5180451
50
89.528284
51
102.5820197
0
ARC
8
DEFAULT_255_1_388
10
22.2902802
20
156.2756376
40
0.5224441
50
77.0437914
51
90.508231
0
ARC
8
DEFAULT_255_1_388
10
22.3355055
20
156.4604272
40
0.3322297
50
48.2777708
51
77.4996087
0
ARC
8
DEFAULT_255_1_388
10
22.3436795
20
156.4749557
40
0.315966
50
36.3141586
51
47.6307332
0
ARC
8
DEFAULT_255_1_388
10
22.2459518
20
156.4091159
40
0.4337313
50
18.2931065
51
35.6770203
0
ARC
8
DEFAULT_255_1_388
10
21.9598358
20
156.3109107
40
0.7362203
50
8.0246996
51
18.5605636
0
ARC
8
DEFAULT_255_1_388
10
21.4914714
20
156.2417432
40
1.2096583
50
1.127539
51
8.1718423
0
ARC
8
DEFAULT_255_1_388
10
21.1265847
20
156.2274374
40
1.5747719
50
0.5432713
51
1.38669
0
ARC
8
DEFAULT_255_1_388
10
21.3323226
20
156.2581163
40
1.2018103
50
359.8092569
51
4.9408001
0
ARC
8
DEFAULT_255_1_388
10
21.8059807
20
156.30039
40
0.7262727
50
4.8364937
51
12.2906017
0
ARC
8
DEFAULT_255_1_388
10
22.1159272
20
156.3694485
40
0.4087324
50
12.0806994
51
23.8171225
0
ARC
8
DEFAULT_255_1_388
10
22.2479668
20
156.4253508
40
0.2653719
50
24.2874621
51
31.3934353
0
ARC
8
DEFAULT_255_1_388
10
22.3070104
20
156.4639822
40
0.1948607
50
30.7407708
51
82.4658033
0
ARC
8
DEFAULT_255_1_388
10
22.2867765
20
156.3646017
40
0.2961198
50
81.1057101
51
90.2187368
0
ARC
8
DEFAULT_255_1_388
10
22.2827577
20
156.3936421
40
0.2670929
50
89.380395
51
105.6763916
0
ARC
8
DEFAULT_255_1_388
10
22.2621299
20
156.468632
40
0.1893189
50
105.7980655
51
149.7387869
0
ARC
8
DEFAULT_255_1_388
10
22.3818439
20
156.3966719
40
0.3289892
50
149.4208441
51
163.628295
0
ARC
8
DEFAULT_255_1_388
10
22.6170668
20
156.3249345
40
0.5749004
50
163.3764549
51
172.141138
0
ARC
8
DEFAULT_255_1_388
10
22.988339
20
156.2717582
40
0.9499585
50
172.0258462
51
178.0705453
0
ARC
8
DEFAULT_255_1_388
10
23.3304943
20
156.2555682
40
1.2924734
50
177.8639301
51
179.5036263
0
ARC
8
DEFAULT_255_1_388
10
23.2085961
20
155.9952151
40
1.170534
50
179.7995545
51
185.246089
0
ARC
8
DEFAULT_255_1_388
10
22.7537554
20
155.9521404
40
0.7136613
50
185.1411911
51
193.0082205
0
ARC
8
DEFAULT_255_1_388
10
22.4563815
20
155.8818441
40
0.4080987
50
192.7897338
51
205.2507384
0
ARC
8
DEFAULT_255_1_388
10
22.3386025
20
155.8292538
40
0.2791522
50
205.8001921
51
211.2545876
0
ARC
8
DEFAULT_255_1_388
10
22.2797564
20
155.7898132
40
0.2084074
50
210.3789935
51
238.4007996
0
ARC
8
DEFAULT_255_1_388
10
22.277565
20
155.7950786
40
0.2117943
50
239.6521916
51
265.9793852
0
ARC
8
DEFAULT_255_1_388
10
22.2871499
20
155.8707358
40
0.2879689
50
265.1324455
51
270.0603288
0
ARC
8
DEFAULT_255_1_388
10
22.2903876
20
155.8342418
40
0.2514919
50
269.3314378
51
287.2180039
0
ARC
8
DEFAULT_255_1_388
10
22.3058958
20
155.7776291
40
0.1928357
50
287.7957942
51
329.0808983
0
ARC
8
DEFAULT_255_1_388
10
22.1981715
20
155.8448651
40
0.319808
50
328.6635261
51
343.3325043
0
ARC
8
DEFAULT_255_1_388
10
21.9537174
20
155.9210195
40
0.5758408
50
343.0498092
51
351.9392499
0
ARC
8
DEFAULT_255_1_388
10
21.5636496
20
155.9785205
40
0.9701202
50
351.8071632
51
357.7957897
0
ARC
8
DEFAULT_255_1_388
10
21.2001973
20
155.9973724
40
1.3340376
50
357.5870923
51
359.2682493
0
ARC
8
DEFAULT_255_1_388
10
23.0566138
20
155.5531142
40
0.1204062
50
163.5412609
51
180.5084512
0
ARC
8
DEFAULT_255_1_388
10
23.0350037
20
155.558946
40
0.0980307
50
138.1652
51
163.2315563
0
ARC
8
DEFAULT_255_1_388
10
23.0223778
20
155.5696456
40
0.0814881
50
105.6860499
51
137.8492655
0
ARC
8
DEFAULT_255_1_388
10
23.0356979
20
155.5264109
40
0.126719
50
92.6078949
51
106.199173
0
ARC
8
DEFAULT_255_1_388
10
23.0391169
20
155.4818207
40
0.1714243
50
89.9659531
51
93.0713334
0
ARC
8
DEFAULT_255_1_388
10
23.0403205
20
155.5068484
40
0.1464007
50
78.4379126
51
90.4311892
0
ARC
8
DEFAULT_255_1_388
10
23.0511852
20
155.5575017
40
0.094599
50
56.8961942
51
78.7357785
0
ARC
8
DEFAULT_255_1_388
10
23.0582963
20
155.5699075
40
0.0803272
50
42.6503148
51
56.3122241
0
ARC
8
DEFAULT_255_1_388
10
23.0438864
20
155.5566661
40
0.099897
50
3.8141057
51
42.636595
0
ARC
8
DEFAULT_255_1_388
10
23.0116186
20
155.5521616
40
0.1324137
50
359.9498843
51
4.8301897
0
ARC
8
DEFAULT_255_1_388
10
23.0371324
20
155.5509722
40
0.1069053
50
340.9378148
51
0.5753733
0
ARC
8
DEFAULT_255_1_388
10
23.0497906
20
155.5475569
40
0.0938301
50
316.0798885
51
340.3845117
0
ARC
8
DEFAULT_255_1_388
10
23.0563217
20
155.541552
40
0.0849605
50
285.8512844
51
315.941661
0
ARC
8
DEFAULT_255_1_388
10
23.0431097
20
155.584262
40
0.1296594
50
273.1293204
51
286.3125006
0
ARC
8
DEFAULT_255_1_388
10
23.0393607
20
155.6294586
40
0.1749979
50
269.9535313
51
273.5471598
0
ARC
8
DEFAULT_255_1_388
10
23.0381213
20
155.6048833
40
0.1504266
50
259.0487117
51
270.4180248
0
ARC
8
DEFAULT_255_1_388
10
23.0272825
20
155.5511783
40
0.0956414
50
239.7583641
51
259.3115656
0
ARC
8
DEFAULT_255_1_388
10
23.0181758
20
155.5342048
40
0.0763945
50
222.6243303
51
239.2473835
0
ARC
8
DEFAULT_255_1_388
10
23.0332929
20
155.5480572
40
0.0968985
50
182.9231258
51
222.598101
0
ARC
8
DEFAULT_255_1_388
10
23.0636129
20
155.5519696
40
0.1274004
50
179.9657458
51
183.9850364
0
LINE
8
DEFAULT_255_1_388
10
24.1081355
20
156.7799898
11
24.1081355
21
155.906243
0
LINE
8
DEFAULT_255_1_388
10
24.1081355
20
155.906243
11
24.2906555
21
155.906243
0
LINE
8
DEFAULT_255_1_388
10
24.2906555
20
155.906243
11
24.2906555
21
155.7698048
0
LINE
8
DEFAULT_255_1_388
10
24.2906555
20
155.7698048
11
24.1081355
21
155.7698048
0
LINE
8
DEFAULT_255_1_388
10
24.1081355
20
155.7698048
11
24.1081355
21
155.4644
0
LINE
8
DEFAULT_255_1_388
10
24.1081355
20
155.4644
11
23.9400725
21
155.4644
0
LINE
8
DEFAULT_255_1_388
10
23.9400725
20
155.4644
11
23.9400725
21
155.7698048
0
LINE
8
DEFAULT_255_1_388
10
23.9400725
20
155.7698048
11
23.3410093
21
155.7698048
0
LINE
8
DEFAULT_255_1_388
10
23.3410093
20
155.7698048
11
23.3410093
21
155.8682933
0
LINE
8
DEFAULT_255_1_388
10
23.3410093
20
155.8682933
11
23.9301333
21
156.7799898
0
LINE
8
DEFAULT_255_1_388
10
23.9301333
20
156.7799898
11
24.1081355
21
156.7799898
0
LINE
8
DEFAULT_255_1_388
10
23.9201941
20
156.5152455
11
23.5307578
21
155.906243
0
LINE
8
DEFAULT_255_1_388
10
23.5307578
20
155.906243
11
23.9400725
21
155.906243
0
LINE
8
DEFAULT_255_1_388
10
23.9400725
20
155.906243
11
23.9400725
21
156.551388
0
LINE
8
DEFAULT_255_1_388
10
23.9400725
20
156.551388
11
23.9201941
21
156.5152455
0
LINE
8
DEFAULT_255_1_388
10
22.8335856
20
164.179869
11
22.8335856
21
163.9630135
0
LINE
8
DEFAULT_255_1_388
10
22.0032099
20
163.9404244
11
22.0032099
21
164.1636048
0
LINE
8
DEFAULT_255_1_388
10
22.6664262
20
163.9178353
11
22.6664262
21
164.1916153
0
LINE
8
DEFAULT_255_1_388
10
22.1703693
20
164.2042652
11
22.1703693
21
163.9368102
0
ARC
8
DEFAULT_255_1_388
10
21.455819
20
163.9575118
40
1.3777776
50
353.8440855
51
0.2287917
0
ARC
8
DEFAULT_255_1_388
10
21.9777208
20
163.8992414
40
0.852639
50
344.4934746
51
353.9763743
0
ARC
8
DEFAULT_255_1_388
10
22.3144015
20
163.8035191
40
0.5026273
50
329.2803599
51
344.7473406
0
ARC
8
DEFAULT_255_1_388
10
22.4259511
20
163.7423038
40
0.3754848
50
324.9361395
51
328.6153007
0
ARC
8
DEFAULT_255_1_388
10
22.4685161
20
163.7125586
40
0.3235566
50
280.5801797
51
324.9173226
0
ARC
8
DEFAULT_255_1_388
10
22.4233789
20
163.9005236
40
0.5167077
50
269.5979457
51
281.6732777
0
ARC
8
DEFAULT_255_1_388
10
22.4152693
20
163.8870113
40
0.5032026
50
256.6228565
51
270.5105488
0
ARC
8
DEFAULT_255_1_388
10
22.3700435
20
163.7128345
40
0.3233092
50
215.8618351
51
257.2787793
0
ARC
8
DEFAULT_255_1_388
10
22.4849142
20
163.7899106
40
0.4615831
50
197.9695203
51
215.2622745
0
ARC
8
DEFAULT_255_1_388
10
22.7644818
20
163.8842641
40
0.7566307
50
187.8816486
51
198.2346584
0
ARC
8
DEFAULT_255_1_388
10
23.2098056
20
163.9485453
40
1.2065653
50
180.8977266
51
188.0054894
0
ARC
8
DEFAULT_255_1_388
10
23.514827
20
163.96004
40
1.5117443
50
180.7434591
51
181.152202
0
ARC
8
DEFAULT_255_1_388
10
23.3473266
20
164.1690371
40
1.3441277
50
173.7674302
51
180.2315596
0
ARC
8
DEFAULT_255_1_388
10
22.8391135
20
164.2264779
40
0.8326847
50
164.3058537
51
173.9000553
0
ARC
8
DEFAULT_255_1_388
10
22.5115135
20
164.3208652
40
0.4917711
50
148.7922028
51
164.5682288
0
ARC
8
DEFAULT_255_1_388
10
22.4045872
20
164.3805457
40
0.3694204
50
144.5883979
51
148.1161588
0
ARC
8
DEFAULT_255_1_388
10
22.3658618
20
164.4075667
40
0.322202
50
101.6440149
51
144.5142619
0
ARC
8
DEFAULT_255_1_388
10
22.413681
20
164.2175337
40
0.5180451
50
89.528284
51
102.5820197
0
ARC
8
DEFAULT_255_1_388
10
22.4225802
20
164.2131376
40
0.5224441
50
77.0437914
51
90.508231
0
ARC
8
DEFAULT_255_1_388
10
22.4678055
20
164.3979272
40
0.3322297
50
48.2777708
51
77.4996087
0
ARC
8
DEFAULT_255_1_388
10
22.4759795
20
164.4124557
40
0.315966
50
36.3141586
51
47.6307332
0
ARC
8
DEFAULT_255_1_388
10
22.3782518
20
164.3466159
40
0.4337313
50
18.2931065
51
35.6770203
0
ARC
8
DEFAULT_255_1_388
10
22.0921358
20
164.2484107
40
0.7362203
50
8.0246996
51
18.5605636
0
ARC
8
DEFAULT_255_1_388
10
21.6237714
20
164.1792432
40
1.2096583
50
1.127539
51
8.1718423
0
ARC
8
DEFAULT_255_1_388
10
21.2588847
20
164.1649374
40
1.5747719
50
0.5432713
51
1.38669
0
ARC
8
DEFAULT_255_1_388
10
21.4646226
20
164.1956163
40
1.2018103
50
359.8092569
51
4.9408001
0
ARC
8
DEFAULT_255_1_388
10
21.9382807
20
164.23789
40
0.7262727
50
4.8364937
51
12.2906017
0
ARC
8
DEFAULT_255_1_388
10
22.2482272
20
164.3069485
40
0.4087324
50
12.0806994
51
23.8171225
0
ARC
8
DEFAULT_255_1_388
10
22.3802668
20
164.3628508
40
0.2653719
50
24.2874621
51
31.3934353
0
ARC
8
DEFAULT_255_1_388
10
22.4393104
20
164.4014822
40
0.1948607
50
30.7407708
51
82.4658033
0
ARC
8
DEFAULT_255_1_388
10
22.4190765
20
164.3021017
40
0.2961198
50
81.1057101
51
90.2187368
0
ARC
8
DEFAULT_255_1_388
10
22.4150577
20
164.3311421
40
0.2670929
50
89.380395
51
105.6763916
0
ARC
8
DEFAULT_255_1_388
10
22.3944299
20
164.406132
40
0.1893189
50
105.7980655
51
149.7387869
0
ARC
8
DEFAULT_255_1_388
10
22.5141439
20
164.3341719
40
0.3289892
50
149.4208441
51
163.628295
0
ARC
8
DEFAULT_255_1_388
10
22.7493668
20
164.2624345
40
0.5749004
50
163.3764549
51
172.141138
0
ARC
8
DEFAULT_255_1_388
10
23.120639
20
164.2092582
40
0.9499585
50
172.0258462
51
178.0705453
0
ARC
8
DEFAULT_255_1_388
10
23.4627943
20
164.1930682
40
1.2924734
50
177.8639301
51
179.5036263
0
ARC
8
DEFAULT_255_1_388
10
23.3408961
20
163.9327151
40
1.170534
50
179.7995545
51
185.246089
0
ARC
8
DEFAULT_255_1_388
10
22.8860554
20
163.8896404
40
0.7136613
50
185.1411911
51
193.0082205
0
ARC
8
DEFAULT_255_1_388
10
22.5886815
20
163.8193441
40
0.4080987
50
192.7897338
51
205.2507384
0
ARC
8
DEFAULT_255_1_388
10
22.4709025
20
163.7667538
40
0.2791522
50
205.8001921
51
211.2545876
0
ARC
8
DEFAULT_255_1_388
10
22.4120564
20
163.7273132
40
0.2084074
50
210.3789935
51
238.4007996
0
ARC
8
DEFAULT_255_1_388
10
22.409865
20
163.7325786
40
0.2117943
50
239.6521916
51
265.9793852
0
ARC
8
DEFAULT_255_1_388
10
22.4194499
20
163.8082358
40
0.2879689
50
265.1324455
51
270.0603288
0
ARC
8
DEFAULT_255_1_388
10
22.4226876
20
163.7717418
40
0.2514919
50
269.3314378
51
287.2180039
0
ARC
8
DEFAULT_255_1_388
10
22.4381958
20
163.7151291
40
0.1928357
50
287.7957942
51
329.0808983
0
ARC
8
DEFAULT_255_1_388
10
22.3304715
20
163.7823651
40
0.319808
50
328.6635261
51
343.3325043
0
ARC
8
DEFAULT_255_1_388
10
22.0860174
20
163.8585195
40
0.5758408
50
343.0498092
51
351.9392499
0
ARC
8
DEFAULT_255_1_388
10
21.6959496
20
163.9160205
40
0.9701202
50
351.8071632
51
357.7957897
0
ARC
8
DEFAULT_255_1_388
10
21.3324973
20
163.9348724
40
1.3340376
50
357.5870923
51
359.2682493
0
ARC
8
DEFAULT_255_1_388
10
23.1889138
20
163.4906142
40
0.1204062
50
163.5412609
51
180.5084512
0
ARC
8
DEFAULT_255_1_388
10
23.1673037
20
163.496446
40
0.0980307
50
138.1652
51
163.2315563
0
ARC
8
DEFAULT_255_1_388
10
23.1546778
20
163.5071456
40
0.0814881
50
105.6860499
51
137.8492655
0
ARC
8
DEFAULT_255_1_388
10
23.1679979
20
163.4639109
40
0.126719
50
92.6078949
51
106.199173
0
ARC
8
DEFAULT_255_1_388
10
23.1714169
20
163.4193207
40
0.1714243
50
89.9659531
51
93.0713334
0
ARC
8
DEFAULT_255_1_388
10
23.1726205
20
163.4443484
40
0.1464007
50
78.4379126
51
90.4311892
0
ARC
8
DEFAULT_255_1_388
10
23.1834852
20
163.4950017
40
0.094599
50
56.8961942
51
78.7357785
0
ARC
8
DEFAULT_255_1_388
10
23.1905963
20
163.5074075
40
0.0803272
50
42.6503148
51
56.3122241
0
ARC
8
DEFAULT_255_1_388
10
23.1761864
20
163.4941661
40
0.099897
50
3.8141057
51
42.636595
0
ARC
8
DEFAULT_255_1_388
10
23.1439186
20
163.4896616
40
0.1324137
50
359.9498843
51
4.8301897
0
ARC
8
DEFAULT_255_1_388
10
23.1694324
20
163.4884722
40
0.1069053
50
340.9378148
51
0.5753733
0
ARC
8
DEFAULT_255_1_388
10
23.1820906
20
163.4850569
40
0.0938301
50
316.0798885
51
340.3845117
0
ARC
8
DEFAULT_255_1_388
10
23.1886217
20
163.479052
40
0.0849605
50
285.8512844
51
315.941661
0
ARC
8
DEFAULT_255_1_388
10
23.1754097
20
163.521762
40
0.1296594
50
273.1293204
51
286.3125006
0
ARC
8
DEFAULT_255_1_388
10
23.1716607
20
163.5669586
40
0.1749979
50
269.9535313
51
273.5471598
0
ARC
8
DEFAULT_255_1_388
10
23.1704213
20
163.5423833
40
0.1504266
50
259.0487117
51
270.4180248
0
ARC
8
DEFAULT_255_1_388
10
23.1595825
20
163.4886783
40
0.0956414
50
239.7583641
51
259.3115656
0
ARC
8
DEFAULT_255_1_388
10
23.1504758
20
163.4717048
40
0.0763945
50
222.6243303
51
239.2473835
0
ARC
8
DEFAULT_255_1_388
10
23.1655929
20
163.4855572
40
0.0968985
50
182.9231258
51
222.598101
0
ARC
8
DEFAULT_255_1_388
10
23.1959129
20
163.4894696
40
0.1274004
50
179.9657458
51
183.9850364
0
LINE
8
DEFAULT_255_1_388
10
23.7778105
20
164.0045775
11
23.7778105
21
164.1410157
0
LINE
8
DEFAULT_255_1_388
10
23.7778105
20
164.1410157
11
23.903406
21
164.1410157
0
LINE
8
DEFAULT_255_1_388
10
23.6892612
20
164.3723282
11
23.5221018
21
164.3723282
0
LINE
8
DEFAULT_255_1_388
10
23.5103554
20
163.7488688
11
23.6784184
21
163.7488688
0
LINE
8
DEFAULT_255_1_388
10
23.903406
20
164.0045775
11
23.7778105
21
164.0045775
0
ARC
8
DEFAULT_255_1_388
10
23.9001286
20
164.5226922
40
0.3816905
50
270.491971
51
281.8953028
0
ARC
8
DEFAULT_255_1_388
10
23.9272713
20
164.3987199
40
0.2547877
50
281.6690378
51
301.2943765
0
ARC
8
DEFAULT_255_1_388
10
23.9464164
20
164.3636926
40
0.2149197
50
301.7834992
51
311.754567
0
ARC
8
DEFAULT_255_1_388
10
23.9567206
20
164.352265
40
0.1995326
50
311.7325027
51
354.2803031
0
ARC
8
DEFAULT_255_1_388
10
23.8749622
20
164.366328
40
0.2823461
50
353.0941646
51
0.1174696
0
ARC
8
DEFAULT_255_1_388
10
23.823118
20
164.3716874
40
0.3342238
50
359.1804452
51
15.0452323
0
ARC
8
DEFAULT_255_1_388
10
23.9745238
20
164.4158546
40
0.1765747
50
13.957816
51
77.6713812
0
ARC
8
DEFAULT_255_1_388
10
23.9310474
20
164.2600464
40
0.3381982
50
76.111571
51
90.7028736
0
ARC
8
DEFAULT_255_1_388
10
23.9243886
20
164.290825
40
0.3074046
50
89.5321574
51
103.5319393
0
ARC
8
DEFAULT_255_1_388
10
23.9018269
20
164.3807443
40
0.2147041
50
103.2930114
51
133.5619756
0
ARC
8
DEFAULT_255_1_388
10
23.8968211
20
164.3874351
40
0.2064084
50
133.8349761
51
173.5343225
0
ARC
8
DEFAULT_255_1_388
10
23.9781868
20
164.3730144
40
0.2889266
50
172.5097183
51
180.1360699
0
ARC
8
DEFAULT_255_1_388
10
23.8711632
20
164.376888
40
0.3490913
50
155.3483706
51
180.7484035
0
ARC
8
DEFAULT_255_1_388
10
23.8656608
20
164.3736519
40
0.3454798
50
131.5745177
51
154.4799474
0
ARC
8
DEFAULT_255_1_388
10
23.9008891
20
164.3380422
40
0.3955058
50
96.9874487
51
131.9690874
0
ARC
8
DEFAULT_255_1_388
10
23.9255783
20
164.1979407
40
0.537622
50
89.8592909
51
97.7827481
0
ARC
8
DEFAULT_255_1_388
10
23.9309892
20
164.168436
40
0.5671399
50
78.3654493
51
90.4132586
0
ARC
8
DEFAULT_255_1_388
10
23.9712533
20
164.3550918
40
0.3762034
50
56.6229818
51
78.6387103
0
ARC
8
DEFAULT_255_1_388
10
23.9954363
20
164.3973846
40
0.3275964
50
47.0254604
51
56.085558
0
ARC
8
DEFAULT_255_1_388
10
23.9976614
20
164.4018189
40
0.3228382
50
10.9207523
51
46.777927
0
ARC
8
DEFAULT_255_1_388
10
23.8442208
20
164.3663401
40
0.4802559
50
359.6364235
51
11.6087615
0
ARC
8
DEFAULT_255_1_388
10
24.0506373
20
164.3646404
40
0.273833
50
332.3549969
51
359.7179765
0
ARC
8
DEFAULT_255_1_388
10
23.9774774
20
164.3993285
40
0.3547505
50
325.2332381
51
332.8746682
0
ARC
8
DEFAULT_255_1_388
10
23.9946357
20
164.3873763
40
0.3338396
50
292.9803892
51
325.2391113
0
ARC
8
DEFAULT_255_1_388
10
23.9635553
20
164.4478679
40
0.4016959
50
292.542178
51
293.6931461
0
ARC
8
DEFAULT_255_1_388
10
24.0079125
20
163.7213036
40
0.372079
50
57.643292
51
72.8626085
0
ARC
8
DEFAULT_255_1_388
10
24.0477959
20
163.7859273
40
0.2961455
50
36.7246661
51
57.4701329
0
ARC
8
DEFAULT_255_1_388
10
24.0465116
20
163.787347
40
0.2963321
50
8.054535
51
36.3561529
0
ARC
8
DEFAULT_255_1_388
10
23.9494788
20
163.7699073
40
0.3948682
50
359.8316595
51
8.5873361
0
ARC
8
DEFAULT_255_1_388
10
23.9072263
20
163.764497
40
0.4371398
50
343.9831631
51
0.557075
0
ARC
8
DEFAULT_255_1_388
10
24.0069312
20
163.7371963
40
0.3337749
50
311.6358204
51
343.7652116
0
ARC
8
DEFAULT_255_1_388
10
23.9643566
20
163.7851955
40
0.3979351
50
279.7829743
51
311.625622
0
ARC
8
DEFAULT_255_1_388
10
23.9304701
20
163.9468642
40
0.5630417
50
269.7285092
51
280.3857694
0
ARC
8
DEFAULT_255_1_388
10
23.9235014
20
163.9422241
40
0.5584119
50
256.6827433
51
270.4412869
0
ARC
8
DEFAULT_255_1_388
10
23.8854001
20
163.7864698
40
0.3980715
50
229.4223821
51
256.8554507
0
ARC
8
DEFAULT_255_1_388
10
23.8387554
20
163.7339683
40
0.3278564
50
181.8183354
51
229.6455015
0
ARC
8
DEFAULT_255_1_388
10
23.9557163
20
163.7486825
40
0.4453611
50
179.9760419
51
183.2330638
0
ARC
8
DEFAULT_255_1_388
10
23.9363716
20
163.7463781
40
0.2579652
50
179.4467996
51
196.2871626
0
ARC
8
DEFAULT_255_1_388
10
23.8815169
20
163.7313709
40
0.2011057
50
196.5661293
51
227.7059371
0
ARC
8
DEFAULT_255_1_388
10
23.8999777
20
163.7520155
40
0.2287994
50
227.7653015
51
257.8763321
0
ARC
8
DEFAULT_255_1_388
10
23.925286
20
163.8580961
40
0.3378385
50
257.4583525
51
270.4267406
0
ARC
8
DEFAULT_255_1_388
10
23.9304109
20
163.890723
40
0.3704652
50
269.5965319
51
280.8788143
0
ARC
8
DEFAULT_255_1_388
10
23.9562337
20
163.7617529
40
0.2389415
50
280.6347277
51
299.8594068
0
ARC
8
DEFAULT_255_1_388
10
23.9777107
20
163.7209736
40
0.19289
50
300.3575552
51
314.5515667
0
ARC
8
DEFAULT_255_1_388
10
23.9683783
20
163.7278025
40
0.204312
50
315.0730962
51
345.0429362
0
ARC
8
DEFAULT_255_1_388
10
23.864529
20
163.7580539
40
0.31246
50
344.598526
51
357.9270698
0
ARC
8
DEFAULT_255_1_388
10
23.7635595
20
163.7649705
40
0.4136265
50
357.4755098
51
0.0224936
0
ARC
8
DEFAULT_255_1_388
10
23.8788473
20
163.7677099
40
0.2983498
50
359.5051035
51
13.4236939
0
ARC
8
DEFAULT_255_1_388
10
23.9763563
20
163.7926637
40
0.1977186
50
12.9497905
51
48.7550905
0
ARC
8
DEFAULT_255_1_388
10
23.9558484
20
163.7646373
40
0.2323321
50
49.509109
51
72.1832965
0
ARC
8
DEFAULT_255_1_388
10
23.9155953
20
163.6451632
40
0.358397
50
71.9008458
51
84.3555134
0
ARC
8
DEFAULT_255_1_388
10
23.8974347
20
163.4919712
40
0.512641
50
84.019632
51
89.3326067
0
LINE
8
DEFAULT_255_1_388
10
22.8335856
20
172.117369
11
22.8335856
21
171.9005135
0
LINE
8
DEFAULT_255_1_388
10
22.0032099
20
171.8779244
11
22.0032099
21
172.1011048
0
LINE
8
DEFAULT_255_1_388
10
22.6664262
20
171.8553353
11
22.6664262
21
172.1291153
0
LINE
8
DEFAULT_255_1_388
10
22.1703693
20
172.1417652
11
22.1703693
21
171.8743102
0
ARC
8
DEFAULT_255_1_388
10
21.455819
20
171.8950118
40
1.3777776
50
353.8440855
51
0.2287917
0
ARC
8
DEFAULT_255_1_388
10
21.9777208
20
171.8367414
40
0.852639
50
344.4934746
51
353.9763743
0
ARC
8
DEFAULT_255_1_388
10
22.3144015
20
171.7410191
40
0.5026273
50
329.2803599
51
344.7473406
0
ARC
8
DEFAULT_255_1_388
10
22.4259511
20
171.6798038
40
0.3754848
50
324.9361395
51
328.6153007
0
ARC
8
DEFAULT_255_1_388
10
22.4685161
20
171.6500586
40
0.3235566
50
280.5801797
51
324.9173226
0
ARC
8
DEFAULT_255_1_388
10
22.4233789
20
171.8380236
40
0.5167077
50
269.5979457
51
281.6732777
0
ARC
8
DEFAULT_255_1_388
10
22.4152693
20
171.8245113
40
0.5032026
50
256.6228565
51
270.5105488
0
ARC
8
DEFAULT_255_1_388
10
22.3700435
20
171.6503345
40
0.3233092
50
215.8618351
51
257.2787793
0
ARC
8
DEFAULT_255_1_388
10
22.4849142
20
171.7274106
40
0.4615831
50
197.9695203
51
215.2622745
0
ARC
8
DEFAULT_255_1_388
10
22.7644818
20
171.8217641
40
0.7566307
50
187.8816486
51
198.2346584
0
ARC
8
DEFAULT_255_1_388
10
23.2098056
20
171.8860453
40
1.2065653
50
180.8977266
51
188.0054894
0
ARC
8
DEFAULT_255_1_388
10
23.514827
20
171.89754
40
1.5117443
50
180.7434591
51
181.152202
0
ARC
8
DEFAULT_255_1_388
10
23.3473266
20
172.1065371
40
1.3441277
50
173.7674302
51
180.2315596
0
ARC
8
DEFAULT_255_1_388
10
22.8391135
20
172.1639779
40
0.8326847
50
164.3058537
51
173.9000553
0
ARC
8
DEFAULT_255_1_388
10
22.5115135
20
172.2583652
40
0.4917711
50
148.7922028
51
164.5682288
0
ARC
8
DEFAULT_255_1_388
10
22.4045872
20
172.3180457
40
0.3694204
50
144.5883979
51
148.1161588
0
ARC
8
DEFAULT_255_1_388
10
22.3658618
20
172.3450667
40
0.322202
50
101.6440149
51
144.5142619
0
ARC
8
DEFAULT_255_1_388
10
22.413681
20
172.1550337
40
0.5180451
50
89.528284
51
102.5820197
0
ARC
8
DEFAULT_255_1_388
10
22.4225802
20
172.1506376
40
0.5224441
50
77.0437914
51
90.508231
0
ARC
8
DEFAULT_255_1_388
10
22.4678055
20
172.3354272
40
0.3322297
50
48.2777708
51
77.4996087
0
ARC
8
DEFAULT_255_1_388
10
22.4759795
20
172.3499557
40
0.315966
50
36.3141586
51
47.6307332
0
ARC
8
DEFAULT_255_1_388
10
22.3782518
20
172.2841159
40
0.4337313
50
18.2931065
51
35.6770203
0
ARC
8
DEFAULT_255_1_388
10
22.0921358
20
172.1859107
40
0.7362203
50
8.0246996
51
18.5605636
0
ARC
8
DEFAULT_255_1_388
10
21.6237714
20
172.1167432
40
1.2096583
50
1.127539
51
8.1718423
0
ARC
8
DEFAULT_255_1_388
10
21.2588847
20
172.1024374
40
1.5747719
50
0.5432713
51
1.38669
0
ARC
8
DEFAULT_255_1_388
10
21.4646226
20
172.1331163
40
1.2018103
50
359.8092569
51
4.9408001
0
ARC
8
DEFAULT_255_1_388
10
21.9382807
20
172.17539
40
0.7262727
50
4.8364937
51
12.2906017
0
ARC
8
DEFAULT_255_1_388
10
22.2482272
20
172.2444485
40
0.4087324
50
12.0806994
51
23.8171225
0
ARC
8
DEFAULT_255_1_388
10
22.3802668
20
172.3003508
40
0.2653719
50
24.2874621
51
31.3934353
0
ARC
8
DEFAULT_255_1_388
10
22.4393104
20
172.3389822
40
0.1948607
50
30.7407708
51
82.4658033
0
ARC
8
DEFAULT_255_1_388
10
22.4190765
20
172.2396017
40
0.2961198
50
81.1057101
51
90.2187368
0
ARC
8
DEFAULT_255_1_388
10
22.4150577
20
172.2686421
40
0.2670929
50
89.380395
51
105.6763916
0
ARC
8
DEFAULT_255_1_388
10
22.3944299
20
172.343632
40
0.1893189
50
105.7980655
51
149.7387869
0
ARC
8
DEFAULT_255_1_388
10
22.5141439
20
172.2716719
40
0.3289892
50
149.4208441
51
163.628295
0
ARC
8
DEFAULT_255_1_388
10
22.7493668
20
172.1999345
40
0.5749004
50
163.3764549
51
172.141138
0
ARC
8
DEFAULT_255_1_388
10
23.120639
20
172.1467582
40
0.9499585
50
172.0258462
51
178.0705453
0
ARC
8
DEFAULT_255_1_388
10
23.4627943
20
172.1305682
40
1.2924734
50
177.8639301
51
179.5036263
0
ARC
8
DEFAULT_255_1_388
10
23.3408961
20
171.8702151
40
1.170534
50
179.7995545
51
185.246089
0
ARC
8
DEFAULT_255_1_388
10
22.8860554
20
171.8271404
40
0.7136613
50
185.1411911
51
193.0082205
0
ARC
8
DEFAULT_255_1_388
10
22.5886815
20
171.7568441
40
0.4080987
50
192.7897338
51
205.2507384
0
ARC
8
DEFAULT_255_1_388
10
22.4709025
20
171.7042538
40
0.2791522
50
205.8001921
51
211.2545876
0
ARC
8
DEFAULT_255_1_388
10
22.4120564
20
171.6648132
40
0.2084074
50
210.3789935
51
238.4007996
0
ARC
8
DEFAULT_255_1_388
10
22.409865
20
171.6700786
40
0.2117943
50
239.6521916
51
265.9793852
0
ARC
8
DEFAULT_255_1_388
10
22.4194499
20
171.7457358
40
0.2879689
50
265.1324455
51
270.0603288
0
ARC
8
DEFAULT_255_1_388
10
22.4226876
20
171.7092418
40
0.2514919
50
269.3314378
51
287.2180039
0
ARC
8
DEFAULT_255_1_388
10
22.4381958
20
171.6526291
40
0.1928357
50
287.7957942
51
329.0808983
0
ARC
8
DEFAULT_255_1_388
10
22.3304715
20
171.7198651
40
0.319808
50
328.6635261
51
343.3325043
0
ARC
8
DEFAULT_255_1_388
10
22.0860174
20
171.7960195
40
0.5758408
50
343.0498092
51
351.9392499
0
ARC
8
DEFAULT_255_1_388
10
21.6959496
20
171.8535205
40
0.9701202
50
351.8071632
51
357.7957897
0
ARC
8
DEFAULT_255_1_388
10
21.3324973
20
171.8723724
40
1.3340376
50
357.5870923
51
359.2682493
0
ARC
8
DEFAULT_255_1_388
10
23.1889138
20
171.4281142
40
0.1204062
50
163.5412609
51
180.5084512
0
ARC
8
DEFAULT_255_1_388
10
23.1673037
20
171.433946
40
0.0980307
50
138.1652
51
163.2315563
0
ARC
8
DEFAULT_255_1_388
10
23.1546778
20
171.4446456
40
0.0814881
50
105.6860499
51
137.8492655
0
ARC
8
DEFAULT_255_1_388
10
23.1679979
20
171.4014109
40
0.126719
50
92.6078949
51
106.199173
0
ARC
8
DEFAULT_255_1_388
10
23.1714169
20
171.3568207
40
0.1714243
50
89.9659531
51
93.0713334
0
ARC
8
DEFAULT_255_1_388
10
23.1726205
20
171.3818484
40
0.1464007
50
78.4379126
51
90.4311892
0
ARC
8
DEFAULT_255_1_388
10
23.1834852
20
171.4325017
40
0.094599
50
56.8961942
51
78.7357785
0
ARC
8
DEFAULT_255_1_388
10
23.1905963
20
171.4449075
40
0.0803272
50
42.6503148
51
56.3122241
0
ARC
8
DEFAULT_255_1_388
10
23.1761864
20
171.4316661
40
0.099897
50
3.8141057
51
42.636595
0
ARC
8
DEFAULT_255_1_388
10
23.1439186
20
171.4271616
40
0.1324137
50
359.9498843
51
4.8301897
0
ARC
8
DEFAULT_255_1_388
10
23.1694324
20
171.4259722
40
0.1069053
50
340.9378148
51
0.5753733
0
ARC
8
DEFAULT_255_1_388
10
23.1820906
20
171.4225569
40
0.0938301
50
316.0798885
51
340.3845117
0
ARC
8
DEFAULT_255_1_388
10
23.1886217
20
171.416552
40
0.0849605
50
285.8512844
51
315.941661
0
ARC
8
DEFAULT_255_1_388
10
23.1754097
20
171.459262
40
0.1296594
50
273.1293204
51
286.3125006
0
ARC
8
DEFAULT_255_1_388
10
23.1716607
20
171.5044586
40
0.1749979
50
269.9535313
51
273.5471598
0
ARC
8
DEFAULT_255_1_388
10
23.1704213
20
171.4798833
40
0.1504266
50
259.0487117
51
270.4180248
0
ARC
8
DEFAULT_255_1_388
10
23.1595825
20
171.4261783
40
0.0956414
50
239.7583641
51
259.3115656
0
ARC
8
DEFAULT_255_1_388
10
23.1504758
20
171.4092048
40
0.0763945
50
222.6243303
51
239.2473835
0
ARC
8
DEFAULT_255_1_388
10
23.1655929
20
171.4230572
40
0.0968985
50
182.9231258
51
222.598101
0
ARC
8
DEFAULT_255_1_388
10
23.1959129
20
171.4269696
40
0.1274004
50
179.9657458
51
183.9850364
0
LINE
8
DEFAULT_255_1_388
10
24.3967521
20
171.4758382
11
24.3967521
21
171.3394
0
LINE
8
DEFAULT_255_1_388
10
24.3967521
20
171.3394
11
23.5347517
21
171.3394
0
LINE
8
DEFAULT_255_1_388
10
23.5347517
20
171.3394
11
23.5347517
21
171.4595741
0
LINE
8
DEFAULT_255_1_388
10
23.5347517
20
171.4595741
11
23.9901481
21
171.9655702
0
LINE
8
DEFAULT_255_1_388
10
23.6766113
20
172.2673607
11
23.5094519
21
172.2673607
0
LINE
8
DEFAULT_255_1_388
10
24.0886367
20
171.858046
11
23.7362465
21
171.4758382
0
LINE
8
DEFAULT_255_1_388
10
23.7362465
20
171.4758382
11
24.3967521
21
171.4758382
0
ARC
8
DEFAULT_255_1_388
10
22.4725541
20
173.3075983
40
2.0258655
50
318.5132526
51
320.7829045
0
ARC
8
DEFAULT_255_1_388
10
23.0673498
20
172.8234929
40
1.2589638
50
320.7372878
51
323.9739031
0
ARC
8
DEFAULT_255_1_388
10
23.508243
20
172.5040554
40
0.7145141
50
323.8962701
51
328.64194
0
ARC
8
DEFAULT_255_1_388
10
23.7384687
20
172.3620545
40
0.4440242
50
328.8294576
51
331.7891185
0
ARC
8
DEFAULT_255_1_388
10
23.8507007
20
172.3041374
40
0.3177517
50
331.4254512
51
352.9365785
0
ARC
8
DEFAULT_255_1_388
10
23.8660007
20
172.300705
40
0.3021496
50
353.2257659
51
0.0166158
0
ARC
8
DEFAULT_255_1_388
10
23.8896768
20
172.3032894
40
0.2784847
50
359.486299
51
15.9343185
0
ARC
8
DEFAULT_255_1_388
10
23.9467035
20
172.3186269
40
0.2194403
50
16.1712913
51
43.5286088
0
ARC
8
DEFAULT_255_1_388
10
23.9553979
20
172.3273191
40
0.2071504
50
43.4417391
51
83.1661095
0
ARC
8
DEFAULT_255_1_388
10
23.940314
20
172.2444316
40
0.2912888
50
82.160179
51
90.1505708
0
ARC
8
DEFAULT_255_1_388
10
23.9367622
20
172.1840279
40
0.3517025
50
89.5460741
51
102.5418361
0
ARC
8
DEFAULT_255_1_388
10
23.9094342
20
172.2999933
40
0.2325748
50
102.1738499
51
129.206123
0
ARC
8
DEFAULT_255_1_388
10
23.9005795
20
172.3139664
40
0.2161591
50
129.72865
51
135.753947
0
ARC
8
DEFAULT_255_1_388
10
23.9142277
20
172.3030728
40
0.2335433
50
136.1757367
51
166.3673339
0
ARC
8
DEFAULT_255_1_388
10
24.0274966
20
172.2727148
40
0.3507873
50
165.9090694
51
178.8684636
0
ARC
8
DEFAULT_255_1_388
10
24.1250737
20
172.2674263
40
0.4484624
50
178.4391136
51
180.0083808
0
ARC
8
DEFAULT_255_1_388
10
23.9671439
20
172.2718197
40
0.4577138
50
163.2878482
51
180.5581842
0
ARC
8
DEFAULT_255_1_388
10
23.876948
20
172.2966393
40
0.3641968
50
133.4540601
51
162.947111
0
ARC
8
DEFAULT_255_1_388
10
23.8970362
20
172.2752789
40
0.3935189
50
100.7869829
51
133.4382499
0
ARC
8
DEFAULT_255_1_388
10
23.9361607
20
172.1010399
40
0.5720313
50
89.660664
51
101.3702276
0
ARC
8
DEFAULT_255_1_388
10
23.9436216
20
172.1079263
40
0.5651495
50
78.2172678
51
90.412935
0
ARC
8
DEFAULT_255_1_388
10
23.9835681
20
172.2906511
40
0.378122
50
55.9269121
51
78.4888449
0
ARC
8
DEFAULT_255_1_388
10
24.0056397
20
172.3287187
40
0.3342379
50
47.929771
51
55.4049217
0
ARC
8
DEFAULT_255_1_388
10
24.0170927
20
172.3403618
40
0.3179217
50
4.334829
51
48.0560205
0
ARC
8
DEFAULT_255_1_388
10
23.8938729
20
172.3212487
40
0.442341
50
359.9251713
51
5.5971671
0
ARC
8
DEFAULT_255_1_388
10
23.9420883
20
172.3275728
40
0.3941854
50
337.8914027
51
358.9967534
0
ARC
8
DEFAULT_255_1_388
10
23.6368453
20
172.4453295
40
0.7213271
50
326.9132501
51
338.3508308
0
ARC
8
DEFAULT_255_1_388
10
23.1884565
20
172.7327105
40
1.2538973
50
319.6471833
51
327.0959558
0
ARC
8
DEFAULT_255_1_388
10
22.7571223
20
173.088505
40
1.8129975
50
317.2588228
51
319.9045804
0
LINE
8
DEFAULT_255_1_388
10
22.8406856
20
180.054869
11
22.8406856
21
179.8380135
0
LINE
8
DEFAULT_255_1_388
10
22.0103099
20
179.8154244
11
22.0103099
21
180.0386048
0
LINE
8
DEFAULT_255_1_388
10
22.6735262
20
179.7928353
11
22.6735262
21
180.0666153
0
LINE
8
DEFAULT_255_1_388
10
22.1774693
20
180.0792652
11
22.1774693
21
179.8118102
0
ARC
8
DEFAULT_255_1_388
10
21.462919
20
179.8325118
40
1.3777776
50
353.8440855
51
0.2287917
0
ARC
8
DEFAULT_255_1_388
10
21.9848208
20
179.7742414
40
0.852639
50
344.4934746
51
353.9763743
0
ARC
8
DEFAULT_255_1_388
10
22.3215015
20
179.6785191
40
0.5026273
50
329.2803599
51
344.7473406
0
ARC
8
DEFAULT_255_1_388
10
22.4330511
20
179.6173038
40
0.3754848
50
324.9361395
51
328.6153007
0
ARC
8
DEFAULT_255_1_388
10
22.4756161
20
179.5875586
40
0.3235566
50
280.5801797
51
324.9173226
0
ARC
8
DEFAULT_255_1_388
10
22.4304789
20
179.7755236
40
0.5167077
50
269.5979457
51
281.6732777
0
ARC
8
DEFAULT_255_1_388
10
22.4223693
20
179.7620113
40
0.5032026
50
256.6228565
51
270.5105488
0
ARC
8
DEFAULT_255_1_388
10
22.3771435
20
179.5878345
40
0.3233092
50
215.8618351
51
257.2787793
0
ARC
8
DEFAULT_255_1_388
10
22.4920142
20
179.6649106
40
0.4615831
50
197.9695203
51
215.2622745
0
ARC
8
DEFAULT_255_1_388
10
22.7715818
20
179.7592641
40
0.7566307
50
187.8816486
51
198.2346584
0
ARC
8
DEFAULT_255_1_388
10
23.2169056
20
179.8235453
40
1.2065653
50
180.8977266
51
188.0054894
0
ARC
8
DEFAULT_255_1_388
10
23.521927
20
179.83504
40
1.5117443
50
180.7434591
51
181.152202
0
ARC
8
DEFAULT_255_1_388
10
23.3544266
20
180.0440371
40
1.3441277
50
173.7674302
51
180.2315596
0
ARC
8
DEFAULT_255_1_388
10
22.8462135
20
180.1014779
40
0.8326847
50
164.3058537
51
173.9000553
0
ARC
8
DEFAULT_255_1_388
10
22.5186135
20
180.1958652
40
0.4917711
50
148.7922028
51
164.5682288
0
ARC
8
DEFAULT_255_1_388
10
22.4116872
20
180.2555457
40
0.3694204
50
144.5883979
51
148.1161588
0
ARC
8
DEFAULT_255_1_388
10
22.3729618
20
180.2825667
40
0.322202
50
101.6440149
51
144.5142619
0
ARC
8
DEFAULT_255_1_388
10
22.420781
20
180.0925337
40
0.5180451
50
89.528284
51
102.5820197
0
ARC
8
DEFAULT_255_1_388
10
22.4296802
20
180.0881376
40
0.5224441
50
77.0437914
51
90.508231
0
ARC
8
DEFAULT_255_1_388
10
22.4749055
20
180.2729272
40
0.3322297
50
48.2777708
51
77.4996087
0
ARC
8
DEFAULT_255_1_388
10
22.4830795
20
180.2874557
40
0.315966
50
36.3141586
51
47.6307332
0
ARC
8
DEFAULT_255_1_388
10
22.3853518
20
180.2216159
40
0.4337313
50
18.2931065
51
35.6770203
0
ARC
8
DEFAULT_255_1_388
10
22.0992358
20
180.1234107
40
0.7362203
50
8.0246996
51
18.5605636
0
ARC
8
DEFAULT_255_1_388
10
21.6308714
20
180.0542432
40
1.2096583
50
1.127539
51
8.1718423
0
ARC
8
DEFAULT_255_1_388
10
21.2659847
20
180.0399374
40
1.5747719
50
0.5432713
51
1.38669
0
ARC
8
DEFAULT_255_1_388
10
21.4717226
20
180.0706163
40
1.2018103
50
359.8092569
51
4.9408001
0
ARC
8
DEFAULT_255_1_388
10
21.9453807
20
180.11289
40
0.7262727
50
4.8364937
51
12.2906017
0
ARC
8
DEFAULT_255_1_388
10
22.2553272
20
180.1819485
40
0.4087324
50
12.0806994
51
23.8171225
0
ARC
8
DEFAULT_255_1_388
10
22.3873668
20
180.2378508
40
0.2653719
50
24.2874621
51
31.3934353
0
ARC
8
DEFAULT_255_1_388
10
22.4464104
20
180.2764822
40
0.1948607
50
30.7407708
51
82.4658033
0
ARC
8
DEFAULT_255_1_388
10
22.4261765
20
180.1771017
40
0.2961198
50
81.1057101
51
90.2187368
0
ARC
8
DEFAULT_255_1_388
10
22.4221577
20
180.2061421
40
0.2670929
50
89.380395
51
105.6763916
0
ARC
8
DEFAULT_255_1_388
10
22.4015299
20
180.281132
40
0.1893189
50
105.7980655
51
149.7387869
0
ARC
8
DEFAULT_255_1_388
10
22.5212439
20
180.2091719
40
0.3289892
50
149.4208441
51
163.628295
0
ARC
8
DEFAULT_255_1_388
10
22.7564668
20
180.1374345
40
0.5749004
50
163.3764549
51
172.141138
0
ARC
8
DEFAULT_255_1_388
10
23.127739
20
180.0842582
40
0.9499585
50
172.0258462
51
178.0705453
0
ARC
8
DEFAULT_255_1_388
10
23.4698943
20
180.0680682
40
1.2924734
50
177.8639301
51
179.5036263
0
ARC
8
DEFAULT_255_1_388
10
23.3479961
20
179.8077151
40
1.170534
50
179.7995545
51
185.246089
0
ARC
8
DEFAULT_255_1_388
10
22.8931554
20
179.7646404
40
0.7136613
50
185.1411911
51
193.0082205
0
ARC
8
DEFAULT_255_1_388
10
22.5957815
20
179.6943441
40
0.4080987
50
192.7897338
51
205.2507384
0
ARC
8
DEFAULT_255_1_388
10
22.4780025
20
179.6417538
40
0.2791522
50
205.8001921
51
211.2545876
0
ARC
8
DEFAULT_255_1_388
10
22.4191564
20
179.6023132
40
0.2084074
50
210.3789935
51
238.4007996
0
ARC
8
DEFAULT_255_1_388
10
22.416965
20
179.6075786
40
0.2117943
50
239.6521916
51
265.9793852
0
ARC
8
DEFAULT_255_1_388
10
22.4265499
20
179.6832358
40
0.2879689
50
265.1324455
51
270.0603288
0
ARC
8
DEFAULT_255_1_388
10
22.4297876
20
179.6467418
40
0.2514919
50
269.3314378
51
287.2180039
0
ARC
8
DEFAULT_255_1_388
10
22.4452958
20
179.5901291
40
0.1928357
50
287.7957942
51
329.0808983
0
ARC
8
DEFAULT_255_1_388
10
22.3375715
20
179.6573651
40
0.319808
50
328.6635261
51
343.3325043
0
ARC
8
DEFAULT_255_1_388
10
22.0931174
20
179.7335195
40
0.5758408
50
343.0498092
51
351.9392499
0
ARC
8
DEFAULT_255_1_388
10
21.7030496
20
179.7910205
40
0.9701202
50
351.8071632
51
357.7957897
0
ARC
8
DEFAULT_255_1_388
10
21.3395973
20
179.8098724
40
1.3340376
50
357.5870923
51
359.2682493
0
ARC
8
DEFAULT_255_1_388
10
23.1960138
20
179.3656142
40
0.1204062
50
163.5412609
51
180.5084512
0
ARC
8
DEFAULT_255_1_388
10
23.1744037
20
179.371446
40
0.0980307
50
138.1652
51
163.2315563
0
ARC
8
DEFAULT_255_1_388
10
23.1617778
20
179.3821456
40
0.0814881
50
105.6860499
51
137.8492655
0
ARC
8
DEFAULT_255_1_388
10
23.1750979
20
179.3389109
40
0.126719
50
92.6078949
51
106.199173
0
ARC
8
DEFAULT_255_1_388
10
23.1785169
20
179.2943207
40
0.1714243
50
89.9659531
51
93.0713334
0
ARC
8
DEFAULT_255_1_388
10
23.1797205
20
179.3193484
40
0.1464007
50
78.4379126
51
90.4311892
0
ARC
8
DEFAULT_255_1_388
10
23.1905852
20
179.3700017
40
0.094599
50
56.8961942
51
78.7357785
0
ARC
8
DEFAULT_255_1_388
10
23.1976963
20
179.3824075
40
0.0803272
50
42.6503148
51
56.3122241
0
ARC
8
DEFAULT_255_1_388
10
23.1832864
20
179.3691661
40
0.099897
50
3.8141057
51
42.636595
0
ARC
8
DEFAULT_255_1_388
10
23.1510186
20
179.3646616
40
0.1324137
50
359.9498843
51
4.8301897
0
ARC
8
DEFAULT_255_1_388
10
23.1765324
20
179.3634722
40
0.1069053
50
340.9378148
51
0.5753733
0
ARC
8
DEFAULT_255_1_388
10
23.1891906
20
179.3600569
40
0.0938301
50
316.0798885
51
340.3845117
0
ARC
8
DEFAULT_255_1_388
10
23.1957217
20
179.354052
40
0.0849605
50
285.8512844
51
315.941661
0
ARC
8
DEFAULT_255_1_388
10
23.1825097
20
179.396762
40
0.1296594
50
273.1293204
51
286.3125006
0
ARC
8
DEFAULT_255_1_388
10
23.1787607
20
179.4419586
40
0.1749979
50
269.9535313
51
273.5471598
0
ARC
8
DEFAULT_255_1_388
10
23.1775213
20
179.4173833
40
0.1504266
50
259.0487117
51
270.4180248
0
ARC
8
DEFAULT_255_1_388
10
23.1666825
20
179.3636783
40
0.0956414
50
239.7583641
51
259.3115656
0
ARC
8
DEFAULT_255_1_388
10
23.1575758
20
179.3467048
40
0.0763945
50
222.6243303
51
239.2473835
0
ARC
8
DEFAULT_255_1_388
10
23.1726929
20
179.3605572
40
0.0968985
50
182.9231258
51
222.598101
0
ARC
8
DEFAULT_255_1_388
10
23.2030129
20
179.3644696
40
0.1274004
50
179.9657458
51
183.9850364
0
LINE
8
DEFAULT_255_1_388
10
24.0912188
20
180.5988148
11
24.0912188
21
179.2769
0
LINE
8
DEFAULT_255_1_388
10
24.0912188
20
179.2769
11
23.9231559
21
179.2769
0
LINE
8
DEFAULT_255_1_388
10
23.9231559
20
179.2769
11
23.9231559
21
180.390995
0
LINE
8
DEFAULT_255_1_388
10
23.9231559
20
180.390995
11
23.5861263
21
180.2672066
0
LINE
8
DEFAULT_255_1_388
10
23.5861263
20
180.2672066
11
23.5861263
21
180.4190055
0
LINE
8
DEFAULT_255_1_388
10
23.5861263
20
180.4190055
11
24.0650155
21
180.5988148
0
LINE
8
DEFAULT_255_1_388
10
24.0650155
20
180.5988148
11
24.0912188
21
180.5988148
0
LINE
8
DEFAULT_255_1_388
10
22.8335856
20
187.992369
11
22.8335856
21
187.7755135
0
LINE
8
DEFAULT_255_1_388
10
22.0032099
20
187.7529244
11
22.0032099
21
187.9761048
0
LINE
8
DEFAULT_255_1_388
10
22.6664262
20
187.7303353
11
22.6664262
21
188.0041153
0
LINE
8
DEFAULT_255_1_388
10
22.1703693
20
188.0167652
11
22.1703693
21
187.7493102
0
ARC
8
DEFAULT_255_1_388
10
21.455819
20
187.7700118
40
1.3777776
50
353.8440855
51
0.2287917
0
ARC
8
DEFAULT_255_1_388
10
21.9777208
20
187.7117414
40
0.852639
50
344.4934746
51
353.9763743
0
ARC
8
DEFAULT_255_1_388
10
22.3144015
20
187.6160191
40
0.5026273
50
329.2803599
51
344.7473406
0
ARC
8
DEFAULT_255_1_388
10
22.4259511
20
187.5548038
40
0.3754848
50
324.9361395
51
328.6153007
0
ARC
8
DEFAULT_255_1_388
10
22.4685161
20
187.5250586
40
0.3235566
50
280.5801797
51
324.9173226
0
ARC
8
DEFAULT_255_1_388
10
22.4233789
20
187.7130236
40
0.5167077
50
269.5979457
51
281.6732777
0
ARC
8
DEFAULT_255_1_388
10
22.4152693
20
187.6995113
40
0.5032026
50
256.6228565
51
270.5105488
0
ARC
8
DEFAULT_255_1_388
10
22.3700435
20
187.5253345
40
0.3233092
50
215.8618351
51
257.2787793
0
ARC
8
DEFAULT_255_1_388
10
22.4849142
20
187.6024106
40
0.4615831
50
197.9695203
51
215.2622745
0
ARC
8
DEFAULT_255_1_388
10
22.7644818
20
187.6967641
40
0.7566307
50
187.8816486
51
198.2346584
0
ARC
8
DEFAULT_255_1_388
10
23.2098056
20
187.7610453
40
1.2065653
50
180.8977266
51
188.0054894
0
ARC
8
DEFAULT_255_1_388
10
23.514827
20
187.77254
40
1.5117443
50
180.7434591
51
181.152202
0
ARC
8
DEFAULT_255_1_388
10
23.3473266
20
187.9815371
40
1.3441277
50
173.7674302
51
180.2315596
0
ARC
8
DEFAULT_255_1_388
10
22.8391135
20
188.0389779
40
0.8326847
50
164.3058537
51
173.9000553
0
ARC
8
DEFAULT_255_1_388
10
22.5115135
20
188.1333652
40
0.4917711
50
148.7922028
51
164.5682288
0
ARC
8
DEFAULT_255_1_388
10
22.4045872
20
188.1930457
40
0.3694204
50
144.5883979
51
148.1161588
0
ARC
8
DEFAULT_255_1_388
10
22.3658618
20
188.2200667
40
0.322202
50
101.6440149
51
144.5142619
0
ARC
8
DEFAULT_255_1_388
10
22.413681
20
188.0300337
40
0.5180451
50
89.528284
51
102.5820197
0
ARC
8
DEFAULT_255_1_388
10
22.4225802
20
188.0256376
40
0.5224441
50
77.0437914
51
90.508231
0
ARC
8
DEFAULT_255_1_388
10
22.4678055
20
188.2104272
40
0.3322297
50
48.2777708
51
77.4996087
0
ARC
8
DEFAULT_255_1_388
10
22.4759795
20
188.2249557
40
0.315966
50
36.3141586
51
47.6307332
0
ARC
8
DEFAULT_255_1_388
10
22.3782518
20
188.1591159
40
0.4337313
50
18.2931065
51
35.6770203
0
ARC
8
DEFAULT_255_1_388
10
22.0921358
20
188.0609107
40
0.7362203
50
8.0246996
51
18.5605636
0
ARC
8
DEFAULT_255_1_388
10
21.6237714
20
187.9917432
40
1.2096583
50
1.127539
51
8.1718423
0
ARC
8
DEFAULT_255_1_388
10
21.2588847
20
187.9774374
40
1.5747719
50
0.5432713
51
1.38669
0
ARC
8
DEFAULT_255_1_388
10
21.4646226
20
188.0081163
40
1.2018103
50
359.8092569
51
4.9408001
0
ARC
8
DEFAULT_255_1_388
10
21.9382807
20
188.05039
40
0.7262727
50
4.8364937
51
12.2906017
0
ARC
8
DEFAULT_255_1_388
10
22.2482272
20
188.1194485
40
0.4087324
50
12.0806994
51
23.8171225
0
ARC
8
DEFAULT_255_1_388
10
22.3802668
20
188.1753508
40
0.2653719
50
24.2874621
51
31.3934353
0
ARC
8
DEFAULT_255_1_388
10
22.4393104
20
188.2139822
40
0.1948607
50
30.7407708
51
82.4658033
0
ARC
8
DEFAULT_255_1_388
10
22.4190765
20
188.1146017
40
0.2961198
50
81.1057101
51
90.2187368
0
ARC
8
DEFAULT_255_1_388
10
22.4150577
20
188.1436421
40
0.2670929
50
89.380395
51
105.6763916
0
ARC
8
DEFAULT_255_1_388
10
22.3944299
20
188.218632
40
0.1893189
50
105.7980655
51
149.7387869
0
ARC
8
DEFAULT_255_1_388
10
22.5141439
20
188.1466719
40
0.3289892
50
149.4208441
51
163.628295
0
ARC
8
DEFAULT_255_1_388
10
22.7493668
20
188.0749345
40
0.5749004
50
163.3764549
51
172.141138
0
ARC
8
DEFAULT_255_1_388
10
23.120639
20
188.0217582
40
0.9499585
50
172.0258462
51
178.0705453
0
ARC
8
DEFAULT_255_1_388
10
23.4627943
20
188.0055682
40
1.2924734
50
177.8639301
51
179.5036263
0
ARC
8
DEFAULT_255_1_388
10
23.3408961
20
187.7452151
40
1.170534
50
179.7995545
51
185.246089
0
ARC
8
DEFAULT_255_1_388
10
22.8860554
20
187.7021404
40
0.7136613
50
185.1411911
51
193.0082205
0
ARC
8
DEFAULT_255_1_388
10
22.5886815
20
187.6318441
40
0.4080987
50
192.7897338
51
205.2507384
0
ARC
8
DEFAULT_255_1_388
10
22.4709025
20
187.5792538
40
0.2791522
50
205.8001921
51
211.2545876
0
ARC
8
DEFAULT_255_1_388
10
22.4120564
20
187.5398132
40
0.2084074
50
210.3789935
51
238.4007996
0
ARC
8
DEFAULT_255_1_388
10
22.409865
20
187.5450786
40
0.2117943
50
239.6521916
51
265.9793852
0
ARC
8
DEFAULT_255_1_388
10
22.4194499
20
187.6207358
40
0.2879689
50
265.1324455
51
270.0603288
0
ARC
8
DEFAULT_255_1_388
10
22.4226876
20
187.5842418
40
0.2514919
50
269.3314378
51
287.2180039
0
ARC
8
DEFAULT_255_1_388
10
22.4381958
20
187.5276291
40
0.1928357
50
287.7957942
51
329.0808983
0
ARC
8
DEFAULT_255_1_388
10
22.3304715
20
187.5948651
40
0.319808
50
328.6635261
51
343.3325043
0
ARC
8
DEFAULT_255_1_388
10
22.0860174
20
187.6710195
40
0.5758408
50
343.0498092
51
351.9392499
0
ARC
8
DEFAULT_255_1_388
10
21.6959496
20
187.7285205
40
0.9701202
50
351.8071632
51
357.7957897
0
ARC
8
DEFAULT_255_1_388
10
21.3324973
20
187.7473724
40
1.3340376
50
357.5870923
51
359.2682493
0
ARC
8
DEFAULT_255_1_388
10
23.1889138
20
187.3031142
40
0.1204062
50
163.5412609
51
180.5084512
0
ARC
8
DEFAULT_255_1_388
10
23.1673037
20
187.308946
40
0.0980307
50
138.1652
51
163.2315563
0
ARC
8
DEFAULT_255_1_388
10
23.1546778
20
187.3196456
40
0.0814881
50
105.6860499
51
137.8492655
0
ARC
8
DEFAULT_255_1_388
10
23.1679979
20
187.2764109
40
0.126719
50
92.6078949
51
106.199173
0
ARC
8
DEFAULT_255_1_388
10
23.1714169
20
187.2318207
40
0.1714243
50
89.9659531
51
93.0713334
0
ARC
8
DEFAULT_255_1_388
10
23.1726205
20
187.2568484
40
0.1464007
50
78.4379126
51
90.4311892
0
ARC
8
DEFAULT_255_1_388
10
23.1834852
20
187.3075017
40
0.094599
50
56.8961942
51
78.7357785
0
ARC
8
DEFAULT_255_1_388
10
23.1905963
20
187.3199075
40
0.0803272
50
42.6503148
51
56.3122241
0
ARC
8
DEFAULT_255_1_388
10
23.1761864
20
187.3066661
40
0.099897
50
3.8141057
51
42.636595
0
ARC
8
DEFAULT_255_1_388
10
23.1439186
20
187.3021616
40
0.1324137
50
359.9498843
51
4.8301897
0
ARC
8
DEFAULT_255_1_388
10
23.1694324
20
187.3009722
40
0.1069053
50
340.9378148
51
0.5753733
0
ARC
8
DEFAULT_255_1_388
10
23.1820906
20
187.2975569
40
0.0938301
50
316.0798885
51
340.3845117
0
ARC
8
DEFAULT_255_1_388
10
23.1886217
20
187.291552
40
0.0849605
50
285.8512844
51
315.941661
0
ARC
8
DEFAULT_255_1_388
10
23.1754097
20
187.334262
40
0.1296594
50
273.1293204
51
286.3125006
0
ARC
8
DEFAULT_255_1_388
10
23.1716607
20
187.3794586
40
0.1749979
50
269.9535313
51
273.5471598
0
ARC
8
DEFAULT_255_1_388
10
23.1704213
20
187.3548833
40
0.1504266
50
259.0487117
51
270.4180248
0
ARC
8
DEFAULT_255_1_388
10
23.1595825
20
187.3011783
40
0.0956414
50
239.7583641
51
259.3115656
0
ARC
8
DEFAULT_255_1_388
10
23.1504758
20
187.2842048
40
0.0763945
50
222.6243303
51
239.2473835
0
ARC
8
DEFAULT_255_1_388
10
23.1655929
20
187.2980572
40
0.0968985
50
182.9231258
51
222.598101
0
ARC
8
DEFAULT_255_1_388
10
23.1959129
20
187.3019696
40
0.1274004
50
179.9657458
51
183.9850364
0
LINE
8
DEFAULT_255_1_388
10
24.359706
20
187.992369
11
24.359706
21
187.7755135
0
LINE
8
DEFAULT_255_1_388
10
23.5293303
20
187.7529244
11
23.5293303
21
187.9761048
0
LINE
8
DEFAULT_255_1_388
10
24.1925466
20
187.7303353
11
24.1925466
21
188.0041153
0
LINE
8
DEFAULT_255_1_388
10
23.6964897
20
188.0167652
11
23.6964897
21
187.7493102
0
ARC
8
DEFAULT_255_1_388
10
22.9819394
20
187.7700118
40
1.3777776
50
353.8440855
51
0.2287917
0
ARC
8
DEFAULT_255_1_388
10
23.5038411
20
187.7117414
40
0.852639
50
344.4934746
51
353.9763743
0
ARC
8
DEFAULT_255_1_388
10
23.8405219
20
187.6160191
40
0.5026273
50
329.2803599
51
344.7473406
0
ARC
8
DEFAULT_255_1_388
10
23.9520714
20
187.5548038
40
0.3754848
50
324.9361395
51
328.6153007
0
ARC
8
DEFAULT_255_1_388
10
23.9946364
20
187.5250586
40
0.3235566
50
280.5801797
51
324.9173226
0
ARC
8
DEFAULT_255_1_388
10
23.9494993
20
187.7130236
40
0.5167077
50
269.5979457
51
281.6732777
0
ARC
8
DEFAULT_255_1_388
10
23.9413896
20
187.6995113
40
0.5032026
50
256.6228565
51
270.5105488
0
ARC
8
DEFAULT_255_1_388
10
23.8961639
20
187.5253345
40
0.3233092
50
215.8618351
51
257.2787793
0
ARC
8
DEFAULT_255_1_388
10
24.0110346
20
187.6024106
40
0.4615831
50
197.9695203
51
215.2622745
0
ARC
8
DEFAULT_255_1_388
10
24.2906022
20
187.6967641
40
0.7566307
50
187.8816486
51
198.2346584
0
ARC
8
DEFAULT_255_1_388
10
24.735926
20
187.7610453
40
1.2065653
50
180.8977266
51
188.0054894
0
ARC
8
DEFAULT_255_1_388
10
25.0409474
20
187.77254
40
1.5117443
50
180.7434591
51
181.152202
0
ARC
8
DEFAULT_255_1_388
10
24.873447
20
187.9815371
40
1.3441277
50
173.7674302
51
180.2315596
0
ARC
8
DEFAULT_255_1_388
10
24.3652338
20
188.0389779
40
0.8326847
50
164.3058537
51
173.9000553
0
ARC
8
DEFAULT_255_1_388
10
24.0376339
20
188.1333652
40
0.4917711
50
148.7922028
51
164.5682288
0
ARC
8
DEFAULT_255_1_388
10
23.9307076
20
188.1930457
40
0.3694204
50
144.5883979
51
148.1161588
0
ARC
8
DEFAULT_255_1_388
10
23.8919821
20
188.2200667
40
0.322202
50
101.6440149
51
144.5142619
0
ARC
8
DEFAULT_255_1_388
10
23.9398013
20
188.0300337
40
0.5180451
50
89.528284
51
102.5820197
0
ARC
8
DEFAULT_255_1_388
10
23.9487005
20
188.0256376
40
0.5224441
50
77.0437914
51
90.508231
0
ARC
8
DEFAULT_255_1_388
10
23.9939259
20
188.2104272
40
0.3322297
50
48.2777708
51
77.4996087
0
ARC
8
DEFAULT_255_1_388
10
24.0020999
20
188.2249557
40
0.315966
50
36.3141586
51
47.6307332
0
ARC
8
DEFAULT_255_1_388
10
23.9043721
20
188.1591159
40
0.4337313
50
18.2931065
51
35.6770203
0
ARC
8
DEFAULT_255_1_388
10
23.6182562
20
188.0609107
40
0.7362203
50
8.0246996
51
18.5605636
0
ARC
8
DEFAULT_255_1_388
10
23.1498918
20
187.9917432
40
1.2096583
50
1.127539
51
8.1718423
0
ARC
8
DEFAULT_255_1_388
10
22.7850051
20
187.9774374
40
1.5747719
50
0.5432713
51
1.38669
0
ARC
8
DEFAULT_255_1_388
10
22.990743
20
188.0081163
40
1.2018103
50
359.8092569
51
4.9408001
0
ARC
8
DEFAULT_255_1_388
10
23.4644011
20
188.05039
40
0.7262727
50
4.8364937
51
12.2906017
0
ARC
8
DEFAULT_255_1_388
10
23.7743476
20
188.1194485
40
0.4087324
50
12.0806994
51
23.8171225
0
ARC
8
DEFAULT_255_1_388
10
23.9063872
20
188.1753508
40
0.2653719
50
24.2874621
51
31.3934353
0
ARC
8
DEFAULT_255_1_388
10
23.9654308
20
188.2139822
40
0.1948607
50
30.7407708
51
82.4658033
0
ARC
8
DEFAULT_255_1_388
10
23.9451968
20
188.1146017
40
0.2961198
50
81.1057101
51
90.2187368
0
ARC
8
DEFAULT_255_1_388
10
23.941178
20
188.1436421
40
0.2670929
50
89.380395
51
105.6763916
0
ARC
8
DEFAULT_255_1_388
10
23.9205502
20
188.218632
40
0.1893189
50
105.7980655
51
149.7387869
0
ARC
8
DEFAULT_255_1_388
10
24.0402642
20
188.1466719
40
0.3289892
50
149.4208441
51
163.628295
0
ARC
8
DEFAULT_255_1_388
10
24.2754872
20
188.0749345
40
0.5749004
50
163.3764549
51
172.141138
0
ARC
8
DEFAULT_255_1_388
10
24.6467593
20
188.0217582
40
0.9499585
50
172.0258462
51
178.0705453
0
ARC
8
DEFAULT_255_1_388
10
24.9889146
20
188.0055682
40
1.2924734
50
177.8639301
51
179.5036263
0
ARC
8
DEFAULT_255_1_388
10
24.8670165
20
187.7452151
40
1.170534
50
179.7995545
51
185.246089
0
ARC
8
DEFAULT_255_1_388
10
24.4121758
20
187.7021404
40
0.7136613
50
185.1411911
51
193.0082205
0
ARC
8
DEFAULT_255_1_388
10
24.1148019
20
187.6318441
40
0.4080987
50
192.7897338
51
205.2507384
0
ARC
8
DEFAULT_255_1_388
10
23.9970229
20
187.5792538
40
0.2791522
50
205.8001921
51
211.2545876
0
ARC
8
DEFAULT_255_1_388
10
23.9381768
20
187.5398132
40
0.2084074
50
210.3789935
51
238.4007996
0
ARC
8
DEFAULT_255_1_388
10
23.9359854
20
187.5450786
40
0.2117943
50
239.6521916
51
265.9793852
0
ARC
8
DEFAULT_255_1_388
10
23.9455703
20
187.6207358
40
0.2879689
50
265.1324455
51
270.0603288
0
ARC
8
DEFAULT_255_1_388
10
23.948808
20
187.5842418
40
0.2514919
50
269.3314378
51
287.2180039
0
ARC
8
DEFAULT_255_1_388
10
23.9643162
20
187.5276291
40
0.1928357
50
287.7957942
51
329.0808983
0
ARC
8
DEFAULT_255_1_388
10
23.8565919
20
187.5948651
40
0.319808
50
328.6635261
51
343.3325043
0
ARC
8
DEFAULT_255_1_388
10
23.6121378
20
187.6710195
40
0.5758408
50
343.0498092
51
351.9392499
0
ARC
8
DEFAULT_255_1_388
10
23.2220699
20
187.7285205
40
0.9701202
50
351.8071632
51
357.7957897
0
ARC
8
DEFAULT_255_1_388
10
22.8586176
20
187.7473724
40
1.3340376
50
357.5870923
51
359.2682493
0
ENDSEC
0
EOF