0
SECTION
2
HEADER
9
$MEASUREMENT
70
1
0
ENDSEC
0
SECTION
2
TABLES
0
TABLE
2
LTYPE
0
LTYPE
72
65
70
64
2
CONTINUOUS
3
______
73
0
40
0
0
ENDTAB
0
TABLE
2
LAYER
0
LAYER
2
DEFAULT_255_2_778
70
0
62
255
6
CONTINUOUS
0
LAYER
2
DEFAULT_255_1_388
70
0
62
255
6
CONTINUOUS
0
ENDTAB
0
ENDSEC
0
SECTION
2
ENTITIES
0
ARC
8
DEFAULT_255_2_778
10
3.5695693
20
139.3052021
40
0.7914215
50
129.1312896
51
180.1450914
0
ARC
8
DEFAULT_255_2_778
10
3.5698345
20
139.3056893
40
0.7912112
50
89.854026
51
129.1684493
0
ARC
8
DEFAULT_255_2_778
10
25.7988937
20
139.3053758
40
0.7915249
50
39.4792447
51
90.147911
0
ARC
8
DEFAULT_255_2_778
10
25.7994935
20
139.3052224
40
0.7911595
50
359.8533901
51
39.5154338
0
ARC
8
DEFAULT_255_2_778
10
25.7991693
20
-1.9863501
40
0.7914836
50
309.4761667
51
0.1482649
0
ARC
8
DEFAULT_255_2_778
10
25.798898
20
-1.9867812
40
0.7913235
50
269.8517415
51
309.511178
0
ARC
8
DEFAULT_255_2_778
10
3.569842
20
-1.986723
40
0.7913815
50
219.1282118
51
270.1454017
0
ARC
8
DEFAULT_255_2_778
10
3.5695247
20
-1.9863406
40
0.7913769
50
179.8524075
51
219.1641908
0
LINE
8
DEFAULT_255_2_778
10
3.5718503
20
140.096898
11
25.7968503
21
140.096898
0
LINE
8
DEFAULT_255_2_778
10
26.5906503
20
139.303198
11
26.5906503
21
-1.984302
0
LINE
8
DEFAULT_255_2_778
10
25.7968503
20
-2.778102
11
3.5718503
21
-2.778102
0
LINE
8
DEFAULT_255_2_778
10
2.7781503
20
-1.984302
11
2.7781503
21
139.303198
0
LINE
8
DEFAULT_255_1_388
10
5.8404015
20
0.6766934
11
5.8702191
21
0.6766934
0
LINE
8
DEFAULT_255_1_388
10
5.8702191
20
0.6766934
11
5.8702191
21
0.5348338
0
LINE
8
DEFAULT_255_1_388
10
5.8702191
20
0.5348338
11
5.8394979
21
0.5348338
0
LINE
8
DEFAULT_255_1_388
10
5.2241705
20
-0.1392253
11
5.2241705
21
-0.0750722
0
LINE
8
DEFAULT_255_1_388
10
5.3922335
20
-0.0967578
11
5.3922335
21
-0.1582001
0
ARC
8
DEFAULT_255_1_388
10
5.8453871
20
-0.0274174
40
0.562282
50
90.6001079
51
104.5146616
0
ARC
8
DEFAULT_255_1_388
10
5.801683
20
0.13511
40
0.3939917
50
104.2855758
51
133.8630124
0
ARC
8
DEFAULT_255_1_388
10
5.8201083
20
0.1229243
40
0.4155734
50
134.5304124
51
161.6210222
0
ARC
8
DEFAULT_255_1_388
10
6.0061015
20
0.0573421
40
0.6127682
50
161.2850533
51
174.2074364
0
ARC
8
DEFAULT_255_1_388
10
6.1650582
20
0.0354437
40
0.7731446
50
173.7817938
51
174.9251711
0
ARC
8
DEFAULT_255_1_388
10
5.6524775
20
-0.120073
40
0.3412588
50
95.8332067
51
138.995412
0
ARC
8
DEFAULT_255_1_388
10
5.6776056
20
-0.2639305
40
0.4870358
50
89.8755506
51
97.0540979
0
ARC
8
DEFAULT_255_1_388
10
5.6829445
20
-0.1699159
40
0.3930432
50
71.6407016
51
90.6240821
0
ARC
8
DEFAULT_255_1_388
10
5.6998838
20
-0.1075567
40
0.3285421
50
39.6368051
51
71.0190743
0
ARC
8
DEFAULT_255_1_388
10
5.6282746
20
-0.1694414
40
0.4231706
50
10.6588054
51
39.9044509
0
ARC
8
DEFAULT_255_1_388
10
5.4541291
20
-0.2072777
40
0.60133
50
359.6827842
51
11.1326896
0
ARC
8
DEFAULT_255_1_388
10
5.4496627
20
-0.2152285
40
0.6058047
50
347.2485908
51
0.4371098
0
ARC
8
DEFAULT_255_1_388
10
5.6372413
20
-0.2603621
40
0.4128987
50
318.1408565
51
347.6118497
0
ARC
8
DEFAULT_255_1_388
10
5.6738009
20
-0.2904097
40
0.3656244
50
275.6342406
51
317.824739
0
ARC
8
DEFAULT_255_1_388
10
5.648953
20
-0.1442173
40
0.513655
50
269.8872513
51
276.7916069
0
ARC
8
DEFAULT_255_1_388
10
5.6427723
20
-0.2595819
40
0.398323
50
246.9139443
51
270.7436787
0
ARC
8
DEFAULT_255_1_388
10
5.6434919
20
-0.2755956
40
0.3839368
50
218.1665534
51
245.8780431
0
ARC
8
DEFAULT_255_1_388
10
5.7424291
20
-0.1928097
40
0.5128958
50
191.4115343
51
218.6077624
0
ARC
8
DEFAULT_255_1_388
10
5.9604607
20
-0.1439223
40
0.7363054
50
179.6344971
51
191.7836758
0
ARC
8
DEFAULT_255_1_388
10
6.5884482
20
-0.0675505
40
1.3642984
50
171.4523743
51
180.3158856
0
ARC
8
DEFAULT_255_1_388
10
6.0940209
20
0.0093895
40
0.8639311
50
157.9802296
51
171.6246761
0
ARC
8
DEFAULT_255_1_388
10
5.8449559
20
0.1087038
40
0.5958004
50
141.4299236
51
157.8541251
0
ARC
8
DEFAULT_255_1_388
10
5.7727643
20
0.1597746
40
0.5075416
50
102.871586
51
140.8564533
0
ARC
8
DEFAULT_255_1_388
10
5.8456195
20
-0.1147057
40
0.7914163
50
90.377773
51
103.5868422
0
ARC
8
DEFAULT_255_1_388
10
5.6500717
20
-0.1827457
40
0.2667015
50
89.8751238
51
126.2072139
0
ARC
8
DEFAULT_255_1_388
10
5.6552188
20
-0.2001153
40
0.2838229
50
124.9742447
51
144.8960197
0
ARC
8
DEFAULT_255_1_388
10
5.6354433
20
-0.1840019
40
0.2583845
50
145.2974778
51
160.2660922
0
ARC
8
DEFAULT_255_1_388
10
5.9810921
20
-0.1617849
40
0.5888695
50
179.6512124
51
190.285571
0
ARC
8
DEFAULT_255_1_388
10
5.7905401
20
-0.1977032
40
0.3949683
50
190.0944895
51
207.5099647
0
ARC
8
DEFAULT_255_1_388
10
5.7268982
20
-0.2279823
40
0.3245464
50
207.9585471
51
216.325377
0
ARC
8
DEFAULT_255_1_388
10
5.6886619
20
-0.2594288
40
0.2751259
50
215.7661336
51
232.5457193
0
ARC
8
DEFAULT_255_1_388
10
5.6455735
20
-0.3141727
40
0.2054668
50
232.8005815
51
270.6605497
0
ARC
8
DEFAULT_255_1_388
10
5.650716
20
-0.2732147
40
0.2464268
50
269.3550767
51
288.474612
0
ARC
8
DEFAULT_255_1_388
10
5.6611667
20
-0.3125279
40
0.2058436
50
289.1831976
51
322.9685307
0
ARC
8
DEFAULT_255_1_388
10
5.5923768
20
-0.2582721
40
0.2934408
50
322.6007085
51
346.5183319
0
ARC
8
DEFAULT_255_1_388
10
5.4621524
20
-0.2250566
40
0.4278249
50
346.2584622
51
358.7739592
0
ARC
8
DEFAULT_255_1_388
10
5.34701
20
-0.2188171
40
0.5430876
50
358.3757628
51
0.0082477
0
ARC
8
DEFAULT_255_1_388
10
5.4326918
20
-0.2157144
40
0.4574157
50
359.6211417
51
11.28403
0
ARC
8
DEFAULT_255_1_388
10
5.5763524
20
-0.1857465
40
0.3106708
50
11.0483152
51
31.8145585
0
ARC
8
DEFAULT_255_1_388
10
5.6111229
20
-0.1668955
40
0.2711963
50
32.3028554
51
38.0820598
0
ARC
8
DEFAULT_255_1_388
10
5.6584462
20
-0.1240283
40
0.2075566
50
36.8249851
51
85.741667
0
ARC
8
DEFAULT_255_1_388
10
5.6508875
20
-0.1803935
40
0.2643487
50
85.0150021
51
90.050843
0
LINE
8
DEFAULT_255_1_388
10
7.0403351
20
0.1101585
11
7.0403351
21
-0.0317011
0
LINE
8
DEFAULT_255_1_388
10
7.0403351
20
-0.0317011
11
6.4701859
21
-0.0317011
0
LINE
8
DEFAULT_255_1_388
10
6.4701859
20
-0.0317011
11
6.4701859
21
-0.4979404
0
LINE
8
DEFAULT_255_1_388
10
6.4701859
20
-0.4979404
11
7.1324986
21
-0.4979404
0
LINE
8
DEFAULT_255_1_388
10
7.1324986
20
-0.4979404
11
7.1324986
21
-0.6398
0
LINE
8
DEFAULT_255_1_388
10
7.1324986
20
-0.6398
11
6.2967015
21
-0.6398
0
LINE
8
DEFAULT_255_1_388
10
6.2967015
20
-0.6398
11
6.2967015
21
0.6757898
0
LINE
8
DEFAULT_255_1_388
10
6.2967015
20
0.6757898
11
7.123463
21
0.6757898
0
LINE
8
DEFAULT_255_1_388
10
7.123463
20
0.6757898
11
7.123463
21
0.5330267
0
LINE
8
DEFAULT_255_1_388
10
7.123463
20
0.5330267
11
6.4701859
21
0.5330267
0
LINE
8
DEFAULT_255_1_388
10
6.4701859
20
0.5330267
11
6.4701859
21
0.1101585
0
LINE
8
DEFAULT_255_1_388
10
6.4701859
20
0.1101585
11
7.0403351
21
0.1101585
0
LINE
8
DEFAULT_255_1_388
10
8.2212938
20
0.2953892
11
8.0469059
21
0.2953892
0
LINE
8
DEFAULT_255_1_388
10
7.2680333
20
-0.2584958
11
7.4424212
21
-0.2584958
0
ARC
8
DEFAULT_255_1_388
10
8.1209786
20
1.3017821
40
1.4087688
50
248.9196578
51
254.1442424
0
ARC
8
DEFAULT_255_1_388
10
7.9319666
20
0.8151805
40
0.8867498
50
241.6337352
51
249.0064643
0
ARC
8
DEFAULT_255_1_388
10
7.7599979
20
0.5000764
40
0.5277799
50
230.4982261
51
241.8087583
0
ARC
8
DEFAULT_255_1_388
10
7.671775
20
0.3876686
40
0.3849419
50
227.4062979
51
229.9877433
0
ARC
8
DEFAULT_255_1_388
10
7.6169097
20
0.3341155
40
0.3084129
50
200.6782127
51
228.1765252
0
ARC
8
DEFAULT_255_1_388
10
7.6250466
20
0.3324277
40
0.315461
50
179.506278
51
199.8695278
0
ARC
8
DEFAULT_255_1_388
10
7.6240054
20
0.3407671
40
0.3144584
50
132.4834401
51
181.0242352
0
ARC
8
DEFAULT_255_1_388
10
7.6909259
20
0.2775788
40
0.4063094
50
129.2526113
51
133.4249077
0
ARC
8
DEFAULT_255_1_388
10
7.7074851
20
0.2527619
40
0.436014
50
101.9878945
51
128.8741833
0
ARC
8
DEFAULT_255_1_388
10
7.7523267
20
0.059136
40
0.6347415
50
89.5906376
51
102.3170567
0
ARC
8
DEFAULT_255_1_388
10
7.7602578
20
0.0949586
40
0.5989122
50
77.2359491
51
90.3248968
0
ARC
8
DEFAULT_255_1_388
10
7.7835509
20
0.2037554
40
0.4876594
50
63.8379856
51
77.0808925
0
ARC
8
DEFAULT_255_1_388
10
7.8148043
20
0.2619882
40
0.4216191
50
45.9863127
51
64.1608798
0
ARC
8
DEFAULT_255_1_388
10
7.8441436
20
0.295499
40
0.3771394
50
32.2747934
51
45.6544796
0
ARC
8
DEFAULT_255_1_388
10
7.8516243
20
0.2976426
40
0.3696765
50
359.6507495
51
32.6129943
0
ARC
8
DEFAULT_255_1_388
10
7.7455425
20
0.2981788
40
0.3013762
50
359.469654
51
14.983205
0
ARC
8
DEFAULT_255_1_388
10
7.8248678
20
0.3194288
40
0.2192542
50
14.9781954
51
48.2004799
0
ARC
8
DEFAULT_255_1_388
10
7.8063788
20
0.2961937
40
0.2489048
50
48.5926661
51
74.1242559
0
ARC
8
DEFAULT_255_1_388
10
7.7688591
20
0.1723607
40
0.3782845
50
73.7889321
51
86.6653996
0
ARC
8
DEFAULT_255_1_388
10
7.7573405
20
0.0365955
40
0.5145025
50
86.2642725
51
90.0533288
0
ARC
8
DEFAULT_255_1_388
10
7.7541498
20
0.0810376
40
0.4700681
50
89.669455
51
99.2313411
0
ARC
8
DEFAULT_255_1_388
10
7.7268658
20
0.2435401
40
0.3052945
50
99.0695987
51
113.7659242
0
ARC
8
DEFAULT_255_1_388
10
7.6960652
20
0.3161772
40
0.226407
50
114.0402885
51
127.9848946
0
ARC
8
DEFAULT_255_1_388
10
7.6690129
20
0.3494884
40
0.1835045
50
127.7287217
51
176.7106493
0
ARC
8
DEFAULT_255_1_388
10
7.7453794
20
0.338121
40
0.2604907
50
175.1780759
51
180.0581213
0
ARC
8
DEFAULT_255_1_388
10
7.6505137
20
0.3367411
40
0.1656287
50
179.6140658
51
228.124674
0
ARC
8
DEFAULT_255_1_388
10
7.7002495
20
0.382794
40
0.2332038
50
226.5785315
51
230.8792476
0
ARC
8
DEFAULT_255_1_388
10
7.7531981
20
0.4530908
40
0.3211664
50
231.4636401
51
241.9261664
0
ARC
8
DEFAULT_255_1_388
10
7.8878765
20
0.7009349
40
0.6032345
50
241.7177136
51
248.3259138
0
ARC
8
DEFAULT_255_1_388
10
8.0437359
20
1.0870771
40
1.0196417
50
248.2007377
51
252.4527713
0
ARC
8
DEFAULT_255_1_388
10
8.1790886
20
1.5055092
40
1.4594143
50
252.3388938
51
254.347037
0
ARC
8
DEFAULT_255_1_388
10
7.3306187
20
-1.5292905
40
1.6917621
50
71.0197462
51
74.4085467
0
ARC
8
DEFAULT_255_1_388
10
7.5213275
20
-0.9787856
40
1.1091618
50
66.1845203
51
71.086519
0
ARC
8
DEFAULT_255_1_388
10
7.6963823
20
-0.5846561
40
0.6779073
50
59.3537334
51
66.269255
0
ARC
8
DEFAULT_255_1_388
10
7.7963549
20
-0.4155223
40
0.4814366
50
49.1021732
51
59.3294421
0
ARC
8
DEFAULT_255_1_388
10
7.8884538
20
-0.3105425
40
0.3417875
50
32.7924183
51
49.2503526
0
ARC
8
DEFAULT_255_1_388
10
7.9234152
20
-0.2855689
40
0.2988789
50
31.121225
51
32.3977355
0
ARC
8
DEFAULT_255_1_388
10
7.914633
20
-0.2888272
40
0.3080861
50
8.1116803
51
30.7958224
0
ARC
8
DEFAULT_255_1_388
10
7.8234675
20
-0.3043563
40
0.4005385
50
359.8390945
51
8.4707348
0
ARC
8
DEFAULT_255_1_388
10
7.8938723
20
-0.3098249
40
0.3301608
50
337.4732479
51
0.7538283
0
ARC
8
DEFAULT_255_1_388
10
7.9139748
20
-0.3120446
40
0.3107929
50
307.5917028
51
336.4313755
0
ARC
8
DEFAULT_255_1_388
10
7.8628806
20
-0.2552491
40
0.3870096
50
307.6560665
51
308.4561779
0
ARC
8
DEFAULT_255_1_388
10
7.8363022
20
-0.2144168
40
0.435591
50
284.3733666
51
307.1426212
0
ARC
8
DEFAULT_255_1_388
10
7.7805917
20
-0.0094609
40
0.6479685
50
272.4384566
51
284.6464689
0
ARC
8
DEFAULT_255_1_388
10
7.7663302
20
0.1929434
40
0.8508149
50
269.9708517
51
272.8180721
0
ARC
8
DEFAULT_255_1_388
10
7.7614984
20
-0.0362717
40
0.6216151
50
248.2707343
51
270.4054609
0
ARC
8
DEFAULT_255_1_388
10
7.7553856
20
-0.0577327
40
0.5994203
50
246.1380358
51
248.054058
0
ARC
8
DEFAULT_255_1_388
10
7.7082998
20
-0.1566295
40
0.4899388
50
233.1671897
51
246.4951656
0
ARC
8
DEFAULT_255_1_388
10
7.6459633
20
-0.2407863
40
0.3852115
50
215.3403381
51
233.084328
0
ARC
8
DEFAULT_255_1_388
10
7.6152997
20
-0.2630907
40
0.3472969
50
179.2419235
51
215.2648426
0
ARC
8
DEFAULT_255_1_388
10
7.7016548
20
-0.2615021
40
0.259251
50
179.3355796
51
199.1045873
0
ARC
8
DEFAULT_255_1_388
10
7.664269
20
-0.2712777
40
0.2207454
50
199.8830064
51
232.7061328
0
ARC
8
DEFAULT_255_1_388
10
7.7173965
20
-0.2044544
40
0.306101
50
232.3736206
51
255.5136621
0
ARC
8
DEFAULT_255_1_388
10
7.755747
20
-0.0644823
40
0.4512213
50
255.2447928
51
267.5318292
0
ARC
8
DEFAULT_255_1_388
10
7.7655937
20
0.0741709
40
0.5901825
50
267.1564563
51
270.0294721
0
ARC
8
DEFAULT_255_1_388
10
7.7687263
20
0.0242623
40
0.5402814
50
269.6999944
51
278.1662446
0
ARC
8
DEFAULT_255_1_388
10
7.797529
20
-0.1704026
40
0.3435003
50
278.0229022
51
290.6255326
0
ARC
8
DEFAULT_255_1_388
10
7.8366457
20
-0.2747453
40
0.2320666
50
290.6616368
51
307.0374127
0
ARC
8
DEFAULT_255_1_388
10
7.8704357
20
-0.316196
40
0.1786372
50
306.3942078
51
355.303191
0
ARC
8
DEFAULT_255_1_388
10
7.812865
20
-0.3075814
40
0.2367516
50
354.3662092
51
0.0709489
0
ARC
8
DEFAULT_255_1_388
10
7.8288518
20
-0.3050439
40
0.2207761
50
359.4175379
51
16.1975911
0
ARC
8
DEFAULT_255_1_388
10
7.8800636
20
-0.2910046
40
0.1676828
50
16.4721294
51
52.6261798
0
ARC
8
DEFAULT_255_1_388
10
7.7877144
20
-0.4129394
40
0.3206412
50
52.7381828
51
62.4979144
0
ARC
8
DEFAULT_255_1_388
10
7.6318896
20
-0.7061764
40
0.6527035
50
62.2517425
51
68.1219454
0
ARC
8
DEFAULT_255_1_388
10
7.4384384
20
-1.1816049
40
1.1659797
50
68.006043
51
71.8055127
0
ARC
8
DEFAULT_255_1_388
10
7.2364292
20
-1.7874277
40
1.8045908
50
71.718361
51
73.9260743
0
LINE
8
DEFAULT_255_1_388
10
9.2522608
20
0.6757898
11
9.2522608
21
0.5818191
0
LINE
8
DEFAULT_255_1_388
10
9.2522608
20
0.5818191
11
8.7074115
21
-0.6398
0
LINE
8
DEFAULT_255_1_388
10
8.7074115
20
-0.6398
11
8.53212
21
-0.6398
0
LINE
8
DEFAULT_255_1_388
10
8.53212
20
-0.6398
11
9.0751622
21
0.538448
0
LINE
8
DEFAULT_255_1_388
10
9.0751622
20
0.538448
11
8.3631534
21
0.538448
0
LINE
8
DEFAULT_255_1_388
10
8.3631534
20
0.538448
11
8.3631534
21
0.6757898
0
LINE
8
DEFAULT_255_1_388
10
8.3631534
20
0.6757898
11
9.2522608
21
0.6757898
0
LINE
8
DEFAULT_255_1_388
10
9.6850682
20
-0.0371225
11
9.6850682
21
0.0993157
0
LINE
8
DEFAULT_255_1_388
10
9.6850682
20
0.0993157
11
9.8106637
21
0.0993157
0
LINE
8
DEFAULT_255_1_388
10
9.5965189
20
0.3306282
11
9.4293595
21
0.3306282
0
LINE
8
DEFAULT_255_1_388
10
9.4176131
20
-0.2928313
11
9.5856761
21
-0.2928313
0
LINE
8
DEFAULT_255_1_388
10
9.8106637
20
-0.0371225
11
9.6850682
21
-0.0371225
0
ARC
8
DEFAULT_255_1_388
10
9.8073863
20
0.4809922
40
0.3816905
50
270.491971
51
281.8953028
0
ARC
8
DEFAULT_255_1_388
10
9.834529
20
0.3570199
40
0.2547877
50
281.6690378
51
301.2943765
0
ARC
8
DEFAULT_255_1_388
10
9.8536741
20
0.3219926
40
0.2149197
50
301.7834992
51
311.754567
0
ARC
8
DEFAULT_255_1_388
10
9.8639783
20
0.310565
40
0.1995326
50
311.7325027
51
354.2803031
0
ARC
8
DEFAULT_255_1_388
10
9.7822199
20
0.324628
40
0.2823461
50
353.0941646
51
0.1174696
0
ARC
8
DEFAULT_255_1_388
10
9.7303757
20
0.3299874
40
0.3342238
50
359.1804452
51
15.0452323
0
ARC
8
DEFAULT_255_1_388
10
9.8817815
20
0.3741546
40
0.1765747
50
13.957816
51
77.6713812
0
ARC
8
DEFAULT_255_1_388
10
9.8383051
20
0.2183464
40
0.3381982
50
76.111571
51
90.7028736
0
ARC
8
DEFAULT_255_1_388
10
9.8316463
20
0.249125
40
0.3074046
50
89.5321574
51
103.5319393
0
ARC
8
DEFAULT_255_1_388
10
9.8090847
20
0.3390443
40
0.2147041
50
103.2930114
51
133.5619756
0
ARC
8
DEFAULT_255_1_388
10
9.8040788
20
0.3457351
40
0.2064084
50
133.8349761
51
173.5343225
0
ARC
8
DEFAULT_255_1_388
10
9.8854446
20
0.3313144
40
0.2889266
50
172.5097183
51
180.1360699
0
ARC
8
DEFAULT_255_1_388
10
9.778421
20
0.335188
40
0.3490913
50
155.3483706
51
180.7484035
0
ARC
8
DEFAULT_255_1_388
10
9.7729185
20
0.3319519
40
0.3454798
50
131.5745177
51
154.4799474
0
ARC
8
DEFAULT_255_1_388
10
9.8081468
20
0.2963422
40
0.3955058
50
96.9874487
51
131.9690874
0
ARC
8
DEFAULT_255_1_388
10
9.832836
20
0.1562407
40
0.537622
50
89.8592909
51
97.7827481
0
ARC
8
DEFAULT_255_1_388
10
9.8382469
20
0.126736
40
0.5671399
50
78.3654493
51
90.4132586
0
ARC
8
DEFAULT_255_1_388
10
9.8785111
20
0.3133918
40
0.3762034
50
56.6229818
51
78.6387103
0
ARC
8
DEFAULT_255_1_388
10
9.902694
20
0.3556846
40
0.3275964
50
47.0254604
51
56.085558
0
ARC
8
DEFAULT_255_1_388
10
9.9049191
20
0.3601189
40
0.3228382
50
10.9207523
51
46.777927
0
ARC
8
DEFAULT_255_1_388
10
9.7514785
20
0.3246401
40
0.4802559
50
359.6364235
51
11.6087615
0
ARC
8
DEFAULT_255_1_388
10
9.957895
20
0.3229404
40
0.273833
50
332.3549969
51
359.7179765
0
ARC
8
DEFAULT_255_1_388
10
9.8847351
20
0.3576285
40
0.3547505
50
325.2332381
51
332.8746682
0
ARC
8
DEFAULT_255_1_388
10
9.9018934
20
0.3456763
40
0.3338396
50
292.9803892
51
325.2391113
0
ARC
8
DEFAULT_255_1_388
10
9.870813
20
0.4061679
40
0.4016959
50
292.542178
51
293.6931461
0
ARC
8
DEFAULT_255_1_388
10
9.9151702
20
-0.3203964
40
0.372079
50
57.643292
51
72.8626085
0
ARC
8
DEFAULT_255_1_388
10
9.9550536
20
-0.2557727
40
0.2961455
50
36.7246661
51
57.4701329
0
ARC
8
DEFAULT_255_1_388
10
9.9537693
20
-0.254353
40
0.2963321
50
8.054535
51
36.3561529
0
ARC
8
DEFAULT_255_1_388
10
9.8567366
20
-0.2717927
40
0.3948682
50
359.8316595
51
8.5873361
0
ARC
8
DEFAULT_255_1_388
10
9.814484
20
-0.277203
40
0.4371398
50
343.9831631
51
0.557075
0
ARC
8
DEFAULT_255_1_388
10
9.9141889
20
-0.3045037
40
0.3337749
50
311.6358204
51
343.7652116
0
ARC
8
DEFAULT_255_1_388
10
9.8716143
20
-0.2565045
40
0.3979351
50
279.7829743
51
311.625622
0
ARC
8
DEFAULT_255_1_388
10
9.8377278
20
-0.0948358
40
0.5630417
50
269.7285092
51
280.3857694
0
ARC
8
DEFAULT_255_1_388
10
9.8307591
20
-0.0994759
40
0.5584119
50
256.6827433
51
270.4412869
0
ARC
8
DEFAULT_255_1_388
10
9.7926578
20
-0.2552302
40
0.3980715
50
229.4223821
51
256.8554507
0
ARC
8
DEFAULT_255_1_388
10
9.7460131
20
-0.3077317
40
0.3278564
50
181.8183354
51
229.6455015
0
ARC
8
DEFAULT_255_1_388
10
9.8629741
20
-0.2930175
40
0.4453611
50
179.9760419
51
183.2330638
0
ARC
8
DEFAULT_255_1_388
10
9.8436293
20
-0.2953219
40
0.2579652
50
179.4467996
51
196.2871626
0
ARC
8
DEFAULT_255_1_388
10
9.7887747
20
-0.3103291
40
0.2011057
50
196.5661293
51
227.7059371
0
ARC
8
DEFAULT_255_1_388
10
9.8072354
20
-0.2896845
40
0.2287994
50
227.7653015
51
257.8763321
0
ARC
8
DEFAULT_255_1_388
10
9.8325437
20
-0.1836039
40
0.3378385
50
257.4583525
51
270.4267406
0
ARC
8
DEFAULT_255_1_388
10
9.8376686
20
-0.150977
40
0.3704652
50
269.5965319
51
280.8788143
0
ARC
8
DEFAULT_255_1_388
10
9.8634915
20
-0.2799471
40
0.2389415
50
280.6347277
51
299.8594068
0
ARC
8
DEFAULT_255_1_388
10
9.8849684
20
-0.3207264
40
0.19289
50
300.3575552
51
314.5515667
0
ARC
8
DEFAULT_255_1_388
10
9.875636
20
-0.3138975
40
0.204312
50
315.0730962
51
345.0429362
0
ARC
8
DEFAULT_255_1_388
10
9.7717867
20
-0.2836461
40
0.31246
50
344.598526
51
357.9270698
0
ARC
8
DEFAULT_255_1_388
10
9.6708172
20
-0.2767295
40
0.4136265
50
357.4755098
51
0.0224936
0
ARC
8
DEFAULT_255_1_388
10
9.786105
20
-0.2739901
40
0.2983498
50
359.5051035
51
13.4236939
0
ARC
8
DEFAULT_255_1_388
10
9.883614
20
-0.2490363
40
0.1977186
50
12.9497905
51
48.7550905
0
ARC
8
DEFAULT_255_1_388
10
9.8631062
20
-0.2770627
40
0.2323321
50
49.509109
51
72.1832965
0
ARC
8
DEFAULT_255_1_388
10
9.822853
20
-0.3965368
40
0.358397
50
71.9008458
51
84.3555134
0
ARC
8
DEFAULT_255_1_388
10
9.8046925
20
-0.5497288
40
0.512641
50
84.019632
51
89.3326067
0
LINE
8
DEFAULT_255_1_388
10
11.343109
20
-0.5033618
11
11.343109
21
-0.6398
0
LINE
8
DEFAULT_255_1_388
10
11.343109
20
-0.6398
11
10.4811085
21
-0.6398
0
LINE
8
DEFAULT_255_1_388
10
10.4811085
20
-0.6398
11
10.4811085
21
-0.5196259
0
LINE
8
DEFAULT_255_1_388
10
10.4811085
20
-0.5196259
11
10.936505
21
-0.0136298
0
LINE
8
DEFAULT_255_1_388
10
10.6229681
20
0.2881607
11
10.4558087
21
0.2881607
0
LINE
8
DEFAULT_255_1_388
10
11.0349935
20
-0.121154
11
10.6826034
21
-0.5033618
0
LINE
8
DEFAULT_255_1_388
10
10.6826034
20
-0.5033618
11
11.343109
21
-0.5033618
0
ARC
8
DEFAULT_255_1_388
10
9.4189109
20
1.3283983
40
2.0258655
50
318.5132526
51
320.7829045
0
ARC
8
DEFAULT_255_1_388
10
10.0137066
20
0.8442929
40
1.2589638
50
320.7372878
51
323.9739031
0
ARC
8
DEFAULT_255_1_388
10
10.4545998
20
0.5248554
40
0.7145141
50
323.8962701
51
328.64194
0
ARC
8
DEFAULT_255_1_388
10
10.6848255
20
0.3828545
40
0.4440242
50
328.8294576
51
331.7891185
0
ARC
8
DEFAULT_255_1_388
10
10.7970576
20
0.3249374
40
0.3177517
50
331.4254512
51
352.9365785
0
ARC
8
DEFAULT_255_1_388
10
10.8123576
20
0.321505
40
0.3021496
50
353.2257659
51
0.0166158
0
ARC
8
DEFAULT_255_1_388
10
10.8360336
20
0.3240894
40
0.2784847
50
359.486299
51
15.9343185
0
ARC
8
DEFAULT_255_1_388
10
10.8930603
20
0.3394269
40
0.2194403
50
16.1712913
51
43.5286088
0
ARC
8
DEFAULT_255_1_388
10
10.9017548
20
0.3481191
40
0.2071504
50
43.4417391
51
83.1661095
0
ARC
8
DEFAULT_255_1_388
10
10.8866709
20
0.2652316
40
0.2912888
50
82.160179
51
90.1505708
0
ARC
8
DEFAULT_255_1_388
10
10.883119
20
0.2048279
40
0.3517025
50
89.5460741
51
102.5418361
0
ARC
8
DEFAULT_255_1_388
10
10.855791
20
0.3207933
40
0.2325748
50
102.1738499
51
129.206123
0
ARC
8
DEFAULT_255_1_388
10
10.8469364
20
0.3347664
40
0.2161591
50
129.72865
51
135.753947
0
ARC
8
DEFAULT_255_1_388
10
10.8605846
20
0.3238728
40
0.2335433
50
136.1757367
51
166.3673339
0
ARC
8
DEFAULT_255_1_388
10
10.9738534
20
0.2935148
40
0.3507873
50
165.9090694
51
178.8684636
0
ARC
8
DEFAULT_255_1_388
10
11.0714306
20
0.2882263
40
0.4484624
50
178.4391136
51
180.0083808
0
ARC
8
DEFAULT_255_1_388
10
10.9135007
20
0.2926197
40
0.4577138
50
163.2878482
51
180.5581842
0
ARC
8
DEFAULT_255_1_388
10
10.8233048
20
0.3174393
40
0.3641968
50
133.4540601
51
162.947111
0
ARC
8
DEFAULT_255_1_388
10
10.843393
20
0.2960789
40
0.3935189
50
100.7869829
51
133.4382499
0
ARC
8
DEFAULT_255_1_388
10
10.8825175
20
0.1218399
40
0.5720313
50
89.660664
51
101.3702276
0
ARC
8
DEFAULT_255_1_388
10
10.8899784
20
0.1287263
40
0.5651495
50
78.2172678
51
90.412935
0
ARC
8
DEFAULT_255_1_388
10
10.929925
20
0.3114511
40
0.378122
50
55.9269121
51
78.4888449
0
ARC
8
DEFAULT_255_1_388
10
10.9519965
20
0.3495187
40
0.3342379
50
47.929771
51
55.4049217
0
ARC
8
DEFAULT_255_1_388
10
10.9634495
20
0.3611618
40
0.3179217
50
4.334829
51
48.0560205
0
ARC
8
DEFAULT_255_1_388
10
10.8402297
20
0.3420487
40
0.442341
50
359.9251713
51
5.5971671
0
ARC
8
DEFAULT_255_1_388
10
10.8884452
20
0.3483728
40
0.3941854
50
337.8914027
51
358.9967534
0
ARC
8
DEFAULT_255_1_388
10
10.5832022
20
0.4661295
40
0.7213271
50
326.9132501
51
338.3508308
0
ARC
8
DEFAULT_255_1_388
10
10.1348134
20
0.7535105
40
1.2538973
50
319.6471833
51
327.0959558
0
ARC
8
DEFAULT_255_1_388
10
9.7034792
20
1.109305
40
1.8129975
50
317.2588228
51
319.9045804
0
LINE
8
DEFAULT_255_1_388
10
11.7632665
20
-0.0371225
11
11.7632665
21
0.0993157
0
LINE
8
DEFAULT_255_1_388
10
11.7632665
20
0.0993157
11
11.8888619
21
0.0993157
0
LINE
8
DEFAULT_255_1_388
10
11.6747171
20
0.3306282
11
11.5075577
21
0.3306282
0
LINE
8
DEFAULT_255_1_388
10
11.4958114
20
-0.2928313
11
11.6638744
21
-0.2928313
0
LINE
8
DEFAULT_255_1_388
10
11.8888619
20
-0.0371225
11
11.7632665
21
-0.0371225
0
ARC
8
DEFAULT_255_1_388
10
11.8855846
20
0.4809922
40
0.3816905
50
270.491971
51
281.8953028
0
ARC
8
DEFAULT_255_1_388
10
11.9127273
20
0.3570199
40
0.2547877
50
281.6690378
51
301.2943765
0
ARC
8
DEFAULT_255_1_388
10
11.9318724
20
0.3219926
40
0.2149197
50
301.7834992
51
311.754567
0
ARC
8
DEFAULT_255_1_388
10
11.9421765
20
0.310565
40
0.1995326
50
311.7325027
51
354.2803031
0
ARC
8
DEFAULT_255_1_388
10
11.8604181
20
0.324628
40
0.2823461
50
353.0941646
51
0.1174696
0
ARC
8
DEFAULT_255_1_388
10
11.8085739
20
0.3299874
40
0.3342238
50
359.1804452
51
15.0452323
0
ARC
8
DEFAULT_255_1_388
10
11.9599798
20
0.3741546
40
0.1765747
50
13.957816
51
77.6713812
0
ARC
8
DEFAULT_255_1_388
10
11.9165033
20
0.2183464
40
0.3381982
50
76.111571
51
90.7028736
0
ARC
8
DEFAULT_255_1_388
10
11.9098445
20
0.249125
40
0.3074046
50
89.5321574
51
103.5319393
0
ARC
8
DEFAULT_255_1_388
10
11.8872829
20
0.3390443
40
0.2147041
50
103.2930114
51
133.5619756
0
ARC
8
DEFAULT_255_1_388
10
11.8822771
20
0.3457351
40
0.2064084
50
133.8349761
51
173.5343225
0
ARC
8
DEFAULT_255_1_388
10
11.9636428
20
0.3313144
40
0.2889266
50
172.5097183
51
180.1360699
0
ARC
8
DEFAULT_255_1_388
10
11.8566192
20
0.335188
40
0.3490913
50
155.3483706
51
180.7484035
0
ARC
8
DEFAULT_255_1_388
10
11.8511168
20
0.3319519
40
0.3454798
50
131.5745177
51
154.4799474
0
ARC
8
DEFAULT_255_1_388
10
11.886345
20
0.2963422
40
0.3955058
50
96.9874487
51
131.9690874
0
ARC
8
DEFAULT_255_1_388
10
11.9110343
20
0.1562407
40
0.537622
50
89.8592909
51
97.7827481
0
ARC
8
DEFAULT_255_1_388
10
11.9164452
20
0.126736
40
0.5671399
50
78.3654493
51
90.4132586
0
ARC
8
DEFAULT_255_1_388
10
11.9567093
20
0.3133918
40
0.3762034
50
56.6229818
51
78.6387103
0
ARC
8
DEFAULT_255_1_388
10
11.9808922
20
0.3556846
40
0.3275964
50
47.0254604
51
56.085558
0
ARC
8
DEFAULT_255_1_388
10
11.9831173
20
0.3601189
40
0.3228382
50
10.9207523
51
46.777927
0
ARC
8
DEFAULT_255_1_388
10
11.8296767
20
0.3246401
40
0.4802559
50
359.6364235
51
11.6087615
0
ARC
8
DEFAULT_255_1_388
10
12.0360933
20
0.3229404
40
0.273833
50
332.3549969
51
359.7179765
0
ARC
8
DEFAULT_255_1_388
10
11.9629333
20
0.3576285
40
0.3547505
50
325.2332381
51
332.8746682
0
ARC
8
DEFAULT_255_1_388
10
11.9800916
20
0.3456763
40
0.3338396
50
292.9803892
51
325.2391113
0
ARC
8
DEFAULT_255_1_388
10
11.9490112
20
0.4061679
40
0.4016959
50
292.542178
51
293.6931461
0
ARC
8
DEFAULT_255_1_388
10
11.9933684
20
-0.3203964
40
0.372079
50
57.643292
51
72.8626085
0
ARC
8
DEFAULT_255_1_388
10
12.0332519
20
-0.2557727
40
0.2961455
50
36.7246661
51
57.4701329
0
ARC
8
DEFAULT_255_1_388
10
12.0319675
20
-0.254353
40
0.2963321
50
8.054535
51
36.3561529
0
ARC
8
DEFAULT_255_1_388
10
11.9349348
20
-0.2717927
40
0.3948682
50
359.8316595
51
8.5873361
0
ARC
8
DEFAULT_255_1_388
10
11.8926822
20
-0.277203
40
0.4371398
50
343.9831631
51
0.557075
0
ARC
8
DEFAULT_255_1_388
10
11.9923872
20
-0.3045037
40
0.3337749
50
311.6358204
51
343.7652116
0
ARC
8
DEFAULT_255_1_388
10
11.9498125
20
-0.2565045
40
0.3979351
50
279.7829743
51
311.625622
0
ARC
8
DEFAULT_255_1_388
10
11.9159261
20
-0.0948358
40
0.5630417
50
269.7285092
51
280.3857694
0
ARC
8
DEFAULT_255_1_388
10
11.9089574
20
-0.0994759
40
0.5584119
50
256.6827433
51
270.4412869
0
ARC
8
DEFAULT_255_1_388
10
11.870856
20
-0.2552302
40
0.3980715
50
229.4223821
51
256.8554507
0
ARC
8
DEFAULT_255_1_388
10
11.8242114
20
-0.3077317
40
0.3278564
50
181.8183354
51
229.6455015
0
ARC
8
DEFAULT_255_1_388
10
11.9411723
20
-0.2930175
40
0.4453611
50
179.9760419
51
183.2330638
0
ARC
8
DEFAULT_255_1_388
10
11.9218275
20
-0.2953219
40
0.2579652
50
179.4467996
51
196.2871626
0
ARC
8
DEFAULT_255_1_388
10
11.8669729
20
-0.3103291
40
0.2011057
50
196.5661293
51
227.7059371
0
ARC
8
DEFAULT_255_1_388
10
11.8854336
20
-0.2896845
40
0.2287994
50
227.7653015
51
257.8763321
0
ARC
8
DEFAULT_255_1_388
10
11.9107419
20
-0.1836039
40
0.3378385
50
257.4583525
51
270.4267406
0
ARC
8
DEFAULT_255_1_388
10
11.9158669
20
-0.150977
40
0.3704652
50
269.5965319
51
280.8788143
0
ARC
8
DEFAULT_255_1_388
10
11.9416897
20
-0.2799471
40
0.2389415
50
280.6347277
51
299.8594068
0
ARC
8
DEFAULT_255_1_388
10
11.9631667
20
-0.3207264
40
0.19289
50
300.3575552
51
314.5515667
0
ARC
8
DEFAULT_255_1_388
10
11.9538342
20
-0.3138975
40
0.204312
50
315.0730962
51
345.0429362
0
ARC
8
DEFAULT_255_1_388
10
11.849985
20
-0.2836461
40
0.31246
50
344.598526
51
357.9270698
0
ARC
8
DEFAULT_255_1_388
10
11.7490155
20
-0.2767295
40
0.4136265
50
357.4755098
51
0.0224936
0
ARC
8
DEFAULT_255_1_388
10
11.8643032
20
-0.2739901
40
0.2983498
50
359.5051035
51
13.4236939
0
ARC
8
DEFAULT_255_1_388
10
11.9618122
20
-0.2490363
40
0.1977186
50
12.9497905
51
48.7550905
0
ARC
8
DEFAULT_255_1_388
10
11.9413044
20
-0.2770627
40
0.2323321
50
49.509109
51
72.1832965
0
ARC
8
DEFAULT_255_1_388
10
11.9010512
20
-0.3965368
40
0.358397
50
71.9008458
51
84.3555134
0
ARC
8
DEFAULT_255_1_388
10
11.8828907
20
-0.5497288
40
0.512641
50
84.019632
51
89.3326067
0
LINE
8
DEFAULT_255_1_388
10
12.9243468
20
-0.0127263
11
12.9243468
21
-0.1491645
0
LINE
8
DEFAULT_255_1_388
10
12.9243468
20
-0.1491645
11
12.4834073
21
-0.1491645
0
LINE
8
DEFAULT_255_1_388
10
12.4834073
20
-0.1491645
11
12.4834073
21
-0.0127263
0
LINE
8
DEFAULT_255_1_388
10
12.4834073
20
-0.0127263
11
12.9243468
21
-0.0127263
0
LINE
8
DEFAULT_255_1_388
10
13.6191878
20
0.6821148
11
13.6191878
21
-0.6398
0
LINE
8
DEFAULT_255_1_388
10
13.6191878
20
-0.6398
11
13.4511249
21
-0.6398
0
LINE
8
DEFAULT_255_1_388
10
13.4511249
20
-0.6398
11
13.4511249
21
0.474295
0
LINE
8
DEFAULT_255_1_388
10
13.4511249
20
0.474295
11
13.1140953
21
0.3505066
0
LINE
8
DEFAULT_255_1_388
10
13.1140953
20
0.3505066
11
13.1140953
21
0.5023055
0
LINE
8
DEFAULT_255_1_388
10
13.1140953
20
0.5023055
11
13.5929845
21
0.6821148
0
LINE
8
DEFAULT_255_1_388
10
13.5929845
20
0.6821148
11
13.6191878
21
0.6821148
0
LINE
8
DEFAULT_255_1_388
10
14.6085909
20
-0.6398
11
14.1522909
21
-0.6398
0
LINE
8
DEFAULT_255_1_388
10
14.1522909
20
-0.6398
11
14.1522909
21
0.6757898
0
LINE
8
DEFAULT_255_1_388
10
14.1522909
20
0.6757898
11
14.5823875
21
0.6757898
0
LINE
8
DEFAULT_255_1_388
10
14.6149159
20
-0.0244726
11
14.3257752
21
-0.0244726
0
LINE
8
DEFAULT_255_1_388
10
14.3257752
20
-0.0244726
11
14.3257752
21
-0.4979404
0
LINE
8
DEFAULT_255_1_388
10
14.3257752
20
-0.4979404
11
14.6122052
21
-0.4979404
0
LINE
8
DEFAULT_255_1_388
10
14.3257752
20
0.5330267
11
14.3257752
21
0.1146763
0
LINE
8
DEFAULT_255_1_388
10
14.3257752
20
0.1146763
11
14.5878089
21
0.1146763
0
LINE
8
DEFAULT_255_1_388
10
14.5823875
20
0.5330267
11
14.3257752
21
0.5330267
0
ARC
8
DEFAULT_255_1_388
10
14.5866296
20
-0.1530176
40
0.8288183
50
82.1256322
51
90.2932506
0
ARC
8
DEFAULT_255_1_388
10
14.6303871
20
0.152759
40
0.5199321
50
69.9044202
51
82.2857574
0
ARC
8
DEFAULT_255_1_388
10
14.6945863
20
0.3262993
40
0.3348993
50
51.1840204
51
70.018125
0
ARC
8
DEFAULT_255_1_388
10
14.7232696
20
0.3679945
40
0.2844579
50
12.1018086
51
50.421322
0
ARC
8
DEFAULT_255_1_388
10
14.5675567
20
0.3288937
40
0.4449429
50
359.5252354
51
12.8212369
0
ARC
8
DEFAULT_255_1_388
10
14.7452997
20
0.3210943
40
0.2672162
50
323.4907456
51
0.8818258
0
ARC
8
DEFAULT_255_1_388
10
14.6982409
20
0.3574523
40
0.3266736
50
298.6824053
51
323.2758285
0
ARC
8
DEFAULT_255_1_388
10
14.6575701
20
0.4250509
40
0.4055105
50
293.1994739
51
299.139634
0
ARC
8
DEFAULT_255_1_388
10
14.7332651
20
-0.2595349
40
0.3229926
50
54.0009997
51
74.9168635
0
ARC
8
DEFAULT_255_1_388
10
14.7463577
20
-0.2373489
40
0.2973581
50
36.3578854
51
53.5293172
0
ARC
8
DEFAULT_255_1_388
10
14.7320946
20
-0.247515
40
0.3148715
50
4.8189348
51
36.3090187
0
ARC
8
DEFAULT_255_1_388
10
14.644397
20
-0.2598617
40
0.4033265
50
359.9373213
51
5.5201284
0
ARC
8
DEFAULT_255_1_388
10
14.60793
20
-0.2644267
40
0.4398126
50
344.7479357
51
0.5372278
0
ARC
8
DEFAULT_255_1_388
10
14.7194198
20
-0.2944795
40
0.3243441
50
311.1785587
51
344.6887681
0
ARC
8
DEFAULT_255_1_388
10
14.6865742
20
-0.2535916
40
0.3767511
50
286.0417804
51
310.8440924
0
ARC
8
DEFAULT_255_1_388
10
14.6295151
20
-0.0683115
40
0.5705957
50
274.1044074
51
286.4070149
0
ARC
8
DEFAULT_255_1_388
10
14.6096366
20
0.1434901
40
0.7832907
50
269.9235077
51
274.4458593
0
ARC
8
DEFAULT_255_1_388
10
14.6148085
20
-0.1196538
40
0.3782955
50
269.6057074
51
281.3740795
0
ARC
8
DEFAULT_255_1_388
10
14.6407583
20
-0.2426431
40
0.2526069
50
281.105298
51
302.5134029
0
ARC
8
DEFAULT_255_1_388
10
14.6572971
20
-0.2723056
40
0.2187131
50
303.0365425
51
311.8818034
0
ARC
8
DEFAULT_255_1_388
10
14.6653148
20
-0.2818398
40
0.2062624
50
311.9916937
51
351.7143773
0
ARC
8
DEFAULT_255_1_388
10
14.5734173
20
-0.2632729
40
0.2999202
50
350.7343295
51
0.2221526
0
ARC
8
DEFAULT_255_1_388
10
14.5613261
20
-0.256913
40
0.3120525
50
359.045729
51
17.2295312
0
ARC
8
DEFAULT_255_1_388
10
14.6782291
20
-0.2221845
40
0.1901144
50
17.6685208
51
78.9940245
0
ARC
8
DEFAULT_255_1_388
10
14.6200652
20
-0.4309989
40
0.4065575
50
76.565218
51
90.7103392
0
LINE
8
DEFAULT_255_1_388
10
14.6150249
20
-0.0244726
11
14.6149159
21
-0.0244726
0
ARC
8
DEFAULT_255_1_388
10
14.5903478
20
0.4842949
40
0.3696273
50
269.6064514
51
281.4533785
0
ARC
8
DEFAULT_255_1_388
10
14.6154119
20
0.3660283
40
0.2487412
50
281.2044438
51
302.5143998
0
ARC
8
DEFAULT_255_1_388
10
14.6308372
20
0.3382576
40
0.2170405
50
303.0211308
51
309.8378766
0
ARC
8
DEFAULT_255_1_388
10
14.651449
20
0.3151486
40
0.1860946
50
309.5229446
51
356.9509628
0
ARC
8
DEFAULT_255_1_388
10
14.5768616
20
0.3258831
40
0.2612347
50
355.4699226
51
0.0498632
0
ARC
8
DEFAULT_255_1_388
10
14.5454289
20
0.3283789
40
0.2926762
50
359.5558955
51
11.2092924
0
ARC
8
DEFAULT_255_1_388
10
14.6531257
20
0.3506667
40
0.1827036
50
10.9185717
51
31.322519
0
ARC
8
DEFAULT_255_1_388
10
14.6852805
20
0.3685571
40
0.1459418
50
31.8850633
51
52.1415586
0
ARC
8
DEFAULT_255_1_388
10
14.6544234
20
0.3249674
40
0.1993088
50
52.8283418
51
71.9850132
0
ARC
8
DEFAULT_255_1_388
10
14.6121395
20
0.2005158
40
0.3307407
50
71.686634
51
82.8453416
0
ARC
8
DEFAULT_255_1_388
10
14.5852042
20
-0.0030108
40
0.536039
50
82.6981895
51
90.1730083
0
ARC
8
DEFAULT_255_1_388
10
14.5826873
20
0.0848836
40
0.4481429
50
89.8851568
51
90.0383283
0
LINE
8
DEFAULT_255_1_388
10
15.4787235
20
0.6757898
11
15.4787235
21
-0.4979404
0
LINE
8
DEFAULT_255_1_388
10
15.4787235
20
-0.4979404
11
16.102183
21
-0.4979404
0
LINE
8
DEFAULT_255_1_388
10
16.102183
20
-0.4979404
11
16.102183
21
-0.6398
0
LINE
8
DEFAULT_255_1_388
10
16.102183
20
-0.6398
11
15.3043355
21
-0.6398
0
LINE
8
DEFAULT_255_1_388
10
15.3043355
20
-0.6398
11
15.3043355
21
0.6757898
0
LINE
8
DEFAULT_255_1_388
10
15.3043355
20
0.6757898
11
15.4787235
21
0.6757898
0
LINE
8
DEFAULT_255_1_388
10
17.0816468
20
0.138169
11
17.0816468
21
-0.0786865
0
LINE
8
DEFAULT_255_1_388
10
16.2512711
20
-0.1012756
11
16.2512711
21
0.1219048
0
LINE
8
DEFAULT_255_1_388
10
16.9144874
20
-0.1238647
11
16.9144874
21
0.1499153
0
LINE
8
DEFAULT_255_1_388
10
16.4184305
20
0.1625652
11
16.4184305
21
-0.1048898
0
ARC
8
DEFAULT_255_1_388
10
15.7038802
20
-0.0841882
40
1.3777776
50
353.8440855
51
0.2287917
0
ARC
8
DEFAULT_255_1_388
10
16.225782
20
-0.1424586
40
0.852639
50
344.4934746
51
353.9763743
0
ARC
8
DEFAULT_255_1_388
10
16.5624627
20
-0.2381809
40
0.5026273
50
329.2803599
51
344.7473406
0
ARC
8
DEFAULT_255_1_388
10
16.6740123
20
-0.2993962
40
0.3754848
50
324.9361395
51
328.6153007
0
ARC
8
DEFAULT_255_1_388
10
16.7165772
20
-0.3291414
40
0.3235566
50
280.5801797
51
324.9173226
0
ARC
8
DEFAULT_255_1_388
10
16.6714401
20
-0.1411764
40
0.5167077
50
269.5979457
51
281.6732777
0
ARC
8
DEFAULT_255_1_388
10
16.6633305
20
-0.1546887
40
0.5032026
50
256.6228565
51
270.5105488
0
ARC
8
DEFAULT_255_1_388
10
16.6181047
20
-0.3288655
40
0.3233092
50
215.8618351
51
257.2787793
0
ARC
8
DEFAULT_255_1_388
10
16.7329754
20
-0.2517894
40
0.4615831
50
197.9695203
51
215.2622745
0
ARC
8
DEFAULT_255_1_388
10
17.012543
20
-0.1574359
40
0.7566307
50
187.8816486
51
198.2346584
0
ARC
8
DEFAULT_255_1_388
10
17.4578668
20
-0.0931547
40
1.2065653
50
180.8977266
51
188.0054894
0
ARC
8
DEFAULT_255_1_388
10
17.7628882
20
-0.08166
40
1.5117443
50
180.7434591
51
181.152202
0
ARC
8
DEFAULT_255_1_388
10
17.5953878
20
0.1273371
40
1.3441277
50
173.7674302
51
180.2315596
0
ARC
8
DEFAULT_255_1_388
10
17.0871747
20
0.1847779
40
0.8326847
50
164.3058537
51
173.9000553
0
ARC
8
DEFAULT_255_1_388
10
16.7595747
20
0.2791652
40
0.4917711
50
148.7922028
51
164.5682288
0
ARC
8
DEFAULT_255_1_388
10
16.6526484
20
0.3388457
40
0.3694204
50
144.5883979
51
148.1161588
0
ARC
8
DEFAULT_255_1_388
10
16.6139229
20
0.3658667
40
0.322202
50
101.6440149
51
144.5142619
0
ARC
8
DEFAULT_255_1_388
10
16.6617422
20
0.1758337
40
0.5180451
50
89.528284
51
102.5820197
0
ARC
8
DEFAULT_255_1_388
10
16.6706414
20
0.1714376
40
0.5224441
50
77.0437914
51
90.508231
0
ARC
8
DEFAULT_255_1_388
10
16.7158667
20
0.3562272
40
0.3322297
50
48.2777708
51
77.4996087
0
ARC
8
DEFAULT_255_1_388
10
16.7240407
20
0.3707557
40
0.315966
50
36.3141586
51
47.6307332
0
ARC
8
DEFAULT_255_1_388
10
16.6263129
20
0.3049159
40
0.4337313
50
18.2931065
51
35.6770203
0
ARC
8
DEFAULT_255_1_388
10
16.340197
20
0.2067107
40
0.7362203
50
8.0246996
51
18.5605636
0
ARC
8
DEFAULT_255_1_388
10
15.8718326
20
0.1375432
40
1.2096583
50
1.127539
51
8.1718423
0
ARC
8
DEFAULT_255_1_388
10
15.5069459
20
0.1232374
40
1.5747719
50
0.5432713
51
1.38669
0
ARC
8
DEFAULT_255_1_388
10
15.7126838
20
0.1539163
40
1.2018103
50
359.8092569
51
4.9408001
0
ARC
8
DEFAULT_255_1_388
10
16.1863419
20
0.19619
40
0.7262727
50
4.8364937
51
12.2906017
0
ARC
8
DEFAULT_255_1_388
10
16.4962884
20
0.2652485
40
0.4087324
50
12.0806994
51
23.8171225
0
ARC
8
DEFAULT_255_1_388
10
16.628328
20
0.3211508
40
0.2653719
50
24.2874621
51
31.3934353
0
ARC
8
DEFAULT_255_1_388
10
16.6873716
20
0.3597822
40
0.1948607
50
30.7407708
51
82.4658033
0
ARC
8
DEFAULT_255_1_388
10
16.6671377
20
0.2604017
40
0.2961198
50
81.1057101
51
90.2187368
0
ARC
8
DEFAULT_255_1_388
10
16.6631189
20
0.2894421
40
0.2670929
50
89.380395
51
105.6763916
0
ARC
8
DEFAULT_255_1_388
10
16.642491
20
0.364432
40
0.1893189
50
105.7980655
51
149.7387869
0
ARC
8
DEFAULT_255_1_388
10
16.7622051
20
0.2924719
40
0.3289892
50
149.4208441
51
163.628295
0
ARC
8
DEFAULT_255_1_388
10
16.997428
20
0.2207345
40
0.5749004
50
163.3764549
51
172.141138
0
ARC
8
DEFAULT_255_1_388
10
17.3687002
20
0.1675582
40
0.9499585
50
172.0258462
51
178.0705453
0
ARC
8
DEFAULT_255_1_388
10
17.7108554
20
0.1513682
40
1.2924734
50
177.8639301
51
179.5036263
0
ARC
8
DEFAULT_255_1_388
10
17.5889573
20
-0.1089849
40
1.170534
50
179.7995545
51
185.246089
0
ARC
8
DEFAULT_255_1_388
10
17.1341166
20
-0.1520596
40
0.7136613
50
185.1411911
51
193.0082205
0
ARC
8
DEFAULT_255_1_388
10
16.8367427
20
-0.2223559
40
0.4080987
50
192.7897338
51
205.2507384
0
ARC
8
DEFAULT_255_1_388
10
16.7189637
20
-0.2749462
40
0.2791522
50
205.8001921
51
211.2545876
0
ARC
8
DEFAULT_255_1_388
10
16.6601176
20
-0.3143868
40
0.2084074
50
210.3789935
51
238.4007996
0
ARC
8
DEFAULT_255_1_388
10
16.6579262
20
-0.3091214
40
0.2117943
50
239.6521916
51
265.9793852
0
ARC
8
DEFAULT_255_1_388
10
16.6675111
20
-0.2334642
40
0.2879689
50
265.1324455
51
270.0603288
0
ARC
8
DEFAULT_255_1_388
10
16.6707488
20
-0.2699582
40
0.2514919
50
269.3314378
51
287.2180039
0
ARC
8
DEFAULT_255_1_388
10
16.686257
20
-0.3265709
40
0.1928357
50
287.7957942
51
329.0808983
0
ARC
8
DEFAULT_255_1_388
10
16.5785327
20
-0.2593349
40
0.319808
50
328.6635261
51
343.3325043
0
ARC
8
DEFAULT_255_1_388
10
16.3340786
20
-0.1831805
40
0.5758408
50
343.0498092
51
351.9392499
0
ARC
8
DEFAULT_255_1_388
10
15.9440107
20
-0.1256795
40
0.9701202
50
351.8071632
51
357.7957897
0
ARC
8
DEFAULT_255_1_388
10
15.5805584
20
-0.1068276
40
1.3340376
50
357.5870923
51
359.2682493
0
LINE
8
DEFAULT_255_1_388
10
18.1207459
20
0.138169
11
18.1207459
21
-0.0786865
0
LINE
8
DEFAULT_255_1_388
10
17.2903702
20
-0.1012756
11
17.2903702
21
0.1219048
0
LINE
8
DEFAULT_255_1_388
10
17.9535865
20
-0.1238647
11
17.9535865
21
0.1499153
0
LINE
8
DEFAULT_255_1_388
10
17.4575296
20
0.1625652
11
17.4575296
21
-0.1048898
0
ARC
8
DEFAULT_255_1_388
10
16.7429793
20
-0.0841882
40
1.3777776
50
353.8440855
51
0.2287917
0
ARC
8
DEFAULT_255_1_388
10
17.2648811
20
-0.1424586
40
0.852639
50
344.4934746
51
353.9763743
0
ARC
8
DEFAULT_255_1_388
10
17.6015618
20
-0.2381809
40
0.5026273
50
329.2803599
51
344.7473406
0
ARC
8
DEFAULT_255_1_388
10
17.7131114
20
-0.2993962
40
0.3754848
50
324.9361395
51
328.6153007
0
ARC
8
DEFAULT_255_1_388
10
17.7556764
20
-0.3291414
40
0.3235566
50
280.5801797
51
324.9173226
0
ARC
8
DEFAULT_255_1_388
10
17.7105392
20
-0.1411764
40
0.5167077
50
269.5979457
51
281.6732777
0
ARC
8
DEFAULT_255_1_388
10
17.7024296
20
-0.1546887
40
0.5032026
50
256.6228565
51
270.5105488
0
ARC
8
DEFAULT_255_1_388
10
17.6572038
20
-0.3288655
40
0.3233092
50
215.8618351
51
257.2787793
0
ARC
8
DEFAULT_255_1_388
10
17.7720745
20
-0.2517894
40
0.4615831
50
197.9695203
51
215.2622745
0
ARC
8
DEFAULT_255_1_388
10
18.0516421
20
-0.1574359
40
0.7566307
50
187.8816486
51
198.2346584
0
ARC
8
DEFAULT_255_1_388
10
18.4969659
20
-0.0931547
40
1.2065653
50
180.8977266
51
188.0054894
0
ARC
8
DEFAULT_255_1_388
10
18.8019873
20
-0.08166
40
1.5117443
50
180.7434591
51
181.152202
0
ARC
8
DEFAULT_255_1_388
10
18.6344869
20
0.1273371
40
1.3441277
50
173.7674302
51
180.2315596
0
ARC
8
DEFAULT_255_1_388
10
18.1262738
20
0.1847779
40
0.8326847
50
164.3058537
51
173.9000553
0
ARC
8
DEFAULT_255_1_388
10
17.7986738
20
0.2791652
40
0.4917711
50
148.7922028
51
164.5682288
0
ARC
8
DEFAULT_255_1_388
10
17.6917475
20
0.3388457
40
0.3694204
50
144.5883979
51
148.1161588
0
ARC
8
DEFAULT_255_1_388
10
17.6530221
20
0.3658667
40
0.322202
50
101.6440149
51
144.5142619
0
ARC
8
DEFAULT_255_1_388
10
17.7008413
20
0.1758337
40
0.5180451
50
89.528284
51
102.5820197
0
ARC
8
DEFAULT_255_1_388
10
17.7097405
20
0.1714376
40
0.5224441
50
77.0437914
51
90.508231
0
ARC
8
DEFAULT_255_1_388
10
17.7549658
20
0.3562272
40
0.3322297
50
48.2777708
51
77.4996087
0
ARC
8
DEFAULT_255_1_388
10
17.7631398
20
0.3707557
40
0.315966
50
36.3141586
51
47.6307332
0
ARC
8
DEFAULT_255_1_388
10
17.6654121
20
0.3049159
40
0.4337313
50
18.2931065
51
35.6770203
0
ARC
8
DEFAULT_255_1_388
10
17.3792961
20
0.2067107
40
0.7362203
50
8.0246996
51
18.5605636
0
ARC
8
DEFAULT_255_1_388
10
16.9109317
20
0.1375432
40
1.2096583
50
1.127539
51
8.1718423
0
ARC
8
DEFAULT_255_1_388
10
16.546045
20
0.1232374
40
1.5747719
50
0.5432713
51
1.38669
0
ARC
8
DEFAULT_255_1_388
10
16.7517829
20
0.1539163
40
1.2018103
50
359.8092569
51
4.9408001
0
ARC
8
DEFAULT_255_1_388
10
17.225441
20
0.19619
40
0.7262727
50
4.8364937
51
12.2906017
0
ARC
8
DEFAULT_255_1_388
10
17.5353875
20
0.2652485
40
0.4087324
50
12.0806994
51
23.8171225
0
ARC
8
DEFAULT_255_1_388
10
17.6674271
20
0.3211508
40
0.2653719
50
24.2874621
51
31.3934353
0
ARC
8
DEFAULT_255_1_388
10
17.7264707
20
0.3597822
40
0.1948607
50
30.7407708
51
82.4658033
0
ARC
8
DEFAULT_255_1_388
10
17.7062368
20
0.2604017
40
0.2961198
50
81.1057101
51
90.2187368
0
ARC
8
DEFAULT_255_1_388
10
17.702218
20
0.2894421
40
0.2670929
50
89.380395
51
105.6763916
0
ARC
8
DEFAULT_255_1_388
10
17.6815902
20
0.364432
40
0.1893189
50
105.7980655
51
149.7387869
0
ARC
8
DEFAULT_255_1_388
10
17.8013042
20
0.2924719
40
0.3289892
50
149.4208441
51
163.628295
0
ARC
8
DEFAULT_255_1_388
10
18.0365271
20
0.2207345
40
0.5749004
50
163.3764549
51
172.141138
0
ARC
8
DEFAULT_255_1_388
10
18.4077993
20
0.1675582
40
0.9499585
50
172.0258462
51
178.0705453
0
ARC
8
DEFAULT_255_1_388
10
18.7499546
20
0.1513682
40
1.2924734
50
177.8639301
51
179.5036263
0
ARC
8
DEFAULT_255_1_388
10
18.6280564
20
-0.1089849
40
1.170534
50
179.7995545
51
185.246089
0
ARC
8
DEFAULT_255_1_388
10
18.1732157
20
-0.1520596
40
0.7136613
50
185.1411911
51
193.0082205
0
ARC
8
DEFAULT_255_1_388
10
17.8758418
20
-0.2223559
40
0.4080987
50
192.7897338
51
205.2507384
0
ARC
8
DEFAULT_255_1_388
10
17.7580628
20
-0.2749462
40
0.2791522
50
205.8001921
51
211.2545876
0
ARC
8
DEFAULT_255_1_388
10
17.6992167
20
-0.3143868
40
0.2084074
50
210.3789935
51
238.4007996
0
ARC
8
DEFAULT_255_1_388
10
17.6970253
20
-0.3091214
40
0.2117943
50
239.6521916
51
265.9793852
0
ARC
8
DEFAULT_255_1_388
10
17.7066102
20
-0.2334642
40
0.2879689
50
265.1324455
51
270.0603288
0
ARC
8
DEFAULT_255_1_388
10
17.7098479
20
-0.2699582
40
0.2514919
50
269.3314378
51
287.2180039
0
ARC
8
DEFAULT_255_1_388
10
17.7253561
20
-0.3265709
40
0.1928357
50
287.7957942
51
329.0808983
0
ARC
8
DEFAULT_255_1_388
10
17.6176318
20
-0.2593349
40
0.319808
50
328.6635261
51
343.3325043
0
ARC
8
DEFAULT_255_1_388
10
17.3731777
20
-0.1831805
40
0.5758408
50
343.0498092
51
351.9392499
0
ARC
8
DEFAULT_255_1_388
10
16.9831099
20
-0.1256795
40
0.9701202
50
351.8071632
51
357.7957897
0
ARC
8
DEFAULT_255_1_388
10
16.6196576
20
-0.1068276
40
1.3340376
50
357.5870923
51
359.2682493
0
LINE
8
DEFAULT_255_1_388
10
18.6999308
20
-0.0127263
11
18.6999308
21
-0.1491645
0
LINE
8
DEFAULT_255_1_388
10
18.6999308
20
-0.1491645
11
18.2589913
21
-0.1491645
0
LINE
8
DEFAULT_255_1_388
10
18.2589913
20
-0.1491645
11
18.2589913
21
-0.0127263
0
LINE
8
DEFAULT_255_1_388
10
18.2589913
20
-0.0127263
11
18.6999308
21
-0.0127263
0
LINE
8
DEFAULT_255_1_388
10
19.670359
20
0.138169
11
19.670359
21
-0.0786865
0
LINE
8
DEFAULT_255_1_388
10
18.8399833
20
-0.1012756
11
18.8399833
21
0.1219048
0
LINE
8
DEFAULT_255_1_388
10
19.5031996
20
-0.1238647
11
19.5031996
21
0.1499153
0
LINE
8
DEFAULT_255_1_388
10
19.0071427
20
0.1625652
11
19.0071427
21
-0.1048898
0
ARC
8
DEFAULT_255_1_388
10
18.2925924
20
-0.0841882
40
1.3777776
50
353.8440855
51
0.2287917
0
ARC
8
DEFAULT_255_1_388
10
18.8144941
20
-0.1424586
40
0.852639
50
344.4934746
51
353.9763743
0
ARC
8
DEFAULT_255_1_388
10
19.1511748
20
-0.2381809
40
0.5026273
50
329.2803599
51
344.7473406
0
ARC
8
DEFAULT_255_1_388
10
19.2627244
20
-0.2993962
40
0.3754848
50
324.9361395
51
328.6153007
0
ARC
8
DEFAULT_255_1_388
10
19.3052894
20
-0.3291414
40
0.3235566
50
280.5801797
51
324.9173226
0
ARC
8
DEFAULT_255_1_388
10
19.2601523
20
-0.1411764
40
0.5167077
50
269.5979457
51
281.6732777
0
ARC
8
DEFAULT_255_1_388
10
19.2520426
20
-0.1546887
40
0.5032026
50
256.6228565
51
270.5105488
0
ARC
8
DEFAULT_255_1_388
10
19.2068169
20
-0.3288655
40
0.3233092
50
215.8618351
51
257.2787793
0
ARC
8
DEFAULT_255_1_388
10
19.3216876
20
-0.2517894
40
0.4615831
50
197.9695203
51
215.2622745
0
ARC
8
DEFAULT_255_1_388
10
19.6012551
20
-0.1574359
40
0.7566307
50
187.8816486
51
198.2346584
0
ARC
8
DEFAULT_255_1_388
10
20.046579
20
-0.0931547
40
1.2065653
50
180.8977266
51
188.0054894
0
ARC
8
DEFAULT_255_1_388
10
20.3516003
20
-0.08166
40
1.5117443
50
180.7434591
51
181.152202
0
ARC
8
DEFAULT_255_1_388
10
20.1840999
20
0.1273371
40
1.3441277
50
173.7674302
51
180.2315596
0
ARC
8
DEFAULT_255_1_388
10
19.6758868
20
0.1847779
40
0.8326847
50
164.3058537
51
173.9000553
0
ARC
8
DEFAULT_255_1_388
10
19.3482868
20
0.2791652
40
0.4917711
50
148.7922028
51
164.5682288
0
ARC
8
DEFAULT_255_1_388
10
19.2413606
20
0.3388457
40
0.3694204
50
144.5883979
51
148.1161588
0
ARC
8
DEFAULT_255_1_388
10
19.2026351
20
0.3658667
40
0.322202
50
101.6440149
51
144.5142619
0
ARC
8
DEFAULT_255_1_388
10
19.2504543
20
0.1758337
40
0.5180451
50
89.528284
51
102.5820197
0
ARC
8
DEFAULT_255_1_388
10
19.2593535
20
0.1714376
40
0.5224441
50
77.0437914
51
90.508231
0
ARC
8
DEFAULT_255_1_388
10
19.3045789
20
0.3562272
40
0.3322297
50
48.2777708
51
77.4996087
0
ARC
8
DEFAULT_255_1_388
10
19.3127529
20
0.3707557
40
0.315966
50
36.3141586
51
47.6307332
0
ARC
8
DEFAULT_255_1_388
10
19.2150251
20
0.3049159
40
0.4337313
50
18.2931065
51
35.6770203
0
ARC
8
DEFAULT_255_1_388
10
18.9289092
20
0.2067107
40
0.7362203
50
8.0246996
51
18.5605636
0
ARC
8
DEFAULT_255_1_388
10
18.4605447
20
0.1375432
40
1.2096583
50
1.127539
51
8.1718423
0
ARC
8
DEFAULT_255_1_388
10
18.0956581
20
0.1232374
40
1.5747719
50
0.5432713
51
1.38669
0
ARC
8
DEFAULT_255_1_388
10
18.3013959
20
0.1539163
40
1.2018103
50
359.8092569
51
4.9408001
0
ARC
8
DEFAULT_255_1_388
10
18.7750541
20
0.19619
40
0.7262727
50
4.8364937
51
12.2906017
0
ARC
8
DEFAULT_255_1_388
10
19.0850006
20
0.2652485
40
0.4087324
50
12.0806994
51
23.8171225
0
ARC
8
DEFAULT_255_1_388
10
19.2170402
20
0.3211508
40
0.2653719
50
24.2874621
51
31.3934353
0
ARC
8
DEFAULT_255_1_388
10
19.2760837
20
0.3597822
40
0.1948607
50
30.7407708
51
82.4658033
0
ARC
8
DEFAULT_255_1_388
10
19.2558498
20
0.2604017
40
0.2961198
50
81.1057101
51
90.2187368
0
ARC
8
DEFAULT_255_1_388
10
19.251831
20
0.2894421
40
0.2670929
50
89.380395
51
105.6763916
0
ARC
8
DEFAULT_255_1_388
10
19.2312032
20
0.364432
40
0.1893189
50
105.7980655
51
149.7387869
0
ARC
8
DEFAULT_255_1_388
10
19.3509172
20
0.2924719
40
0.3289892
50
149.4208441
51
163.628295
0
ARC
8
DEFAULT_255_1_388
10
19.5861402
20
0.2207345
40
0.5749004
50
163.3764549
51
172.141138
0
ARC
8
DEFAULT_255_1_388
10
19.9574123
20
0.1675582
40
0.9499585
50
172.0258462
51
178.0705453
0
ARC
8
DEFAULT_255_1_388
10
20.2995676
20
0.1513682
40
1.2924734
50
177.8639301
51
179.5036263
0
ARC
8
DEFAULT_255_1_388
10
20.1776695
20
-0.1089849
40
1.170534
50
179.7995545
51
185.246089
0
ARC
8
DEFAULT_255_1_388
10
19.7228288
20
-0.1520596
40
0.7136613
50
185.1411911
51
193.0082205
0
ARC
8
DEFAULT_255_1_388
10
19.4254548
20
-0.2223559
40
0.4080987
50
192.7897338
51
205.2507384
0
ARC
8
DEFAULT_255_1_388
10
19.3076758
20
-0.2749462
40
0.2791522
50
205.8001921
51
211.2545876
0
ARC
8
DEFAULT_255_1_388
10
19.2488298
20
-0.3143868
40
0.2084074
50
210.3789935
51
238.4007996
0
ARC
8
DEFAULT_255_1_388
10
19.2466384
20
-0.3091214
40
0.2117943
50
239.6521916
51
265.9793852
0
ARC
8
DEFAULT_255_1_388
10
19.2562233
20
-0.2334642
40
0.2879689
50
265.1324455
51
270.0603288
0
ARC
8
DEFAULT_255_1_388
10
19.259461
20
-0.2699582
40
0.2514919
50
269.3314378
51
287.2180039
0
ARC
8
DEFAULT_255_1_388
10
19.2749692
20
-0.3265709
40
0.1928357
50
287.7957942
51
329.0808983
0
ARC
8
DEFAULT_255_1_388
10
19.1672449
20
-0.2593349
40
0.319808
50
328.6635261
51
343.3325043
0
ARC
8
DEFAULT_255_1_388
10
18.9227908
20
-0.1831805
40
0.5758408
50
343.0498092
51
351.9392499
0
ARC
8
DEFAULT_255_1_388
10
18.5327229
20
-0.1256795
40
0.9701202
50
351.8071632
51
357.7957897
0
ARC
8
DEFAULT_255_1_388
10
18.1692706
20
-0.1068276
40
1.3340376
50
357.5870923
51
359.2682493
0
LINE
8
DEFAULT_255_1_388
10
20.7799361
20
-0.6398
11
20.6543407
21
-0.2964455
0
LINE
8
DEFAULT_255_1_388
10
20.6543407
20
-0.2964455
11
20.1031664
21
-0.2964455
0
LINE
8
DEFAULT_255_1_388
10
20.1031664
20
-0.2964455
11
19.979378
21
-0.6398
0
LINE
8
DEFAULT_255_1_388
10
19.979378
20
-0.6398
11
19.8004723
21
-0.6398
0
LINE
8
DEFAULT_255_1_388
10
19.8004723
20
-0.6398
11
20.3028541
21
0.6757898
0
LINE
8
DEFAULT_255_1_388
10
20.3028541
20
0.6757898
11
20.4546529
21
0.6757898
0
LINE
8
DEFAULT_255_1_388
10
20.4546529
20
0.6757898
11
20.9579383
21
-0.6398
0
LINE
8
DEFAULT_255_1_388
10
20.9579383
20
-0.6398
11
20.7799361
21
-0.6398
0
LINE
8
DEFAULT_255_1_388
10
20.3787535
20
0.4616451
11
20.1555731
21
-0.1536823
0
LINE
8
DEFAULT_255_1_388
10
20.1555731
20
-0.1536823
11
20.6028375
21
-0.1536823
0
LINE
8
DEFAULT_255_1_388
10
20.6028375
20
-0.1536823
11
20.3787535
21
0.4616451
0
LINE
8
DEFAULT_255_1_388
10
21.9870982
20
-0.6398
11
21.8615028
21
-0.2964455
0
LINE
8
DEFAULT_255_1_388
10
21.8615028
20
-0.2964455
11
21.3103285
21
-0.2964455
0
LINE
8
DEFAULT_255_1_388
10
21.3103285
20
-0.2964455
11
21.1865401
21
-0.6398
0
LINE
8
DEFAULT_255_1_388
10
21.1865401
20
-0.6398
11
21.0076344
21
-0.6398
0
LINE
8
DEFAULT_255_1_388
10
21.0076344
20
-0.6398
11
21.5100162
21
0.6757898
0
LINE
8
DEFAULT_255_1_388
10
21.5100162
20
0.6757898
11
21.661815
21
0.6757898
0
LINE
8
DEFAULT_255_1_388
10
21.661815
20
0.6757898
11
22.1651004
21
-0.6398
0
LINE
8
DEFAULT_255_1_388
10
22.1651004
20
-0.6398
11
21.9870982
21
-0.6398
0
LINE
8
DEFAULT_255_1_388
10
21.5859156
20
0.4616451
11
21.3627352
21
-0.1536823
0
LINE
8
DEFAULT_255_1_388
10
21.3627352
20
-0.1536823
11
21.8099996
21
-0.1536823
0
LINE
8
DEFAULT_255_1_388
10
21.8099996
20
-0.1536823
11
21.5859156
21
0.4616451
0
LINE
8
DEFAULT_255_1_388
10
23.1237823
20
0.138169
11
23.1237823
21
-0.0786865
0
LINE
8
DEFAULT_255_1_388
10
22.2934066
20
-0.1012756
11
22.2934066
21
0.1219048
0
LINE
8
DEFAULT_255_1_388
10
22.9566229
20
-0.1238647
11
22.9566229
21
0.1499153
0
LINE
8
DEFAULT_255_1_388
10
22.460566
20
0.1625652
11
22.460566
21
-0.1048898
0
ARC
8
DEFAULT_255_1_388
10
21.7460157
20
-0.0841882
40
1.3777776
50
353.8440855
51
0.2287917
0
ARC
8
DEFAULT_255_1_388
10
22.2679175
20
-0.1424586
40
0.852639
50
344.4934746
51
353.9763743
0
ARC
8
DEFAULT_255_1_388
10
22.6045982
20
-0.2381809
40
0.5026273
50
329.2803599
51
344.7473406
0
ARC
8
DEFAULT_255_1_388
10
22.7161478
20
-0.2993962
40
0.3754848
50
324.9361395
51
328.6153007
0
ARC
8
DEFAULT_255_1_388
10
22.7587127
20
-0.3291414
40
0.3235566
50
280.5801797
51
324.9173226
0
ARC
8
DEFAULT_255_1_388
10
22.7135756
20
-0.1411764
40
0.5167077
50
269.5979457
51
281.6732777
0
ARC
8
DEFAULT_255_1_388
10
22.7054659
20
-0.1546887
40
0.5032026
50
256.6228565
51
270.5105488
0
ARC
8
DEFAULT_255_1_388
10
22.6602402
20
-0.3288655
40
0.3233092
50
215.8618351
51
257.2787793
0
ARC
8
DEFAULT_255_1_388
10
22.7751109
20
-0.2517894
40
0.4615831
50
197.9695203
51
215.2622745
0
ARC
8
DEFAULT_255_1_388
10
23.0546785
20
-0.1574359
40
0.7566307
50
187.8816486
51
198.2346584
0
ARC
8
DEFAULT_255_1_388
10
23.5000023
20
-0.0931547
40
1.2065653
50
180.8977266
51
188.0054894
0
ARC
8
DEFAULT_255_1_388
10
23.8050237
20
-0.08166
40
1.5117443
50
180.7434591
51
181.152202
0
ARC
8
DEFAULT_255_1_388
10
23.6375233
20
0.1273371
40
1.3441277
50
173.7674302
51
180.2315596
0
ARC
8
DEFAULT_255_1_388
10
23.1293102
20
0.1847779
40
0.8326847
50
164.3058537
51
173.9000553
0
ARC
8
DEFAULT_255_1_388
10
22.8017102
20
0.2791652
40
0.4917711
50
148.7922028
51
164.5682288
0
ARC
8
DEFAULT_255_1_388
10
22.6947839
20
0.3388457
40
0.3694204
50
144.5883979
51
148.1161588
0
ARC
8
DEFAULT_255_1_388
10
22.6560584
20
0.3658667
40
0.322202
50
101.6440149
51
144.5142619
0
ARC
8
DEFAULT_255_1_388
10
22.7038777
20
0.1758337
40
0.5180451
50
89.528284
51
102.5820197
0
ARC
8
DEFAULT_255_1_388
10
22.7127769
20
0.1714376
40
0.5224441
50
77.0437914
51
90.508231
0
ARC
8
DEFAULT_255_1_388
10
22.7580022
20
0.3562272
40
0.3322297
50
48.2777708
51
77.4996087
0
ARC
8
DEFAULT_255_1_388
10
22.7661762
20
0.3707557
40
0.315966
50
36.3141586
51
47.6307332
0
ARC
8
DEFAULT_255_1_388
10
22.6684484
20
0.3049159
40
0.4337313
50
18.2931065
51
35.6770203
0
ARC
8
DEFAULT_255_1_388
10
22.3823325
20
0.2067107
40
0.7362203
50
8.0246996
51
18.5605636
0
ARC
8
DEFAULT_255_1_388
10
21.9139681
20
0.1375432
40
1.2096583
50
1.127539
51
8.1718423
0
ARC
8
DEFAULT_255_1_388
10
21.5490814
20
0.1232374
40
1.5747719
50
0.5432713
51
1.38669
0
ARC
8
DEFAULT_255_1_388
10
21.7548193
20
0.1539163
40
1.2018103
50
359.8092569
51
4.9408001
0
ARC
8
DEFAULT_255_1_388
10
22.2284774
20
0.19619
40
0.7262727
50
4.8364937
51
12.2906017
0
ARC
8
DEFAULT_255_1_388
10
22.5384239
20
0.2652485
40
0.4087324
50
12.0806994
51
23.8171225
0
ARC
8
DEFAULT_255_1_388
10
22.6704635
20
0.3211508
40
0.2653719
50
24.2874621
51
31.3934353
0
ARC
8
DEFAULT_255_1_388
10
22.7295071
20
0.3597822
40
0.1948607
50
30.7407708
51
82.4658033
0
ARC
8
DEFAULT_255_1_388
10
22.7092732
20
0.2604017
40
0.2961198
50
81.1057101
51
90.2187368
0
ARC
8
DEFAULT_255_1_388
10
22.7052544
20
0.2894421
40
0.2670929
50
89.380395
51
105.6763916
0
ARC
8
DEFAULT_255_1_388
10
22.6846265
20
0.364432
40
0.1893189
50
105.7980655
51
149.7387869
0
ARC
8
DEFAULT_255_1_388
10
22.8043406
20
0.2924719
40
0.3289892
50
149.4208441
51
163.628295
0
ARC
8
DEFAULT_255_1_388
10
23.0395635
20
0.2207345
40
0.5749004
50
163.3764549
51
172.141138
0
ARC
8
DEFAULT_255_1_388
10
23.4108357
20
0.1675582
40
0.9499585
50
172.0258462
51
178.0705453
0
ARC
8
DEFAULT_255_1_388
10
23.7529909
20
0.1513682
40
1.2924734
50
177.8639301
51
179.5036263
0
ARC
8
DEFAULT_255_1_388
10
23.6310928
20
-0.1089849
40
1.170534
50
179.7995545
51
185.246089
0
ARC
8
DEFAULT_255_1_388
10
23.1762521
20
-0.1520596
40
0.7136613
50
185.1411911
51
193.0082205
0
ARC
8
DEFAULT_255_1_388
10
22.8788782
20
-0.2223559
40
0.4080987
50
192.7897338
51
205.2507384
0
ARC
8
DEFAULT_255_1_388
10
22.7610992
20
-0.2749462
40
0.2791522
50
205.8001921
51
211.2545876
0
ARC
8
DEFAULT_255_1_388
10
22.7022531
20
-0.3143868
40
0.2084074
50
210.3789935
51
238.4007996
0
ARC
8
DEFAULT_255_1_388
10
22.7000617
20
-0.3091214
40
0.2117943
50
239.6521916
51
265.9793852
0
ARC
8
DEFAULT_255_1_388
10
22.7096466
20
-0.2334642
40
0.2879689
50
265.1324455
51
270.0603288
0
ARC
8
DEFAULT_255_1_388
10
22.7128843
20
-0.2699582
40
0.2514919
50
269.3314378
51
287.2180039
0
ARC
8
DEFAULT_255_1_388
10
22.7283925
20
-0.3265709
40
0.1928357
50
287.7957942
51
329.0808983
0
ARC
8
DEFAULT_255_1_388
10
22.6206682
20
-0.2593349
40
0.319808
50
328.6635261
51
343.3325043
0
ARC
8
DEFAULT_255_1_388
10
22.3762141
20
-0.1831805
40
0.5758408
50
343.0498092
51
351.9392499
0
ARC
8
DEFAULT_255_1_388
10
21.9861462
20
-0.1256795
40
0.9701202
50
351.8071632
51
357.7957897
0
ARC
8
DEFAULT_255_1_388
10
21.6226939
20
-0.1068276
40
1.3340376
50
357.5870923
51
359.2682493
0
ARC
8
DEFAULT_255_2_778
10
7.7537338
20
139.6512992
40
3.0484709
50
251.6854144
51
258.6071955
0
ARC
8
DEFAULT_255_2_778
10
7.539521
20
138.5696738
40
1.9458471
50
258.4992492
51
268.3986479
0
ARC
8
DEFAULT_255_2_778
10
7.5172314
20
138.1394206
40
1.5151737
50
268.7865272
51
269.9950384
0
ARC
8
DEFAULT_255_2_778
10
7.5277432
20
137.6882355
40
1.0640417
50
269.426895
51
279.6711067
0
ARC
8
DEFAULT_255_2_778
10
7.6417753
20
137.0586746
40
0.4243233
50
278.7731084
51
300.3324923
0
ARC
8
DEFAULT_255_2_778
10
7.760746
20
136.8560552
40
0.1893587
50
300.2240287
51
1.9041213
0
ARC
8
DEFAULT_255_2_778
10
7.7452705
20
136.8652089
40
0.2047497
50
359.1991369
51
359.99965
0
ARC
8
DEFAULT_255_2_778
10
7.7523233
20
136.8660378
40
0.1976988
50
359.7594145
51
47.1793976
0
ARC
8
DEFAULT_255_2_778
10
7.6187277
20
136.717431
40
0.3975169
50
47.6144502
51
60.8366176
0
ARC
8
DEFAULT_255_2_778
10
7.0190958
20
135.7014865
40
1.5771337
50
59.799464
51
64.8885807
0
ARC
8
DEFAULT_255_2_778
10
6.0948833
20
133.7724682
40
3.7160912
50
64.6076081
51
66.8386974
0
ARC
8
DEFAULT_255_2_778
10
9.6419609
20
142.1355052
40
5.368109
50
244.3032309
51
247.1393781
0
ARC
8
DEFAULT_255_2_778
10
8.5507088
20
139.875518
40
2.8584574
50
240.2323579
51
244.3709759
0
ARC
8
DEFAULT_255_2_778
10
7.7800475
20
138.5386591
40
1.315392
50
233.2209971
51
240.4606284
0
ARC
8
DEFAULT_255_2_778
10
7.3561477
20
137.9675187
40
0.6041399
50
225.6990744
51
232.9899679
0
ARC
8
DEFAULT_255_2_778
10
7.3965073
20
137.9919214
40
0.6499005
50
178.2783416
51
224.6550883
0
ARC
8
DEFAULT_255_2_778
10
7.5059624
20
138.0252974
40
0.7591885
50
157.033673
51
181.0453383
0
ARC
8
DEFAULT_255_2_778
10
7.378439
20
138.0661396
40
0.6259551
50
124.9113017
51
155.9211516
0
ARC
8
DEFAULT_255_2_778
10
7.5960466
20
137.7575681
40
1.0035357
50
100.4079723
51
125.0168617
0
ARC
8
DEFAULT_255_2_778
10
7.6991199
20
137.2635046
40
1.5081396
50
89.6483922
51
100.8684975
0
ARC
8
DEFAULT_255_2_778
10
7.7083242
20
136.9112988
40
1.8603169
50
89.5079487
51
89.9984402
0
ARC
8
DEFAULT_255_2_778
10
7.7099573
20
136.8460694
40
1.9255311
50
83.9170631
51
89.5732113
0
ARC
8
DEFAULT_255_2_778
10
7.5071517
20
134.8384957
40
3.9433074
50
80.7325723
51
84.0779772
0
ARC
8
DEFAULT_255_2_778
10
7.0208457
20
131.815582
40
7.0050837
50
78.5086351
51
80.7886813
0
ARC
8
DEFAULT_255_2_778
10
7.6620177
20
136.4150544
40
1.9415426
50
67.135818
51
78.0934208
0
ARC
8
DEFAULT_255_2_778
10
7.7851814
20
136.9854809
40
1.3579807
50
78.2126325
51
89.7333975
0
ARC
8
DEFAULT_255_2_778
10
7.7793853
20
137.4006211
40
0.9429038
50
89.2638155
51
100.5666868
0
ARC
8
DEFAULT_255_2_778
10
7.6660949
20
137.9704419
40
0.362036
50
99.4784875
51
124.329414
0
ARC
8
DEFAULT_255_2_778
10
7.5705593
20
138.118551
40
0.1859067
50
125.7571195
51
182.2824883
0
ARC
8
DEFAULT_255_2_778
10
7.5493239
20
138.1118629
40
0.1645253
50
180.2492993
51
239.8144161
0
ARC
8
DEFAULT_255_2_778
10
7.932718
20
138.7119128
40
0.876484
50
237.8725734
51
242.8068846
0
ARC
8
DEFAULT_255_2_778
10
9.4175857
20
141.5284958
40
4.0604642
50
242.3328458
51
244.031083
0
ARC
8
DEFAULT_255_2_778
10
12.3804066
20
147.5769314
40
10.7955807
50
243.950624
51
244.8024316
0
ARC
8
DEFAULT_255_2_778
10
15.4009918
20
153.9609175
40
17.8580926
50
244.7535425
51
244.9563234
0
ARC
8
DEFAULT_255_2_778
10
5.8652927
20
133.4593264
40
4.7527588
50
62.2505456
51
65.4301556
0
ARC
8
DEFAULT_255_2_778
10
6.9275435
20
135.4674172
40
2.4810291
50
57.2951304
51
62.3684211
0
ARC
8
DEFAULT_255_2_778
10
7.6807233
20
136.6307235
40
1.0952081
50
48.7345704
51
57.5685367
0
ARC
8
DEFAULT_255_2_778
10
8.0117486
20
137.0182722
40
0.5856147
50
44.3236031
51
48.0704418
0
ARC
8
DEFAULT_255_2_778
10
7.9783002
20
136.9982468
40
0.6236013
50
1.3523843
51
43.4925744
0
ARC
8
DEFAULT_255_2_778
10
7.7103531
20
136.9653151
40
0.8926473
50
359.9763756
51
3.0599076
0
ARC
8
DEFAULT_255_2_778
10
7.8645343
20
136.9502407
40
0.7386124
50
333.0361889
51
1.1408766
0
ARC
8
DEFAULT_255_2_778
10
7.8947908
20
136.9571919
40
0.7150741
50
300.8430083
51
331.4403095
0
ARC
8
DEFAULT_255_2_778
10
7.694568
20
137.2707162
40
1.0869673
50
281.4258583
51
301.4316118
0
ARC
8
DEFAULT_255_2_778
10
7.5632666
20
137.8789414
40
1.7091691
50
270.2273513
51
281.7010805
0
ARC
8
DEFAULT_255_2_778
10
7.5453797
20
138.3556043
40
2.1859577
50
269.9983113
51
270.6466065
0
LINE
8
DEFAULT_255_2_778
10
7.5453153
20
136.1696465
11
7.5438002
21
136.169647
0
ARC
8
DEFAULT_255_2_778
10
7.5509161
20
139.3525969
40
3.1829579
50
256.2431122
51
269.871909
0
ARC
8
DEFAULT_255_2_778
10
21.7538511
20
139.5771629
40
2.9720345
50
251.5709223
51
258.7508181
0
ARC
8
DEFAULT_255_2_778
10
21.5538128
20
138.5539385
40
1.9294488
50
258.6495077
51
268.8281511
0
ARC
8
DEFAULT_255_2_778
10
21.5355488
20
138.1591193
40
1.5343723
50
269.2085037
51
269.9981866
0
ARC
8
DEFAULT_255_2_778
10
21.5473849
20
137.6907184
40
1.0660376
50
269.3612297
51
279.5899087
0
ARC
8
DEFAULT_255_2_778
10
21.6608439
20
137.0592324
40
0.424527
50
278.6895227
51
300.2363944
0
ARC
8
DEFAULT_255_2_778
10
21.7799083
20
136.8557793
40
0.188796
50
300.1108484
51
1.9024905
0
ARC
8
DEFAULT_255_2_778
10
21.7439577
20
136.8664221
40
0.2246851
50
358.8842611
51
0.0019649
0
ARC
8
DEFAULT_255_2_778
10
21.7769791
20
136.8703385
40
0.1917038
50
358.831716
51
47.0900458
0
ARC
8
DEFAULT_255_2_778
10
21.6364654
20
136.710984
40
0.4041259
50
47.8812665
51
61.174665
0
ARC
8
DEFAULT_255_2_778
10
21.0418848
20
135.6910117
40
1.5846568
50
60.1210877
51
65.1917015
0
ARC
8
DEFAULT_255_2_778
10
20.1415278
20
133.7854122
40
3.6922188
50
64.9168629
51
67.1565628
0
ARC
8
DEFAULT_255_2_778
10
23.6275467
20
142.0569888
40
5.2839333
50
244.2656926
51
247.1407051
0
ARC
8
DEFAULT_255_2_778
10
22.5594997
20
139.848765
40
2.8309849
50
240.1545061
51
244.3326325
0
ARC
8
DEFAULT_255_2_778
10
21.7856548
20
138.5127346
40
1.2870531
50
232.697515
51
240.4357497
0
ARC
8
DEFAULT_255_2_778
10
21.3705506
20
137.9617218
40
0.5972006
50
225.5850892
51
232.3393736
0
ARC
8
DEFAULT_255_2_778
10
21.4133941
20
137.9912933
40
0.6483829
50
178.7795739
51
224.7095916
0
ARC
8
DEFAULT_255_2_778
10
21.6669319
20
138.0153135
40
0.9018316
50
179.997867
51
180.6487041
0
ARC
8
DEFAULT_255_2_778
10
21.5167738
20
138.0291249
40
0.7517998
50
156.9195758
51
181.050088
0
ARC
8
DEFAULT_255_2_778
10
21.3928482
20
138.0685712
40
0.6224513
50
124.7111133
51
155.7879672
0
ARC
8
DEFAULT_255_2_778
10
21.6055459
20
137.7766942
40
0.9835402
50
101.7934503
51
125.2143527
0
ARC
8
DEFAULT_255_2_778
10
21.729848
20
137.2241326
40
1.5498677
50
89.5248728
51
102.1166783
0
ARC
8
DEFAULT_255_2_778
10
21.7283109
20
136.6705834
40
2.1034129
50
83.2889725
51
89.6080411
0
ARC
8
DEFAULT_255_2_778
10
21.529975
20
134.9027668
40
3.8823067
50
79.4764054
51
83.4308492
0
ARC
8
DEFAULT_255_2_778
10
21.2186357
20
133.1495673
40
5.6628977
50
78.2224868
51
79.6190915
0
ARC
8
DEFAULT_255_2_778
10
21.6838473
20
136.4270715
40
1.9311543
50
67.1323814
51
78.3148813
0
ARC
8
DEFAULT_255_2_778
10
21.801359
20
136.9785614
40
1.3672981
50
78.4565774
51
89.7552271
0
ARC
8
DEFAULT_255_2_778
10
21.7951366
20
137.409447
40
0.9364778
50
89.2619009
51
100.5950934
0
ARC
8
DEFAULT_255_2_778
10
21.6824182
20
137.9749169
40
0.3599879
50
99.5087086
51
124.406715
0
ARC
8
DEFAULT_255_2_778
10
21.5878565
20
138.121343
40
0.1858061
50
125.8630185
51
182.2986975
0
ARC
8
DEFAULT_255_2_778
10
21.5497296
20
138.1138047
40
0.1475296
50
179.9666559
51
180.100057
0
ARC
8
DEFAULT_255_2_778
10
21.566185
20
138.113793
40
0.163985
50
180.0859454
51
239.8819968
0
ARC
8
DEFAULT_255_2_778
10
21.9379018
20
138.7005619
40
0.8584853
50
238.072871
51
243.0442008
0
ARC
8
DEFAULT_255_2_778
10
23.4872034
20
141.6655845
40
4.2038426
50
242.5409111
51
244.1884903
0
ARC
8
DEFAULT_255_2_778
10
26.6463384
20
148.160196
40
11.4260319
50
244.1076525
51
244.9219574
0
ARC
8
DEFAULT_255_2_778
10
29.9038827
20
155.083855
40
19.0777309
50
244.8743531
51
245.066969
0
ARC
8
DEFAULT_255_2_778
10
19.8865272
20
133.4916274
40
4.7250654
50
62.0340028
51
65.293009
0
ARC
8
DEFAULT_255_2_778
10
20.9507744
20
135.4865758
40
2.464003
50
57.1127289
51
62.13736
0
ARC
8
DEFAULT_255_2_778
10
21.7037139
20
136.6402906
40
1.0863604
50
48.3695509
51
57.4197129
0
ARC
8
DEFAULT_255_2_778
10
22.0286268
20
137.0170419
40
0.5889589
50
44.472493
51
47.6467012
0
ARC
8
DEFAULT_255_2_778
10
21.9979457
20
136.9999032
40
0.6229283
50
1.2061613
51
43.6203607
0
ARC
8
DEFAULT_255_2_778
10
21.7312413
20
136.9674903
40
0.890659
50
359.9779196
51
2.9299178
0
ARC
8
DEFAULT_255_2_778
10
21.8802547
20
136.9523837
40
0.7417924
50
333.172934
51
1.140392
0
ARC
8
DEFAULT_255_2_778
10
21.9146167
20
136.9570736
40
0.7135172
50
300.9808035
51
331.5913995
0
ARC
8
DEFAULT_255_2_778
10
21.7182603
20
137.2669862
40
1.0803281
50
281.9040909
51
301.4483918
0
ARC
8
DEFAULT_255_2_778
10
21.5848425
20
137.8655518
40
1.6935565
50
270.5796874
51
282.1436175
0
ARC
8
DEFAULT_255_2_778
10
21.5636722
20
138.3604735
40
2.1887267
50
269.9959074
51
271.0027751
0
LINE
8
DEFAULT_255_2_778
10
21.5635158
20
136.1717468
11
21.5625002
21
136.171747
0
ARC
8
DEFAULT_255_2_778
10
21.5700221
20
139.3605174
40
3.1887792
50
256.2556596
51
269.8648469
0
LINE
8
DEFAULT_255_2_778
10
6.7958002
20
136.262547
11
6.7958002
21
136.757247
0
LINE
8
DEFAULT_255_2_778
10
8.4164002
20
138.680247
11
8.4164002
21
138.204047
0
LINE
8
DEFAULT_255_2_778
10
6.7940002
20
136.260947
11
6.7958002
21
136.262547
0
LINE
8
DEFAULT_255_2_778
10
8.9866002
20
138.729747
11
9.6629002
21
138.729747
0
LINE
8
DEFAULT_255_2_778
10
9.6629002
20
138.729747
11
9.6629002
21
136.222347
0
LINE
8
DEFAULT_255_2_778
10
9.6629002
20
136.222347
11
8.9866002
21
136.222347
0
LINE
8
DEFAULT_255_2_778
10
8.9866002
20
136.222347
11
8.9866002
21
138.729747
0
LINE
8
DEFAULT_255_2_778
10
10.2809002
20
136.222347
11
10.2809002
21
138.729747
0
LINE
8
DEFAULT_255_2_778
10
10.2809002
20
138.729747
11
12.0132002
21
138.729747
0
LINE
8
DEFAULT_255_2_778
10
12.0132002
20
138.729747
11
12.0132002
21
138.276047
0
LINE
8
DEFAULT_255_2_778
10
12.0132002
20
138.276047
11
10.9321002
21
138.276047
0
LINE
8
DEFAULT_255_2_778
10
10.9321002
20
138.276047
11
10.9321002
21
137.709747
0
LINE
8
DEFAULT_255_2_778
10
10.9321002
20
137.709747
11
11.8735002
21
137.709747
0
LINE
8
DEFAULT_255_2_778
10
11.8735002
20
137.709747
11
11.8735002
21
137.296247
0
LINE
8
DEFAULT_255_2_778
10
11.8735002
20
137.296247
11
10.9321002
21
137.296247
0
LINE
8
DEFAULT_255_2_778
10
10.9321002
20
137.296247
11
10.9321002
21
136.700947
0
LINE
8
DEFAULT_255_2_778
10
10.9321002
20
136.700947
11
12.0412002
21
136.700947
0
LINE
8
DEFAULT_255_2_778
10
12.0412002
20
136.700947
11
12.0412002
21
136.220747
0
LINE
8
DEFAULT_255_2_778
10
12.0412002
20
136.220747
11
10.2809002
21
136.222347
0
LINE
8
DEFAULT_255_2_778
10
12.4817002
20
136.222347
11
12.4817002
21
138.729747
0
LINE
8
DEFAULT_255_2_778
10
12.4817002
20
138.729747
11
13.3575002
21
138.729747
0
LINE
8
DEFAULT_255_2_778
10
13.3575002
20
138.729747
11
13.9671002
21
137.127447
0
LINE
8
DEFAULT_255_2_778
10
13.9671002
20
137.127447
11
14.5897002
21
138.729747
0
LINE
8
DEFAULT_255_2_778
10
14.5897002
20
138.729747
11
15.4215002
21
138.729747
0
LINE
8
DEFAULT_255_2_778
10
15.4215002
20
138.729747
11
15.4215002
21
136.222347
0
LINE
8
DEFAULT_255_2_778
10
15.4215002
20
136.222347
11
14.7812002
21
136.222347
0
LINE
8
DEFAULT_255_2_778
10
14.7812002
20
136.222347
11
14.7812002
21
137.998147
0
LINE
8
DEFAULT_255_2_778
10
14.7812002
20
137.998147
11
14.0724002
21
136.197947
0
LINE
8
DEFAULT_255_2_778
10
14.0724002
20
136.197947
11
13.6515002
21
136.197947
0
LINE
8
DEFAULT_255_2_778
10
13.6515002
20
136.197947
11
12.9559002
21
137.998147
0
LINE
8
DEFAULT_255_2_778
10
12.9559002
20
137.998147
11
12.9559002
21
136.222047
0
LINE
8
DEFAULT_255_2_778
10
12.9559002
20
136.222047
11
12.4817002
21
136.222347
0
LINE
8
DEFAULT_255_2_778
10
16.0409002
20
136.222347
11
16.0409002
21
138.729747
0
LINE
8
DEFAULT_255_2_778
10
16.0409002
20
138.729747
11
17.7731002
21
138.729747
0
LINE
8
DEFAULT_255_2_778
10
17.7731002
20
138.729747
11
17.7731002
21
138.276047
0
LINE
8
DEFAULT_255_2_778
10
17.7731002
20
138.276047
11
16.6921002
21
138.276047
0
LINE
8
DEFAULT_255_2_778
10
16.6921002
20
138.276047
11
16.6921002
21
137.709747
0
LINE
8
DEFAULT_255_2_778
10
16.6921002
20
137.709747
11
17.6334002
21
137.709747
0
LINE
8
DEFAULT_255_2_778
10
17.6334002
20
137.709747
11
17.6334002
21
137.296247
0
LINE
8
DEFAULT_255_2_778
10
17.6334002
20
137.296247
11
16.6921002
21
137.296247
0
LINE
8
DEFAULT_255_2_778
10
16.6921002
20
137.296247
11
16.6921002
21
136.700947
0
LINE
8
DEFAULT_255_2_778
10
16.6921002
20
136.700947
11
17.8030002
21
136.700947
0
LINE
8
DEFAULT_255_2_778
10
17.8030002
20
136.700947
11
17.8030002
21
136.220747
0
LINE
8
DEFAULT_255_2_778
10
17.8030002
20
136.220747
11
16.0409002
21
136.222347
0
LINE
8
DEFAULT_255_2_778
10
18.2454002
20
136.222347
11
18.2454002
21
138.729747
0
LINE
8
DEFAULT_255_2_778
10
18.2454002
20
138.729747
11
19.0283002
21
138.729747
0
LINE
8
DEFAULT_255_2_778
10
19.0283002
20
138.729747
11
19.8586002
21
137.050947
0
LINE
8
DEFAULT_255_2_778
10
19.8586002
20
137.050947
11
19.8586002
21
138.729747
0
LINE
8
DEFAULT_255_2_778
10
19.8586002
20
138.729747
11
20.3343002
21
138.729747
0
LINE
8
DEFAULT_255_2_778
10
20.3343002
20
138.729747
11
20.3343002
21
136.222347
0
LINE
8
DEFAULT_255_2_778
10
20.3343002
20
136.222347
11
19.5739002
21
136.222347
0
LINE
8
DEFAULT_255_2_778
10
19.5739002
20
136.222347
11
18.7214002
21
137.923547
0
LINE
8
DEFAULT_255_2_778
10
18.7214002
20
137.923547
11
18.7214002
21
136.222347
0
LINE
8
DEFAULT_255_2_778
10
18.7214002
20
136.222347
11
18.2454002
21
136.222347
0
LINE
8
DEFAULT_255_2_778
10
20.8143002
20
136.262747
11
20.8143002
21
136.757547
0
LINE
8
DEFAULT_255_2_778
10
22.3745002
20
138.693247
11
22.4343002
21
138.682647
0
LINE
8
DEFAULT_255_2_778
10
22.4343002
20
138.682647
11
22.4343002
21
138.206447
0
LINE
8
DEFAULT_255_2_778
10
20.8124002
20
136.263047
11
20.8143002
21
136.262747
0
LINE
8
DEFAULT_255_1_388
10
8.5110457
20
134.6134892
11
8.3366577
21
134.6134892
0
LINE
8
DEFAULT_255_1_388
10
7.5577852
20
134.0596042
11
7.7321731
21
134.0596042
0
ARC
8
DEFAULT_255_1_388
10
8.4107304
20
135.6198821
40
1.4087688
50
248.9196578
51
254.1442424
0
ARC
8
DEFAULT_255_1_388
10
8.2217184
20
135.1332805
40
0.8867498
50
241.6337352
51
249.0064643
0
ARC
8
DEFAULT_255_1_388
10
8.0497498
20
134.8181764
40
0.5277799
50
230.4982261
51
241.8087583
0
ARC
8
DEFAULT_255_1_388
10
7.9615269
20
134.7057686
40
0.3849419
50
227.4062979
51
229.9877433
0
ARC
8
DEFAULT_255_1_388
10
7.9066615
20
134.6522155
40
0.3084129
50
200.6782127
51
228.1765252
0
ARC
8
DEFAULT_255_1_388
10
7.9147984
20
134.6505277
40
0.315461
50
179.506278
51
199.8695278
0
ARC
8
DEFAULT_255_1_388
10
7.9137573
20
134.6588671
40
0.3144584
50
132.4834401
51
181.0242352
0
ARC
8
DEFAULT_255_1_388
10
7.9806777
20
134.5956788
40
0.4063094
50
129.2526113
51
133.4249077
0
ARC
8
DEFAULT_255_1_388
10
7.997237
20
134.5708619
40
0.436014
50
101.9878945
51
128.8741833
0
ARC
8
DEFAULT_255_1_388
10
8.0420785
20
134.377236
40
0.6347415
50
89.5906376
51
102.3170567
0
ARC
8
DEFAULT_255_1_388
10
8.0500097
20
134.4130586
40
0.5989122
50
77.2359491
51
90.3248968
0
ARC
8
DEFAULT_255_1_388
10
8.0733028
20
134.5218554
40
0.4876594
50
63.8379856
51
77.0808925
0
ARC
8
DEFAULT_255_1_388
10
8.1045561
20
134.5800882
40
0.4216191
50
45.9863127
51
64.1608798
0
ARC
8
DEFAULT_255_1_388
10
8.1338955
20
134.613599
40
0.3771394
50
32.2747934
51
45.6544796
0
ARC
8
DEFAULT_255_1_388
10
8.1413761
20
134.6157426
40
0.3696765
50
359.6507495
51
32.6129943
0
ARC
8
DEFAULT_255_1_388
10
8.0352944
20
134.6162788
40
0.3013762
50
359.469654
51
14.983205
0
ARC
8
DEFAULT_255_1_388
10
8.1146196
20
134.6375288
40
0.2192542
50
14.9781954
51
48.2004799
0
ARC
8
DEFAULT_255_1_388
10
8.0961307
20
134.6142937
40
0.2489048
50
48.5926661
51
74.1242559
0
ARC
8
DEFAULT_255_1_388
10
8.0586109
20
134.4904607
40
0.3782845
50
73.7889321
51
86.6653996
0
ARC
8
DEFAULT_255_1_388
10
8.0470924
20
134.3546955
40
0.5145025
50
86.2642725
51
90.0533288
0
ARC
8
DEFAULT_255_1_388
10
8.0439017
20
134.3991376
40
0.4700681
50
89.669455
51
99.2313411
0
ARC
8
DEFAULT_255_1_388
10
8.0166176
20
134.5616401
40
0.3052945
50
99.0695987
51
113.7659242
0
ARC
8
DEFAULT_255_1_388
10
7.9858171
20
134.6342772
40
0.226407
50
114.0402885
51
127.9848946
0
ARC
8
DEFAULT_255_1_388
10
7.9587647
20
134.6675884
40
0.1835045
50
127.7287217
51
176.7106493
0
ARC
8
DEFAULT_255_1_388
10
8.0351312
20
134.656221
40
0.2604907
50
175.1780759
51
180.0581213
0
ARC
8
DEFAULT_255_1_388
10
7.9402656
20
134.6548411
40
0.1656287
50
179.6140658
51
228.124674
0
ARC
8
DEFAULT_255_1_388
10
7.9900013
20
134.700894
40
0.2332038
50
226.5785315
51
230.8792476
0
ARC
8
DEFAULT_255_1_388
10
8.04295
20
134.7711908
40
0.3211664
50
231.4636401
51
241.9261664
0
ARC
8
DEFAULT_255_1_388
10
8.1776283
20
135.0190349
40
0.6032345
50
241.7177136
51
248.3259138
0
ARC
8
DEFAULT_255_1_388
10
8.3334878
20
135.4051771
40
1.0196417
50
248.2007377
51
252.4527713
0
ARC
8
DEFAULT_255_1_388
10
8.4688405
20
135.8236092
40
1.4594143
50
252.3388938
51
254.347037
0
ARC
8
DEFAULT_255_1_388
10
7.6203705
20
132.7888095
40
1.6917621
50
71.0197462
51
74.4085467
0
ARC
8
DEFAULT_255_1_388
10
7.8110793
20
133.3393144
40
1.1091618
50
66.1845203
51
71.086519
0
ARC
8
DEFAULT_255_1_388
10
7.9861342
20
133.7334439
40
0.6779073
50
59.3537334
51
66.269255
0
ARC
8
DEFAULT_255_1_388
10
8.0861068
20
133.9025777
40
0.4814366
50
49.1021732
51
59.3294421
0
ARC
8
DEFAULT_255_1_388
10
8.1782056
20
134.0075575
40
0.3417875
50
32.7924183
51
49.2503526
0
ARC
8
DEFAULT_255_1_388
10
8.213167
20
134.0325311
40
0.2988789
50
31.121225
51
32.3977355
0
ARC
8
DEFAULT_255_1_388
10
8.2043848
20
134.0292728
40
0.3080861
50
8.1116803
51
30.7958224
0
ARC
8
DEFAULT_255_1_388
10
8.1132194
20
134.0137437
40
0.4005385
50
359.8390945
51
8.4707348
0
ARC
8
DEFAULT_255_1_388
10
8.1836242
20
134.0082751
40
0.3301608
50
337.4732479
51
0.7538283
0
ARC
8
DEFAULT_255_1_388
10
8.2037267
20
134.0060554
40
0.3107929
50
307.5917028
51
336.4313755
0
ARC
8
DEFAULT_255_1_388
10
8.1526324
20
134.0628509
40
0.3870096
50
307.6560665
51
308.4561779
0
ARC
8
DEFAULT_255_1_388
10
8.1260541
20
134.1036832
40
0.435591
50
284.3733666
51
307.1426212
0
ARC
8
DEFAULT_255_1_388
10
8.0703435
20
134.3086391
40
0.6479685
50
272.4384566
51
284.6464689
0
ARC
8
DEFAULT_255_1_388
10
8.056082
20
134.5110434
40
0.8508149
50
269.9708517
51
272.8180721
0
ARC
8
DEFAULT_255_1_388
10
8.0512503
20
134.2818283
40
0.6216151
50
248.2707343
51
270.4054609
0
ARC
8
DEFAULT_255_1_388
10
8.0451374
20
134.2603673
40
0.5994203
50
246.1380358
51
248.054058
0
ARC
8
DEFAULT_255_1_388
10
7.9980517
20
134.1614705
40
0.4899388
50
233.1671897
51
246.4951656
0
ARC
8
DEFAULT_255_1_388
10
7.9357152
20
134.0773137
40
0.3852115
50
215.3403381
51
233.084328
0
ARC
8
DEFAULT_255_1_388
10
7.9050516
20
134.0550093
40
0.3472969
50
179.2419235
51
215.2648426
0
ARC
8
DEFAULT_255_1_388
10
7.9914067
20
134.0565979
40
0.259251
50
179.3355796
51
199.1045873
0
ARC
8
DEFAULT_255_1_388
10
7.9540209
20
134.0468223
40
0.2207454
50
199.8830064
51
232.7061328
0
ARC
8
DEFAULT_255_1_388
10
8.0071483
20
134.1136456
40
0.306101
50
232.3736206
51
255.5136621
0
ARC
8
DEFAULT_255_1_388
10
8.0454989
20
134.2536177
40
0.4512213
50
255.2447928
51
267.5318292
0
ARC
8
DEFAULT_255_1_388
10
8.0553456
20
134.3922709
40
0.5901825
50
267.1564563
51
270.0294721
0
ARC
8
DEFAULT_255_1_388
10
8.0584781
20
134.3423623
40
0.5402814
50
269.6999944
51
278.1662446
0
ARC
8
DEFAULT_255_1_388
10
8.0872809
20
134.1476974
40
0.3435003
50
278.0229022
51
290.6255326
0
ARC
8
DEFAULT_255_1_388
10
8.1263975
20
134.0433547
40
0.2320666
50
290.6616368
51
307.0374127
0
ARC
8
DEFAULT_255_1_388
10
8.1601875
20
134.001904
40
0.1786372
50
306.3942078
51
355.303191
0
ARC
8
DEFAULT_255_1_388
10
8.1026168
20
134.0105186
40
0.2367516
50
354.3662092
51
0.0709489
0
ARC
8
DEFAULT_255_1_388
10
8.1186037
20
134.0130561
40
0.2207761
50
359.4175379
51
16.1975911
0
ARC
8
DEFAULT_255_1_388
10
8.1698155
20
134.0270954
40
0.1676828
50
16.4721294
51
52.6261798
0
ARC
8
DEFAULT_255_1_388
10
8.0774662
20
133.9051606
40
0.3206412
50
52.7381828
51
62.4979144
0
ARC
8
DEFAULT_255_1_388
10
7.9216415
20
133.6119236
40
0.6527035
50
62.2517425
51
68.1219454
0
ARC
8
DEFAULT_255_1_388
10
7.7281903
20
133.1364951
40
1.1659797
50
68.006043
51
71.8055127
0
ARC
8
DEFAULT_255_1_388
10
7.5261811
20
132.5306723
40
1.8045908
50
71.718361
51
73.9260743
0
LINE
8
DEFAULT_255_1_388
10
8.9221675
20
134.9938898
11
8.9221675
21
133.6783
0
LINE
8
DEFAULT_255_1_388
10
8.9221675
20
133.6783
11
8.7486831
21
133.6783
0
LINE
8
DEFAULT_255_1_388
10
8.7486831
20
133.6783
11
8.7486831
21
134.9938898
0
LINE
8
DEFAULT_255_1_388
10
8.7486831
20
134.9938898
11
8.9221675
21
134.9938898
0
LINE
8
DEFAULT_255_1_388
10
9.2393186
20
134.9938898
11
9.4634026
21
134.9938898
0
LINE
8
DEFAULT_255_1_388
10
9.4634026
20
134.9938898
11
9.8934993
21
133.9204553
0
LINE
8
DEFAULT_255_1_388
10
9.8934993
20
133.9204553
11
10.3235959
21
134.9938898
0
LINE
8
DEFAULT_255_1_388
10
10.3235959
20
134.9938898
11
10.5485835
21
134.9938898
0
LINE
8
DEFAULT_255_1_388
10
10.5485835
20
134.9938898
11
10.5485835
21
133.6783
0
LINE
8
DEFAULT_255_1_388
10
10.5485835
20
133.6783
11
10.3750991
21
133.6783
0
LINE
8
DEFAULT_255_1_388
10
10.3750991
20
133.6783
11
10.3750991
21
134.190621
0
LINE
8
DEFAULT_255_1_388
10
10.3750991
20
134.190621
11
10.3913633
21
134.7436025
0
LINE
8
DEFAULT_255_1_388
10
10.3913633
20
134.7436025
11
9.9594595
21
133.6783
0
LINE
8
DEFAULT_255_1_388
10
9.9594595
20
133.6783
11
9.8266355
21
133.6783
0
LINE
8
DEFAULT_255_1_388
10
9.8266355
20
133.6783
11
9.3956353
21
134.7408918
0
LINE
8
DEFAULT_255_1_388
10
9.3956353
20
134.7408918
11
9.412803
21
134.190621
0
LINE
8
DEFAULT_255_1_388
10
9.412803
20
134.190621
11
9.412803
21
133.6783
0
LINE
8
DEFAULT_255_1_388
10
9.412803
20
133.6783
11
9.2393186
21
133.6783
0
LINE
8
DEFAULT_255_1_388
10
9.2393186
20
133.6783
11
9.2393186
21
134.9938898
0
LINE
8
DEFAULT_255_1_388
10
11.7232173
20
133.6783
11
11.5976218
21
134.0216545
0
LINE
8
DEFAULT_255_1_388
10
11.5976218
20
134.0216545
11
11.0464475
21
134.0216545
0
LINE
8
DEFAULT_255_1_388
10
11.0464475
20
134.0216545
11
10.9226592
21
133.6783
0
LINE
8
DEFAULT_255_1_388
10
10.9226592
20
133.6783
11
10.7437534
21
133.6783
0
LINE
8
DEFAULT_255_1_388
10
10.7437534
20
133.6783
11
11.2461353
21
134.9938898
0
LINE
8
DEFAULT_255_1_388
10
11.2461353
20
134.9938898
11
11.3979341
21
134.9938898
0
LINE
8
DEFAULT_255_1_388
10
11.3979341
20
134.9938898
11
11.9012195
21
133.6783
0
LINE
8
DEFAULT_255_1_388
10
11.9012195
20
133.6783
11
11.7232173
21
133.6783
0
LINE
8
DEFAULT_255_1_388
10
11.3220347
20
134.7797451
11
11.0988542
21
134.1644177
0
LINE
8
DEFAULT_255_1_388
10
11.0988542
20
134.1644177
11
11.5461187
21
134.1644177
0
LINE
8
DEFAULT_255_1_388
10
11.5461187
20
134.1644177
11
11.3220347
21
134.7797451
0
LINE
8
DEFAULT_255_1_388
10
12.8707441
20
134.9938898
11
12.8707441
21
134.8511267
0
LINE
8
DEFAULT_255_1_388
10
12.8707441
20
134.8511267
11
12.447876
21
134.8511267
0
LINE
8
DEFAULT_255_1_388
10
12.447876
20
134.8511267
11
12.447876
21
133.6783
0
LINE
8
DEFAULT_255_1_388
10
12.447876
20
133.6783
11
12.2752952
21
133.6783
0
LINE
8
DEFAULT_255_1_388
10
12.2752952
20
133.6783
11
12.2752952
21
134.8511267
0
LINE
8
DEFAULT_255_1_388
10
12.2752952
20
134.8511267
11
11.8533306
21
134.8511267
0
LINE
8
DEFAULT_255_1_388
10
11.8533306
20
134.8511267
11
11.8533306
21
134.9938898
0
LINE
8
DEFAULT_255_1_388
10
11.8533306
20
134.9938898
11
12.8707441
21
134.9938898
0
LINE
8
DEFAULT_255_1_388
10
13.2520483
20
134.9938898
11
13.2520483
21
133.6783
0
LINE
8
DEFAULT_255_1_388
10
13.2520483
20
133.6783
11
13.078564
21
133.6783
0
LINE
8
DEFAULT_255_1_388
10
13.078564
20
133.6783
11
13.078564
21
134.9938898
0
LINE
8
DEFAULT_255_1_388
10
13.078564
20
134.9938898
11
13.2520483
21
134.9938898
0
LINE
8
DEFAULT_255_1_388
10
14.3625291
20
134.0957468
11
14.536917
21
134.0957468
0
LINE
8
DEFAULT_255_1_388
10
13.5240212
20
134.2746525
11
13.5240212
21
134.4011516
0
LINE
8
DEFAULT_255_1_388
10
14.536917
20
134.5710217
11
14.3625291
21
134.5710217
0
LINE
8
DEFAULT_255_1_388
10
13.6984092
20
134.3966337
11
13.6984092
21
134.2692312
0
ARC
8
DEFAULT_255_1_388
10
13.9203404
20
134.1629329
40
0.6202263
50
340.1774904
51
353.7812217
0
ARC
8
DEFAULT_255_1_388
10
14.0971257
20
134.0970893
40
0.4315926
50
311.4560052
51
340.4420756
0
ARC
8
DEFAULT_255_1_388
10
14.0933796
20
134.1095665
40
0.4434573
50
282.4332229
51
310.7514507
0
ARC
8
DEFAULT_255_1_388
10
14.0439614
20
134.3137703
40
0.6535262
50
269.9358869
51
282.8096729
0
ARC
8
DEFAULT_255_1_388
10
14.0381554
20
134.4650329
40
0.8048043
50
269.9995752
51
270.3612856
0
ARC
8
DEFAULT_255_1_388
10
14.0322044
20
134.1851781
40
0.5249831
50
250.7885263
51
270.6488451
0
ARC
8
DEFAULT_255_1_388
10
14.0132868
20
134.1134853
40
0.4510942
50
219.3628377
51
250.0611024
0
ARC
8
DEFAULT_255_1_388
10
14.1065743
20
134.1927653
40
0.5735046
50
193.5480293
51
219.5755675
0
ARC
8
DEFAULT_255_1_388
10
14.3733952
20
134.262052
40
0.849146
50
181.1220183
51
193.8754971
0
ARC
8
DEFAULT_255_1_388
10
14.6057185
20
134.2744914
40
1.0816971
50
179.9914644
51
181.5398227
0
ARC
8
DEFAULT_255_1_388
10
14.3980495
20
134.4053586
40
0.8740384
50
169.5837606
51
180.275782
0
ARC
8
DEFAULT_255_1_388
10
14.1913844
20
134.4435439
40
0.6638751
50
155.0367033
51
169.6002779
0
ARC
8
DEFAULT_255_1_388
10
14.0636302
20
134.5051336
40
0.5220662
50
136.7831557
51
155.2472983
0
ARC
8
DEFAULT_255_1_388
10
14.0198092
20
134.5423577
40
0.4646502
50
121.7633063
51
136.4281161
0
ARC
8
DEFAULT_255_1_388
10
14.0349932
20
134.5143049
40
0.4964979
50
95.6460018
51
121.5489589
0
ARC
8
DEFAULT_255_1_388
10
14.0526907
20
134.3895704
40
0.6223912
50
89.9245727
51
96.1375919
0
ARC
8
DEFAULT_255_1_388
10
14.0583612
20
134.4029721
40
0.6090084
50
76.6779212
51
90.456405
0
ARC
8
DEFAULT_255_1_388
10
14.1026425
20
134.581906
40
0.42469
50
47.4858803
51
76.9287069
0
ARC
8
DEFAULT_255_1_388
10
14.0861038
20
134.5706623
40
0.4441778
50
16.5424081
51
46.8934505
0
ARC
8
DEFAULT_255_1_388
10
13.9052088
20
134.5112265
40
0.6345318
50
5.4072971
51
17.0363711
0
ARC
8
DEFAULT_255_1_388
10
13.7433813
20
134.4852304
40
0.6250632
50
7.8888693
51
15.9242022
0
ARC
8
DEFAULT_255_1_388
10
13.9668799
20
134.5501309
40
0.3923364
50
15.7650676
51
27.9410069
0
ARC
8
DEFAULT_255_1_388
10
14.0910968
20
134.6166317
40
0.2514401
50
27.8167196
51
46.4007942
0
ARC
8
DEFAULT_255_1_388
10
14.0966809
20
134.6159882
40
0.2480958
50
47.4372362
51
75.0695672
0
ARC
8
DEFAULT_255_1_388
10
14.0619646
20
134.4951277
40
0.3738281
50
74.7009379
51
87.8124314
0
ARC
8
DEFAULT_255_1_388
10
14.0537262
20
134.3767659
40
0.4924321
50
87.3802571
51
90.0251599
0
ARC
8
DEFAULT_255_1_388
10
14.049391
20
134.5087997
40
0.3604218
50
89.3451886
51
108.5744412
0
ARC
8
DEFAULT_255_1_388
10
14.0339902
20
134.5665836
40
0.3007661
50
109.2998307
51
143.3037387
0
ARC
8
DEFAULT_255_1_388
10
14.1197192
20
134.5006584
40
0.4089031
50
143.075267
51
163.1918576
0
ARC
8
DEFAULT_255_1_388
10
14.3393026
20
134.4313652
40
0.6391492
50
162.9375929
51
174.6208776
0
ARC
8
DEFAULT_255_1_388
10
14.6347408
20
134.3989711
40
0.9363344
50
174.342123
51
180.1430283
0
ARC
8
DEFAULT_255_1_388
10
14.5299949
20
134.2646117
40
0.8315986
50
179.6817261
51
189.150555
0
ARC
8
DEFAULT_255_1_388
10
14.2486698
20
134.2177559
40
0.5464044
50
188.9911061
51
203.5772363
0
ARC
8
DEFAULT_255_1_388
10
14.127199
20
134.1673539
40
0.4149206
50
203.9075402
51
215.1312435
0
ARC
8
DEFAULT_255_1_388
10
14.0233788
20
134.0868907
40
0.2837747
50
213.9071511
51
263.8848919
0
ARC
8
DEFAULT_255_1_388
10
14.0374781
20
134.1751519
40
0.3730641
50
263.1757928
51
270.1031044
0
ARC
8
DEFAULT_255_1_388
10
14.041086
20
134.3154511
40
0.5133712
50
269.6722503
51
279.0606936
0
ARC
8
DEFAULT_255_1_388
10
14.0711016
20
134.134015
40
0.3294739
50
278.8749101
51
293.6349581
0
ARC
8
DEFAULT_255_1_388
10
14.1071219
20
134.0494251
40
0.2375405
50
293.8553806
51
310.0518171
0
ARC
8
DEFAULT_255_1_388
10
14.1076728
20
134.0424021
40
0.2318463
50
311.0644687
51
332.0111037
0
ARC
8
DEFAULT_255_1_388
10
13.9735402
20
134.1163702
40
0.3850112
50
331.6586806
51
343.2877423
0
ARC
8
DEFAULT_255_1_388
10
13.7414867
20
134.1876806
40
0.6277712
50
343.1446576
51
351.0103568
0
ARC
8
DEFAULT_255_1_388
10
13.578219
20
134.2176873
40
0.7937327
50
350.71248
51
351.1626997
0
LINE
8
DEFAULT_255_1_388
10
16.1046013
20
134.6134892
11
15.9302134
21
134.6134892
0
LINE
8
DEFAULT_255_1_388
10
15.1513408
20
134.0596042
11
15.3257288
21
134.0596042
0
ARC
8
DEFAULT_255_1_388
10
16.0042861
20
135.6198821
40
1.4087688
50
248.9196578
51
254.1442424
0
ARC
8
DEFAULT_255_1_388
10
15.8152741
20
135.1332805
40
0.8867498
50
241.6337352
51
249.0064643
0
ARC
8
DEFAULT_255_1_388
10
15.6433054
20
134.8181764
40
0.5277799
50
230.4982261
51
241.8087583
0
ARC
8
DEFAULT_255_1_388
10
15.5550825
20
134.7057686
40
0.3849419
50
227.4062979
51
229.9877433
0
ARC
8
DEFAULT_255_1_388
10
15.5002172
20
134.6522155
40
0.3084129
50
200.6782127
51
228.1765252
0
ARC
8
DEFAULT_255_1_388
10
15.5083541
20
134.6505277
40
0.315461
50
179.506278
51
199.8695278
0
ARC
8
DEFAULT_255_1_388
10
15.507313
20
134.6588671
40
0.3144584
50
132.4834401
51
181.0242352
0
ARC
8
DEFAULT_255_1_388
10
15.5742334
20
134.5956788
40
0.4063094
50
129.2526113
51
133.4249077
0
ARC
8
DEFAULT_255_1_388
10
15.5907926
20
134.5708619
40
0.436014
50
101.9878945
51
128.8741833
0
ARC
8
DEFAULT_255_1_388
10
15.6356342
20
134.377236
40
0.6347415
50
89.5906376
51
102.3170567
0
ARC
8
DEFAULT_255_1_388
10
15.6435653
20
134.4130586
40
0.5989122
50
77.2359491
51
90.3248968
0
ARC
8
DEFAULT_255_1_388
10
15.6668584
20
134.5218554
40
0.4876594
50
63.8379856
51
77.0808925
0
ARC
8
DEFAULT_255_1_388
10
15.6981118
20
134.5800882
40
0.4216191
50
45.9863127
51
64.1608798
0
ARC
8
DEFAULT_255_1_388
10
15.7274511
20
134.613599
40
0.3771394
50
32.2747934
51
45.6544796
0
ARC
8
DEFAULT_255_1_388
10
15.7349318
20
134.6157426
40
0.3696765
50
359.6507495
51
32.6129943
0
ARC
8
DEFAULT_255_1_388
10
15.6288501
20
134.6162788
40
0.3013762
50
359.469654
51
14.983205
0
ARC
8
DEFAULT_255_1_388
10
15.7081753
20
134.6375288
40
0.2192542
50
14.9781954
51
48.2004799
0
ARC
8
DEFAULT_255_1_388
10
15.6896864
20
134.6142937
40
0.2489048
50
48.5926661
51
74.1242559
0
ARC
8
DEFAULT_255_1_388
10
15.6521666
20
134.4904607
40
0.3782845
50
73.7889321
51
86.6653996
0
ARC
8
DEFAULT_255_1_388
10
15.6406481
20
134.3546955
40
0.5145025
50
86.2642725
51
90.0533288
0
ARC
8
DEFAULT_255_1_388
10
15.6374573
20
134.3991376
40
0.4700681
50
89.669455
51
99.2313411
0
ARC
8
DEFAULT_255_1_388
10
15.6101733
20
134.5616401
40
0.3052945
50
99.0695987
51
113.7659242
0
ARC
8
DEFAULT_255_1_388
10
15.5793728
20
134.6342772
40
0.226407
50
114.0402885
51
127.9848946
0
ARC
8
DEFAULT_255_1_388
10
15.5523204
20
134.6675884
40
0.1835045
50
127.7287217
51
176.7106493
0
ARC
8
DEFAULT_255_1_388
10
15.6286869
20
134.656221
40
0.2604907
50
175.1780759
51
180.0581213
0
ARC
8
DEFAULT_255_1_388
10
15.5338212
20
134.6548411
40
0.1656287
50
179.6140658
51
228.124674
0
ARC
8
DEFAULT_255_1_388
10
15.583557
20
134.700894
40
0.2332038
50
226.5785315
51
230.8792476
0
ARC
8
DEFAULT_255_1_388
10
15.6365056
20
134.7711908
40
0.3211664
50
231.4636401
51
241.9261664
0
ARC
8
DEFAULT_255_1_388
10
15.771184
20
135.0190349
40
0.6032345
50
241.7177136
51
248.3259138
0
ARC
8
DEFAULT_255_1_388
10
15.9270435
20
135.4051771
40
1.0196417
50
248.2007377
51
252.4527713
0
ARC
8
DEFAULT_255_1_388
10
16.0623961
20
135.8236092
40
1.4594143
50
252.3388938
51
254.347037
0
ARC
8
DEFAULT_255_1_388
10
15.2139262
20
132.7888095
40
1.6917621
50
71.0197462
51
74.4085467
0
ARC
8
DEFAULT_255_1_388
10
15.404635
20
133.3393144
40
1.1091618
50
66.1845203
51
71.086519
0
ARC
8
DEFAULT_255_1_388
10
15.5796899
20
133.7334439
40
0.6779073
50
59.3537334
51
66.269255
0
ARC
8
DEFAULT_255_1_388
10
15.6796625
20
133.9025777
40
0.4814366
50
49.1021732
51
59.3294421
0
ARC
8
DEFAULT_255_1_388
10
15.7717613
20
134.0075575
40
0.3417875
50
32.7924183
51
49.2503526
0
ARC
8
DEFAULT_255_1_388
10
15.8067227
20
134.0325311
40
0.2988789
50
31.121225
51
32.3977355
0
ARC
8
DEFAULT_255_1_388
10
15.7979405
20
134.0292728
40
0.3080861
50
8.1116803
51
30.7958224
0
ARC
8
DEFAULT_255_1_388
10
15.7067751
20
134.0137437
40
0.4005385
50
359.8390945
51
8.4707348
0
ARC
8
DEFAULT_255_1_388
10
15.7771798
20
134.0082751
40
0.3301608
50
337.4732479
51
0.7538283
0
ARC
8
DEFAULT_255_1_388
10
15.7972823
20
134.0060554
40
0.3107929
50
307.5917028
51
336.4313755
0
ARC
8
DEFAULT_255_1_388
10
15.7461881
20
134.0628509
40
0.3870096
50
307.6560665
51
308.4561779
0
ARC
8
DEFAULT_255_1_388
10
15.7196098
20
134.1036832
40
0.435591
50
284.3733666
51
307.1426212
0
ARC
8
DEFAULT_255_1_388
10
15.6638992
20
134.3086391
40
0.6479685
50
272.4384566
51
284.6464689
0
ARC
8
DEFAULT_255_1_388
10
15.6496377
20
134.5110434
40
0.8508149
50
269.9708517
51
272.8180721
0
ARC
8
DEFAULT_255_1_388
10
15.6448059
20
134.2818283
40
0.6216151
50
248.2707343
51
270.4054609
0
ARC
8
DEFAULT_255_1_388
10
15.6386931
20
134.2603673
40
0.5994203
50
246.1380358
51
248.054058
0
ARC
8
DEFAULT_255_1_388
10
15.5916073
20
134.1614705
40
0.4899388
50
233.1671897
51
246.4951656
0
ARC
8
DEFAULT_255_1_388
10
15.5292709
20
134.0773137
40
0.3852115
50
215.3403381
51
233.084328
0
ARC
8
DEFAULT_255_1_388
10
15.4986073
20
134.0550093
40
0.3472969
50
179.2419235
51
215.2648426
0
ARC
8
DEFAULT_255_1_388
10
15.5849624
20
134.0565979
40
0.259251
50
179.3355796
51
199.1045873
0
ARC
8
DEFAULT_255_1_388
10
15.5475765
20
134.0468223
40
0.2207454
50
199.8830064
51
232.7061328
0
ARC
8
DEFAULT_255_1_388
10
15.600704
20
134.1136456
40
0.306101
50
232.3736206
51
255.5136621
0
ARC
8
DEFAULT_255_1_388
10
15.6390546
20
134.2536177
40
0.4512213
50
255.2447928
51
267.5318292
0
ARC
8
DEFAULT_255_1_388
10
15.6489013
20
134.3922709
40
0.5901825
50
267.1564563
51
270.0294721
0
ARC
8
DEFAULT_255_1_388
10
15.6520338
20
134.3423623
40
0.5402814
50
269.6999944
51
278.1662446
0
ARC
8
DEFAULT_255_1_388
10
15.6808365
20
134.1476974
40
0.3435003
50
278.0229022
51
290.6255326
0
ARC
8
DEFAULT_255_1_388
10
15.7199532
20
134.0433547
40
0.2320666
50
290.6616368
51
307.0374127
0
ARC
8
DEFAULT_255_1_388
10
15.7537432
20
134.001904
40
0.1786372
50
306.3942078
51
355.303191
0
ARC
8
DEFAULT_255_1_388
10
15.6961725
20
134.0105186
40
0.2367516
50
354.3662092
51
0.0709489
0
ARC
8
DEFAULT_255_1_388
10
15.7121594
20
134.0130561
40
0.2207761
50
359.4175379
51
16.1975911
0
ARC
8
DEFAULT_255_1_388
10
15.7633711
20
134.0270954
40
0.1676828
50
16.4721294
51
52.6261798
0
ARC
8
DEFAULT_255_1_388
10
15.6710219
20
133.9051606
40
0.3206412
50
52.7381828
51
62.4979144
0
ARC
8
DEFAULT_255_1_388
10
15.5151972
20
133.6119236
40
0.6527035
50
62.2517425
51
68.1219454
0
ARC
8
DEFAULT_255_1_388
10
15.321746
20
133.1364951
40
1.1659797
50
68.006043
51
71.8055127
0
ARC
8
DEFAULT_255_1_388
10
15.1197368
20
132.5306723
40
1.8045908
50
71.718361
51
73.9260743
0
LINE
8
DEFAULT_255_1_388
10
17.1355684
20
134.9938898
11
17.1355684
21
134.8999191
0
LINE
8
DEFAULT_255_1_388
10
17.1355684
20
134.8999191
11
16.590719
21
133.6783
0
LINE
8
DEFAULT_255_1_388
10
16.590719
20
133.6783
11
16.4154275
21
133.6783
0
LINE
8
DEFAULT_255_1_388
10
16.4154275
20
133.6783
11
16.9584697
21
134.856548
0
LINE
8
DEFAULT_255_1_388
10
16.9584697
20
134.856548
11
16.2464609
21
134.856548
0
LINE
8
DEFAULT_255_1_388
10
16.2464609
20
134.856548
11
16.2464609
21
134.9938898
0
LINE
8
DEFAULT_255_1_388
10
16.2464609
20
134.9938898
11
17.1355684
21
134.9938898
0
LINE
8
DEFAULT_255_1_388
10
17.6903569
20
134.3053737
11
17.6903569
21
134.1689355
0
LINE
8
DEFAULT_255_1_388
10
17.6903569
20
134.1689355
11
17.2494175
21
134.1689355
0
LINE
8
DEFAULT_255_1_388
10
17.2494175
20
134.1689355
11
17.2494175
21
134.3053737
0
LINE
8
DEFAULT_255_1_388
10
17.2494175
20
134.3053737
11
17.6903569
21
134.3053737
0
LINE
8
DEFAULT_255_1_388
10
18.0788896
20
134.2809775
11
18.0788896
21
134.4174157
0
LINE
8
DEFAULT_255_1_388
10
18.0788896
20
134.4174157
11
18.2044851
21
134.4174157
0
LINE
8
DEFAULT_255_1_388
10
17.9903403
20
134.6487282
11
17.8231809
21
134.6487282
0
LINE
8
DEFAULT_255_1_388
10
17.8114346
20
134.0252688
11
17.9794976
21
134.0252688
0
LINE
8
DEFAULT_255_1_388
10
18.2044851
20
134.2809775
11
18.0788896
21
134.2809775
0
ARC
8
DEFAULT_255_1_388
10
18.2012078
20
134.7990922
40
0.3816905
50
270.491971
51
281.8953028
0
ARC
8
DEFAULT_255_1_388
10
18.2283505
20
134.6751199
40
0.2547877
50
281.6690378
51
301.2943765
0
ARC
8
DEFAULT_255_1_388
10
18.2474956
20
134.6400926
40
0.2149197
50
301.7834992
51
311.754567
0
ARC
8
DEFAULT_255_1_388
10
18.2577997
20
134.628665
40
0.1995326
50
311.7325027
51
354.2803031
0
ARC
8
DEFAULT_255_1_388
10
18.1760413
20
134.642728
40
0.2823461
50
353.0941646
51
0.1174696
0
ARC
8
DEFAULT_255_1_388
10
18.1241971
20
134.6480874
40
0.3342238
50
359.1804452
51
15.0452323
0
ARC
8
DEFAULT_255_1_388
10
18.2756029
20
134.6922546
40
0.1765747
50
13.957816
51
77.6713812
0
ARC
8
DEFAULT_255_1_388
10
18.2321265
20
134.5364464
40
0.3381982
50
76.111571
51
90.7028736
0
ARC
8
DEFAULT_255_1_388
10
18.2254677
20
134.567225
40
0.3074046
50
89.5321574
51
103.5319393
0
ARC
8
DEFAULT_255_1_388
10
18.2029061
20
134.6571443
40
0.2147041
50
103.2930114
51
133.5619756
0
ARC
8
DEFAULT_255_1_388
10
18.1979002
20
134.6638351
40
0.2064084
50
133.8349761
51
173.5343225
0
ARC
8
DEFAULT_255_1_388
10
18.279266
20
134.6494144
40
0.2889266
50
172.5097183
51
180.1360699
0
ARC
8
DEFAULT_255_1_388
10
18.1722424
20
134.653288
40
0.3490913
50
155.3483706
51
180.7484035
0
ARC
8
DEFAULT_255_1_388
10
18.16674
20
134.6500519
40
0.3454798
50
131.5745177
51
154.4799474
0
ARC
8
DEFAULT_255_1_388
10
18.2019682
20
134.6144422
40
0.3955058
50
96.9874487
51
131.9690874
0
ARC
8
DEFAULT_255_1_388
10
18.2266575
20
134.4743407
40
0.537622
50
89.8592909
51
97.7827481
0
ARC
8
DEFAULT_255_1_388
10
18.2320684
20
134.444836
40
0.5671399
50
78.3654493
51
90.4132586
0
ARC
8
DEFAULT_255_1_388
10
18.2723325
20
134.6314918
40
0.3762034
50
56.6229818
51
78.6387103
0
ARC
8
DEFAULT_255_1_388
10
18.2965154
20
134.6737846
40
0.3275964
50
47.0254604
51
56.085558
0
ARC
8
DEFAULT_255_1_388
10
18.2987405
20
134.6782189
40
0.3228382
50
10.9207523
51
46.777927
0
ARC
8
DEFAULT_255_1_388
10
18.1452999
20
134.6427401
40
0.4802559
50
359.6364235
51
11.6087615
0
ARC
8
DEFAULT_255_1_388
10
18.3517165
20
134.6410404
40
0.273833
50
332.3549969
51
359.7179765
0
ARC
8
DEFAULT_255_1_388
10
18.2785565
20
134.6757285
40
0.3547505
50
325.2332381
51
332.8746682
0
ARC
8
DEFAULT_255_1_388
10
18.2957148
20
134.6637763
40
0.3338396
50
292.9803892
51
325.2391113
0
ARC
8
DEFAULT_255_1_388
10
18.2646344
20
134.7242679
40
0.4016959
50
292.542178
51
293.6931461
0
ARC
8
DEFAULT_255_1_388
10
18.3089916
20
133.9977036
40
0.372079
50
57.643292
51
72.8626085
0
ARC
8
DEFAULT_255_1_388
10
18.3488751
20
134.0623273
40
0.2961455
50
36.7246661
51
57.4701329
0
ARC
8
DEFAULT_255_1_388
10
18.3475907
20
134.063747
40
0.2963321
50
8.054535
51
36.3561529
0
ARC
8
DEFAULT_255_1_388
10
18.250558
20
134.0463073
40
0.3948682
50
359.8316595
51
8.5873361
0
ARC
8
DEFAULT_255_1_388
10
18.2083054
20
134.040897
40
0.4371398
50
343.9831631
51
0.557075
0
ARC
8
DEFAULT_255_1_388
10
18.3080104
20
134.0135963
40
0.3337749
50
311.6358204
51
343.7652116
0
ARC
8
DEFAULT_255_1_388
10
18.2654357
20
134.0615955
40
0.3979351
50
279.7829743
51
311.625622
0
ARC
8
DEFAULT_255_1_388
10
18.2315493
20
134.2232642
40
0.5630417
50
269.7285092
51
280.3857694
0
ARC
8
DEFAULT_255_1_388
10
18.2245806
20
134.2186241
40
0.5584119
50
256.6827433
51
270.4412869
0
ARC
8
DEFAULT_255_1_388
10
18.1864792
20
134.0628698
40
0.3980715
50
229.4223821
51
256.8554507
0
ARC
8
DEFAULT_255_1_388
10
18.1398345
20
134.0103683
40
0.3278564
50
181.8183354
51
229.6455015
0
ARC
8
DEFAULT_255_1_388
10
18.2567955
20
134.0250825
40
0.4453611
50
179.9760419
51
183.2330638
0
ARC
8
DEFAULT_255_1_388
10
18.2374507
20
134.0227781
40
0.2579652
50
179.4467996
51
196.2871626
0
ARC
8
DEFAULT_255_1_388
10
18.1825961
20
134.0077709
40
0.2011057
50
196.5661293
51
227.7059371
0
ARC
8
DEFAULT_255_1_388
10
18.2010568
20
134.0284155
40
0.2287994
50
227.7653015
51
257.8763321
0
ARC
8
DEFAULT_255_1_388
10
18.2263651
20
134.1344961
40
0.3378385
50
257.4583525
51
270.4267406
0
ARC
8
DEFAULT_255_1_388
10
18.2314901
20
134.167123
40
0.3704652
50
269.5965319
51
280.8788143
0
ARC
8
DEFAULT_255_1_388
10
18.2573129
20
134.0381529
40
0.2389415
50
280.6347277
51
299.8594068
0
ARC
8
DEFAULT_255_1_388
10
18.2787899
20
133.9973736
40
0.19289
50
300.3575552
51
314.5515667
0
ARC
8
DEFAULT_255_1_388
10
18.2694574
20
134.0042025
40
0.204312
50
315.0730962
51
345.0429362
0
ARC
8
DEFAULT_255_1_388
10
18.1656082
20
134.0344539
40
0.31246
50
344.598526
51
357.9270698
0
ARC
8
DEFAULT_255_1_388
10
18.0646387
20
134.0413705
40
0.4136265
50
357.4755098
51
0.0224936
0
ARC
8
DEFAULT_255_1_388
10
18.1799264
20
134.0441099
40
0.2983498
50
359.5051035
51
13.4236939
0
ARC
8
DEFAULT_255_1_388
10
18.2774354
20
134.0690637
40
0.1977186
50
12.9497905
51
48.7550905
0
ARC
8
DEFAULT_255_1_388
10
18.2569276
20
134.0410373
40
0.2323321
50
49.509109
51
72.1832965
0
ARC
8
DEFAULT_255_1_388
10
18.2166744
20
133.9215632
40
0.358397
50
71.9008458
51
84.3555134
0
ARC
8
DEFAULT_255_1_388
10
18.1985139
20
133.7683712
40
0.512641
50
84.019632
51
89.3326067
0
LINE
8
DEFAULT_255_1_388
10
19.6998843
20
134.456269
11
19.6998843
21
134.2394135
0
LINE
8
DEFAULT_255_1_388
10
18.8695085
20
134.2168244
11
18.8695085
21
134.4400048
0
LINE
8
DEFAULT_255_1_388
10
19.5327249
20
134.1942353
11
19.5327249
21
134.4680153
0
LINE
8
DEFAULT_255_1_388
10
19.036668
20
134.4806652
11
19.036668
21
134.2132102
0
ARC
8
DEFAULT_255_1_388
10
18.3221177
20
134.2339118
40
1.3777776
50
353.8440855
51
0.2287917
0
ARC
8
DEFAULT_255_1_388
10
18.8440194
20
134.1756414
40
0.852639
50
344.4934746
51
353.9763743
0
ARC
8
DEFAULT_255_1_388
10
19.1807001
20
134.0799191
40
0.5026273
50
329.2803599
51
344.7473406
0
ARC
8
DEFAULT_255_1_388
10
19.2922497
20
134.0187038
40
0.3754848
50
324.9361395
51
328.6153007
0
ARC
8
DEFAULT_255_1_388
10
19.3348147
20
133.9889586
40
0.3235566
50
280.5801797
51
324.9173226
0
ARC
8
DEFAULT_255_1_388
10
19.2896776
20
134.1769236
40
0.5167077
50
269.5979457
51
281.6732777
0
ARC
8
DEFAULT_255_1_388
10
19.2815679
20
134.1634113
40
0.5032026
50
256.6228565
51
270.5105488
0
ARC
8
DEFAULT_255_1_388
10
19.2363422
20
133.9892345
40
0.3233092
50
215.8618351
51
257.2787793
0
ARC
8
DEFAULT_255_1_388
10
19.3512129
20
134.0663106
40
0.4615831
50
197.9695203
51
215.2622745
0
ARC
8
DEFAULT_255_1_388
10
19.6307804
20
134.1606641
40
0.7566307
50
187.8816486
51
198.2346584
0
ARC
8
DEFAULT_255_1_388
10
20.0761043
20
134.2249453
40
1.2065653
50
180.8977266
51
188.0054894
0
ARC
8
DEFAULT_255_1_388
10
20.3811256
20
134.23644
40
1.5117443
50
180.7434591
51
181.152202
0
ARC
8
DEFAULT_255_1_388
10
20.2136252
20
134.4454371
40
1.3441277
50
173.7674302
51
180.2315596
0
ARC
8
DEFAULT_255_1_388
10
19.7054121
20
134.5028779
40
0.8326847
50
164.3058537
51
173.9000553
0
ARC
8
DEFAULT_255_1_388
10
19.3778121
20
134.5972652
40
0.4917711
50
148.7922028
51
164.5682288
0
ARC
8
DEFAULT_255_1_388
10
19.2708859
20
134.6569457
40
0.3694204
50
144.5883979
51
148.1161588
0
ARC
8
DEFAULT_255_1_388
10
19.2321604
20
134.6839667
40
0.322202
50
101.6440149
51
144.5142619
0
ARC
8
DEFAULT_255_1_388
10
19.2799796
20
134.4939337
40
0.5180451
50
89.528284
51
102.5820197
0
ARC
8
DEFAULT_255_1_388
10
19.2888788
20
134.4895376
40
0.5224441
50
77.0437914
51
90.508231
0
ARC
8
DEFAULT_255_1_388
10
19.3341042
20
134.6743272
40
0.3322297
50
48.2777708
51
77.4996087
0
ARC
8
DEFAULT_255_1_388
10
19.3422782
20
134.6888557
40
0.315966
50
36.3141586
51
47.6307332
0
ARC
8
DEFAULT_255_1_388
10
19.2445504
20
134.6230159
40
0.4337313
50
18.2931065
51
35.6770203
0
ARC
8
DEFAULT_255_1_388
10
18.9584345
20
134.5248107
40
0.7362203
50
8.0246996
51
18.5605636
0
ARC
8
DEFAULT_255_1_388
10
18.49007
20
134.4556432
40
1.2096583
50
1.127539
51
8.1718423
0
ARC
8
DEFAULT_255_1_388
10
18.1251834
20
134.4413374
40
1.5747719
50
0.5432713
51
1.38669
0
ARC
8
DEFAULT_255_1_388
10
18.3309212
20
134.4720163
40
1.2018103
50
359.8092569
51
4.9408001
0
ARC
8
DEFAULT_255_1_388
10
18.8045794
20
134.51429
40
0.7262727
50
4.8364937
51
12.2906017
0
ARC
8
DEFAULT_255_1_388
10
19.1145258
20
134.5833485
40
0.4087324
50
12.0806994
51
23.8171225
0
ARC
8
DEFAULT_255_1_388
10
19.2465654
20
134.6392508
40
0.2653719
50
24.2874621
51
31.3934353
0
ARC
8
DEFAULT_255_1_388
10
19.305609
20
134.6778822
40
0.1948607
50
30.7407708
51
82.4658033
0
ARC
8
DEFAULT_255_1_388
10
19.2853751
20
134.5785017
40
0.2961198
50
81.1057101
51
90.2187368
0
ARC
8
DEFAULT_255_1_388
10
19.2813563
20
134.6075421
40
0.2670929
50
89.380395
51
105.6763916
0
ARC
8
DEFAULT_255_1_388
10
19.2607285
20
134.682532
40
0.1893189
50
105.7980655
51
149.7387869
0
ARC
8
DEFAULT_255_1_388
10
19.3804425
20
134.6105719
40
0.3289892
50
149.4208441
51
163.628295
0
ARC
8
DEFAULT_255_1_388
10
19.6156655
20
134.5388345
40
0.5749004
50
163.3764549
51
172.141138
0
ARC
8
DEFAULT_255_1_388
10
19.9869376
20
134.4856582
40
0.9499585
50
172.0258462
51
178.0705453
0
ARC
8
DEFAULT_255_1_388
10
20.3290929
20
134.4694682
40
1.2924734
50
177.8639301
51
179.5036263
0
ARC
8
DEFAULT_255_1_388
10
20.2071948
20
134.2091151
40
1.170534
50
179.7995545
51
185.246089
0
ARC
8
DEFAULT_255_1_388
10
19.7523541
20
134.1660404
40
0.7136613
50
185.1411911
51
193.0082205
0
ARC
8
DEFAULT_255_1_388
10
19.4549801
20
134.0957441
40
0.4080987
50
192.7897338
51
205.2507384
0
ARC
8
DEFAULT_255_1_388
10
19.3372011
20
134.0431538
40
0.2791522
50
205.8001921
51
211.2545876
0
ARC
8
DEFAULT_255_1_388
10
19.2783551
20
134.0037132
40
0.2084074
50
210.3789935
51
238.4007996
0
ARC
8
DEFAULT_255_1_388
10
19.2761637
20
134.0089786
40
0.2117943
50
239.6521916
51
265.9793852
0
ARC
8
DEFAULT_255_1_388
10
19.2857485
20
134.0846358
40
0.2879689
50
265.1324455
51
270.0603288
0
ARC
8
DEFAULT_255_1_388
10
19.2889863
20
134.0481418
40
0.2514919
50
269.3314378
51
287.2180039
0
ARC
8
DEFAULT_255_1_388
10
19.3044945
20
133.9915291
40
0.1928357
50
287.7957942
51
329.0808983
0
ARC
8
DEFAULT_255_1_388
10
19.1967702
20
134.0587651
40
0.319808
50
328.6635261
51
343.3325043
0
ARC
8
DEFAULT_255_1_388
10
18.952316
20
134.1349195
40
0.5758408
50
343.0498092
51
351.9392499
0
ARC
8
DEFAULT_255_1_388
10
18.5622482
20
134.1924205
40
0.9701202
50
351.8071632
51
357.7957897
0
ARC
8
DEFAULT_255_1_388
10
18.1987959
20
134.2112724
40
1.3340376
50
357.5870923
51
359.2682493
0
LINE
8
DEFAULT_255_1_388
10
20.7389834
20
134.456269
11
20.7389834
21
134.2394135
0
LINE
8
DEFAULT_255_1_388
10
19.9086077
20
134.2168244
11
19.9086077
21
134.4400048
0
LINE
8
DEFAULT_255_1_388
10
20.571824
20
134.1942353
11
20.571824
21
134.4680153
0
LINE
8
DEFAULT_255_1_388
10
20.0757671
20
134.4806652
11
20.0757671
21
134.2132102
0
ARC
8
DEFAULT_255_1_388
10
19.3612168
20
134.2339118
40
1.3777776
50
353.8440855
51
0.2287917
0
ARC
8
DEFAULT_255_1_388
10
19.8831185
20
134.1756414
40
0.852639
50
344.4934746
51
353.9763743
0
ARC
8
DEFAULT_255_1_388
10
20.2197993
20
134.0799191
40
0.5026273
50
329.2803599
51
344.7473406
0
ARC
8
DEFAULT_255_1_388
10
20.3313488
20
134.0187038
40
0.3754848
50
324.9361395
51
328.6153007
0
ARC
8
DEFAULT_255_1_388
10
20.3739138
20
133.9889586
40
0.3235566
50
280.5801797
51
324.9173226
0
ARC
8
DEFAULT_255_1_388
10
20.3287767
20
134.1769236
40
0.5167077
50
269.5979457
51
281.6732777
0
ARC
8
DEFAULT_255_1_388
10
20.320667
20
134.1634113
40
0.5032026
50
256.6228565
51
270.5105488
0
ARC
8
DEFAULT_255_1_388
10
20.2754413
20
133.9892345
40
0.3233092
50
215.8618351
51
257.2787793
0
ARC
8
DEFAULT_255_1_388
10
20.390312
20
134.0663106
40
0.4615831
50
197.9695203
51
215.2622745
0
ARC
8
DEFAULT_255_1_388
10
20.6698796
20
134.1606641
40
0.7566307
50
187.8816486
51
198.2346584
0
ARC
8
DEFAULT_255_1_388
10
21.1152034
20
134.2249453
40
1.2065653
50
180.8977266
51
188.0054894
0
ARC
8
DEFAULT_255_1_388
10
21.4202248
20
134.23644
40
1.5117443
50
180.7434591
51
181.152202
0
ARC
8
DEFAULT_255_1_388
10
21.2527243
20
134.4454371
40
1.3441277
50
173.7674302
51
180.2315596
0
ARC
8
DEFAULT_255_1_388
10
20.7445112
20
134.5028779
40
0.8326847
50
164.3058537
51
173.9000553
0
ARC
8
DEFAULT_255_1_388
10
20.4169112
20
134.5972652
40
0.4917711
50
148.7922028
51
164.5682288
0
ARC
8
DEFAULT_255_1_388
10
20.309985
20
134.6569457
40
0.3694204
50
144.5883979
51
148.1161588
0
ARC
8
DEFAULT_255_1_388
10
20.2712595
20
134.6839667
40
0.322202
50
101.6440149
51
144.5142619
0
ARC
8
DEFAULT_255_1_388
10
20.3190787
20
134.4939337
40
0.5180451
50
89.528284
51
102.5820197
0
ARC
8
DEFAULT_255_1_388
10
20.3279779
20
134.4895376
40
0.5224441
50
77.0437914
51
90.508231
0
ARC
8
DEFAULT_255_1_388
10
20.3732033
20
134.6743272
40
0.3322297
50
48.2777708
51
77.4996087
0
ARC
8
DEFAULT_255_1_388
10
20.3813773
20
134.6888557
40
0.315966
50
36.3141586
51
47.6307332
0
ARC
8
DEFAULT_255_1_388
10
20.2836495
20
134.6230159
40
0.4337313
50
18.2931065
51
35.6770203
0
ARC
8
DEFAULT_255_1_388
10
19.9975336
20
134.5248107
40
0.7362203
50
8.0246996
51
18.5605636
0
ARC
8
DEFAULT_255_1_388
10
19.5291691
20
134.4556432
40
1.2096583
50
1.127539
51
8.1718423
0
ARC
8
DEFAULT_255_1_388
10
19.1642825
20
134.4413374
40
1.5747719
50
0.5432713
51
1.38669
0
ARC
8
DEFAULT_255_1_388
10
19.3700204
20
134.4720163
40
1.2018103
50
359.8092569
51
4.9408001
0
ARC
8
DEFAULT_255_1_388
10
19.8436785
20
134.51429
40
0.7262727
50
4.8364937
51
12.2906017
0
ARC
8
DEFAULT_255_1_388
10
20.153625
20
134.5833485
40
0.4087324
50
12.0806994
51
23.8171225
0
ARC
8
DEFAULT_255_1_388
10
20.2856646
20
134.6392508
40
0.2653719
50
24.2874621
51
31.3934353
0
ARC
8
DEFAULT_255_1_388
10
20.3447082
20
134.6778822
40
0.1948607
50
30.7407708
51
82.4658033
0
ARC
8
DEFAULT_255_1_388
10
20.3244742
20
134.5785017
40
0.2961198
50
81.1057101
51
90.2187368
0
ARC
8
DEFAULT_255_1_388
10
20.3204554
20
134.6075421
40
0.2670929
50
89.380395
51
105.6763916
0
ARC
8
DEFAULT_255_1_388
10
20.2998276
20
134.682532
40
0.1893189
50
105.7980655
51
149.7387869
0
ARC
8
DEFAULT_255_1_388
10
20.4195416
20
134.6105719
40
0.3289892
50
149.4208441
51
163.628295
0
ARC
8
DEFAULT_255_1_388
10
20.6547646
20
134.5388345
40
0.5749004
50
163.3764549
51
172.141138
0
ARC
8
DEFAULT_255_1_388
10
21.0260367
20
134.4856582
40
0.9499585
50
172.0258462
51
178.0705453
0
ARC
8
DEFAULT_255_1_388
10
21.368192
20
134.4694682
40
1.2924734
50
177.8639301
51
179.5036263
0
ARC
8
DEFAULT_255_1_388
10
21.2462939
20
134.2091151
40
1.170534
50
179.7995545
51
185.246089
0
ARC
8
DEFAULT_255_1_388
10
20.7914532
20
134.1660404
40
0.7136613
50
185.1411911
51
193.0082205
0
ARC
8
DEFAULT_255_1_388
10
20.4940793
20
134.0957441
40
0.4080987
50
192.7897338
51
205.2507384
0
ARC
8
DEFAULT_255_1_388
10
20.3763003
20
134.0431538
40
0.2791522
50
205.8001921
51
211.2545876
0
ARC
8
DEFAULT_255_1_388
10
20.3174542
20
134.0037132
40
0.2084074
50
210.3789935
51
238.4007996
0
ARC
8
DEFAULT_255_1_388
10
20.3152628
20
134.0089786
40
0.2117943
50
239.6521916
51
265.9793852
0
ARC
8
DEFAULT_255_1_388
10
20.3248477
20
134.0846358
40
0.2879689
50
265.1324455
51
270.0603288
0
ARC
8
DEFAULT_255_1_388
10
20.3280854
20
134.0481418
40
0.2514919
50
269.3314378
51
287.2180039
0
ARC
8
DEFAULT_255_1_388
10
20.3435936
20
133.9915291
40
0.1928357
50
287.7957942
51
329.0808983
0
ARC
8
DEFAULT_255_1_388
10
20.2358693
20
134.0587651
40
0.319808
50
328.6635261
51
343.3325043
0
ARC
8
DEFAULT_255_1_388
10
19.9914152
20
134.1349195
40
0.5758408
50
343.0498092
51
351.9392499
0
ARC
8
DEFAULT_255_1_388
10
19.6013473
20
134.1924205
40
0.9701202
50
351.8071632
51
357.7957897
0
ARC
8
DEFAULT_255_1_388
10
19.237895
20
134.2112724
40
1.3340376
50
357.5870923
51
359.2682493
0
LINE
8
DEFAULT_255_2_778
10
17.3301834
20
67.3364333
11
19.9759834
21
67.3364333
0
LINE
8
DEFAULT_255_2_778
10
19.9759834
20
67.3364333
11
19.9759834
21
62.0447333
0
LINE
8
DEFAULT_255_2_778
10
19.9759834
20
62.0447333
11
17.3301834
21
62.0447333
0
LINE
8
DEFAULT_255_2_778
10
17.3301834
20
62.0447333
11
17.3301834
21
67.3364333
0
LINE
8
DEFAULT_255_2_778
10
18.124
20
62.5739666
11
18.124
21
66.8072666
0
LINE
8
DEFAULT_255_2_778
10
17.8594167
20
66.013575
11
18.1240167
21
66.807275
0
LINE
8
DEFAULT_255_2_778
10
18.1240167
20
66.807275
11
18.3886167
21
66.013575
0
LINE
8
DEFAULT_255_2_778
10
18.3886167
20
66.013575
11
17.8594167
21
66.013575
0
LINE
8
DEFAULT_255_2_778
10
19.1823
20
66.8072666
11
19.1823
21
62.5739666
0
LINE
8
DEFAULT_255_2_778
10
18.9177167
20
63.367675
11
19.1823167
21
62.573975
0
LINE
8
DEFAULT_255_2_778
10
19.1823167
20
62.573975
11
19.4469167
21
63.367675
0
LINE
8
DEFAULT_255_2_778
10
19.4469167
20
63.367675
11
18.9177167
21
63.367675
0
LINE
8
DEFAULT_255_2_778
10
19.9760335
20
124.2218483
11
18.6531335
21
124.2218483
0
LINE
8
DEFAULT_255_2_778
10
18.6531335
20
124.2218483
11
18.6531335
21
67.3364483
0
LINE
8
DEFAULT_255_2_778
10
18.6531335
20
62.0447483
11
18.6531335
21
5.1593483
0
LINE
8
DEFAULT_255_2_778
10
18.6531335
20
5.1593483
11
19.9760335
21
5.1593483
0
LINE
8
DEFAULT_255_2_778
10
9.3927335
20
67.3364483
11
12.0385335
21
67.3364483
0
LINE
8
DEFAULT_255_2_778
10
12.0385335
20
67.3364483
11
12.0385335
21
62.0447483
0
LINE
8
DEFAULT_255_2_778
10
12.0385335
20
62.0447483
11
9.3927335
21
62.0447483
0
LINE
8
DEFAULT_255_2_778
10
9.3927335
20
62.0447483
11
9.3927335
21
67.3364483
0
LINE
8
DEFAULT_255_2_778
10
10.1865
20
62.5739666
11
10.1865
21
66.8072666
0
LINE
8
DEFAULT_255_2_778
10
9.9219167
20
66.013575
11
10.1865167
21
66.807275
0
LINE
8
DEFAULT_255_2_778
10
10.1865167
20
66.807275
11
10.4511167
21
66.013575
0
LINE
8
DEFAULT_255_2_778
10
10.4511167
20
66.013575
11
9.9219167
21
66.013575
0
LINE
8
DEFAULT_255_2_778
10
11.2448
20
66.8072666
11
11.2448
21
62.5739666
0
LINE
8
DEFAULT_255_2_778
10
10.9802167
20
63.367675
11
11.2448167
21
62.573975
0
LINE
8
DEFAULT_255_2_778
10
11.2448167
20
62.573975
11
11.5094167
21
63.367675
0
LINE
8
DEFAULT_255_2_778
10
11.5094167
20
63.367675
11
10.9802167
21
63.367675
0
LINE
8
DEFAULT_255_2_778
10
9.3927417
20
124.2218483
11
10.7156417
21
124.2218483
0
LINE
8
DEFAULT_255_2_778
10
10.7156417
20
124.2218483
11
10.7156417
21
67.3364483
0
LINE
8
DEFAULT_255_2_778
10
10.7156417
20
62.0447483
11
10.7156417
21
5.1593483
0
LINE
8
DEFAULT_255_2_778
10
10.7156417
20
5.1593483
11
9.3927417
21
5.1593483
0
LINE
8
DEFAULT_255_1_388
10
4.1680903
20
132.9674898
11
4.1680903
21
131.7937596
0
LINE
8
DEFAULT_255_1_388
10
4.1680903
20
131.7937596
11
4.7915498
21
131.7937596
0
LINE
8
DEFAULT_255_1_388
10
4.7915498
20
131.7937596
11
4.7915498
21
131.6519
0
LINE
8
DEFAULT_255_1_388
10
4.7915498
20
131.6519
11
3.9937024
21
131.6519
0
LINE
8
DEFAULT_255_1_388
10
3.9937024
20
131.6519
11
3.9937024
21
132.9674898
0
LINE
8
DEFAULT_255_1_388
10
3.9937024
20
132.9674898
11
4.1680903
21
132.9674898
0
LINE
8
DEFAULT_255_1_388
10
5.4421162
20
132.7415987
11
5.4421162
21
132.3575838
0
LINE
8
DEFAULT_255_1_388
10
5.4421162
20
132.3575838
11
5.8089634
21
132.3575838
0
LINE
8
DEFAULT_255_1_388
10
5.8089634
20
132.3575838
11
5.8089634
21
132.1994601
0
LINE
8
DEFAULT_255_1_388
10
5.8089634
20
132.1994601
11
5.4421162
21
132.1994601
0
LINE
8
DEFAULT_255_1_388
10
5.4421162
20
132.1994601
11
5.4421162
21
131.7838204
0
LINE
8
DEFAULT_255_1_388
10
5.4421162
20
131.7838204
11
5.2740532
21
131.7838204
0
LINE
8
DEFAULT_255_1_388
10
5.2740532
20
131.7838204
11
5.2740532
21
132.1994601
0
LINE
8
DEFAULT_255_1_388
10
5.2740532
20
132.1994601
11
4.9072061
21
132.1994601
0
LINE
8
DEFAULT_255_1_388
10
4.9072061
20
132.1994601
11
4.9072061
21
132.3575838
0
LINE
8
DEFAULT_255_1_388
10
4.9072061
20
132.3575838
11
5.2740532
21
132.3575838
0
LINE
8
DEFAULT_255_1_388
10
5.2740532
20
132.3575838
11
5.2740532
21
132.7415987
0
LINE
8
DEFAULT_255_1_388
10
5.2740532
20
132.7415987
11
5.4421162
21
132.7415987
0
LINE
8
DEFAULT_255_1_388
10
4.5066985
20
5.9738148
11
4.5066985
21
4.6519
0
LINE
8
DEFAULT_255_1_388
10
4.5066985
20
4.6519
11
4.3386355
21
4.6519
0
LINE
8
DEFAULT_255_1_388
10
4.3386355
20
4.6519
11
4.3386355
21
5.765995
0
LINE
8
DEFAULT_255_1_388
10
4.3386355
20
5.765995
11
4.001606
21
5.6422066
0
LINE
8
DEFAULT_255_1_388
10
4.001606
20
5.6422066
11
4.001606
21
5.7940055
0
LINE
8
DEFAULT_255_1_388
10
4.001606
20
5.7940055
11
4.4804951
21
5.9738148
0
LINE
8
DEFAULT_255_1_388
10
4.4804951
20
5.9738148
11
4.5066985
21
5.9738148
0
ARC
8
DEFAULT_255_1_388
10
5.1376138
20
4.7406142
40
0.1204062
50
163.5412609
51
180.5084512
0
ARC
8
DEFAULT_255_1_388
10
5.1160037
20
4.746446
40
0.0980307
50
138.1652
51
163.2315563
0
ARC
8
DEFAULT_255_1_388
10
5.1033778
20
4.7571456
40
0.0814881
50
105.6860499
51
137.8492655
0
ARC
8
DEFAULT_255_1_388
10
5.1166979
20
4.7139109
40
0.126719
50
92.6078949
51
106.199173
0
ARC
8
DEFAULT_255_1_388
10
5.1201169
20
4.6693207
40
0.1714243
50
89.9659531
51
93.0713334
0
ARC
8
DEFAULT_255_1_388
10
5.1213205
20
4.6943484
40
0.1464007
50
78.4379126
51
90.4311892
0
ARC
8
DEFAULT_255_1_388
10
5.1321852
20
4.7450017
40
0.094599
50
56.8961942
51
78.7357785
0
ARC
8
DEFAULT_255_1_388
10
5.1392963
20
4.7574075
40
0.0803272
50
42.6503148
51
56.3122241
0
ARC
8
DEFAULT_255_1_388
10
5.1248864
20
4.7441661
40
0.099897
50
3.8141057
51
42.636595
0
ARC
8
DEFAULT_255_1_388
10
5.0926186
20
4.7396616
40
0.1324137
50
359.9498843
51
4.8301897
0
ARC
8
DEFAULT_255_1_388
10
5.1181324
20
4.7384722
40
0.1069053
50
340.9378148
51
0.5753733
0
ARC
8
DEFAULT_255_1_388
10
5.1307906
20
4.7350569
40
0.0938301
50
316.0798885
51
340.3845117
0
ARC
8
DEFAULT_255_1_388
10
5.1373217
20
4.729052
40
0.0849605
50
285.8512844
51
315.941661
0
ARC
8
DEFAULT_255_1_388
10
5.1241097
20
4.771762
40
0.1296594
50
273.1293204
51
286.3125006
0
ARC
8
DEFAULT_255_1_388
10
5.1203607
20
4.8169586
40
0.1749979
50
269.9535313
51
273.5471598
0
ARC
8
DEFAULT_255_1_388
10
5.1191213
20
4.7923833
40
0.1504266
50
259.0487117
51
270.4180248
0
ARC
8
DEFAULT_255_1_388
10
5.1082825
20
4.7386783
40
0.0956414
50
239.7583641
51
259.3115656
0
ARC
8
DEFAULT_255_1_388
10
5.0991758
20
4.7217048
40
0.0763945
50
222.6243303
51
239.2473835
0
ARC
8
DEFAULT_255_1_388
10
5.1142929
20
4.7355572
40
0.0968985
50
182.9231258
51
222.598101
0
ARC
8
DEFAULT_255_1_388
10
5.1446129
20
4.7394696
40
0.1274004
50
179.9657458
51
183.9850364
0
LINE
8
DEFAULT_255_1_388
10
6.3328022
20
5.9674898
11
6.3328022
21
5.8735191
0
LINE
8
DEFAULT_255_1_388
10
6.3328022
20
5.8735191
11
5.7879529
21
4.6519
0
LINE
8
DEFAULT_255_1_388
10
5.7879529
20
4.6519
11
5.6126614
21
4.6519
0
LINE
8
DEFAULT_255_1_388
10
5.6126614
20
4.6519
11
6.1557036
21
5.830148
0
LINE
8
DEFAULT_255_1_388
10
6.1557036
20
5.830148
11
5.4436948
21
5.830148
0
LINE
8
DEFAULT_255_1_388
10
5.4436948
20
5.830148
11
5.4436948
21
5.9674898
0
LINE
8
DEFAULT_255_1_388
10
5.4436948
20
5.9674898
11
6.3328022
21
5.9674898
0
LINE
8
DEFAULT_255_1_388
10
4.5066985
20
13.9113148
11
4.5066985
21
12.5894
0
LINE
8
DEFAULT_255_1_388
10
4.5066985
20
12.5894
11
4.3386355
21
12.5894
0
LINE
8
DEFAULT_255_1_388
10
4.3386355
20
12.5894
11
4.3386355
21
13.703495
0
LINE
8
DEFAULT_255_1_388
10
4.3386355
20
13.703495
11
4.001606
21
13.5797066
0
LINE
8
DEFAULT_255_1_388
10
4.001606
20
13.5797066
11
4.001606
21
13.7315055
0
LINE
8
DEFAULT_255_1_388
10
4.001606
20
13.7315055
11
4.4804951
21
13.9113148
0
LINE
8
DEFAULT_255_1_388
10
4.4804951
20
13.9113148
11
4.5066985
21
13.9113148
0
ARC
8
DEFAULT_255_1_388
10
5.1376138
20
12.6781142
40
0.1204062
50
163.5412609
51
180.5084512
0
ARC
8
DEFAULT_255_1_388
10
5.1160037
20
12.683946
40
0.0980307
50
138.1652
51
163.2315563
0
ARC
8
DEFAULT_255_1_388
10
5.1033778
20
12.6946456
40
0.0814881
50
105.6860499
51
137.8492655
0
ARC
8
DEFAULT_255_1_388
10
5.1166979
20
12.6514109
40
0.126719
50
92.6078949
51
106.199173
0
ARC
8
DEFAULT_255_1_388
10
5.1201169
20
12.6068207
40
0.1714243
50
89.9659531
51
93.0713334
0
ARC
8
DEFAULT_255_1_388
10
5.1213205
20
12.6318484
40
0.1464007
50
78.4379126
51
90.4311892
0
ARC
8
DEFAULT_255_1_388
10
5.1321852
20
12.6825017
40
0.094599
50
56.8961942
51
78.7357785
0
ARC
8
DEFAULT_255_1_388
10
5.1392963
20
12.6949075
40
0.0803272
50
42.6503148
51
56.3122241
0
ARC
8
DEFAULT_255_1_388
10
5.1248864
20
12.6816661
40
0.099897
50
3.8141057
51
42.636595
0
ARC
8
DEFAULT_255_1_388
10
5.0926186
20
12.6771616
40
0.1324137
50
359.9498843
51
4.8301897
0
ARC
8
DEFAULT_255_1_388
10
5.1181324
20
12.6759722
40
0.1069053
50
340.9378148
51
0.5753733
0
ARC
8
DEFAULT_255_1_388
10
5.1307906
20
12.6725569
40
0.0938301
50
316.0798885
51
340.3845117
0
ARC
8
DEFAULT_255_1_388
10
5.1373217
20
12.666552
40
0.0849605
50
285.8512844
51
315.941661
0
ARC
8
DEFAULT_255_1_388
10
5.1241097
20
12.709262
40
0.1296594
50
273.1293204
51
286.3125006
0
ARC
8
DEFAULT_255_1_388
10
5.1203607
20
12.7544586
40
0.1749979
50
269.9535313
51
273.5471598
0
ARC
8
DEFAULT_255_1_388
10
5.1191213
20
12.7298833
40
0.1504266
50
259.0487117
51
270.4180248
0
ARC
8
DEFAULT_255_1_388
10
5.1082825
20
12.6761783
40
0.0956414
50
239.7583641
51
259.3115656
0
ARC
8
DEFAULT_255_1_388
10
5.0991758
20
12.6592048
40
0.0763945
50
222.6243303
51
239.2473835
0
ARC
8
DEFAULT_255_1_388
10
5.1142929
20
12.6730572
40
0.0968985
50
182.9231258
51
222.598101
0
ARC
8
DEFAULT_255_1_388
10
5.1446129
20
12.6769696
40
0.1274004
50
179.9657458
51
183.9850364
0
LINE
8
DEFAULT_255_1_388
10
6.1096218
20
13.9058934
11
6.1394395
21
13.9058934
0
LINE
8
DEFAULT_255_1_388
10
6.1394395
20
13.9058934
11
6.1394395
21
13.7640338
0
LINE
8
DEFAULT_255_1_388
10
6.1394395
20
13.7640338
11
6.1087183
21
13.7640338
0
LINE
8
DEFAULT_255_1_388
10
5.4933909
20
13.0899747
11
5.4933909
21
13.1541278
0
LINE
8
DEFAULT_255_1_388
10
5.6614539
20
13.1324422
11
5.6614539
21
13.0709999
0
ARC
8
DEFAULT_255_1_388
10
6.1146074
20
13.2017826
40
0.562282
50
90.6001079
51
104.5146616
0
ARC
8
DEFAULT_255_1_388
10
6.0709034
20
13.36431
40
0.3939917
50
104.2855758
51
133.8630124
0
ARC
8
DEFAULT_255_1_388
10
6.0893286
20
13.3521243
40
0.4155734
50
134.5304124
51
161.6210222
0
ARC
8
DEFAULT_255_1_388
10
6.2753219
20
13.2865421
40
0.6127682
50
161.2850533
51
174.2074364
0
ARC
8
DEFAULT_255_1_388
10
6.4342785
20
13.2646437
40
0.7731446
50
173.7817938
51
174.9251711
0
ARC
8
DEFAULT_255_1_388
10
5.9216979
20
13.109127
40
0.3412588
50
95.8332067
51
138.995412
0
ARC
8
DEFAULT_255_1_388
10
5.9468259
20
12.9652695
40
0.4870358
50
89.8755506
51
97.0540979
0
ARC
8
DEFAULT_255_1_388
10
5.9521648
20
13.0592841
40
0.3930432
50
71.6407016
51
90.6240821
0
ARC
8
DEFAULT_255_1_388
10
5.9691042
20
13.1216433
40
0.3285421
50
39.6368051
51
71.0190743
0
ARC
8
DEFAULT_255_1_388
10
5.8974949
20
13.0597586
40
0.4231706
50
10.6588054
51
39.9044509
0
ARC
8
DEFAULT_255_1_388
10
5.7233495
20
13.0219223
40
0.60133
50
359.6827842
51
11.1326896
0
ARC
8
DEFAULT_255_1_388
10
5.7188831
20
13.0139715
40
0.6058047
50
347.2485908
51
0.4371098
0
ARC
8
DEFAULT_255_1_388
10
5.9064616
20
12.9688379
40
0.4128987
50
318.1408565
51
347.6118497
0
ARC
8
DEFAULT_255_1_388
10
5.9430213
20
12.9387903
40
0.3656244
50
275.6342406
51
317.824739
0
ARC
8
DEFAULT_255_1_388
10
5.9181734
20
13.0849827
40
0.513655
50
269.8872513
51
276.7916069
0
ARC
8
DEFAULT_255_1_388
10
5.9119927
20
12.9696181
40
0.398323
50
246.9139443
51
270.7436787
0
ARC
8
DEFAULT_255_1_388
10
5.9127122
20
12.9536044
40
0.3839368
50
218.1665534
51
245.8780431
0
ARC
8
DEFAULT_255_1_388
10
6.0116495
20
13.0363903
40
0.5128958
50
191.4115343
51
218.6077624
0
ARC
8
DEFAULT_255_1_388
10
6.2296811
20
13.0852777
40
0.7363054
50
179.6344971
51
191.7836758
0
ARC
8
DEFAULT_255_1_388
10
6.8576685
20
13.1616495
40
1.3642984
50
171.4523743
51
180.3158856
0
ARC
8
DEFAULT_255_1_388
10
6.3632412
20
13.2385895
40
0.8639311
50
157.9802296
51
171.6246761
0
ARC
8
DEFAULT_255_1_388
10
6.1141763
20
13.3379038
40
0.5958004
50
141.4299236
51
157.8541251
0
ARC
8
DEFAULT_255_1_388
10
6.0419846
20
13.3889746
40
0.5075416
50
102.871586
51
140.8564533
0
ARC
8
DEFAULT_255_1_388
10
6.1148399
20
13.1144943
40
0.7914163
50
90.377773
51
103.5868422
0
ARC
8
DEFAULT_255_1_388
10
5.919292
20
13.0464543
40
0.2667015
50
89.8751238
51
126.2072139
0
ARC
8
DEFAULT_255_1_388
10
5.9244391
20
13.0290847
40
0.2838229
50
124.9742447
51
144.8960197
0
ARC
8
DEFAULT_255_1_388
10
5.9046636
20
13.0451981
40
0.2583845
50
145.2974778
51
160.2660922
0
ARC
8
DEFAULT_255_1_388
10
6.2503125
20
13.0674151
40
0.5888695
50
179.6512124
51
190.285571
0
ARC
8
DEFAULT_255_1_388
10
6.0597604
20
13.0314968
40
0.3949683
50
190.0944895
51
207.5099647
0
ARC
8
DEFAULT_255_1_388
10
5.9961186
20
13.0012177
40
0.3245464
50
207.9585471
51
216.325377
0
ARC
8
DEFAULT_255_1_388
10
5.9578823
20
12.9697712
40
0.2751259
50
215.7661336
51
232.5457193
0
ARC
8
DEFAULT_255_1_388
10
5.9147939
20
12.9150273
40
0.2054668
50
232.8005815
51
270.6605497
0
ARC
8
DEFAULT_255_1_388
10
5.9199363
20
12.9559853
40
0.2464268
50
269.3550767
51
288.474612
0
ARC
8
DEFAULT_255_1_388
10
5.930387
20
12.9166721
40
0.2058436
50
289.1831976
51
322.9685307
0
ARC
8
DEFAULT_255_1_388
10
5.8615972
20
12.9709279
40
0.2934408
50
322.6007085
51
346.5183319
0
ARC
8
DEFAULT_255_1_388
10
5.7313728
20
13.0041434
40
0.4278249
50
346.2584622
51
358.7739592
0
ARC
8
DEFAULT_255_1_388
10
5.6162303
20
13.0103829
40
0.5430876
50
358.3757628
51
0.0082477
0
ARC
8
DEFAULT_255_1_388
10
5.7019122
20
13.0134856
40
0.4574157
50
359.6211417
51
11.28403
0
ARC
8
DEFAULT_255_1_388
10
5.8455728
20
13.0434535
40
0.3106708
50
11.0483152
51
31.8145585
0
ARC
8
DEFAULT_255_1_388
10
5.8803433
20
13.0623045
40
0.2711963
50
32.3028554
51
38.0820598
0
ARC
8
DEFAULT_255_1_388
10
5.9276666
20
13.1051717
40
0.2075566
50
36.8249851
51
85.741667
0
ARC
8
DEFAULT_255_1_388
10
5.9201079
20
13.0488065
40
0.2643487
50
85.0150021
51
90.050843
0
LINE
8
DEFAULT_255_1_388
10
4.5066985
20
21.8488148
11
4.5066985
21
20.5269
0
LINE
8
DEFAULT_255_1_388
10
4.5066985
20
20.5269
11
4.3386355
21
20.5269
0
LINE
8
DEFAULT_255_1_388
10
4.3386355
20
20.5269
11
4.3386355
21
21.640995
0
LINE
8
DEFAULT_255_1_388
10
4.3386355
20
21.640995
11
4.001606
21
21.5172066
0
LINE
8
DEFAULT_255_1_388
10
4.001606
20
21.5172066
11
4.001606
21
21.6690055
0
LINE
8
DEFAULT_255_1_388
10
4.001606
20
21.6690055
11
4.4804951
21
21.8488148
0
LINE
8
DEFAULT_255_1_388
10
4.4804951
20
21.8488148
11
4.5066985
21
21.8488148
0
ARC
8
DEFAULT_255_1_388
10
5.1376138
20
20.6156142
40
0.1204062
50
163.5412609
51
180.5084512
0
ARC
8
DEFAULT_255_1_388
10
5.1160037
20
20.621446
40
0.0980307
50
138.1652
51
163.2315563
0
ARC
8
DEFAULT_255_1_388
10
5.1033778
20
20.6321456
40
0.0814881
50
105.6860499
51
137.8492655
0
ARC
8
DEFAULT_255_1_388
10
5.1166979
20
20.5889109
40
0.126719
50
92.6078949
51
106.199173
0
ARC
8
DEFAULT_255_1_388
10
5.1201169
20
20.5443207
40
0.1714243
50
89.9659531
51
93.0713334
0
ARC
8
DEFAULT_255_1_388
10
5.1213205
20
20.5693484
40
0.1464007
50
78.4379126
51
90.4311892
0
ARC
8
DEFAULT_255_1_388
10
5.1321852
20
20.6200017
40
0.094599
50
56.8961942
51
78.7357785
0
ARC
8
DEFAULT_255_1_388
10
5.1392963
20
20.6324075
40
0.0803272
50
42.6503148
51
56.3122241
0
ARC
8
DEFAULT_255_1_388
10
5.1248864
20
20.6191661
40
0.099897
50
3.8141057
51
42.636595
0
ARC
8
DEFAULT_255_1_388
10
5.0926186
20
20.6146616
40
0.1324137
50
359.9498843
51
4.8301897
0
ARC
8
DEFAULT_255_1_388
10
5.1181324
20
20.6134722
40
0.1069053
50
340.9378148
51
0.5753733
0
ARC
8
DEFAULT_255_1_388
10
5.1307906
20
20.6100569
40
0.0938301
50
316.0798885
51
340.3845117
0
ARC
8
DEFAULT_255_1_388
10
5.1373217
20
20.604052
40
0.0849605
50
285.8512844
51
315.941661
0
ARC
8
DEFAULT_255_1_388
10
5.1241097
20
20.646762
40
0.1296594
50
273.1293204
51
286.3125006
0
ARC
8
DEFAULT_255_1_388
10
5.1203607
20
20.6919586
40
0.1749979
50
269.9535313
51
273.5471598
0
ARC
8
DEFAULT_255_1_388
10
5.1191213
20
20.6673833
40
0.1504266
50
259.0487117
51
270.4180248
0
ARC
8
DEFAULT_255_1_388
10
5.1082825
20
20.6136783
40
0.0956414
50
239.7583641
51
259.3115656
0
ARC
8
DEFAULT_255_1_388
10
5.0991758
20
20.5967048
40
0.0763945
50
222.6243303
51
239.2473835
0
ARC
8
DEFAULT_255_1_388
10
5.1142929
20
20.6105572
40
0.0968985
50
182.9231258
51
222.598101
0
ARC
8
DEFAULT_255_1_388
10
5.1446129
20
20.6144696
40
0.1274004
50
179.9657458
51
183.9850364
0
LINE
8
DEFAULT_255_1_388
10
5.6939822
20
21.1521666
11
5.5602546
21
21.1865021
0
LINE
8
DEFAULT_255_1_388
10
5.5602546
20
21.1865021
11
5.6271184
21
21.8424898
0
LINE
8
DEFAULT_255_1_388
10
5.6271184
20
21.8424898
11
6.3011775
21
21.8424898
0
LINE
8
DEFAULT_255_1_388
10
6.3011775
20
21.8424898
11
6.3011775
21
21.6879803
0
LINE
8
DEFAULT_255_1_388
10
6.3011775
20
21.6879803
11
5.768978
21
21.6879803
0
LINE
8
DEFAULT_255_1_388
10
5.768978
20
21.6879803
11
5.7292212
21
21.3292652
0
LINE
8
DEFAULT_255_1_388
10
5.5132693
20
20.8729652
11
5.6713931
21
20.8729652
0
LINE
8
DEFAULT_255_1_388
10
5.7382568
20
21.1883092
11
5.6939822
21
21.1521666
0
ARC
8
DEFAULT_255_1_388
10
5.9378825
20
20.9715241
40
0.4141476
50
93.7181681
51
120.253934
0
ARC
8
DEFAULT_255_1_388
10
5.9484878
20
20.8806284
40
0.5055616
50
89.9660471
51
94.2495185
0
ARC
8
DEFAULT_255_1_388
10
5.95307
20
20.9469154
40
0.4392953
50
73.8045384
51
90.5585736
0
ARC
8
DEFAULT_255_1_388
10
5.9794957
20
21.043452
40
0.3392225
50
41.3071072
51
73.543002
0
ARC
8
DEFAULT_255_1_388
10
5.9326777
20
21.0031461
40
0.4009977
50
13.5075837
51
41.2174839
0
ARC
8
DEFAULT_255_1_388
10
5.7479875
20
20.9547907
40
0.5918864
50
1.1330171
51
13.8830737
0
ARC
8
DEFAULT_255_1_388
10
5.588352
20
20.9462522
40
0.7516787
50
359.9925091
51
1.5431298
0
ARC
8
DEFAULT_255_1_388
10
5.7328135
20
20.9416027
40
0.6072343
50
347.8572712
51
0.4294349
0
ARC
8
DEFAULT_255_1_388
10
5.929727
20
20.8969898
40
0.4053482
50
323.6727442
51
348.1674594
0
ARC
8
DEFAULT_255_1_388
10
5.9628235
20
20.8768175
40
0.3667495
50
316.8171818
51
323.1486802
0
ARC
8
DEFAULT_255_1_388
10
5.9697358
20
20.8726612
40
0.358869
50
281.839603
51
316.5458142
0
ARC
8
DEFAULT_255_1_388
10
5.9274646
20
21.0476363
40
0.5388223
50
269.5770964
51
282.4214641
0
ARC
8
DEFAULT_255_1_388
10
5.9194567
20
21.023593
40
0.5147801
50
256.2425863
51
270.4486481
0
ARC
8
DEFAULT_255_1_388
10
5.8858094
20
20.8886124
40
0.3756708
50
228.9024379
51
256.33135
0
ARC
8
DEFAULT_255_1_388
10
5.8775075
20
20.8755054
40
0.360344
50
193.7536029
51
228.5272638
0
ARC
8
DEFAULT_255_1_388
10
6.016764
20
20.9163463
40
0.5053599
50
184.9244437
51
194.4976052
0
ARC
8
DEFAULT_255_1_388
10
6.0384281
20
20.9203722
40
0.3700839
50
187.3596909
51
198.6733728
0
ARC
8
DEFAULT_255_1_388
10
5.9203524
20
20.8794373
40
0.2451195
50
198.4453795
51
217.7945479
0
ARC
8
DEFAULT_255_1_388
10
5.8870697
20
20.8558563
40
0.2043754
50
218.2887146
51
228.5613203
0
ARC
8
DEFAULT_255_1_388
10
5.8980704
20
20.8706902
40
0.2227819
50
228.9652423
51
258.1237049
0
ARC
8
DEFAULT_255_1_388
10
5.9212141
20
20.9697964
40
0.3245374
50
257.7260585
51
270.4013717
0
ARC
8
DEFAULT_255_1_388
10
5.9262639
20
20.9197255
40
0.2744726
50
269.4204315
51
286.420998
0
ARC
8
DEFAULT_255_1_388
10
5.9429695
20
20.8590705
40
0.2115721
50
286.7250065
51
320.6004665
0
ARC
8
DEFAULT_255_1_388
10
5.899861
20
20.8940527
40
0.2670878
50
320.6712228
51
344.5440474
0
ARC
8
DEFAULT_255_1_388
10
5.7697324
20
20.9322394
40
0.4026927
50
344.241448
51
356.735803
0
ARC
8
DEFAULT_255_1_388
10
5.6293631
20
20.9438656
40
0.5435085
50
356.3547471
51
0.0507222
0
ARC
8
DEFAULT_255_1_388
10
5.7795896
20
20.9473812
40
0.3932934
50
359.5579289
51
12.9534322
0
ARC
8
DEFAULT_255_1_388
10
5.8982736
20
20.9761586
40
0.2711827
50
12.6489751
51
41.608121
0
ARC
8
DEFAULT_255_1_388
10
5.9241896
20
20.9981946
40
0.2371737
50
41.7851122
51
85.9892156
0
ARC
8
DEFAULT_255_1_388
10
5.9103206
20
20.9066738
40
0.3295244
50
84.6965848
51
90.0672125
0
ARC
8
DEFAULT_255_1_388
10
5.9076774
20
20.8315118
40
0.4046926
50
89.6804991
51
99.161352
0
ARC
8
DEFAULT_255_1_388
10
5.8845783
20
20.9695848
40
0.2647044
50
98.9836248
51
113.8905702
0
ARC
8
DEFAULT_255_1_388
10
5.8587458
20
21.0305118
40
0.1985386
50
114.195234
51
127.3641866
0
LINE
8
DEFAULT_255_1_388
10
4.6389985
20
29.7863148
11
4.6389985
21
28.4644
0
LINE
8
DEFAULT_255_1_388
10
4.6389985
20
28.4644
11
4.4709355
21
28.4644
0
LINE
8
DEFAULT_255_1_388
10
4.4709355
20
28.4644
11
4.4709355
21
29.578495
0
LINE
8
DEFAULT_255_1_388
10
4.4709355
20
29.578495
11
4.133906
21
29.4547066
0
LINE
8
DEFAULT_255_1_388
10
4.133906
20
29.4547066
11
4.133906
21
29.6065055
0
LINE
8
DEFAULT_255_1_388
10
4.133906
20
29.6065055
11
4.6127951
21
29.7863148
0
LINE
8
DEFAULT_255_1_388
10
4.6127951
20
29.7863148
11
4.6389985
21
29.7863148
0
ARC
8
DEFAULT_255_1_388
10
5.2699138
20
28.5531142
40
0.1204062
50
163.5412609
51
180.5084512
0
ARC
8
DEFAULT_255_1_388
10
5.2483037
20
28.558946
40
0.0980307
50
138.1652
51
163.2315563
0
ARC
8
DEFAULT_255_1_388
10
5.2356778
20
28.5696456
40
0.0814881
50
105.6860499
51
137.8492655
0
ARC
8
DEFAULT_255_1_388
10
5.2489979
20
28.5264109
40
0.126719
50
92.6078949
51
106.199173
0
ARC
8
DEFAULT_255_1_388
10
5.2524169
20
28.4818207
40
0.1714243
50
89.9659531
51
93.0713334
0
ARC
8
DEFAULT_255_1_388
10
5.2536205
20
28.5068484
40
0.1464007
50
78.4379126
51
90.4311892
0
ARC
8
DEFAULT_255_1_388
10
5.2644852
20
28.5575017
40
0.094599
50
56.8961942
51
78.7357785
0
ARC
8
DEFAULT_255_1_388
10
5.2715963
20
28.5699075
40
0.0803272
50
42.6503148
51
56.3122241
0
ARC
8
DEFAULT_255_1_388
10
5.2571864
20
28.5566661
40
0.099897
50
3.8141057
51
42.636595
0
ARC
8
DEFAULT_255_1_388
10
5.2249186
20
28.5521616
40
0.1324137
50
359.9498843
51
4.8301897
0
ARC
8
DEFAULT_255_1_388
10
5.2504324
20
28.5509722
40
0.1069053
50
340.9378148
51
0.5753733
0
ARC
8
DEFAULT_255_1_388
10
5.2630906
20
28.5475569
40
0.0938301
50
316.0798885
51
340.3845117
0
ARC
8
DEFAULT_255_1_388
10
5.2696217
20
28.541552
40
0.0849605
50
285.8512844
51
315.941661
0
ARC
8
DEFAULT_255_1_388
10
5.2564097
20
28.584262
40
0.1296594
50
273.1293204
51
286.3125006
0
ARC
8
DEFAULT_255_1_388
10
5.2526607
20
28.6294586
40
0.1749979
50
269.9535313
51
273.5471598
0
ARC
8
DEFAULT_255_1_388
10
5.2514213
20
28.6048833
40
0.1504266
50
259.0487117
51
270.4180248
0
ARC
8
DEFAULT_255_1_388
10
5.2405825
20
28.5511783
40
0.0956414
50
239.7583641
51
259.3115656
0
ARC
8
DEFAULT_255_1_388
10
5.2314758
20
28.5342048
40
0.0763945
50
222.6243303
51
239.2473835
0
ARC
8
DEFAULT_255_1_388
10
5.2465929
20
28.5480572
40
0.0968985
50
182.9231258
51
222.598101
0
ARC
8
DEFAULT_255_1_388
10
5.2769129
20
28.5519696
40
0.1274004
50
179.9657458
51
183.9850364
0
LINE
8
DEFAULT_255_1_388
10
6.3214355
20
29.7799898
11
6.3214355
21
28.906243
0
LINE
8
DEFAULT_255_1_388
10
6.3214355
20
28.906243
11
6.5039555
21
28.906243
0
LINE
8
DEFAULT_255_1_388
10
6.5039555
20
28.906243
11
6.5039555
21
28.7698048
0
LINE
8
DEFAULT_255_1_388
10
6.5039555
20
28.7698048
11
6.3214355
21
28.7698048
0
LINE
8
DEFAULT_255_1_388
10
6.3214355
20
28.7698048
11
6.3214355
21
28.4644
0
LINE
8
DEFAULT_255_1_388
10
6.3214355
20
28.4644
11
6.1533725
21
28.4644
0
LINE
8
DEFAULT_255_1_388
10
6.1533725
20
28.4644
11
6.1533725
21
28.7698048
0
LINE
8
DEFAULT_255_1_388
10
6.1533725
20
28.7698048
11
5.5543093
21
28.7698048
0
LINE
8
DEFAULT_255_1_388
10
5.5543093
20
28.7698048
11
5.5543093
21
28.8682933
0
LINE
8
DEFAULT_255_1_388
10
5.5543093
20
28.8682933
11
6.1434333
21
29.7799898
0
LINE
8
DEFAULT_255_1_388
10
6.1434333
20
29.7799898
11
6.3214355
21
29.7799898
0
LINE
8
DEFAULT_255_1_388
10
6.1334941
20
29.5152455
11
5.7440578
21
28.906243
0
LINE
8
DEFAULT_255_1_388
10
5.7440578
20
28.906243
11
6.1533725
21
28.906243
0
LINE
8
DEFAULT_255_1_388
10
6.1533725
20
28.906243
11
6.1533725
21
29.551388
0
LINE
8
DEFAULT_255_1_388
10
6.1533725
20
29.551388
11
6.1334941
21
29.5152455
0
LINE
8
DEFAULT_255_1_388
10
4.5066985
20
37.7238148
11
4.5066985
21
36.4019
0
LINE
8
DEFAULT_255_1_388
10
4.5066985
20
36.4019
11
4.3386355
21
36.4019
0
LINE
8
DEFAULT_255_1_388
10
4.3386355
20
36.4019
11
4.3386355
21
37.515995
0
LINE
8
DEFAULT_255_1_388
10
4.3386355
20
37.515995
11
4.001606
21
37.3922066
0
LINE
8
DEFAULT_255_1_388
10
4.001606
20
37.3922066
11
4.001606
21
37.5440055
0
LINE
8
DEFAULT_255_1_388
10
4.001606
20
37.5440055
11
4.4804951
21
37.7238148
0
LINE
8
DEFAULT_255_1_388
10
4.4804951
20
37.7238148
11
4.5066985
21
37.7238148
0
ARC
8
DEFAULT_255_1_388
10
5.1376138
20
36.4906142
40
0.1204062
50
163.5412609
51
180.5084512
0
ARC
8
DEFAULT_255_1_388
10
5.1160037
20
36.496446
40
0.0980307
50
138.1652
51
163.2315563
0
ARC
8
DEFAULT_255_1_388
10
5.1033778
20
36.5071456
40
0.0814881
50
105.6860499
51
137.8492655
0
ARC
8
DEFAULT_255_1_388
10
5.1166979
20
36.4639109
40
0.126719
50
92.6078949
51
106.199173
0
ARC
8
DEFAULT_255_1_388
10
5.1201169
20
36.4193207
40
0.1714243
50
89.9659531
51
93.0713334
0
ARC
8
DEFAULT_255_1_388
10
5.1213205
20
36.4443484
40
0.1464007
50
78.4379126
51
90.4311892
0
ARC
8
DEFAULT_255_1_388
10
5.1321852
20
36.4950017
40
0.094599
50
56.8961942
51
78.7357785
0
ARC
8
DEFAULT_255_1_388
10
5.1392963
20
36.5074075
40
0.0803272
50
42.6503148
51
56.3122241
0
ARC
8
DEFAULT_255_1_388
10
5.1248864
20
36.4941661
40
0.099897
50
3.8141057
51
42.636595
0
ARC
8
DEFAULT_255_1_388
10
5.0926186
20
36.4896616
40
0.1324137
50
359.9498843
51
4.8301897
0
ARC
8
DEFAULT_255_1_388
10
5.1181324
20
36.4884722
40
0.1069053
50
340.9378148
51
0.5753733
0
ARC
8
DEFAULT_255_1_388
10
5.1307906
20
36.4850569
40
0.0938301
50
316.0798885
51
340.3845117
0
ARC
8
DEFAULT_255_1_388
10
5.1373217
20
36.479052
40
0.0849605
50
285.8512844
51
315.941661
0
ARC
8
DEFAULT_255_1_388
10
5.1241097
20
36.521762
40
0.1296594
50
273.1293204
51
286.3125006
0
ARC
8
DEFAULT_255_1_388
10
5.1203607
20
36.5669586
40
0.1749979
50
269.9535313
51
273.5471598
0
ARC
8
DEFAULT_255_1_388
10
5.1191213
20
36.5423833
40
0.1504266
50
259.0487117
51
270.4180248
0
ARC
8
DEFAULT_255_1_388
10
5.1082825
20
36.4886783
40
0.0956414
50
239.7583641
51
259.3115656
0
ARC
8
DEFAULT_255_1_388
10
5.0991758
20
36.4717048
40
0.0763945
50
222.6243303
51
239.2473835
0
ARC
8
DEFAULT_255_1_388
10
5.1142929
20
36.4855572
40
0.0968985
50
182.9231258
51
222.598101
0
ARC
8
DEFAULT_255_1_388
10
5.1446129
20
36.4894696
40
0.1274004
50
179.9657458
51
183.9850364
0
LINE
8
DEFAULT_255_1_388
10
5.7265105
20
37.0045775
11
5.7265105
21
37.1410157
0
LINE
8
DEFAULT_255_1_388
10
5.7265105
20
37.1410157
11
5.852106
21
37.1410157
0
LINE
8
DEFAULT_255_1_388
10
5.6379612
20
37.3723282
11
5.4708018
21
37.3723282
0
LINE
8
DEFAULT_255_1_388
10
5.4590554
20
36.7488688
11
5.6271184
21
36.7488688
0
LINE
8
DEFAULT_255_1_388
10
5.852106
20
37.0045775
11
5.7265105
21
37.0045775
0
ARC
8
DEFAULT_255_1_388
10
5.8488286
20
37.5226922
40
0.3816905
50
270.491971
51
281.8953028
0
ARC
8
DEFAULT_255_1_388
10
5.8759713
20
37.3987199
40
0.2547877
50
281.6690378
51
301.2943765
0
ARC
8
DEFAULT_255_1_388
10
5.8951164
20
37.3636926
40
0.2149197
50
301.7834992
51
311.754567
0
ARC
8
DEFAULT_255_1_388
10
5.9054206
20
37.352265
40
0.1995326
50
311.7325027
51
354.2803031
0
ARC
8
DEFAULT_255_1_388
10
5.8236622
20
37.366328
40
0.2823461
50
353.0941646
51
0.1174696
0
ARC
8
DEFAULT_255_1_388
10
5.771818
20
37.3716874
40
0.3342238
50
359.1804452
51
15.0452323
0
ARC
8
DEFAULT_255_1_388
10
5.9232238
20
37.4158546
40
0.1765747
50
13.957816
51
77.6713812
0
ARC
8
DEFAULT_255_1_388
10
5.8797474
20
37.2600464
40
0.3381982
50
76.111571
51
90.7028736
0
ARC
8
DEFAULT_255_1_388
10
5.8730886
20
37.290825
40
0.3074046
50
89.5321574
51
103.5319393
0
ARC
8
DEFAULT_255_1_388
10
5.8505269
20
37.3807443
40
0.2147041
50
103.2930114
51
133.5619756
0
ARC
8
DEFAULT_255_1_388
10
5.8455211
20
37.3874351
40
0.2064084
50
133.8349761
51
173.5343225
0
ARC
8
DEFAULT_255_1_388
10
5.9268868
20
37.3730144
40
0.2889266
50
172.5097183
51
180.1360699
0
ARC
8
DEFAULT_255_1_388
10
5.8198632
20
37.376888
40
0.3490913
50
155.3483706
51
180.7484035
0
ARC
8
DEFAULT_255_1_388
10
5.8143608
20
37.3736519
40
0.3454798
50
131.5745177
51
154.4799474
0
ARC
8
DEFAULT_255_1_388
10
5.8495891
20
37.3380422
40
0.3955058
50
96.9874487
51
131.9690874
0
ARC
8
DEFAULT_255_1_388
10
5.8742783
20
37.1979407
40
0.537622
50
89.8592909
51
97.7827481
0
ARC
8
DEFAULT_255_1_388
10
5.8796892
20
37.168436
40
0.5671399
50
78.3654493
51
90.4132586
0
ARC
8
DEFAULT_255_1_388
10
5.9199533
20
37.3550918
40
0.3762034
50
56.6229818
51
78.6387103
0
ARC
8
DEFAULT_255_1_388
10
5.9441363
20
37.3973846
40
0.3275964
50
47.0254604
51
56.085558
0
ARC
8
DEFAULT_255_1_388
10
5.9463614
20
37.4018189
40
0.3228382
50
10.9207523
51
46.777927
0
ARC
8
DEFAULT_255_1_388
10
5.7929208
20
37.3663401
40
0.4802559
50
359.6364235
51
11.6087615
0
ARC
8
DEFAULT_255_1_388
10
5.9993373
20
37.3646404
40
0.273833
50
332.3549969
51
359.7179765
0
ARC
8
DEFAULT_255_1_388
10
5.9261774
20
37.3993285
40
0.3547505
50
325.2332381
51
332.8746682
0
ARC
8
DEFAULT_255_1_388
10
5.9433357
20
37.3873763
40
0.3338396
50
292.9803892
51
325.2391113
0
ARC
8
DEFAULT_255_1_388
10
5.9122553
20
37.4478679
40
0.4016959
50
292.542178
51
293.6931461
0
ARC
8
DEFAULT_255_1_388
10
5.9566125
20
36.7213036
40
0.372079
50
57.643292
51
72.8626085
0
ARC
8
DEFAULT_255_1_388
10
5.9964959
20
36.7859273
40
0.2961455
50
36.7246661
51
57.4701329
0
ARC
8
DEFAULT_255_1_388
10
5.9952116
20
36.787347
40
0.2963321
50
8.054535
51
36.3561529
0
ARC
8
DEFAULT_255_1_388
10
5.8981788
20
36.7699073
40
0.3948682
50
359.8316595
51
8.5873361
0
ARC
8
DEFAULT_255_1_388
10
5.8559263
20
36.764497
40
0.4371398
50
343.9831631
51
0.557075
0
ARC
8
DEFAULT_255_1_388
10
5.9556312
20
36.7371963
40
0.3337749
50
311.6358204
51
343.7652116
0
ARC
8
DEFAULT_255_1_388
10
5.9130566
20
36.7851955
40
0.3979351
50
279.7829743
51
311.625622
0
ARC
8
DEFAULT_255_1_388
10
5.8791701
20
36.9468642
40
0.5630417
50
269.7285092
51
280.3857694
0
ARC
8
DEFAULT_255_1_388
10
5.8722014
20
36.9422241
40
0.5584119
50
256.6827433
51
270.4412869
0
ARC
8
DEFAULT_255_1_388
10
5.8341001
20
36.7864698
40
0.3980715
50
229.4223821
51
256.8554507
0
ARC
8
DEFAULT_255_1_388
10
5.7874554
20
36.7339683
40
0.3278564
50
181.8183354
51
229.6455015
0
ARC
8
DEFAULT_255_1_388
10
5.9044163
20
36.7486825
40
0.4453611
50
179.9760419
51
183.2330638
0
ARC
8
DEFAULT_255_1_388
10
5.8850716
20
36.7463781
40
0.2579652
50
179.4467996
51
196.2871626
0
ARC
8
DEFAULT_255_1_388
10
5.8302169
20
36.7313709
40
0.2011057
50
196.5661293
51
227.7059371
0
ARC
8
DEFAULT_255_1_388
10
5.8486777
20
36.7520155
40
0.2287994
50
227.7653015
51
257.8763321
0
ARC
8
DEFAULT_255_1_388
10
5.873986
20
36.8580961
40
0.3378385
50
257.4583525
51
270.4267406
0
ARC
8
DEFAULT_255_1_388
10
5.8791109
20
36.890723
40
0.3704652
50
269.5965319
51
280.8788143
0
ARC
8
DEFAULT_255_1_388
10
5.9049337
20
36.7617529
40
0.2389415
50
280.6347277
51
299.8594068
0
ARC
8
DEFAULT_255_1_388
10
5.9264107
20
36.7209736
40
0.19289
50
300.3575552
51
314.5515667
0
ARC
8
DEFAULT_255_1_388
10
5.9170783
20
36.7278025
40
0.204312
50
315.0730962
51
345.0429362
0
ARC
8
DEFAULT_255_1_388
10
5.813229
20
36.7580539
40
0.31246
50
344.598526
51
357.9270698
0
ARC
8
DEFAULT_255_1_388
10
5.7122595
20
36.7649705
40
0.4136265
50
357.4755098
51
0.0224936
0
ARC
8
DEFAULT_255_1_388
10
5.8275473
20
36.7677099
40
0.2983498
50
359.5051035
51
13.4236939
0
ARC
8
DEFAULT_255_1_388
10
5.9250563
20
36.7926637
40
0.1977186
50
12.9497905
51
48.7550905
0
ARC
8
DEFAULT_255_1_388
10
5.9045484
20
36.7646373
40
0.2323321
50
49.509109
51
72.1832965
0
ARC
8
DEFAULT_255_1_388
10
5.8642953
20
36.6451632
40
0.358397
50
71.9008458
51
84.3555134
0
ARC
8
DEFAULT_255_1_388
10
5.8461347
20
36.4919712
40
0.512641
50
84.019632
51
89.3326067
0
LINE
8
DEFAULT_255_1_388
10
4.5066985
20
45.6613148
11
4.5066985
21
44.3394
0
LINE
8
DEFAULT_255_1_388
10
4.5066985
20
44.3394
11
4.3386355
21
44.3394
0
LINE
8
DEFAULT_255_1_388
10
4.3386355
20
44.3394
11
4.3386355
21
45.453495
0
LINE
8
DEFAULT_255_1_388
10
4.3386355
20
45.453495
11
4.001606
21
45.3297066
0
LINE
8
DEFAULT_255_1_388
10
4.001606
20
45.3297066
11
4.001606
21
45.4815055
0
LINE
8
DEFAULT_255_1_388
10
4.001606
20
45.4815055
11
4.4804951
21
45.6613148
0
LINE
8
DEFAULT_255_1_388
10
4.4804951
20
45.6613148
11
4.5066985
21
45.6613148
0
ARC
8
DEFAULT_255_1_388
10
5.1376138
20
44.4281142
40
0.1204062
50
163.5412609
51
180.5084512
0
ARC
8
DEFAULT_255_1_388
10
5.1160037
20
44.433946
40
0.0980307
50
138.1652
51
163.2315563
0
ARC
8
DEFAULT_255_1_388
10
5.1033778
20
44.4446456
40
0.0814881
50
105.6860499
51
137.8492655
0
ARC
8
DEFAULT_255_1_388
10
5.1166979
20
44.4014109
40
0.126719
50
92.6078949
51
106.199173
0
ARC
8
DEFAULT_255_1_388
10
5.1201169
20
44.3568207
40
0.1714243
50
89.9659531
51
93.0713334
0
ARC
8
DEFAULT_255_1_388
10
5.1213205
20
44.3818484
40
0.1464007
50
78.4379126
51
90.4311892
0
ARC
8
DEFAULT_255_1_388
10
5.1321852
20
44.4325017
40
0.094599
50
56.8961942
51
78.7357785
0
ARC
8
DEFAULT_255_1_388
10
5.1392963
20
44.4449075
40
0.0803272
50
42.6503148
51
56.3122241
0
ARC
8
DEFAULT_255_1_388
10
5.1248864
20
44.4316661
40
0.099897
50
3.8141057
51
42.636595
0
ARC
8
DEFAULT_255_1_388
10
5.0926186
20
44.4271616
40
0.1324137
50
359.9498843
51
4.8301897
0
ARC
8
DEFAULT_255_1_388
10
5.1181324
20
44.4259722
40
0.1069053
50
340.9378148
51
0.5753733
0
ARC
8
DEFAULT_255_1_388
10
5.1307906
20
44.4225569
40
0.0938301
50
316.0798885
51
340.3845117
0
ARC
8
DEFAULT_255_1_388
10
5.1373217
20
44.416552
40
0.0849605
50
285.8512844
51
315.941661
0
ARC
8
DEFAULT_255_1_388
10
5.1241097
20
44.459262
40
0.1296594
50
273.1293204
51
286.3125006
0
ARC
8
DEFAULT_255_1_388
10
5.1203607
20
44.5044586
40
0.1749979
50
269.9535313
51
273.5471598
0
ARC
8
DEFAULT_255_1_388
10
5.1191213
20
44.4798833
40
0.1504266
50
259.0487117
51
270.4180248
0
ARC
8
DEFAULT_255_1_388
10
5.1082825
20
44.4261783
40
0.0956414
50
239.7583641
51
259.3115656
0
ARC
8
DEFAULT_255_1_388
10
5.0991758
20
44.4092048
40
0.0763945
50
222.6243303
51
239.2473835
0
ARC
8
DEFAULT_255_1_388
10
5.1142929
20
44.4230572
40
0.0968985
50
182.9231258
51
222.598101
0
ARC
8
DEFAULT_255_1_388
10
5.1446129
20
44.4269696
40
0.1274004
50
179.9657458
51
183.9850364
0
LINE
8
DEFAULT_255_1_388
10
6.3454521
20
44.4758382
11
6.3454521
21
44.3394
0
LINE
8
DEFAULT_255_1_388
10
6.3454521
20
44.3394
11
5.4834517
21
44.3394
0
LINE
8
DEFAULT_255_1_388
10
5.4834517
20
44.3394
11
5.4834517
21
44.4595741
0
LINE
8
DEFAULT_255_1_388
10
5.4834517
20
44.4595741
11
5.9388481
21
44.9655702
0
LINE
8
DEFAULT_255_1_388
10
5.6253113
20
45.2673607
11
5.4581519
21
45.2673607
0
LINE
8
DEFAULT_255_1_388
10
6.0373367
20
44.858046
11
5.6849465
21
44.4758382
0
LINE
8
DEFAULT_255_1_388
10
5.6849465
20
44.4758382
11
6.3454521
21
44.4758382
0
ARC
8
DEFAULT_255_1_388
10
4.4212541
20
46.3075983
40
2.0258655
50
318.5132526
51
320.7829045
0
ARC
8
DEFAULT_255_1_388
10
5.0160498
20
45.8234929
40
1.2589638
50
320.7372878
51
323.9739031
0
ARC
8
DEFAULT_255_1_388
10
5.456943
20
45.5040554
40
0.7145141
50
323.8962701
51
328.64194
0
ARC
8
DEFAULT_255_1_388
10
5.6871687
20
45.3620545
40
0.4440242
50
328.8294576
51
331.7891185
0
ARC
8
DEFAULT_255_1_388
10
5.7994007
20
45.3041374
40
0.3177517
50
331.4254512
51
352.9365785
0
ARC
8
DEFAULT_255_1_388
10
5.8147007
20
45.300705
40
0.3021496
50
353.2257659
51
0.0166158
0
ARC
8
DEFAULT_255_1_388
10
5.8383768
20
45.3032894
40
0.2784847
50
359.486299
51
15.9343185
0
ARC
8
DEFAULT_255_1_388
10
5.8954035
20
45.3186269
40
0.2194403
50
16.1712913
51
43.5286088
0
ARC
8
DEFAULT_255_1_388
10
5.9040979
20
45.3273191
40
0.2071504
50
43.4417391
51
83.1661095
0
ARC
8
DEFAULT_255_1_388
10
5.889014
20
45.2444316
40
0.2912888
50
82.160179
51
90.1505708
0
ARC
8
DEFAULT_255_1_388
10
5.8854622
20
45.1840279
40
0.3517025
50
89.5460741
51
102.5418361
0
ARC
8
DEFAULT_255_1_388
10
5.8581342
20
45.2999933
40
0.2325748
50
102.1738499
51
129.206123
0
ARC
8
DEFAULT_255_1_388
10
5.8492795
20
45.3139664
40
0.2161591
50
129.72865
51
135.753947
0
ARC
8
DEFAULT_255_1_388
10
5.8629277
20
45.3030728
40
0.2335433
50
136.1757367
51
166.3673339
0
ARC
8
DEFAULT_255_1_388
10
5.9761966
20
45.2727148
40
0.3507873
50
165.9090694
51
178.8684636
0
ARC
8
DEFAULT_255_1_388
10
6.0737737
20
45.2674263
40
0.4484624
50
178.4391136
51
180.0083808
0
ARC
8
DEFAULT_255_1_388
10
5.9158439
20
45.2718197
40
0.4577138
50
163.2878482
51
180.5581842
0
ARC
8
DEFAULT_255_1_388
10
5.825648
20
45.2966393
40
0.3641968
50
133.4540601
51
162.947111
0
ARC
8
DEFAULT_255_1_388
10
5.8457362
20
45.2752789
40
0.3935189
50
100.7869829
51
133.4382499
0
ARC
8
DEFAULT_255_1_388
10
5.8848607
20
45.1010399
40
0.5720313
50
89.660664
51
101.3702276
0
ARC
8
DEFAULT_255_1_388
10
5.8923216
20
45.1079263
40
0.5651495
50
78.2172678
51
90.412935
0
ARC
8
DEFAULT_255_1_388
10
5.9322681
20
45.2906511
40
0.378122
50
55.9269121
51
78.4888449
0
ARC
8
DEFAULT_255_1_388
10
5.9543397
20
45.3287187
40
0.3342379
50
47.929771
51
55.4049217
0
ARC
8
DEFAULT_255_1_388
10
5.9657927
20
45.3403618
40
0.3179217
50
4.334829
51
48.0560205
0
ARC
8
DEFAULT_255_1_388
10
5.8425729
20
45.3212487
40
0.442341
50
359.9251713
51
5.5971671
0
ARC
8
DEFAULT_255_1_388
10
5.8907883
20
45.3275728
40
0.3941854
50
337.8914027
51
358.9967534
0
ARC
8
DEFAULT_255_1_388
10
5.5855453
20
45.4453295
40
0.7213271
50
326.9132501
51
338.3508308
0
ARC
8
DEFAULT_255_1_388
10
5.1371565
20
45.7327105
40
1.2538973
50
319.6471833
51
327.0959558
0
ARC
8
DEFAULT_255_1_388
10
4.7058223
20
46.088505
40
1.8129975
50
317.2588228
51
319.9045804
0
LINE
8
DEFAULT_255_1_388
10
4.4995985
20
53.5988148
11
4.4995985
21
52.2769
0
LINE
8
DEFAULT_255_1_388
10
4.4995985
20
52.2769
11
4.3315355
21
52.2769
0
LINE
8
DEFAULT_255_1_388
10
4.3315355
20
52.2769
11
4.3315355
21
53.390995
0
LINE
8
DEFAULT_255_1_388
10
4.3315355
20
53.390995
11
3.994506
21
53.2672066
0
LINE
8
DEFAULT_255_1_388
10
3.994506
20
53.2672066
11
3.994506
21
53.4190055
0
LINE
8
DEFAULT_255_1_388
10
3.994506
20
53.4190055
11
4.4733951
21
53.5988148
0
LINE
8
DEFAULT_255_1_388
10
4.4733951
20
53.5988148
11
4.4995985
21
53.5988148
0
ARC
8
DEFAULT_255_1_388
10
5.1305138
20
52.3656142
40
0.1204062
50
163.5412609
51
180.5084512
0
ARC
8
DEFAULT_255_1_388
10
5.1089037
20
52.371446
40
0.0980307
50
138.1652
51
163.2315563
0
ARC
8
DEFAULT_255_1_388
10
5.0962778
20
52.3821456
40
0.0814881
50
105.6860499
51
137.8492655
0
ARC
8
DEFAULT_255_1_388
10
5.1095979
20
52.3389109
40
0.126719
50
92.6078949
51
106.199173
0
ARC
8
DEFAULT_255_1_388
10
5.1130169
20
52.2943207
40
0.1714243
50
89.9659531
51
93.0713334
0
ARC
8
DEFAULT_255_1_388
10
5.1142205
20
52.3193484
40
0.1464007
50
78.4379126
51
90.4311892
0
ARC
8
DEFAULT_255_1_388
10
5.1250852
20
52.3700017
40
0.094599
50
56.8961942
51
78.7357785
0
ARC
8
DEFAULT_255_1_388
10
5.1321963
20
52.3824075
40
0.0803272
50
42.6503148
51
56.3122241
0
ARC
8
DEFAULT_255_1_388
10
5.1177864
20
52.3691661
40
0.099897
50
3.8141057
51
42.636595
0
ARC
8
DEFAULT_255_1_388
10
5.0855186
20
52.3646616
40
0.1324137
50
359.9498843
51
4.8301897
0
ARC
8
DEFAULT_255_1_388
10
5.1110324
20
52.3634722
40
0.1069053
50
340.9378148
51
0.5753733
0
ARC
8
DEFAULT_255_1_388
10
5.1236906
20
52.3600569
40
0.0938301
50
316.0798885
51
340.3845117
0
ARC
8
DEFAULT_255_1_388
10
5.1302217
20
52.354052
40
0.0849605
50
285.8512844
51
315.941661
0
ARC
8
DEFAULT_255_1_388
10
5.1170097
20
52.396762
40
0.1296594
50
273.1293204
51
286.3125006
0
ARC
8
DEFAULT_255_1_388
10
5.1132607
20
52.4419586
40
0.1749979
50
269.9535313
51
273.5471598
0
ARC
8
DEFAULT_255_1_388
10
5.1120213
20
52.4173833
40
0.1504266
50
259.0487117
51
270.4180248
0
ARC
8
DEFAULT_255_1_388
10
5.1011825
20
52.3636783
40
0.0956414
50
239.7583641
51
259.3115656
0
ARC
8
DEFAULT_255_1_388
10
5.0920758
20
52.3467048
40
0.0763945
50
222.6243303
51
239.2473835
0
ARC
8
DEFAULT_255_1_388
10
5.1071929
20
52.3605572
40
0.0968985
50
182.9231258
51
222.598101
0
ARC
8
DEFAULT_255_1_388
10
5.1375129
20
52.3644696
40
0.1274004
50
179.9657458
51
183.9850364
0
LINE
8
DEFAULT_255_1_388
10
6.0257188
20
53.5988148
11
6.0257188
21
52.2769
0
LINE
8
DEFAULT_255_1_388
10
6.0257188
20
52.2769
11
5.8576559
21
52.2769
0
LINE
8
DEFAULT_255_1_388
10
5.8576559
20
52.2769
11
5.8576559
21
53.390995
0
LINE
8
DEFAULT_255_1_388
10
5.8576559
20
53.390995
11
5.5206263
21
53.2672066
0
LINE
8
DEFAULT_255_1_388
10
5.5206263
20
53.2672066
11
5.5206263
21
53.4190055
0
LINE
8
DEFAULT_255_1_388
10
5.5206263
20
53.4190055
11
5.9995155
21
53.5988148
0
LINE
8
DEFAULT_255_1_388
10
5.9995155
20
53.5988148
11
6.0257188
21
53.5988148
0
LINE
8
DEFAULT_255_1_388
10
4.5066985
20
61.5363148
11
4.5066985
21
60.2144
0
LINE
8
DEFAULT_255_1_388
10
4.5066985
20
60.2144
11
4.3386355
21
60.2144
0
LINE
8
DEFAULT_255_1_388
10
4.3386355
20
60.2144
11
4.3386355
21
61.328495
0
LINE
8
DEFAULT_255_1_388
10
4.3386355
20
61.328495
11
4.001606
21
61.2047066
0
LINE
8
DEFAULT_255_1_388
10
4.001606
20
61.2047066
11
4.001606
21
61.3565055
0
LINE
8
DEFAULT_255_1_388
10
4.001606
20
61.3565055
11
4.4804951
21
61.5363148
0
LINE
8
DEFAULT_255_1_388
10
4.4804951
20
61.5363148
11
4.5066985
21
61.5363148
0
ARC
8
DEFAULT_255_1_388
10
5.1376138
20
60.3031142
40
0.1204062
50
163.5412609
51
180.5084512
0
ARC
8
DEFAULT_255_1_388
10
5.1160037
20
60.308946
40
0.0980307
50
138.1652
51
163.2315563
0
ARC
8
DEFAULT_255_1_388
10
5.1033778
20
60.3196456
40
0.0814881
50
105.6860499
51
137.8492655
0
ARC
8
DEFAULT_255_1_388
10
5.1166979
20
60.2764109
40
0.126719
50
92.6078949
51
106.199173
0
ARC
8
DEFAULT_255_1_388
10
5.1201169
20
60.2318207
40
0.1714243
50
89.9659531
51
93.0713334
0
ARC
8
DEFAULT_255_1_388
10
5.1213205
20
60.2568484
40
0.1464007
50
78.4379126
51
90.4311892
0
ARC
8
DEFAULT_255_1_388
10
5.1321852
20
60.3075017
40
0.094599
50
56.8961942
51
78.7357785
0
ARC
8
DEFAULT_255_1_388
10
5.1392963
20
60.3199075
40
0.0803272
50
42.6503148
51
56.3122241
0
ARC
8
DEFAULT_255_1_388
10
5.1248864
20
60.3066661
40
0.099897
50
3.8141057
51
42.636595
0
ARC
8
DEFAULT_255_1_388
10
5.0926186
20
60.3021616
40
0.1324137
50
359.9498843
51
4.8301897
0
ARC
8
DEFAULT_255_1_388
10
5.1181324
20
60.3009722
40
0.1069053
50
340.9378148
51
0.5753733
0
ARC
8
DEFAULT_255_1_388
10
5.1307906
20
60.2975569
40
0.0938301
50
316.0798885
51
340.3845117
0
ARC
8
DEFAULT_255_1_388
10
5.1373217
20
60.291552
40
0.0849605
50
285.8512844
51
315.941661
0
ARC
8
DEFAULT_255_1_388
10
5.1241097
20
60.334262
40
0.1296594
50
273.1293204
51
286.3125006
0
ARC
8
DEFAULT_255_1_388
10
5.1203607
20
60.3794586
40
0.1749979
50
269.9535313
51
273.5471598
0
ARC
8
DEFAULT_255_1_388
10
5.1191213
20
60.3548833
40
0.1504266
50
259.0487117
51
270.4180248
0
ARC
8
DEFAULT_255_1_388
10
5.1082825
20
60.3011783
40
0.0956414
50
239.7583641
51
259.3115656
0
ARC
8
DEFAULT_255_1_388
10
5.0991758
20
60.2842048
40
0.0763945
50
222.6243303
51
239.2473835
0
ARC
8
DEFAULT_255_1_388
10
5.1142929
20
60.2980572
40
0.0968985
50
182.9231258
51
222.598101
0
ARC
8
DEFAULT_255_1_388
10
5.1446129
20
60.3019696
40
0.1274004
50
179.9657458
51
183.9850364
0
LINE
8
DEFAULT_255_1_388
10
6.308406
20
60.992369
11
6.308406
21
60.7755135
0
LINE
8
DEFAULT_255_1_388
10
5.4780303
20
60.7529244
11
5.4780303
21
60.9761048
0
LINE
8
DEFAULT_255_1_388
10
6.1412466
20
60.7303353
11
6.1412466
21
61.0041153
0
LINE
8
DEFAULT_255_1_388
10
5.6451897
20
61.0167652
11
5.6451897
21
60.7493102
0
ARC
8
DEFAULT_255_1_388
10
4.9306394
20
60.7700118
40
1.3777776
50
353.8440855
51
0.2287917
0
ARC
8
DEFAULT_255_1_388
10
5.4525411
20
60.7117414
40
0.852639
50
344.4934746
51
353.9763743
0
ARC
8
DEFAULT_255_1_388
10
5.7892219
20
60.6160191
40
0.5026273
50
329.2803599
51
344.7473406
0
ARC
8
DEFAULT_255_1_388
10
5.9007714
20
60.5548038
40
0.3754848
50
324.9361395
51
328.6153007
0
ARC
8
DEFAULT_255_1_388
10
5.9433364
20
60.5250586
40
0.3235566
50
280.5801797
51
324.9173226
0
ARC
8
DEFAULT_255_1_388
10
5.8981993
20
60.7130236
40
0.5167077
50
269.5979457
51
281.6732777
0
ARC
8
DEFAULT_255_1_388
10
5.8900896
20
60.6995113
40
0.5032026
50
256.6228565
51
270.5105488
0
ARC
8
DEFAULT_255_1_388
10
5.8448639
20
60.5253345
40
0.3233092
50
215.8618351
51
257.2787793
0
ARC
8
DEFAULT_255_1_388
10
5.9597346
20
60.6024106
40
0.4615831
50
197.9695203
51
215.2622745
0
ARC
8
DEFAULT_255_1_388
10
6.2393022
20
60.6967641
40
0.7566307
50
187.8816486
51
198.2346584
0
ARC
8
DEFAULT_255_1_388
10
6.684626
20
60.7610453
40
1.2065653
50
180.8977266
51
188.0054894
0
ARC
8
DEFAULT_255_1_388
10
6.9896474
20
60.77254
40
1.5117443
50
180.7434591
51
181.152202
0
ARC
8
DEFAULT_255_1_388
10
6.822147
20
60.9815371
40
1.3441277
50
173.7674302
51
180.2315596
0
ARC
8
DEFAULT_255_1_388
10
6.3139338
20
61.0389779
40
0.8326847
50
164.3058537
51
173.9000553
0
ARC
8
DEFAULT_255_1_388
10
5.9863339
20
61.1333652
40
0.4917711
50
148.7922028
51
164.5682288
0
ARC
8
DEFAULT_255_1_388
10
5.8794076
20
61.1930457
40
0.3694204
50
144.5883979
51
148.1161588
0
ARC
8
DEFAULT_255_1_388
10
5.8406821
20
61.2200667
40
0.322202
50
101.6440149
51
144.5142619
0
ARC
8
DEFAULT_255_1_388
10
5.8885013
20
61.0300337
40
0.5180451
50
89.528284
51
102.5820197
0
ARC
8
DEFAULT_255_1_388
10
5.8974005
20
61.0256376
40
0.5224441
50
77.0437914
51
90.508231
0
ARC
8
DEFAULT_255_1_388
10
5.9426259
20
61.2104272
40
0.3322297
50
48.2777708
51
77.4996087
0
ARC
8
DEFAULT_255_1_388
10
5.9507999
20
61.2249557
40
0.315966
50
36.3141586
51
47.6307332
0
ARC
8
DEFAULT_255_1_388
10
5.8530721
20
61.1591159
40
0.4337313
50
18.2931065
51
35.6770203
0
ARC
8
DEFAULT_255_1_388
10
5.5669562
20
61.0609107
40
0.7362203
50
8.0246996
51
18.5605636
0
ARC
8
DEFAULT_255_1_388
10
5.0985918
20
60.9917432
40
1.2096583
50
1.127539
51
8.1718423
0
ARC
8
DEFAULT_255_1_388
10
4.7337051
20
60.9774374
40
1.5747719
50
0.5432713
51
1.38669
0
ARC
8
DEFAULT_255_1_388
10
4.939443
20
61.0081163
40
1.2018103
50
359.8092569
51
4.9408001
0
ARC
8
DEFAULT_255_1_388
10
5.4131011
20
61.05039
40
0.7262727
50
4.8364937
51
12.2906017
0
ARC
8
DEFAULT_255_1_388
10
5.7230476
20
61.1194485
40
0.4087324
50
12.0806994
51
23.8171225
0
ARC
8
DEFAULT_255_1_388
10
5.8550872
20
61.1753508
40
0.2653719
50
24.2874621
51
31.3934353
0
ARC
8
DEFAULT_255_1_388
10
5.9141308
20
61.2139822
40
0.1948607
50
30.7407708
51
82.4658033
0
ARC
8
DEFAULT_255_1_388
10
5.8938968
20
61.1146017
40
0.2961198
50
81.1057101
51
90.2187368
0
ARC
8
DEFAULT_255_1_388
10
5.889878
20
61.1436421
40
0.2670929
50
89.380395
51
105.6763916
0
ARC
8
DEFAULT_255_1_388
10
5.8692502
20
61.218632
40
0.1893189
50
105.7980655
51
149.7387869
0
ARC
8
DEFAULT_255_1_388
10
5.9889642
20
61.1466719
40
0.3289892
50
149.4208441
51
163.628295
0
ARC
8
DEFAULT_255_1_388
10
6.2241872
20
61.0749345
40
0.5749004
50
163.3764549
51
172.141138
0
ARC
8
DEFAULT_255_1_388
10
6.5954593
20
61.0217582
40
0.9499585
50
172.0258462
51
178.0705453
0
ARC
8
DEFAULT_255_1_388
10
6.9376146
20
61.0055682
40
1.2924734
50
177.8639301
51
179.5036263
0
ARC
8
DEFAULT_255_1_388
10
6.8157165
20
60.7452151
40
1.170534
50
179.7995545
51
185.246089
0
ARC
8
DEFAULT_255_1_388
10
6.3608758
20
60.7021404
40
0.7136613
50
185.1411911
51
193.0082205
0
ARC
8
DEFAULT_255_1_388
10
6.0635019
20
60.6318441
40
0.4080987
50
192.7897338
51
205.2507384
0
ARC
8
DEFAULT_255_1_388
10
5.9457229
20
60.5792538
40
0.2791522
50
205.8001921
51
211.2545876
0
ARC
8
DEFAULT_255_1_388
10
5.8868768
20
60.5398132
40
0.2084074
50
210.3789935
51
238.4007996
0
ARC
8
DEFAULT_255_1_388
10
5.8846854
20
60.5450786
40
0.2117943
50
239.6521916
51
265.9793852
0
ARC
8
DEFAULT_255_1_388
10
5.8942703
20
60.6207358
40
0.2879689
50
265.1324455
51
270.0603288
0
ARC
8
DEFAULT_255_1_388
10
5.897508
20
60.5842418
40
0.2514919
50
269.3314378
51
287.2180039
0
ARC
8
DEFAULT_255_1_388
10
5.9130162
20
60.5276291
40
0.1928357
50
287.7957942
51
329.0808983
0
ARC
8
DEFAULT_255_1_388
10
5.8052919
20
60.5948651
40
0.319808
50
328.6635261
51
343.3325043
0
ARC
8
DEFAULT_255_1_388
10
5.5608378
20
60.6710195
40
0.5758408
50
343.0498092
51
351.9392499
0
ARC
8
DEFAULT_255_1_388
10
5.1707699
20
60.7285205
40
0.9701202
50
351.8071632
51
357.7957897
0
ARC
8
DEFAULT_255_1_388
10
4.8073176
20
60.7473724
40
1.3340376
50
357.5870923
51
359.2682493
0
LINE
8
DEFAULT_255_1_388
10
4.7822856
20
68.929869
11
4.7822856
21
68.7130135
0
LINE
8
DEFAULT_255_1_388
10
3.9519099
20
68.6904244
11
3.9519099
21
68.9136048
0
LINE
8
DEFAULT_255_1_388
10
4.6151262
20
68.6678353
11
4.6151262
21
68.9416153
0
LINE
8
DEFAULT_255_1_388
10
4.1190693
20
68.9542652
11
4.1190693
21
68.6868102
0
ARC
8
DEFAULT_255_1_388
10
3.404519
20
68.7075118
40
1.3777776
50
353.8440855
51
0.2287917
0
ARC
8
DEFAULT_255_1_388
10
3.9264208
20
68.6492414
40
0.852639
50
344.4934746
51
353.9763743
0
ARC
8
DEFAULT_255_1_388
10
4.2631015
20
68.5535191
40
0.5026273
50
329.2803599
51
344.7473406
0
ARC
8
DEFAULT_255_1_388
10
4.3746511
20
68.4923038
40
0.3754848
50
324.9361395
51
328.6153007
0
ARC
8
DEFAULT_255_1_388
10
4.4172161
20
68.4625586
40
0.3235566
50
280.5801797
51
324.9173226
0
ARC
8
DEFAULT_255_1_388
10
4.3720789
20
68.6505236
40
0.5167077
50
269.5979457
51
281.6732777
0
ARC
8
DEFAULT_255_1_388
10
4.3639693
20
68.6370113
40
0.5032026
50
256.6228565
51
270.5105488
0
ARC
8
DEFAULT_255_1_388
10
4.3187435
20
68.4628345
40
0.3233092
50
215.8618351
51
257.2787793
0
ARC
8
DEFAULT_255_1_388
10
4.4336142
20
68.5399106
40
0.4615831
50
197.9695203
51
215.2622745
0
ARC
8
DEFAULT_255_1_388
10
4.7131818
20
68.6342641
40
0.7566307
50
187.8816486
51
198.2346584
0
ARC
8
DEFAULT_255_1_388
10
5.1585056
20
68.6985453
40
1.2065653
50
180.8977266
51
188.0054894
0
ARC
8
DEFAULT_255_1_388
10
5.463527
20
68.71004
40
1.5117443
50
180.7434591
51
181.152202
0
ARC
8
DEFAULT_255_1_388
10
5.2960266
20
68.9190371
40
1.3441277
50
173.7674302
51
180.2315596
0
ARC
8
DEFAULT_255_1_388
10
4.7878135
20
68.9764779
40
0.8326847
50
164.3058537
51
173.9000553
0
ARC
8
DEFAULT_255_1_388
10
4.4602135
20
69.0708652
40
0.4917711
50
148.7922028
51
164.5682288
0
ARC
8
DEFAULT_255_1_388
10
4.3532872
20
69.1305457
40
0.3694204
50
144.5883979
51
148.1161588
0
ARC
8
DEFAULT_255_1_388
10
4.3145618
20
69.1575667
40
0.322202
50
101.6440149
51
144.5142619
0
ARC
8
DEFAULT_255_1_388
10
4.362381
20
68.9675337
40
0.5180451
50
89.528284
51
102.5820197
0
ARC
8
DEFAULT_255_1_388
10
4.3712802
20
68.9631376
40
0.5224441
50
77.0437914
51
90.508231
0
ARC
8
DEFAULT_255_1_388
10
4.4165055
20
69.1479272
40
0.3322297
50
48.2777708
51
77.4996087
0
ARC
8
DEFAULT_255_1_388
10
4.4246795
20
69.1624557
40
0.315966
50
36.3141586
51
47.6307332
0
ARC
8
DEFAULT_255_1_388
10
4.3269518
20
69.0966159
40
0.4337313
50
18.2931065
51
35.6770203
0
ARC
8
DEFAULT_255_1_388
10
4.0408358
20
68.9984107
40
0.7362203
50
8.0246996
51
18.5605636
0
ARC
8
DEFAULT_255_1_388
10
3.5724714
20
68.9292432
40
1.2096583
50
1.127539
51
8.1718423
0
ARC
8
DEFAULT_255_1_388
10
3.2075847
20
68.9149374
40
1.5747719
50
0.5432713
51
1.38669
0
ARC
8
DEFAULT_255_1_388
10
3.4133226
20
68.9456163
40
1.2018103
50
359.8092569
51
4.9408001
0
ARC
8
DEFAULT_255_1_388
10
3.8869807
20
68.98789
40
0.7262727
50
4.8364937
51
12.2906017
0
ARC
8
DEFAULT_255_1_388
10
4.1969272
20
69.0569485
40
0.4087324
50
12.0806994
51
23.8171225
0
ARC
8
DEFAULT_255_1_388
10
4.3289668
20
69.1128508
40
0.2653719
50
24.2874621
51
31.3934353
0
ARC
8
DEFAULT_255_1_388
10
4.3880104
20
69.1514822
40
0.1948607
50
30.7407708
51
82.4658033
0
ARC
8
DEFAULT_255_1_388
10
4.3677765
20
69.0521017
40
0.2961198
50
81.1057101
51
90.2187368
0
ARC
8
DEFAULT_255_1_388
10
4.3637577
20
69.0811421
40
0.2670929
50
89.380395
51
105.6763916
0
ARC
8
DEFAULT_255_1_388
10
4.3431299
20
69.156132
40
0.1893189
50
105.7980655
51
149.7387869
0
ARC
8
DEFAULT_255_1_388
10
4.4628439
20
69.0841719
40
0.3289892
50
149.4208441
51
163.628295
0
ARC
8
DEFAULT_255_1_388
10
4.6980668
20
69.0124345
40
0.5749004
50
163.3764549
51
172.141138
0
ARC
8
DEFAULT_255_1_388
10
5.069339
20
68.9592582
40
0.9499585
50
172.0258462
51
178.0705453
0
ARC
8
DEFAULT_255_1_388
10
5.4114943
20
68.9430682
40
1.2924734
50
177.8639301
51
179.5036263
0
ARC
8
DEFAULT_255_1_388
10
5.2895961
20
68.6827151
40
1.170534
50
179.7995545
51
185.246089
0
ARC
8
DEFAULT_255_1_388
10
4.8347554
20
68.6396404
40
0.7136613
50
185.1411911
51
193.0082205
0
ARC
8
DEFAULT_255_1_388
10
4.5373815
20
68.5693441
40
0.4080987
50
192.7897338
51
205.2507384
0
ARC
8
DEFAULT_255_1_388
10
4.4196025
20
68.5167538
40
0.2791522
50
205.8001921
51
211.2545876
0
ARC
8
DEFAULT_255_1_388
10
4.3607564
20
68.4773132
40
0.2084074
50
210.3789935
51
238.4007996
0
ARC
8
DEFAULT_255_1_388
10
4.358565
20
68.4825786
40
0.2117943
50
239.6521916
51
265.9793852
0
ARC
8
DEFAULT_255_1_388
10
4.3681499
20
68.5582358
40
0.2879689
50
265.1324455
51
270.0603288
0
ARC
8
DEFAULT_255_1_388
10
4.3713876
20
68.5217418
40
0.2514919
50
269.3314378
51
287.2180039
0
ARC
8
DEFAULT_255_1_388
10
4.3868958
20
68.4651291
40
0.1928357
50
287.7957942
51
329.0808983
0
ARC
8
DEFAULT_255_1_388
10
4.2791715
20
68.5323651
40
0.319808
50
328.6635261
51
343.3325043
0
ARC
8
DEFAULT_255_1_388
10
4.0347174
20
68.6085195
40
0.5758408
50
343.0498092
51
351.9392499
0
ARC
8
DEFAULT_255_1_388
10
3.6446496
20
68.6660205
40
0.9701202
50
351.8071632
51
357.7957897
0
ARC
8
DEFAULT_255_1_388
10
3.2811973
20
68.6848724
40
1.3340376
50
357.5870923
51
359.2682493
0
ARC
8
DEFAULT_255_1_388
10
5.1376138
20
68.2406142
40
0.1204062
50
163.5412609
51
180.5084512
0
ARC
8
DEFAULT_255_1_388
10
5.1160037
20
68.246446
40
0.0980307
50
138.1652
51
163.2315563
0
ARC
8
DEFAULT_255_1_388
10
5.1033778
20
68.2571456
40
0.0814881
50
105.6860499
51
137.8492655
0
ARC
8
DEFAULT_255_1_388
10
5.1166979
20
68.2139109
40
0.126719
50
92.6078949
51
106.199173
0
ARC
8
DEFAULT_255_1_388
10
5.1201169
20
68.1693207
40
0.1714243
50
89.9659531
51
93.0713334
0
ARC
8
DEFAULT_255_1_388
10
5.1213205
20
68.1943484
40
0.1464007
50
78.4379126
51
90.4311892
0
ARC
8
DEFAULT_255_1_388
10
5.1321852
20
68.2450017
40
0.094599
50
56.8961942
51
78.7357785
0
ARC
8
DEFAULT_255_1_388
10
5.1392963
20
68.2574075
40
0.0803272
50
42.6503148
51
56.3122241
0
ARC
8
DEFAULT_255_1_388
10
5.1248864
20
68.2441661
40
0.099897
50
3.8141057
51
42.636595
0
ARC
8
DEFAULT_255_1_388
10
5.0926186
20
68.2396616
40
0.1324137
50
359.9498843
51
4.8301897
0
ARC
8
DEFAULT_255_1_388
10
5.1181324
20
68.2384722
40
0.1069053
50
340.9378148
51
0.5753733
0
ARC
8
DEFAULT_255_1_388
10
5.1307906
20
68.2350569
40
0.0938301
50
316.0798885
51
340.3845117
0
ARC
8
DEFAULT_255_1_388
10
5.1373217
20
68.229052
40
0.0849605
50
285.8512844
51
315.941661
0
ARC
8
DEFAULT_255_1_388
10
5.1241097
20
68.271762
40
0.1296594
50
273.1293204
51
286.3125006
0
ARC
8
DEFAULT_255_1_388
10
5.1203607
20
68.3169586
40
0.1749979
50
269.9535313
51
273.5471598
0
ARC
8
DEFAULT_255_1_388
10
5.1191213
20
68.2923833
40
0.1504266
50
259.0487117
51
270.4180248
0
ARC
8
DEFAULT_255_1_388
10
5.1082825
20
68.2386783
40
0.0956414
50
239.7583641
51
259.3115656
0
ARC
8
DEFAULT_255_1_388
10
5.0991758
20
68.2217048
40
0.0763945
50
222.6243303
51
239.2473835
0
ARC
8
DEFAULT_255_1_388
10
5.1142929
20
68.2355572
40
0.0968985
50
182.9231258
51
222.598101
0
ARC
8
DEFAULT_255_1_388
10
5.1446129
20
68.2394696
40
0.1274004
50
179.9657458
51
183.9850364
0
LINE
8
DEFAULT_255_1_388
10
6.3328022
20
69.4674898
11
6.3328022
21
69.3735191
0
LINE
8
DEFAULT_255_1_388
10
6.3328022
20
69.3735191
11
5.7879529
21
68.1519
0
LINE
8
DEFAULT_255_1_388
10
5.7879529
20
68.1519
11
5.6126614
21
68.1519
0
LINE
8
DEFAULT_255_1_388
10
5.6126614
20
68.1519
11
6.1557036
21
69.330148
0
LINE
8
DEFAULT_255_1_388
10
6.1557036
20
69.330148
11
5.4436948
21
69.330148
0
LINE
8
DEFAULT_255_1_388
10
5.4436948
20
69.330148
11
5.4436948
21
69.4674898
0
LINE
8
DEFAULT_255_1_388
10
5.4436948
20
69.4674898
11
6.3328022
21
69.4674898
0
LINE
8
DEFAULT_255_1_388
10
4.7822856
20
76.867369
11
4.7822856
21
76.6505135
0
LINE
8
DEFAULT_255_1_388
10
3.9519099
20
76.6279244
11
3.9519099
21
76.8511048
0
LINE
8
DEFAULT_255_1_388
10
4.6151262
20
76.6053353
11
4.6151262
21
76.8791153
0
LINE
8
DEFAULT_255_1_388
10
4.1190693
20
76.8917652
11
4.1190693
21
76.6243102
0
ARC
8
DEFAULT_255_1_388
10
3.404519
20
76.6450118
40
1.3777776
50
353.8440855
51
0.2287917
0
ARC
8
DEFAULT_255_1_388
10
3.9264208
20
76.5867414
40
0.852639
50
344.4934746
51
353.9763743
0
ARC
8
DEFAULT_255_1_388
10
4.2631015
20
76.4910191
40
0.5026273
50
329.2803599
51
344.7473406
0
ARC
8
DEFAULT_255_1_388
10
4.3746511
20
76.4298038
40
0.3754848
50
324.9361395
51
328.6153007
0
ARC
8
DEFAULT_255_1_388
10
4.4172161
20
76.4000586
40
0.3235566
50
280.5801797
51
324.9173226
0
ARC
8
DEFAULT_255_1_388
10
4.3720789
20
76.5880236
40
0.5167077
50
269.5979457
51
281.6732777
0
ARC
8
DEFAULT_255_1_388
10
4.3639693
20
76.5745113
40
0.5032026
50
256.6228565
51
270.5105488
0
ARC
8
DEFAULT_255_1_388
10
4.3187435
20
76.4003345
40
0.3233092
50
215.8618351
51
257.2787793
0
ARC
8
DEFAULT_255_1_388
10
4.4336142
20
76.4774106
40
0.4615831
50
197.9695203
51
215.2622745
0
ARC
8
DEFAULT_255_1_388
10
4.7131818
20
76.5717641
40
0.7566307
50
187.8816486
51
198.2346584
0
ARC
8
DEFAULT_255_1_388
10
5.1585056
20
76.6360453
40
1.2065653
50
180.8977266
51
188.0054894
0
ARC
8
DEFAULT_255_1_388
10
5.463527
20
76.64754
40
1.5117443
50
180.7434591
51
181.152202
0
ARC
8
DEFAULT_255_1_388
10
5.2960266
20
76.8565371
40
1.3441277
50
173.7674302
51
180.2315596
0
ARC
8
DEFAULT_255_1_388
10
4.7878135
20
76.9139779
40
0.8326847
50
164.3058537
51
173.9000553
0
ARC
8
DEFAULT_255_1_388
10
4.4602135
20
77.0083652
40
0.4917711
50
148.7922028
51
164.5682288
0
ARC
8
DEFAULT_255_1_388
10
4.3532872
20
77.0680457
40
0.3694204
50
144.5883979
51
148.1161588
0
ARC
8
DEFAULT_255_1_388
10
4.3145618
20
77.0950667
40
0.322202
50
101.6440149
51
144.5142619
0
ARC
8
DEFAULT_255_1_388
10
4.362381
20
76.9050337
40
0.5180451
50
89.528284
51
102.5820197
0
ARC
8
DEFAULT_255_1_388
10
4.3712802
20
76.9006376
40
0.5224441
50
77.0437914
51
90.508231
0
ARC
8
DEFAULT_255_1_388
10
4.4165055
20
77.0854272
40
0.3322297
50
48.2777708
51
77.4996087
0
ARC
8
DEFAULT_255_1_388
10
4.4246795
20
77.0999557
40
0.315966
50
36.3141586
51
47.6307332
0
ARC
8
DEFAULT_255_1_388
10
4.3269518
20
77.0341159
40
0.4337313
50
18.2931065
51
35.6770203
0
ARC
8
DEFAULT_255_1_388
10
4.0408358
20
76.9359107
40
0.7362203
50
8.0246996
51
18.5605636
0
ARC
8
DEFAULT_255_1_388
10
3.5724714
20
76.8667432
40
1.2096583
50
1.127539
51
8.1718423
0
ARC
8
DEFAULT_255_1_388
10
3.2075847
20
76.8524374
40
1.5747719
50
0.5432713
51
1.38669
0
ARC
8
DEFAULT_255_1_388
10
3.4133226
20
76.8831163
40
1.2018103
50
359.8092569
51
4.9408001
0
ARC
8
DEFAULT_255_1_388
10
3.8869807
20
76.92539
40
0.7262727
50
4.8364937
51
12.2906017
0
ARC
8
DEFAULT_255_1_388
10
4.1969272
20
76.9944485
40
0.4087324
50
12.0806994
51
23.8171225
0
ARC
8
DEFAULT_255_1_388
10
4.3289668
20
77.0503508
40
0.2653719
50
24.2874621
51
31.3934353
0
ARC
8
DEFAULT_255_1_388
10
4.3880104
20
77.0889822
40
0.1948607
50
30.7407708
51
82.4658033
0
ARC
8
DEFAULT_255_1_388
10
4.3677765
20
76.9896017
40
0.2961198
50
81.1057101
51
90.2187368
0
ARC
8
DEFAULT_255_1_388
10
4.3637577
20
77.0186421
40
0.2670929
50
89.380395
51
105.6763916
0
ARC
8
DEFAULT_255_1_388
10
4.3431299
20
77.093632
40
0.1893189
50
105.7980655
51
149.7387869
0
ARC
8
DEFAULT_255_1_388
10
4.4628439
20
77.0216719
40
0.3289892
50
149.4208441
51
163.628295
0
ARC
8
DEFAULT_255_1_388
10
4.6980668
20
76.9499345
40
0.5749004
50
163.3764549
51
172.141138
0
ARC
8
DEFAULT_255_1_388
10
5.069339
20
76.8967582
40
0.9499585
50
172.0258462
51
178.0705453
0
ARC
8
DEFAULT_255_1_388
10
5.4114943
20
76.8805682
40
1.2924734
50
177.8639301
51
179.5036263
0
ARC
8
DEFAULT_255_1_388
10
5.2895961
20
76.6202151
40
1.170534
50
179.7995545
51
185.246089
0
ARC
8
DEFAULT_255_1_388
10
4.8347554
20
76.5771404
40
0.7136613
50
185.1411911
51
193.0082205
0
ARC
8
DEFAULT_255_1_388
10
4.5373815
20
76.5068441
40
0.4080987
50
192.7897338
51
205.2507384
0
ARC
8
DEFAULT_255_1_388
10
4.4196025
20
76.4542538
40
0.2791522
50
205.8001921
51
211.2545876
0
ARC
8
DEFAULT_255_1_388
10
4.3607564
20
76.4148132
40
0.2084074
50
210.3789935
51
238.4007996
0
ARC
8
DEFAULT_255_1_388
10
4.358565
20
76.4200786
40
0.2117943
50
239.6521916
51
265.9793852
0
ARC
8
DEFAULT_255_1_388
10
4.3681499
20
76.4957358
40
0.2879689
50
265.1324455
51
270.0603288
0
ARC
8
DEFAULT_255_1_388
10
4.3713876
20
76.4592418
40
0.2514919
50
269.3314378
51
287.2180039
0
ARC
8
DEFAULT_255_1_388
10
4.3868958
20
76.4026291
40
0.1928357
50
287.7957942
51
329.0808983
0
ARC
8
DEFAULT_255_1_388
10
4.2791715
20
76.4698651
40
0.319808
50
328.6635261
51
343.3325043
0
ARC
8
DEFAULT_255_1_388
10
4.0347174
20
76.5460195
40
0.5758408
50
343.0498092
51
351.9392499
0
ARC
8
DEFAULT_255_1_388
10
3.6446496
20
76.6035205
40
0.9701202
50
351.8071632
51
357.7957897
0
ARC
8
DEFAULT_255_1_388
10
3.2811973
20
76.6223724
40
1.3340376
50
357.5870923
51
359.2682493
0
ARC
8
DEFAULT_255_1_388
10
5.1376138
20
76.1781142
40
0.1204062
50
163.5412609
51
180.5084512
0
ARC
8
DEFAULT_255_1_388
10
5.1160037
20
76.183946
40
0.0980307
50
138.1652
51
163.2315563
0
ARC
8
DEFAULT_255_1_388
10
5.1033778
20
76.1946456
40
0.0814881
50
105.6860499
51
137.8492655
0
ARC
8
DEFAULT_255_1_388
10
5.1166979
20
76.1514109
40
0.126719
50
92.6078949
51
106.199173
0
ARC
8
DEFAULT_255_1_388
10
5.1201169
20
76.1068207
40
0.1714243
50
89.9659531
51
93.0713334
0
ARC
8
DEFAULT_255_1_388
10
5.1213205
20
76.1318484
40
0.1464007
50
78.4379126
51
90.4311892
0
ARC
8
DEFAULT_255_1_388
10
5.1321852
20
76.1825017
40
0.094599
50
56.8961942
51
78.7357785
0
ARC
8
DEFAULT_255_1_388
10
5.1392963
20
76.1949075
40
0.0803272
50
42.6503148
51
56.3122241
0
ARC
8
DEFAULT_255_1_388
10
5.1248864
20
76.1816661
40
0.099897
50
3.8141057
51
42.636595
0
ARC
8
DEFAULT_255_1_388
10
5.0926186
20
76.1771616
40
0.1324137
50
359.9498843
51
4.8301897
0
ARC
8
DEFAULT_255_1_388
10
5.1181324
20
76.1759722
40
0.1069053
50
340.9378148
51
0.5753733
0
ARC
8
DEFAULT_255_1_388
10
5.1307906
20
76.1725569
40
0.0938301
50
316.0798885
51
340.3845117
0
ARC
8
DEFAULT_255_1_388
10
5.1373217
20
76.166552
40
0.0849605
50
285.8512844
51
315.941661
0
ARC
8
DEFAULT_255_1_388
10
5.1241097
20
76.209262
40
0.1296594
50
273.1293204
51
286.3125006
0
ARC
8
DEFAULT_255_1_388
10
5.1203607
20
76.2544586
40
0.1749979
50
269.9535313
51
273.5471598
0
ARC
8
DEFAULT_255_1_388
10
5.1191213
20
76.2298833
40
0.1504266
50
259.0487117
51
270.4180248
0
ARC
8
DEFAULT_255_1_388
10
5.1082825
20
76.1761783
40
0.0956414
50
239.7583641
51
259.3115656
0
ARC
8
DEFAULT_255_1_388
10
5.0991758
20
76.1592048
40
0.0763945
50
222.6243303
51
239.2473835
0
ARC
8
DEFAULT_255_1_388
10
5.1142929
20
76.1730572
40
0.0968985
50
182.9231258
51
222.598101
0
ARC
8
DEFAULT_255_1_388
10
5.1446129
20
76.1769696
40
0.1274004
50
179.9657458
51
183.9850364
0
LINE
8
DEFAULT_255_1_388
10
6.1096218
20
77.4058934
11
6.1394395
21
77.4058934
0
LINE
8
DEFAULT_255_1_388
10
6.1394395
20
77.4058934
11
6.1394395
21
77.2640338
0
LINE
8
DEFAULT_255_1_388
10
6.1394395
20
77.2640338
11
6.1087183
21
77.2640338
0
LINE
8
DEFAULT_255_1_388
10
5.4933909
20
76.5899747
11
5.4933909
21
76.6541278
0
LINE
8
DEFAULT_255_1_388
10
5.6614539
20
76.6324422
11
5.6614539
21
76.5709999
0
ARC
8
DEFAULT_255_1_388
10
6.1146074
20
76.7017826
40
0.562282
50
90.6001079
51
104.5146616
0
ARC
8
DEFAULT_255_1_388
10
6.0709034
20
76.86431
40
0.3939917
50
104.2855758
51
133.8630124
0
ARC
8
DEFAULT_255_1_388
10
6.0893286
20
76.8521243
40
0.4155734
50
134.5304124
51
161.6210222
0
ARC
8
DEFAULT_255_1_388
10
6.2753219
20
76.7865421
40
0.6127682
50
161.2850533
51
174.2074364
0
ARC
8
DEFAULT_255_1_388
10
6.4342785
20
76.7646437
40
0.7731446
50
173.7817938
51
174.9251711
0
ARC
8
DEFAULT_255_1_388
10
5.9216979
20
76.609127
40
0.3412588
50
95.8332067
51
138.995412
0
ARC
8
DEFAULT_255_1_388
10
5.9468259
20
76.4652695
40
0.4870358
50
89.8755506
51
97.0540979
0
ARC
8
DEFAULT_255_1_388
10
5.9521648
20
76.5592841
40
0.3930432
50
71.6407016
51
90.6240821
0
ARC
8
DEFAULT_255_1_388
10
5.9691042
20
76.6216433
40
0.3285421
50
39.6368051
51
71.0190743
0
ARC
8
DEFAULT_255_1_388
10
5.8974949
20
76.5597586
40
0.4231706
50
10.6588054
51
39.9044509
0
ARC
8
DEFAULT_255_1_388
10
5.7233495
20
76.5219223
40
0.60133
50
359.6827842
51
11.1326896
0
ARC
8
DEFAULT_255_1_388
10
5.7188831
20
76.5139715
40
0.6058047
50
347.2485908
51
0.4371098
0
ARC
8
DEFAULT_255_1_388
10
5.9064616
20
76.4688379
40
0.4128987
50
318.1408565
51
347.6118497
0
ARC
8
DEFAULT_255_1_388
10
5.9430213
20
76.4387903
40
0.3656244
50
275.6342406
51
317.824739
0
ARC
8
DEFAULT_255_1_388
10
5.9181734
20
76.5849827
40
0.513655
50
269.8872513
51
276.7916069
0
ARC
8
DEFAULT_255_1_388
10
5.9119927
20
76.4696181
40
0.398323
50
246.9139443
51
270.7436787
0
ARC
8
DEFAULT_255_1_388
10
5.9127122
20
76.4536044
40
0.3839368
50
218.1665534
51
245.8780431
0
ARC
8
DEFAULT_255_1_388
10
6.0116495
20
76.5363903
40
0.5128958
50
191.4115343
51
218.6077624
0
ARC
8
DEFAULT_255_1_388
10
6.2296811
20
76.5852777
40
0.7363054
50
179.6344971
51
191.7836758
0
ARC
8
DEFAULT_255_1_388
10
6.8576685
20
76.6616495
40
1.3642984
50
171.4523743
51
180.3158856
0
ARC
8
DEFAULT_255_1_388
10
6.3632412
20
76.7385895
40
0.8639311
50
157.9802296
51
171.6246761
0
ARC
8
DEFAULT_255_1_388
10
6.1141763
20
76.8379038
40
0.5958004
50
141.4299236
51
157.8541251
0
ARC
8
DEFAULT_255_1_388
10
6.0419846
20
76.8889746
40
0.5075416
50
102.871586
51
140.8564533
0
ARC
8
DEFAULT_255_1_388
10
6.1148399
20
76.6144943
40
0.7914163
50
90.377773
51
103.5868422
0
ARC
8
DEFAULT_255_1_388
10
5.919292
20
76.5464543
40
0.2667015
50
89.8751238
51
126.2072139
0
ARC
8
DEFAULT_255_1_388
10
5.9244391
20
76.5290847
40
0.2838229
50
124.9742447
51
144.8960197
0
ARC
8
DEFAULT_255_1_388
10
5.9046636
20
76.5451981
40
0.2583845
50
145.2974778
51
160.2660922
0
ARC
8
DEFAULT_255_1_388
10
6.2503125
20
76.5674151
40
0.5888695
50
179.6512124
51
190.285571
0
ARC
8
DEFAULT_255_1_388
10
6.0597604
20
76.5314968
40
0.3949683
50
190.0944895
51
207.5099647
0
ARC
8
DEFAULT_255_1_388
10
5.9961186
20
76.5012177
40
0.3245464
50
207.9585471
51
216.325377
0
ARC
8
DEFAULT_255_1_388
10
5.9578823
20
76.4697712
40
0.2751259
50
215.7661336
51
232.5457193
0
ARC
8
DEFAULT_255_1_388
10
5.9147939
20
76.4150273
40
0.2054668
50
232.8005815
51
270.6605497
0
ARC
8
DEFAULT_255_1_388
10
5.9199363
20
76.4559853
40
0.2464268
50
269.3550767
51
288.474612
0
ARC
8
DEFAULT_255_1_388
10
5.930387
20
76.4166721
40
0.2058436
50
289.1831976
51
322.9685307
0
ARC
8
DEFAULT_255_1_388
10
5.8615972
20
76.4709279
40
0.2934408
50
322.6007085
51
346.5183319
0
ARC
8
DEFAULT_255_1_388
10
5.7313728
20
76.5041434
40
0.4278249
50
346.2584622
51
358.7739592
0
ARC
8
DEFAULT_255_1_388
10
5.6162303
20
76.5103829
40
0.5430876
50
358.3757628
51
0.0082477
0
ARC
8
DEFAULT_255_1_388
10
5.7019122
20
76.5134856
40
0.4574157
50
359.6211417
51
11.28403
0
ARC
8
DEFAULT_255_1_388
10
5.8455728
20
76.5434535
40
0.3106708
50
11.0483152
51
31.8145585
0
ARC
8
DEFAULT_255_1_388
10
5.8803433
20
76.5623045
40
0.2711963
50
32.3028554
51
38.0820598
0
ARC
8
DEFAULT_255_1_388
10
5.9276666
20
76.6051717
40
0.2075566
50
36.8249851
51
85.741667
0
ARC
8
DEFAULT_255_1_388
10
5.9201079
20
76.5488065
40
0.2643487
50
85.0150021
51
90.050843
0
LINE
8
DEFAULT_255_1_388
10
4.7822856
20
84.804869
11
4.7822856
21
84.5880135
0
LINE
8
DEFAULT_255_1_388
10
3.9519099
20
84.5654244
11
3.9519099
21
84.7886048
0
LINE
8
DEFAULT_255_1_388
10
4.6151262
20
84.5428353
11
4.6151262
21
84.8166153
0
LINE
8
DEFAULT_255_1_388
10
4.1190693
20
84.8292652
11
4.1190693
21
84.5618102
0
ARC
8
DEFAULT_255_1_388
10
3.404519
20
84.5825118
40
1.3777776
50
353.8440855
51
0.2287917
0
ARC
8
DEFAULT_255_1_388
10
3.9264208
20
84.5242414
40
0.852639
50
344.4934746
51
353.9763743
0
ARC
8
DEFAULT_255_1_388
10
4.2631015
20
84.4285191
40
0.5026273
50
329.2803599
51
344.7473406
0
ARC
8
DEFAULT_255_1_388
10
4.3746511
20
84.3673038
40
0.3754848
50
324.9361395
51
328.6153007
0
ARC
8
DEFAULT_255_1_388
10
4.4172161
20
84.3375586
40
0.3235566
50
280.5801797
51
324.9173226
0
ARC
8
DEFAULT_255_1_388
10
4.3720789
20
84.5255236
40
0.5167077
50
269.5979457
51
281.6732777
0
ARC
8
DEFAULT_255_1_388
10
4.3639693
20
84.5120113
40
0.5032026
50
256.6228565
51
270.5105488
0
ARC
8
DEFAULT_255_1_388
10
4.3187435
20
84.3378345
40
0.3233092
50
215.8618351
51
257.2787793
0
ARC
8
DEFAULT_255_1_388
10
4.4336142
20
84.4149106
40
0.4615831
50
197.9695203
51
215.2622745
0
ARC
8
DEFAULT_255_1_388
10
4.7131818
20
84.5092641
40
0.7566307
50
187.8816486
51
198.2346584
0
ARC
8
DEFAULT_255_1_388
10
5.1585056
20
84.5735453
40
1.2065653
50
180.8977266
51
188.0054894
0
ARC
8
DEFAULT_255_1_388
10
5.463527
20
84.58504
40
1.5117443
50
180.7434591
51
181.152202
0
ARC
8
DEFAULT_255_1_388
10
5.2960266
20
84.7940371
40
1.3441277
50
173.7674302
51
180.2315596
0
ARC
8
DEFAULT_255_1_388
10
4.7878135
20
84.8514779
40
0.8326847
50
164.3058537
51
173.9000553
0
ARC
8
DEFAULT_255_1_388
10
4.4602135
20
84.9458652
40
0.4917711
50
148.7922028
51
164.5682288
0
ARC
8
DEFAULT_255_1_388
10
4.3532872
20
85.0055457
40
0.3694204
50
144.5883979
51
148.1161588
0
ARC
8
DEFAULT_255_1_388
10
4.3145618
20
85.0325667
40
0.322202
50
101.6440149
51
144.5142619
0
ARC
8
DEFAULT_255_1_388
10
4.362381
20
84.8425337
40
0.5180451
50
89.528284
51
102.5820197
0
ARC
8
DEFAULT_255_1_388
10
4.3712802
20
84.8381376
40
0.5224441
50
77.0437914
51
90.508231
0
ARC
8
DEFAULT_255_1_388
10
4.4165055
20
85.0229272
40
0.3322297
50
48.2777708
51
77.4996087
0
ARC
8
DEFAULT_255_1_388
10
4.4246795
20
85.0374557
40
0.315966
50
36.3141586
51
47.6307332
0
ARC
8
DEFAULT_255_1_388
10
4.3269518
20
84.9716159
40
0.4337313
50
18.2931065
51
35.6770203
0
ARC
8
DEFAULT_255_1_388
10
4.0408358
20
84.8734107
40
0.7362203
50
8.0246996
51
18.5605636
0
ARC
8
DEFAULT_255_1_388
10
3.5724714
20
84.8042432
40
1.2096583
50
1.127539
51
8.1718423
0
ARC
8
DEFAULT_255_1_388
10
3.2075847
20
84.7899374
40
1.5747719
50
0.5432713
51
1.38669
0
ARC
8
DEFAULT_255_1_388
10
3.4133226
20
84.8206163
40
1.2018103
50
359.8092569
51
4.9408001
0
ARC
8
DEFAULT_255_1_388
10
3.8869807
20
84.86289
40
0.7262727
50
4.8364937
51
12.2906017
0
ARC
8
DEFAULT_255_1_388
10
4.1969272
20
84.9319485
40
0.4087324
50
12.0806994
51
23.8171225
0
ARC
8
DEFAULT_255_1_388
10
4.3289668
20
84.9878508
40
0.2653719
50
24.2874621
51
31.3934353
0
ARC
8
DEFAULT_255_1_388
10
4.3880104
20
85.0264822
40
0.1948607
50
30.7407708
51
82.4658033
0
ARC
8
DEFAULT_255_1_388
10
4.3677765
20
84.9271017
40
0.2961198
50
81.1057101
51
90.2187368
0
ARC
8
DEFAULT_255_1_388
10
4.3637577
20
84.9561421
40
0.2670929
50
89.380395
51
105.6763916
0
ARC
8
DEFAULT_255_1_388
10
4.3431299
20
85.031132
40
0.1893189
50
105.7980655
51
149.7387869
0
ARC
8
DEFAULT_255_1_388
10
4.4628439
20
84.9591719
40
0.3289892
50
149.4208441
51
163.628295
0
ARC
8
DEFAULT_255_1_388
10
4.6980668
20
84.8874345
40
0.5749004
50
163.3764549
51
172.141138
0
ARC
8
DEFAULT_255_1_388
10
5.069339
20
84.8342582
40
0.9499585
50
172.0258462
51
178.0705453
0
ARC
8
DEFAULT_255_1_388
10
5.4114943
20
84.8180682
40
1.2924734
50
177.8639301
51
179.5036263
0
ARC
8
DEFAULT_255_1_388
10
5.2895961
20
84.5577151
40
1.170534
50
179.7995545
51
185.246089
0
ARC
8
DEFAULT_255_1_388
10
4.8347554
20
84.5146404
40
0.7136613
50
185.1411911
51
193.0082205
0
ARC
8
DEFAULT_255_1_388
10
4.5373815
20
84.4443441
40
0.4080987
50
192.7897338
51
205.2507384
0
ARC
8
DEFAULT_255_1_388
10
4.4196025
20
84.3917538
40
0.2791522
50
205.8001921
51
211.2545876
0
ARC
8
DEFAULT_255_1_388
10
4.3607564
20
84.3523132
40
0.2084074
50
210.3789935
51
238.4007996
0
ARC
8
DEFAULT_255_1_388
10
4.358565
20
84.3575786
40
0.2117943
50
239.6521916
51
265.9793852
0
ARC
8
DEFAULT_255_1_388
10
4.3681499
20
84.4332358
40
0.2879689
50
265.1324455
51
270.0603288
0
ARC
8
DEFAULT_255_1_388
10
4.3713876
20
84.3967418
40
0.2514919
50
269.3314378
51
287.2180039
0
ARC
8
DEFAULT_255_1_388
10
4.3868958
20
84.3401291
40
0.1928357
50
287.7957942
51
329.0808983
0
ARC
8
DEFAULT_255_1_388
10
4.2791715
20
84.4073651
40
0.319808
50
328.6635261
51
343.3325043
0
ARC
8
DEFAULT_255_1_388
10
4.0347174
20
84.4835195
40
0.5758408
50
343.0498092
51
351.9392499
0
ARC
8
DEFAULT_255_1_388
10
3.6446496
20
84.5410205
40
0.9701202
50
351.8071632
51
357.7957897
0
ARC
8
DEFAULT_255_1_388
10
3.2811973
20
84.5598724
40
1.3340376
50
357.5870923
51
359.2682493
0
ARC
8
DEFAULT_255_1_388
10
5.1376138
20
84.1156142
40
0.1204062
50
163.5412609
51
180.5084512
0
ARC
8
DEFAULT_255_1_388
10
5.1160037
20
84.121446
40
0.0980307
50
138.1652
51
163.2315563
0
ARC
8
DEFAULT_255_1_388
10
5.1033778
20
84.1321456
40
0.0814881
50
105.6860499
51
137.8492655
0
ARC
8
DEFAULT_255_1_388
10
5.1166979
20
84.0889109
40
0.126719
50
92.6078949
51
106.199173
0
ARC
8
DEFAULT_255_1_388
10
5.1201169
20
84.0443207
40
0.1714243
50
89.9659531
51
93.0713334
0
ARC
8
DEFAULT_255_1_388
10
5.1213205
20
84.0693484
40
0.1464007
50
78.4379126
51
90.4311892
0
ARC
8
DEFAULT_255_1_388
10
5.1321852
20
84.1200017
40
0.094599
50
56.8961942
51
78.7357785
0
ARC
8
DEFAULT_255_1_388
10
5.1392963
20
84.1324075
40
0.0803272
50
42.6503148
51
56.3122241
0
ARC
8
DEFAULT_255_1_388
10
5.1248864
20
84.1191661
40
0.099897
50
3.8141057
51
42.636595
0
ARC
8
DEFAULT_255_1_388
10
5.0926186
20
84.1146616
40
0.1324137
50
359.9498843
51
4.8301897
0
ARC
8
DEFAULT_255_1_388
10
5.1181324
20
84.1134722
40
0.1069053
50
340.9378148
51
0.5753733
0
ARC
8
DEFAULT_255_1_388
10
5.1307906
20
84.1100569
40
0.0938301
50
316.0798885
51
340.3845117
0
ARC
8
DEFAULT_255_1_388
10
5.1373217
20
84.104052
40
0.0849605
50
285.8512844
51
315.941661
0
ARC
8
DEFAULT_255_1_388
10
5.1241097
20
84.146762
40
0.1296594
50
273.1293204
51
286.3125006
0
ARC
8
DEFAULT_255_1_388
10
5.1203607
20
84.1919586
40
0.1749979
50
269.9535313
51
273.5471598
0
ARC
8
DEFAULT_255_1_388
10
5.1191213
20
84.1673833
40
0.1504266
50
259.0487117
51
270.4180248
0
ARC
8
DEFAULT_255_1_388
10
5.1082825
20
84.1136783
40
0.0956414
50
239.7583641
51
259.3115656
0
ARC
8
DEFAULT_255_1_388
10
5.0991758
20
84.0967048
40
0.0763945
50
222.6243303
51
239.2473835
0
ARC
8
DEFAULT_255_1_388
10
5.1142929
20
84.1105572
40
0.0968985
50
182.9231258
51
222.598101
0
ARC
8
DEFAULT_255_1_388
10
5.1446129
20
84.1144696
40
0.1274004
50
179.9657458
51
183.9850364
0
LINE
8
DEFAULT_255_1_388
10
5.6939822
20
84.6521666
11
5.5602546
21
84.6865021
0
LINE
8
DEFAULT_255_1_388
10
5.5602546
20
84.6865021
11
5.6271184
21
85.3424898
0
LINE
8
DEFAULT_255_1_388
10
5.6271184
20
85.3424898
11
6.3011775
21
85.3424898
0
LINE
8
DEFAULT_255_1_388
10
6.3011775
20
85.3424898
11
6.3011775
21
85.1879803
0
LINE
8
DEFAULT_255_1_388
10
6.3011775
20
85.1879803
11
5.768978
21
85.1879803
0
LINE
8
DEFAULT_255_1_388
10
5.768978
20
85.1879803
11
5.7292212
21
84.8292652
0
LINE
8
DEFAULT_255_1_388
10
5.5132693
20
84.3729652
11
5.6713931
21
84.3729652
0
LINE
8
DEFAULT_255_1_388
10
5.7382568
20
84.6883092
11
5.6939822
21
84.6521666
0
ARC
8
DEFAULT_255_1_388
10
5.9378825
20
84.4715241
40
0.4141476
50
93.7181681
51
120.253934
0
ARC
8
DEFAULT_255_1_388
10
5.9484878
20
84.3806284
40
0.5055616
50
89.9660471
51
94.2495185
0
ARC
8
DEFAULT_255_1_388
10
5.95307
20
84.4469154
40
0.4392953
50
73.8045384
51
90.5585736
0
ARC
8
DEFAULT_255_1_388
10
5.9794957
20
84.543452
40
0.3392225
50
41.3071072
51
73.543002
0
ARC
8
DEFAULT_255_1_388
10
5.9326777
20
84.5031461
40
0.4009977
50
13.5075837
51
41.2174839
0
ARC
8
DEFAULT_255_1_388
10
5.7479875
20
84.4547907
40
0.5918864
50
1.1330171
51
13.8830737
0
ARC
8
DEFAULT_255_1_388
10
5.588352
20
84.4462522
40
0.7516787
50
359.9925091
51
1.5431298
0
ARC
8
DEFAULT_255_1_388
10
5.7328135
20
84.4416027
40
0.6072343
50
347.8572712
51
0.4294349
0
ARC
8
DEFAULT_255_1_388
10
5.929727
20
84.3969898
40
0.4053482
50
323.6727442
51
348.1674594
0
ARC
8
DEFAULT_255_1_388
10
5.9628235
20
84.3768175
40
0.3667495
50
316.8171818
51
323.1486802
0
ARC
8
DEFAULT_255_1_388
10
5.9697358
20
84.3726612
40
0.358869
50
281.839603
51
316.5458142
0
ARC
8
DEFAULT_255_1_388
10
5.9274646
20
84.5476363
40
0.5388223
50
269.5770964
51
282.4214641
0
ARC
8
DEFAULT_255_1_388
10
5.9194567
20
84.523593
40
0.5147801
50
256.2425863
51
270.4486481
0
ARC
8
DEFAULT_255_1_388
10
5.8858094
20
84.3886124
40
0.3756708
50
228.9024379
51
256.33135
0
ARC
8
DEFAULT_255_1_388
10
5.8775075
20
84.3755054
40
0.360344
50
193.7536029
51
228.5272638
0
ARC
8
DEFAULT_255_1_388
10
6.016764
20
84.4163463
40
0.5053599
50
184.9244437
51
194.4976052
0
ARC
8
DEFAULT_255_1_388
10
6.0384281
20
84.4203722
40
0.3700839
50
187.3596909
51
198.6733728
0
ARC
8
DEFAULT_255_1_388
10
5.9203524
20
84.3794373
40
0.2451195
50
198.4453795
51
217.7945479
0
ARC
8
DEFAULT_255_1_388
10
5.8870697
20
84.3558563
40
0.2043754
50
218.2887146
51
228.5613203
0
ARC
8
DEFAULT_255_1_388
10
5.8980704
20
84.3706902
40
0.2227819
50
228.9652423
51
258.1237049
0
ARC
8
DEFAULT_255_1_388
10
5.9212141
20
84.4697964
40
0.3245374
50
257.7260585
51
270.4013717
0
ARC
8
DEFAULT_255_1_388
10
5.9262639
20
84.4197255
40
0.2744726
50
269.4204315
51
286.420998
0
ARC
8
DEFAULT_255_1_388
10
5.9429695
20
84.3590705
40
0.2115721
50
286.7250065
51
320.6004665
0
ARC
8
DEFAULT_255_1_388
10
5.899861
20
84.3940527
40
0.2670878
50
320.6712228
51
344.5440474
0
ARC
8
DEFAULT_255_1_388
10
5.7697324
20
84.4322394
40
0.4026927
50
344.241448
51
356.735803
0
ARC
8
DEFAULT_255_1_388
10
5.6293631
20
84.4438656
40
0.5435085
50
356.3547471
51
0.0507222
0
ARC
8
DEFAULT_255_1_388
10
5.7795896
20
84.4473812
40
0.3932934
50
359.5579289
51
12.9534322
0
ARC
8
DEFAULT_255_1_388
10
5.8982736
20
84.4761586
40
0.2711827
50
12.6489751
51
41.608121
0
ARC
8
DEFAULT_255_1_388
10
5.9241896
20
84.4981946
40
0.2371737
50
41.7851122
51
85.9892156
0
ARC
8
DEFAULT_255_1_388
10
5.9103206
20
84.4066738
40
0.3295244
50
84.6965848
51
90.0672125
0
ARC
8
DEFAULT_255_1_388
10
5.9076774
20
84.3315118
40
0.4046926
50
89.6804991
51
99.161352
0
ARC
8
DEFAULT_255_1_388
10
5.8845783
20
84.4695848
40
0.2647044
50
98.9836248
51
113.8905702
0
ARC
8
DEFAULT_255_1_388
10
5.8587458
20
84.5305118
40
0.1985386
50
114.195234
51
127.3641866
0
LINE
8
DEFAULT_255_1_388
10
4.9145856
20
92.742369
11
4.9145856
21
92.5255135
0
LINE
8
DEFAULT_255_1_388
10
4.0842099
20
92.5029244
11
4.0842099
21
92.7261048
0
LINE
8
DEFAULT_255_1_388
10
4.7474262
20
92.4803353
11
4.7474262
21
92.7541153
0
LINE
8
DEFAULT_255_1_388
10
4.2513693
20
92.7667652
11
4.2513693
21
92.4993102
0
ARC
8
DEFAULT_255_1_388
10
3.536819
20
92.5200118
40
1.3777776
50
353.8440855
51
0.2287917
0
ARC
8
DEFAULT_255_1_388
10
4.0587208
20
92.4617414
40
0.852639
50
344.4934746
51
353.9763743
0
ARC
8
DEFAULT_255_1_388
10
4.3954015
20
92.3660191
40
0.5026273
50
329.2803599
51
344.7473406
0
ARC
8
DEFAULT_255_1_388
10
4.5069511
20
92.3048038
40
0.3754848
50
324.9361395
51
328.6153007
0
ARC
8
DEFAULT_255_1_388
10
4.5495161
20
92.2750586
40
0.3235566
50
280.5801797
51
324.9173226
0
ARC
8
DEFAULT_255_1_388
10
4.5043789
20
92.4630236
40
0.5167077
50
269.5979457
51
281.6732777
0
ARC
8
DEFAULT_255_1_388
10
4.4962693
20
92.4495113
40
0.5032026
50
256.6228565
51
270.5105488
0
ARC
8
DEFAULT_255_1_388
10
4.4510435
20
92.2753345
40
0.3233092
50
215.8618351
51
257.2787793
0
ARC
8
DEFAULT_255_1_388
10
4.5659142
20
92.3524106
40
0.4615831
50
197.9695203
51
215.2622745
0
ARC
8
DEFAULT_255_1_388
10
4.8454818
20
92.4467641
40
0.7566307
50
187.8816486
51
198.2346584
0
ARC
8
DEFAULT_255_1_388
10
5.2908056
20
92.5110453
40
1.2065653
50
180.8977266
51
188.0054894
0
ARC
8
DEFAULT_255_1_388
10
5.595827
20
92.52254
40
1.5117443
50
180.7434591
51
181.152202
0
ARC
8
DEFAULT_255_1_388
10
5.4283266
20
92.7315371
40
1.3441277
50
173.7674302
51
180.2315596
0
ARC
8
DEFAULT_255_1_388
10
4.9201135
20
92.7889779
40
0.8326847
50
164.3058537
51
173.9000553
0
ARC
8
DEFAULT_255_1_388
10
4.5925135
20
92.8833652
40
0.4917711
50
148.7922028
51
164.5682288
0
ARC
8
DEFAULT_255_1_388
10
4.4855872
20
92.9430457
40
0.3694204
50
144.5883979
51
148.1161588
0
ARC
8
DEFAULT_255_1_388
10
4.4468618
20
92.9700667
40
0.322202
50
101.6440149
51
144.5142619
0
ARC
8
DEFAULT_255_1_388
10
4.494681
20
92.7800337
40
0.5180451
50
89.528284
51
102.5820197
0
ARC
8
DEFAULT_255_1_388
10
4.5035802
20
92.7756376
40
0.5224441
50
77.0437914
51
90.508231
0
ARC
8
DEFAULT_255_1_388
10
4.5488055
20
92.9604272
40
0.3322297
50
48.2777708
51
77.4996087
0
ARC
8
DEFAULT_255_1_388
10
4.5569795
20
92.9749557
40
0.315966
50
36.3141586
51
47.6307332
0
ARC
8
DEFAULT_255_1_388
10
4.4592518
20
92.9091159
40
0.4337313
50
18.2931065
51
35.6770203
0
ARC
8
DEFAULT_255_1_388
10
4.1731358
20
92.8109107
40
0.7362203
50
8.0246996
51
18.5605636
0
ARC
8
DEFAULT_255_1_388
10
3.7047714
20
92.7417432
40
1.2096583
50
1.127539
51
8.1718423
0
ARC
8
DEFAULT_255_1_388
10
3.3398847
20
92.7274374
40
1.5747719
50
0.5432713
51
1.38669
0
ARC
8
DEFAULT_255_1_388
10
3.5456226
20
92.7581163
40
1.2018103
50
359.8092569
51
4.9408001
0
ARC
8
DEFAULT_255_1_388
10
4.0192807
20
92.80039
40
0.7262727
50
4.8364937
51
12.2906017
0
ARC
8
DEFAULT_255_1_388
10
4.3292272
20
92.8694485
40
0.4087324
50
12.0806994
51
23.8171225
0
ARC
8
DEFAULT_255_1_388
10
4.4612668
20
92.9253508
40
0.2653719
50
24.2874621
51
31.3934353
0
ARC
8
DEFAULT_255_1_388
10
4.5203104
20
92.9639822
40
0.1948607
50
30.7407708
51
82.4658033
0
ARC
8
DEFAULT_255_1_388
10
4.5000765
20
92.8646017
40
0.2961198
50
81.1057101
51
90.2187368
0
ARC
8
DEFAULT_255_1_388
10
4.4960577
20
92.8936421
40
0.2670929
50
89.380395
51
105.6763916
0
ARC
8
DEFAULT_255_1_388
10
4.4754299
20
92.968632
40
0.1893189
50
105.7980655
51
149.7387869
0
ARC
8
DEFAULT_255_1_388
10
4.5951439
20
92.8966719
40
0.3289892
50
149.4208441
51
163.628295
0
ARC
8
DEFAULT_255_1_388
10
4.8303668
20
92.8249345
40
0.5749004
50
163.3764549
51
172.141138
0
ARC
8
DEFAULT_255_1_388
10
5.201639
20
92.7717582
40
0.9499585
50
172.0258462
51
178.0705453
0
ARC
8
DEFAULT_255_1_388
10
5.5437943
20
92.7555682
40
1.2924734
50
177.8639301
51
179.5036263
0
ARC
8
DEFAULT_255_1_388
10
5.4218961
20
92.4952151
40
1.170534
50
179.7995545
51
185.246089
0
ARC
8
DEFAULT_255_1_388
10
4.9670554
20
92.4521404
40
0.7136613
50
185.1411911
51
193.0082205
0
ARC
8
DEFAULT_255_1_388
10
4.6696815
20
92.3818441
40
0.4080987
50
192.7897338
51
205.2507384
0
ARC
8
DEFAULT_255_1_388
10
4.5519025
20
92.3292538
40
0.2791522
50
205.8001921
51
211.2545876
0
ARC
8
DEFAULT_255_1_388
10
4.4930564
20
92.2898132
40
0.2084074
50
210.3789935
51
238.4007996
0
ARC
8
DEFAULT_255_1_388
10
4.490865
20
92.2950786
40
0.2117943
50
239.6521916
51
265.9793852
0
ARC
8
DEFAULT_255_1_388
10
4.5004499
20
92.3707358
40
0.2879689
50
265.1324455
51
270.0603288
0
ARC
8
DEFAULT_255_1_388
10
4.5036876
20
92.3342418
40
0.2514919
50
269.3314378
51
287.2180039
0
ARC
8
DEFAULT_255_1_388
10
4.5191958
20
92.2776291
40
0.1928357
50
287.7957942
51
329.0808983
0
ARC
8
DEFAULT_255_1_388
10
4.4114715
20
92.3448651
40
0.319808
50
328.6635261
51
343.3325043
0
ARC
8
DEFAULT_255_1_388
10
4.1670174
20
92.4210195
40
0.5758408
50
343.0498092
51
351.9392499
0
ARC
8
DEFAULT_255_1_388
10
3.7769496
20
92.4785205
40
0.9701202
50
351.8071632
51
357.7957897
0
ARC
8
DEFAULT_255_1_388
10
3.4134973
20
92.4973724
40
1.3340376
50
357.5870923
51
359.2682493
0
ARC
8
DEFAULT_255_1_388
10
5.2699138
20
92.0531142
40
0.1204062
50
163.5412609
51
180.5084512
0
ARC
8
DEFAULT_255_1_388
10
5.2483037
20
92.058946
40
0.0980307
50
138.1652
51
163.2315563
0
ARC
8
DEFAULT_255_1_388
10
5.2356778
20
92.0696456
40
0.0814881
50
105.6860499
51
137.8492655
0
ARC
8
DEFAULT_255_1_388
10
5.2489979
20
92.0264109
40
0.126719
50
92.6078949
51
106.199173
0
ARC
8
DEFAULT_255_1_388
10
5.2524169
20
91.9818207
40
0.1714243
50
89.9659531
51
93.0713334
0
ARC
8
DEFAULT_255_1_388
10
5.2536205
20
92.0068484
40
0.1464007
50
78.4379126
51
90.4311892
0
ARC
8
DEFAULT_255_1_388
10
5.2644852
20
92.0575017
40
0.094599
50
56.8961942
51
78.7357785
0
ARC
8
DEFAULT_255_1_388
10
5.2715963
20
92.0699075
40
0.0803272
50
42.6503148
51
56.3122241
0
ARC
8
DEFAULT_255_1_388
10
5.2571864
20
92.0566661
40
0.099897
50
3.8141057
51
42.636595
0
ARC
8
DEFAULT_255_1_388
10
5.2249186
20
92.0521616
40
0.1324137
50
359.9498843
51
4.8301897
0
ARC
8
DEFAULT_255_1_388
10
5.2504324
20
92.0509722
40
0.1069053
50
340.9378148
51
0.5753733
0
ARC
8
DEFAULT_255_1_388
10
5.2630906
20
92.0475569
40
0.0938301
50
316.0798885
51
340.3845117
0
ARC
8
DEFAULT_255_1_388
10
5.2696217
20
92.041552
40
0.0849605
50
285.8512844
51
315.941661
0
ARC
8
DEFAULT_255_1_388
10
5.2564097
20
92.084262
40
0.1296594
50
273.1293204
51
286.3125006
0
ARC
8
DEFAULT_255_1_388
10
5.2526607
20
92.1294586
40
0.1749979
50
269.9535313
51
273.5471598
0
ARC
8
DEFAULT_255_1_388
10
5.2514213
20
92.1048833
40
0.1504266
50
259.0487117
51
270.4180248
0
ARC
8
DEFAULT_255_1_388
10
5.2405825
20
92.0511783
40
0.0956414
50
239.7583641
51
259.3115656
0
ARC
8
DEFAULT_255_1_388
10
5.2314758
20
92.0342048
40
0.0763945
50
222.6243303
51
239.2473835
0
ARC
8
DEFAULT_255_1_388
10
5.2465929
20
92.0480572
40
0.0968985
50
182.9231258
51
222.598101
0
ARC
8
DEFAULT_255_1_388
10
5.2769129
20
92.0519696
40
0.1274004
50
179.9657458
51
183.9850364
0
LINE
8
DEFAULT_255_1_388
10
6.3214355
20
93.2799898
11
6.3214355
21
92.406243
0
LINE
8
DEFAULT_255_1_388
10
6.3214355
20
92.406243
11
6.5039555
21
92.406243
0
LINE
8
DEFAULT_255_1_388
10
6.5039555
20
92.406243
11
6.5039555
21
92.2698048
0
LINE
8
DEFAULT_255_1_388
10
6.5039555
20
92.2698048
11
6.3214355
21
92.2698048
0
LINE
8
DEFAULT_255_1_388
10
6.3214355
20
92.2698048
11
6.3214355
21
91.9644
0
LINE
8
DEFAULT_255_1_388
10
6.3214355
20
91.9644
11
6.1533725
21
91.9644
0
LINE
8
DEFAULT_255_1_388
10
6.1533725
20
91.9644
11
6.1533725
21
92.2698048
0
LINE
8
DEFAULT_255_1_388
10
6.1533725
20
92.2698048
11
5.5543093
21
92.2698048
0
LINE
8
DEFAULT_255_1_388
10
5.5543093
20
92.2698048
11
5.5543093
21
92.3682933
0
LINE
8
DEFAULT_255_1_388
10
5.5543093
20
92.3682933
11
6.1434333
21
93.2799898
0
LINE
8
DEFAULT_255_1_388
10
6.1434333
20
93.2799898
11
6.3214355
21
93.2799898
0
LINE
8
DEFAULT_255_1_388
10
6.1334941
20
93.0152455
11
5.7440578
21
92.406243
0
LINE
8
DEFAULT_255_1_388
10
5.7440578
20
92.406243
11
6.1533725
21
92.406243
0
LINE
8
DEFAULT_255_1_388
10
6.1533725
20
92.406243
11
6.1533725
21
93.051388
0
LINE
8
DEFAULT_255_1_388
10
6.1533725
20
93.051388
11
6.1334941
21
93.0152455
0
LINE
8
DEFAULT_255_1_388
10
4.7822856
20
100.679869
11
4.7822856
21
100.4630135
0
LINE
8
DEFAULT_255_1_388
10
3.9519099
20
100.4404244
11
3.9519099
21
100.6636048
0
LINE
8
DEFAULT_255_1_388
10
4.6151262
20
100.4178353
11
4.6151262
21
100.6916153
0
LINE
8
DEFAULT_255_1_388
10
4.1190693
20
100.7042652
11
4.1190693
21
100.4368102
0
ARC
8
DEFAULT_255_1_388
10
3.404519
20
100.4575118
40
1.3777776
50
353.8440855
51
0.2287917
0
ARC
8
DEFAULT_255_1_388
10
3.9264208
20
100.3992414
40
0.852639
50
344.4934746
51
353.9763743
0
ARC
8
DEFAULT_255_1_388
10
4.2631015
20
100.3035191
40
0.5026273
50
329.2803599
51
344.7473406
0
ARC
8
DEFAULT_255_1_388
10
4.3746511
20
100.2423038
40
0.3754848
50
324.9361395
51
328.6153007
0
ARC
8
DEFAULT_255_1_388
10
4.4172161
20
100.2125586
40
0.3235566
50
280.5801797
51
324.9173226
0
ARC
8
DEFAULT_255_1_388
10
4.3720789
20
100.4005236
40
0.5167077
50
269.5979457
51
281.6732777
0
ARC
8
DEFAULT_255_1_388
10
4.3639693
20
100.3870113
40
0.5032026
50
256.6228565
51
270.5105488
0
ARC
8
DEFAULT_255_1_388
10
4.3187435
20
100.2128345
40
0.3233092
50
215.8618351
51
257.2787793
0
ARC
8
DEFAULT_255_1_388
10
4.4336142
20
100.2899106
40
0.4615831
50
197.9695203
51
215.2622745
0
ARC
8
DEFAULT_255_1_388
10
4.7131818
20
100.3842641
40
0.7566307
50
187.8816486
51
198.2346584
0
ARC
8
DEFAULT_255_1_388
10
5.1585056
20
100.4485453
40
1.2065653
50
180.8977266
51
188.0054894
0
ARC
8
DEFAULT_255_1_388
10
5.463527
20
100.46004
40
1.5117443
50
180.7434591
51
181.152202
0
ARC
8
DEFAULT_255_1_388
10
5.2960266
20
100.6690371
40
1.3441277
50
173.7674302
51
180.2315596
0
ARC
8
DEFAULT_255_1_388
10
4.7878135
20
100.7264779
40
0.8326847
50
164.3058537
51
173.9000553
0
ARC
8
DEFAULT_255_1_388
10
4.4602135
20
100.8208652
40
0.4917711
50
148.7922028
51
164.5682288
0
ARC
8
DEFAULT_255_1_388
10
4.3532872
20
100.8805457
40
0.3694204
50
144.5883979
51
148.1161588
0
ARC
8
DEFAULT_255_1_388
10
4.3145618
20
100.9075667
40
0.322202
50
101.6440149
51
144.5142619
0
ARC
8
DEFAULT_255_1_388
10
4.362381
20
100.7175337
40
0.5180451
50
89.528284
51
102.5820197
0
ARC
8
DEFAULT_255_1_388
10
4.3712802
20
100.7131376
40
0.5224441
50
77.0437914
51
90.508231
0
ARC
8
DEFAULT_255_1_388
10
4.4165055
20
100.8979272
40
0.3322297
50
48.2777708
51
77.4996087
0
ARC
8
DEFAULT_255_1_388
10
4.4246795
20
100.9124557
40
0.315966
50
36.3141586
51
47.6307332
0
ARC
8
DEFAULT_255_1_388
10
4.3269518
20
100.8466159
40
0.4337313
50
18.2931065
51
35.6770203
0
ARC
8
DEFAULT_255_1_388
10
4.0408358
20
100.7484107
40
0.7362203
50
8.0246996
51
18.5605636
0
ARC
8
DEFAULT_255_1_388
10
3.5724714
20
100.6792432
40
1.2096583
50
1.127539
51
8.1718423
0
ARC
8
DEFAULT_255_1_388
10
3.2075847
20
100.6649374
40
1.5747719
50
0.5432713
51
1.38669
0
ARC
8
DEFAULT_255_1_388
10
3.4133226
20
100.6956163
40
1.2018103
50
359.8092569
51
4.9408001
0
ARC
8
DEFAULT_255_1_388
10
3.8869807
20
100.73789
40
0.7262727
50
4.8364937
51
12.2906017
0
ARC
8
DEFAULT_255_1_388
10
4.1969272
20
100.8069485
40
0.4087324
50
12.0806994
51
23.8171225
0
ARC
8
DEFAULT_255_1_388
10
4.3289668
20
100.8628508
40
0.2653719
50
24.2874621
51
31.3934353
0
ARC
8
DEFAULT_255_1_388
10
4.3880104
20
100.9014822
40
0.1948607
50
30.7407708
51
82.4658033
0
ARC
8
DEFAULT_255_1_388
10
4.3677765
20
100.8021017
40
0.2961198
50
81.1057101
51
90.2187368
0
ARC
8
DEFAULT_255_1_388
10
4.3637577
20
100.8311421
40
0.2670929
50
89.380395
51
105.6763916
0
ARC
8
DEFAULT_255_1_388
10
4.3431299
20
100.906132
40
0.1893189
50
105.7980655
51
149.7387869
0
ARC
8
DEFAULT_255_1_388
10
4.4628439
20
100.8341719
40
0.3289892
50
149.4208441
51
163.628295
0
ARC
8
DEFAULT_255_1_388
10
4.6980668
20
100.7624345
40
0.5749004
50
163.3764549
51
172.141138
0
ARC
8
DEFAULT_255_1_388
10
5.069339
20
100.7092582
40
0.9499585
50
172.0258462
51
178.0705453
0
ARC
8
DEFAULT_255_1_388
10
5.4114943
20
100.6930682
40
1.2924734
50
177.8639301
51
179.5036263
0
ARC
8
DEFAULT_255_1_388
10
5.2895961
20
100.4327151
40
1.170534
50
179.7995545
51
185.246089
0
ARC
8
DEFAULT_255_1_388
10
4.8347554
20
100.3896404
40
0.7136613
50
185.1411911
51
193.0082205
0
ARC
8
DEFAULT_255_1_388
10
4.5373815
20
100.3193441
40
0.4080987
50
192.7897338
51
205.2507384
0
ARC
8
DEFAULT_255_1_388
10
4.4196025
20
100.2667538
40
0.2791522
50
205.8001921
51
211.2545876
0
ARC
8
DEFAULT_255_1_388
10
4.3607564
20
100.2273132
40
0.2084074
50
210.3789935
51
238.4007996
0
ARC
8
DEFAULT_255_1_388
10
4.358565
20
100.2325786
40
0.2117943
50
239.6521916
51
265.9793852
0
ARC
8
DEFAULT_255_1_388
10
4.3681499
20
100.3082358
40
0.2879689
50
265.1324455
51
270.0603288
0
ARC
8
DEFAULT_255_1_388
10
4.3713876
20
100.2717418
40
0.2514919
50
269.3314378
51
287.2180039
0
ARC
8
DEFAULT_255_1_388
10
4.3868958
20
100.2151291
40
0.1928357
50
287.7957942
51
329.0808983
0
ARC
8
DEFAULT_255_1_388
10
4.2791715
20
100.2823651
40
0.319808
50
328.6635261
51
343.3325043
0
ARC
8
DEFAULT_255_1_388
10
4.0347174
20
100.3585195
40
0.5758408
50
343.0498092
51
351.9392499
0
ARC
8
DEFAULT_255_1_388
10
3.6446496
20
100.4160205
40
0.9701202
50
351.8071632
51
357.7957897
0
ARC
8
DEFAULT_255_1_388
10
3.2811973
20
100.4348724
40
1.3340376
50
357.5870923
51
359.2682493
0
ARC
8
DEFAULT_255_1_388
10
5.1376138
20
99.9906142
40
0.1204062
50
163.5412609
51
180.5084512
0
ARC
8
DEFAULT_255_1_388
10
5.1160037
20
99.996446
40
0.0980307
50
138.1652
51
163.2315563
0
ARC
8
DEFAULT_255_1_388
10
5.1033778
20
100.0071456
40
0.0814881
50
105.6860499
51
137.8492655
0
ARC
8
DEFAULT_255_1_388
10
5.1166979
20
99.9639109
40
0.126719
50
92.6078949
51
106.199173
0
ARC
8
DEFAULT_255_1_388
10
5.1201169
20
99.9193207
40
0.1714243
50
89.9659531
51
93.0713334
0
ARC
8
DEFAULT_255_1_388
10
5.1213205
20
99.9443484
40
0.1464007
50
78.4379126
51
90.4311892
0
ARC
8
DEFAULT_255_1_388
10
5.1321852
20
99.9950017
40
0.094599
50
56.8961942
51
78.7357785
0
ARC
8
DEFAULT_255_1_388
10
5.1392963
20
100.0074075
40
0.0803272
50
42.6503148
51
56.3122241
0
ARC
8
DEFAULT_255_1_388
10
5.1248864
20
99.9941661
40
0.099897
50
3.8141057
51
42.636595
0
ARC
8
DEFAULT_255_1_388
10
5.0926186
20
99.9896616
40
0.1324137
50
359.9498843
51
4.8301897
0
ARC
8
DEFAULT_255_1_388
10
5.1181324
20
99.9884722
40
0.1069053
50
340.9378148
51
0.5753733
0
ARC
8
DEFAULT_255_1_388
10
5.1307906
20
99.9850569
40
0.0938301
50
316.0798885
51
340.3845117
0
ARC
8
DEFAULT_255_1_388
10
5.1373217
20
99.979052
40
0.0849605
50
285.8512844
51
315.941661
0
ARC
8
DEFAULT_255_1_388
10
5.1241097
20
100.021762
40
0.1296594
50
273.1293204
51
286.3125006
0
ARC
8
DEFAULT_255_1_388
10
5.1203607
20
100.0669586
40
0.1749979
50
269.9535313
51
273.5471598
0
ARC
8
DEFAULT_255_1_388
10
5.1191213
20
100.0423833
40
0.1504266
50
259.0487117
51
270.4180248
0
ARC
8
DEFAULT_255_1_388
10
5.1082825
20
99.9886783
40
0.0956414
50
239.7583641
51
259.3115656
0
ARC
8
DEFAULT_255_1_388
10
5.0991758
20
99.9717048
40
0.0763945
50
222.6243303
51
239.2473835
0
ARC
8
DEFAULT_255_1_388
10
5.1142929
20
99.9855572
40
0.0968985
50
182.9231258
51
222.598101
0
ARC
8
DEFAULT_255_1_388
10
5.1446129
20
99.9894696
40
0.1274004
50
179.9657458
51
183.9850364
0
LINE
8
DEFAULT_255_1_388
10
5.7265105
20
100.5045775
11
5.7265105
21
100.6410157
0
LINE
8
DEFAULT_255_1_388
10
5.7265105
20
100.6410157
11
5.852106
21
100.6410157
0
LINE
8
DEFAULT_255_1_388
10
5.6379612
20
100.8723282
11
5.4708018
21
100.8723282
0
LINE
8
DEFAULT_255_1_388
10
5.4590554
20
100.2488688
11
5.6271184
21
100.2488688
0
LINE
8
DEFAULT_255_1_388
10
5.852106
20
100.5045775
11
5.7265105
21
100.5045775
0
ARC
8
DEFAULT_255_1_388
10
5.8488286
20
101.0226922
40
0.3816905
50
270.491971
51
281.8953028
0
ARC
8
DEFAULT_255_1_388
10
5.8759713
20
100.8987199
40
0.2547877
50
281.6690378
51
301.2943765
0
ARC
8
DEFAULT_255_1_388
10
5.8951164
20
100.8636926
40
0.2149197
50
301.7834992
51
311.754567
0
ARC
8
DEFAULT_255_1_388
10
5.9054206
20
100.852265
40
0.1995326
50
311.7325027
51
354.2803031
0
ARC
8
DEFAULT_255_1_388
10
5.8236622
20
100.866328
40
0.2823461
50
353.0941646
51
0.1174696
0
ARC
8
DEFAULT_255_1_388
10
5.771818
20
100.8716874
40
0.3342238
50
359.1804452
51
15.0452323
0
ARC
8
DEFAULT_255_1_388
10
5.9232238
20
100.9158546
40
0.1765747
50
13.957816
51
77.6713812
0
ARC
8
DEFAULT_255_1_388
10
5.8797474
20
100.7600464
40
0.3381982
50
76.111571
51
90.7028736
0
ARC
8
DEFAULT_255_1_388
10
5.8730886
20
100.790825
40
0.3074046
50
89.5321574
51
103.5319393
0
ARC
8
DEFAULT_255_1_388
10
5.8505269
20
100.8807443
40
0.2147041
50
103.2930114
51
133.5619756
0
ARC
8
DEFAULT_255_1_388
10
5.8455211
20
100.8874351
40
0.2064084
50
133.8349761
51
173.5343225
0
ARC
8
DEFAULT_255_1_388
10
5.9268868
20
100.8730144
40
0.2889266
50
172.5097183
51
180.1360699
0
ARC
8
DEFAULT_255_1_388
10
5.8198632
20
100.876888
40
0.3490913
50
155.3483706
51
180.7484035
0
ARC
8
DEFAULT_255_1_388
10
5.8143608
20
100.8736519
40
0.3454798
50
131.5745177
51
154.4799474
0
ARC
8
DEFAULT_255_1_388
10
5.8495891
20
100.8380422
40
0.3955058
50
96.9874487
51
131.9690874
0
ARC
8
DEFAULT_255_1_388
10
5.8742783
20
100.6979407
40
0.537622
50
89.8592909
51
97.7827481
0
ARC
8
DEFAULT_255_1_388
10
5.8796892
20
100.668436
40
0.5671399
50
78.3654493
51
90.4132586
0
ARC
8
DEFAULT_255_1_388
10
5.9199533
20
100.8550918
40
0.3762034
50
56.6229818
51
78.6387103
0
ARC
8
DEFAULT_255_1_388
10
5.9441363
20
100.8973846
40
0.3275964
50
47.0254604
51
56.085558
0
ARC
8
DEFAULT_255_1_388
10
5.9463614
20
100.9018189
40
0.3228382
50
10.9207523
51
46.777927
0
ARC
8
DEFAULT_255_1_388
10
5.7929208
20
100.8663401
40
0.4802559
50
359.6364235
51
11.6087615
0
ARC
8
DEFAULT_255_1_388
10
5.9993373
20
100.8646404
40
0.273833
50
332.3549969
51
359.7179765
0
ARC
8
DEFAULT_255_1_388
10
5.9261774
20
100.8993285
40
0.3547505
50
325.2332381
51
332.8746682
0
ARC
8
DEFAULT_255_1_388
10
5.9433357
20
100.8873763
40
0.3338396
50
292.9803892
51
325.2391113
0
ARC
8
DEFAULT_255_1_388
10
5.9122553
20
100.9478679
40
0.4016959
50
292.542178
51
293.6931461
0
ARC
8
DEFAULT_255_1_388
10
5.9566125
20
100.2213036
40
0.372079
50
57.643292
51
72.8626085
0
ARC
8
DEFAULT_255_1_388
10
5.9964959
20
100.2859273
40
0.2961455
50
36.7246661
51
57.4701329
0
ARC
8
DEFAULT_255_1_388
10
5.9952116
20
100.287347
40
0.2963321
50
8.054535
51
36.3561529
0
ARC
8
DEFAULT_255_1_388
10
5.8981788
20
100.2699073
40
0.3948682
50
359.8316595
51
8.5873361
0
ARC
8
DEFAULT_255_1_388
10
5.8559263
20
100.264497
40
0.4371398
50
343.9831631
51
0.557075
0
ARC
8
DEFAULT_255_1_388
10
5.9556312
20
100.2371963
40
0.3337749
50
311.6358204
51
343.7652116
0
ARC
8
DEFAULT_255_1_388
10
5.9130566
20
100.2851955
40
0.3979351
50
279.7829743
51
311.625622
0
ARC
8
DEFAULT_255_1_388
10
5.8791701
20
100.4468642
40
0.5630417
50
269.7285092
51
280.3857694
0
ARC
8
DEFAULT_255_1_388
10
5.8722014
20
100.4422241
40
0.5584119
50
256.6827433
51
270.4412869
0
ARC
8
DEFAULT_255_1_388
10
5.8341001
20
100.2864698
40
0.3980715
50
229.4223821
51
256.8554507
0
ARC
8
DEFAULT_255_1_388
10
5.7874554
20
100.2339683
40
0.3278564
50
181.8183354
51
229.6455015
0
ARC
8
DEFAULT_255_1_388
10
5.9044163
20
100.2486825
40
0.4453611
50
179.9760419
51
183.2330638
0
ARC
8
DEFAULT_255_1_388
10
5.8850716
20
100.2463781
40
0.2579652
50
179.4467996
51
196.2871626
0
ARC
8
DEFAULT_255_1_388
10
5.8302169
20
100.2313709
40
0.2011057
50
196.5661293
51
227.7059371
0
ARC
8
DEFAULT_255_1_388
10
5.8486777
20
100.2520155
40
0.2287994
50
227.7653015
51
257.8763321
0
ARC
8
DEFAULT_255_1_388
10
5.873986
20
100.3580961
40
0.3378385
50
257.4583525
51
270.4267406
0
ARC
8
DEFAULT_255_1_388
10
5.8791109
20
100.390723
40
0.3704652
50
269.5965319
51
280.8788143
0
ARC
8
DEFAULT_255_1_388
10
5.9049337
20
100.2617529
40
0.2389415
50
280.6347277
51
299.8594068
0
ARC
8
DEFAULT_255_1_388
10
5.9264107
20
100.2209736
40
0.19289
50
300.3575552
51
314.5515667
0
ARC
8
DEFAULT_255_1_388
10
5.9170783
20
100.2278025
40
0.204312
50
315.0730962
51
345.0429362
0
ARC
8
DEFAULT_255_1_388
10
5.813229
20
100.2580539
40
0.31246
50
344.598526
51
357.9270698
0
ARC
8
DEFAULT_255_1_388
10
5.7122595
20
100.2649705
40
0.4136265
50
357.4755098
51
0.0224936
0
ARC
8
DEFAULT_255_1_388
10
5.8275473
20
100.2677099
40
0.2983498
50
359.5051035
51
13.4236939
0
ARC
8
DEFAULT_255_1_388
10
5.9250563
20
100.2926637
40
0.1977186
50
12.9497905
51
48.7550905
0
ARC
8
DEFAULT_255_1_388
10
5.9045484
20
100.2646373
40
0.2323321
50
49.509109
51
72.1832965
0
ARC
8
DEFAULT_255_1_388
10
5.8642953
20
100.1451632
40
0.358397
50
71.9008458
51
84.3555134
0
ARC
8
DEFAULT_255_1_388
10
5.8461347
20
99.9919712
40
0.512641
50
84.019632
51
89.3326067
0
LINE
8
DEFAULT_255_1_388
10
4.7822856
20
108.617369
11
4.7822856
21
108.4005135
0
LINE
8
DEFAULT_255_1_388
10
3.9519099
20
108.3779244
11
3.9519099
21
108.6011048
0
LINE
8
DEFAULT_255_1_388
10
4.6151262
20
108.3553353
11
4.6151262
21
108.6291153
0
LINE
8
DEFAULT_255_1_388
10
4.1190693
20
108.6417652
11
4.1190693
21
108.3743102
0
ARC
8
DEFAULT_255_1_388
10
3.404519
20
108.3950118
40
1.3777776
50
353.8440855
51
0.2287917
0
ARC
8
DEFAULT_255_1_388
10
3.9264208
20
108.3367414
40
0.852639
50
344.4934746
51
353.9763743
0
ARC
8
DEFAULT_255_1_388
10
4.2631015
20
108.2410191
40
0.5026273
50
329.2803599
51
344.7473406
0
ARC
8
DEFAULT_255_1_388
10
4.3746511
20
108.1798038
40
0.3754848
50
324.9361395
51
328.6153007
0
ARC
8
DEFAULT_255_1_388
10
4.4172161
20
108.1500586
40
0.3235566
50
280.5801797
51
324.9173226
0
ARC
8
DEFAULT_255_1_388
10
4.3720789
20
108.3380236
40
0.5167077
50
269.5979457
51
281.6732777
0
ARC
8
DEFAULT_255_1_388
10
4.3639693
20
108.3245113
40
0.5032026
50
256.6228565
51
270.5105488
0
ARC
8
DEFAULT_255_1_388
10
4.3187435
20
108.1503345
40
0.3233092
50
215.8618351
51
257.2787793
0
ARC
8
DEFAULT_255_1_388
10
4.4336142
20
108.2274106
40
0.4615831
50
197.9695203
51
215.2622745
0
ARC
8
DEFAULT_255_1_388
10
4.7131818
20
108.3217641
40
0.7566307
50
187.8816486
51
198.2346584
0
ARC
8
DEFAULT_255_1_388
10
5.1585056
20
108.3860453
40
1.2065653
50
180.8977266
51
188.0054894
0
ARC
8
DEFAULT_255_1_388
10
5.463527
20
108.39754
40
1.5117443
50
180.7434591
51
181.152202
0
ARC
8
DEFAULT_255_1_388
10
5.2960266
20
108.6065371
40
1.3441277
50
173.7674302
51
180.2315596
0
ARC
8
DEFAULT_255_1_388
10
4.7878135
20
108.6639779
40
0.8326847
50
164.3058537
51
173.9000553
0
ARC
8
DEFAULT_255_1_388
10
4.4602135
20
108.7583652
40
0.4917711
50
148.7922028
51
164.5682288
0
ARC
8
DEFAULT_255_1_388
10
4.3532872
20
108.8180457
40
0.3694204
50
144.5883979
51
148.1161588
0
ARC
8
DEFAULT_255_1_388
10
4.3145618
20
108.8450667
40
0.322202
50
101.6440149
51
144.5142619
0
ARC
8
DEFAULT_255_1_388
10
4.362381
20
108.6550337
40
0.5180451
50
89.528284
51
102.5820197
0
ARC
8
DEFAULT_255_1_388
10
4.3712802
20
108.6506376
40
0.5224441
50
77.0437914
51
90.508231
0
ARC
8
DEFAULT_255_1_388
10
4.4165055
20
108.8354272
40
0.3322297
50
48.2777708
51
77.4996087
0
ARC
8
DEFAULT_255_1_388
10
4.4246795
20
108.8499557
40
0.315966
50
36.3141586
51
47.6307332
0
ARC
8
DEFAULT_255_1_388
10
4.3269518
20
108.7841159
40
0.4337313
50
18.2931065
51
35.6770203
0
ARC
8
DEFAULT_255_1_388
10
4.0408358
20
108.6859107
40
0.7362203
50
8.0246996
51
18.5605636
0
ARC
8
DEFAULT_255_1_388
10
3.5724714
20
108.6167432
40
1.2096583
50
1.127539
51
8.1718423
0
ARC
8
DEFAULT_255_1_388
10
3.2075847
20
108.6024374
40
1.5747719
50
0.5432713
51
1.38669
0
ARC
8
DEFAULT_255_1_388
10
3.4133226
20
108.6331163
40
1.2018103
50
359.8092569
51
4.9408001
0
ARC
8
DEFAULT_255_1_388
10
3.8869807
20
108.67539
40
0.7262727
50
4.8364937
51
12.2906017
0
ARC
8
DEFAULT_255_1_388
10
4.1969272
20
108.7444485
40
0.4087324
50
12.0806994
51
23.8171225
0
ARC
8
DEFAULT_255_1_388
10
4.3289668
20
108.8003508
40
0.2653719
50
24.2874621
51
31.3934353
0
ARC
8
DEFAULT_255_1_388
10
4.3880104
20
108.8389822
40
0.1948607
50
30.7407708
51
82.4658033
0
ARC
8
DEFAULT_255_1_388
10
4.3677765
20
108.7396017
40
0.2961198
50
81.1057101
51
90.2187368
0
ARC
8
DEFAULT_255_1_388
10
4.3637577
20
108.7686421
40
0.2670929
50
89.380395
51
105.6763916
0
ARC
8
DEFAULT_255_1_388
10
4.3431299
20
108.843632
40
0.1893189
50
105.7980655
51
149.7387869
0
ARC
8
DEFAULT_255_1_388
10
4.4628439
20
108.7716719
40
0.3289892
50
149.4208441
51
163.628295
0
ARC
8
DEFAULT_255_1_388
10
4.6980668
20
108.6999345
40
0.5749004
50
163.3764549
51
172.141138
0
ARC
8
DEFAULT_255_1_388
10
5.069339
20
108.6467582
40
0.9499585
50
172.0258462
51
178.0705453
0
ARC
8
DEFAULT_255_1_388
10
5.4114943
20
108.6305682
40
1.2924734
50
177.8639301
51
179.5036263
0
ARC
8
DEFAULT_255_1_388
10
5.2895961
20
108.3702151
40
1.170534
50
179.7995545
51
185.246089
0
ARC
8
DEFAULT_255_1_388
10
4.8347554
20
108.3271404
40
0.7136613
50
185.1411911
51
193.0082205
0
ARC
8
DEFAULT_255_1_388
10
4.5373815
20
108.2568441
40
0.4080987
50
192.7897338
51
205.2507384
0
ARC
8
DEFAULT_255_1_388
10
4.4196025
20
108.2042538
40
0.2791522
50
205.8001921
51
211.2545876
0
ARC
8
DEFAULT_255_1_388
10
4.3607564
20
108.1648132
40
0.2084074
50
210.3789935
51
238.4007996
0
ARC
8
DEFAULT_255_1_388
10
4.358565
20
108.1700786
40
0.2117943
50
239.6521916
51
265.9793852
0
ARC
8
DEFAULT_255_1_388
10
4.3681499
20
108.2457358
40
0.2879689
50
265.1324455
51
270.0603288
0
ARC
8
DEFAULT_255_1_388
10
4.3713876
20
108.2092418
40
0.2514919
50
269.3314378
51
287.2180039
0
ARC
8
DEFAULT_255_1_388
10
4.3868958
20
108.1526291
40
0.1928357
50
287.7957942
51
329.0808983
0
ARC
8
DEFAULT_255_1_388
10
4.2791715
20
108.2198651
40
0.319808
50
328.6635261
51
343.3325043
0
ARC
8
DEFAULT_255_1_388
10
4.0347174
20
108.2960195
40
0.5758408
50
343.0498092
51
351.9392499
0
ARC
8
DEFAULT_255_1_388
10
3.6446496
20
108.3535205
40
0.9701202
50
351.8071632
51
357.7957897
0
ARC
8
DEFAULT_255_1_388
10
3.2811973
20
108.3723724
40
1.3340376
50
357.5870923
51
359.2682493
0
ARC
8
DEFAULT_255_1_388
10
5.1376138
20
107.9281142
40
0.1204062
50
163.5412609
51
180.5084512
0
ARC
8
DEFAULT_255_1_388
10
5.1160037
20
107.933946
40
0.0980307
50
138.1652
51
163.2315563
0
ARC
8
DEFAULT_255_1_388
10
5.1033778
20
107.9446456
40
0.0814881
50
105.6860499
51
137.8492655
0
ARC
8
DEFAULT_255_1_388
10
5.1166979
20
107.9014109
40
0.126719
50
92.6078949
51
106.199173
0
ARC
8
DEFAULT_255_1_388
10
5.1201169
20
107.8568207
40
0.1714243
50
89.9659531
51
93.0713334
0
ARC
8
DEFAULT_255_1_388
10
5.1213205
20
107.8818484
40
0.1464007
50
78.4379126
51
90.4311892
0
ARC
8
DEFAULT_255_1_388
10
5.1321852
20
107.9325017
40
0.094599
50
56.8961942
51
78.7357785
0
ARC
8
DEFAULT_255_1_388
10
5.1392963
20
107.9449075
40
0.0803272
50
42.6503148
51
56.3122241
0
ARC
8
DEFAULT_255_1_388
10
5.1248864
20
107.9316661
40
0.099897
50
3.8141057
51
42.636595
0
ARC
8
DEFAULT_255_1_388
10
5.0926186
20
107.9271616
40
0.1324137
50
359.9498843
51
4.8301897
0
ARC
8
DEFAULT_255_1_388
10
5.1181324
20
107.9259722
40
0.1069053
50
340.9378148
51
0.5753733
0
ARC
8
DEFAULT_255_1_388
10
5.1307906
20
107.9225569
40
0.0938301
50
316.0798885
51
340.3845117
0
ARC
8
DEFAULT_255_1_388
10
5.1373217
20
107.916552
40
0.0849605
50
285.8512844
51
315.941661
0
ARC
8
DEFAULT_255_1_388
10
5.1241097
20
107.959262
40
0.1296594
50
273.1293204
51
286.3125006
0
ARC
8
DEFAULT_255_1_388
10
5.1203607
20
108.0044586
40
0.1749979
50
269.9535313
51
273.5471598
0
ARC
8
DEFAULT_255_1_388
10
5.1191213
20
107.9798833
40
0.1504266
50
259.0487117
51
270.4180248
0
ARC
8
DEFAULT_255_1_388
10
5.1082825
20
107.9261783
40
0.0956414
50
239.7583641
51
259.3115656
0
ARC
8
DEFAULT_255_1_388
10
5.0991758
20
107.9092048
40
0.0763945
50
222.6243303
51
239.2473835
0
ARC
8
DEFAULT_255_1_388
10
5.1142929
20
107.9230572
40
0.0968985
50
182.9231258
51
222.598101
0
ARC
8
DEFAULT_255_1_388
10
5.1446129
20
107.9269696
40
0.1274004
50
179.9657458
51
183.9850364
0
LINE
8
DEFAULT_255_1_388
10
6.3454521
20
107.9758382
11
6.3454521
21
107.8394
0
LINE
8
DEFAULT_255_1_388
10
6.3454521
20
107.8394
11
5.4834517
21
107.8394
0
LINE
8
DEFAULT_255_1_388
10
5.4834517
20
107.8394
11
5.4834517
21
107.9595741
0
LINE
8
DEFAULT_255_1_388
10
5.4834517
20
107.9595741
11
5.9388481
21
108.4655702
0
LINE
8
DEFAULT_255_1_388
10
5.6253113
20
108.7673607
11
5.4581519
21
108.7673607
0
LINE
8
DEFAULT_255_1_388
10
6.0373367
20
108.358046
11
5.6849465
21
107.9758382
0
LINE
8
DEFAULT_255_1_388
10
5.6849465
20
107.9758382
11
6.3454521
21
107.9758382
0
ARC
8
DEFAULT_255_1_388
10
4.4212541
20
109.8075983
40
2.0258655
50
318.5132526
51
320.7829045
0
ARC
8
DEFAULT_255_1_388
10
5.0160498
20
109.3234929
40
1.2589638
50
320.7372878
51
323.9739031
0
ARC
8
DEFAULT_255_1_388
10
5.456943
20
109.0040554
40
0.7145141
50
323.8962701
51
328.64194
0
ARC
8
DEFAULT_255_1_388
10
5.6871687
20
108.8620545
40
0.4440242
50
328.8294576
51
331.7891185
0
ARC
8
DEFAULT_255_1_388
10
5.7994007
20
108.8041374
40
0.3177517
50
331.4254512
51
352.9365785
0
ARC
8
DEFAULT_255_1_388
10
5.8147007
20
108.800705
40
0.3021496
50
353.2257659
51
0.0166158
0
ARC
8
DEFAULT_255_1_388
10
5.8383768
20
108.8032894
40
0.2784847
50
359.486299
51
15.9343185
0
ARC
8
DEFAULT_255_1_388
10
5.8954035
20
108.8186269
40
0.2194403
50
16.1712913
51
43.5286088
0
ARC
8
DEFAULT_255_1_388
10
5.9040979
20
108.8273191
40
0.2071504
50
43.4417391
51
83.1661095
0
ARC
8
DEFAULT_255_1_388
10
5.889014
20
108.7444316
40
0.2912888
50
82.160179
51
90.1505708
0
ARC
8
DEFAULT_255_1_388
10
5.8854622
20
108.6840279
40
0.3517025
50
89.5460741
51
102.5418361
0
ARC
8
DEFAULT_255_1_388
10
5.8581342
20
108.7999933
40
0.2325748
50
102.1738499
51
129.206123
0
ARC
8
DEFAULT_255_1_388
10
5.8492795
20
108.8139664
40
0.2161591
50
129.72865
51
135.753947
0
ARC
8
DEFAULT_255_1_388
10
5.8629277
20
108.8030728
40
0.2335433
50
136.1757367
51
166.3673339
0
ARC
8
DEFAULT_255_1_388
10
5.9761966
20
108.7727148
40
0.3507873
50
165.9090694
51
178.8684636
0
ARC
8
DEFAULT_255_1_388
10
6.0737737
20
108.7674263
40
0.4484624
50
178.4391136
51
180.0083808
0
ARC
8
DEFAULT_255_1_388
10
5.9158439
20
108.7718197
40
0.4577138
50
163.2878482
51
180.5581842
0
ARC
8
DEFAULT_255_1_388
10
5.825648
20
108.7966393
40
0.3641968
50
133.4540601
51
162.947111
0
ARC
8
DEFAULT_255_1_388
10
5.8457362
20
108.7752789
40
0.3935189
50
100.7869829
51
133.4382499
0
ARC
8
DEFAULT_255_1_388
10
5.8848607
20
108.6010399
40
0.5720313
50
89.660664
51
101.3702276
0
ARC
8
DEFAULT_255_1_388
10
5.8923216
20
108.6079263
40
0.5651495
50
78.2172678
51
90.412935
0
ARC
8
DEFAULT_255_1_388
10
5.9322681
20
108.7906511
40
0.378122
50
55.9269121
51
78.4888449
0
ARC
8
DEFAULT_255_1_388
10
5.9543397
20
108.8287187
40
0.3342379
50
47.929771
51
55.4049217
0
ARC
8
DEFAULT_255_1_388
10
5.9657927
20
108.8403618
40
0.3179217
50
4.334829
51
48.0560205
0
ARC
8
DEFAULT_255_1_388
10
5.8425729
20
108.8212487
40
0.442341
50
359.9251713
51
5.5971671
0
ARC
8
DEFAULT_255_1_388
10
5.8907883
20
108.8275728
40
0.3941854
50
337.8914027
51
358.9967534
0
ARC
8
DEFAULT_255_1_388
10
5.5855453
20
108.9453295
40
0.7213271
50
326.9132501
51
338.3508308
0
ARC
8
DEFAULT_255_1_388
10
5.1371565
20
109.2327105
40
1.2538973
50
319.6471833
51
327.0959558
0
ARC
8
DEFAULT_255_1_388
10
4.7058223
20
109.588505
40
1.8129975
50
317.2588228
51
319.9045804
0
LINE
8
DEFAULT_255_1_388
10
4.7751856
20
116.554869
11
4.7751856
21
116.3380135
0
LINE
8
DEFAULT_255_1_388
10
3.9448099
20
116.3154244
11
3.9448099
21
116.5386048
0
LINE
8
DEFAULT_255_1_388
10
4.6080262
20
116.2928353
11
4.6080262
21
116.5666153
0
LINE
8
DEFAULT_255_1_388
10
4.1119693
20
116.5792652
11
4.1119693
21
116.3118102
0
ARC
8
DEFAULT_255_1_388
10
3.397419
20
116.3325118
40
1.3777776
50
353.8440855
51
0.2287917
0
ARC
8
DEFAULT_255_1_388
10
3.9193208
20
116.2742414
40
0.852639
50
344.4934746
51
353.9763743
0
ARC
8
DEFAULT_255_1_388
10
4.2560015
20
116.1785191
40
0.5026273
50
329.2803599
51
344.7473406
0
ARC
8
DEFAULT_255_1_388
10
4.3675511
20
116.1173038
40
0.3754848
50
324.9361395
51
328.6153007
0
ARC
8
DEFAULT_255_1_388
10
4.4101161
20
116.0875586
40
0.3235566
50
280.5801797
51
324.9173226
0
ARC
8
DEFAULT_255_1_388
10
4.3649789
20
116.2755236
40
0.5167077
50
269.5979457
51
281.6732777
0
ARC
8
DEFAULT_255_1_388
10
4.3568693
20
116.2620113
40
0.5032026
50
256.6228565
51
270.5105488
0
ARC
8
DEFAULT_255_1_388
10
4.3116435
20
116.0878345
40
0.3233092
50
215.8618351
51
257.2787793
0
ARC
8
DEFAULT_255_1_388
10
4.4265142
20
116.1649106
40
0.4615831
50
197.9695203
51
215.2622745
0
ARC
8
DEFAULT_255_1_388
10
4.7060818
20
116.2592641
40
0.7566307
50
187.8816486
51
198.2346584
0
ARC
8
DEFAULT_255_1_388
10
5.1514056
20
116.3235453
40
1.2065653
50
180.8977266
51
188.0054894
0
ARC
8
DEFAULT_255_1_388
10
5.456427
20
116.33504
40
1.5117443
50
180.7434591
51
181.152202
0
ARC
8
DEFAULT_255_1_388
10
5.2889266
20
116.5440371
40
1.3441277
50
173.7674302
51
180.2315596
0
ARC
8
DEFAULT_255_1_388
10
4.7807135
20
116.6014779
40
0.8326847
50
164.3058537
51
173.9000553
0
ARC
8
DEFAULT_255_1_388
10
4.4531135
20
116.6958652
40
0.4917711
50
148.7922028
51
164.5682288
0
ARC
8
DEFAULT_255_1_388
10
4.3461872
20
116.7555457
40
0.3694204
50
144.5883979
51
148.1161588
0
ARC
8
DEFAULT_255_1_388
10
4.3074618
20
116.7825667
40
0.322202
50
101.6440149
51
144.5142619
0
ARC
8
DEFAULT_255_1_388
10
4.355281
20
116.5925337
40
0.5180451
50
89.528284
51
102.5820197
0
ARC
8
DEFAULT_255_1_388
10
4.3641802
20
116.5881376
40
0.5224441
50
77.0437914
51
90.508231
0
ARC
8
DEFAULT_255_1_388
10
4.4094055
20
116.7729272
40
0.3322297
50
48.2777708
51
77.4996087
0
ARC
8
DEFAULT_255_1_388
10
4.4175795
20
116.7874557
40
0.315966
50
36.3141586
51
47.6307332
0
ARC
8
DEFAULT_255_1_388
10
4.3198518
20
116.7216159
40
0.4337313
50
18.2931065
51
35.6770203
0
ARC
8
DEFAULT_255_1_388
10
4.0337358
20
116.6234107
40
0.7362203
50
8.0246996
51
18.5605636
0
ARC
8
DEFAULT_255_1_388
10
3.5653714
20
116.5542432
40
1.2096583
50
1.127539
51
8.1718423
0
ARC
8
DEFAULT_255_1_388
10
3.2004847
20
116.5399374
40
1.5747719
50
0.5432713
51
1.38669
0
ARC
8
DEFAULT_255_1_388
10
3.4062226
20
116.5706163
40
1.2018103
50
359.8092569
51
4.9408001
0
ARC
8
DEFAULT_255_1_388
10
3.8798807
20
116.61289
40
0.7262727
50
4.8364937
51
12.2906017
0
ARC
8
DEFAULT_255_1_388
10
4.1898272
20
116.6819485
40
0.4087324
50
12.0806994
51
23.8171225
0
ARC
8
DEFAULT_255_1_388
10
4.3218668
20
116.7378508
40
0.2653719
50
24.2874621
51
31.3934353
0
ARC
8
DEFAULT_255_1_388
10
4.3809104
20
116.7764822
40
0.1948607
50
30.7407708
51
82.4658033
0
ARC
8
DEFAULT_255_1_388
10
4.3606765
20
116.6771017
40
0.2961198
50
81.1057101
51
90.2187368
0
ARC
8
DEFAULT_255_1_388
10
4.3566577
20
116.7061421
40
0.2670929
50
89.380395
51
105.6763916
0
ARC
8
DEFAULT_255_1_388
10
4.3360299
20
116.781132
40
0.1893189
50
105.7980655
51
149.7387869
0
ARC
8
DEFAULT_255_1_388
10
4.4557439
20
116.7091719
40
0.3289892
50
149.4208441
51
163.628295
0
ARC
8
DEFAULT_255_1_388
10
4.6909668
20
116.6374345
40
0.5749004
50
163.3764549
51
172.141138
0
ARC
8
DEFAULT_255_1_388
10
5.062239
20
116.5842582
40
0.9499585
50
172.0258462
51
178.0705453
0
ARC
8
DEFAULT_255_1_388
10
5.4043943
20
116.5680682
40
1.2924734
50
177.8639301
51
179.5036263
0
ARC
8
DEFAULT_255_1_388
10
5.2824961
20
116.3077151
40
1.170534
50
179.7995545
51
185.246089
0
ARC
8
DEFAULT_255_1_388
10
4.8276554
20
116.2646404
40
0.7136613
50
185.1411911
51
193.0082205
0
ARC
8
DEFAULT_255_1_388
10
4.5302815
20
116.1943441
40
0.4080987
50
192.7897338
51
205.2507384
0
ARC
8
DEFAULT_255_1_388
10
4.4125025
20
116.1417538
40
0.2791522
50
205.8001921
51
211.2545876
0
ARC
8
DEFAULT_255_1_388
10
4.3536564
20
116.1023132
40
0.2084074
50
210.3789935
51
238.4007996
0
ARC
8
DEFAULT_255_1_388
10
4.351465
20
116.1075786
40
0.2117943
50
239.6521916
51
265.9793852
0
ARC
8
DEFAULT_255_1_388
10
4.3610499
20
116.1832358
40
0.2879689
50
265.1324455
51
270.0603288
0
ARC
8
DEFAULT_255_1_388
10
4.3642876
20
116.1467418
40
0.2514919
50
269.3314378
51
287.2180039
0
ARC
8
DEFAULT_255_1_388
10
4.3797958
20
116.0901291
40
0.1928357
50
287.7957942
51
329.0808983
0
ARC
8
DEFAULT_255_1_388
10
4.2720715
20
116.1573651
40
0.319808
50
328.6635261
51
343.3325043
0
ARC
8
DEFAULT_255_1_388
10
4.0276174
20
116.2335195
40
0.5758408
50
343.0498092
51
351.9392499
0
ARC
8
DEFAULT_255_1_388
10
3.6375496
20
116.2910205
40
0.9701202
50
351.8071632
51
357.7957897
0
ARC
8
DEFAULT_255_1_388
10
3.2740973
20
116.3098724
40
1.3340376
50
357.5870923
51
359.2682493
0
ARC
8
DEFAULT_255_1_388
10
5.1305138
20
115.8656142
40
0.1204062
50
163.5412609
51
180.5084512
0
ARC
8
DEFAULT_255_1_388
10
5.1089037
20
115.871446
40
0.0980307
50
138.1652
51
163.2315563
0
ARC
8
DEFAULT_255_1_388
10
5.0962778
20
115.8821456
40
0.0814881
50
105.6860499
51
137.8492655
0
ARC
8
DEFAULT_255_1_388
10
5.1095979
20
115.8389109
40
0.126719
50
92.6078949
51
106.199173
0
ARC
8
DEFAULT_255_1_388
10
5.1130169
20
115.7943207
40
0.1714243
50
89.9659531
51
93.0713334
0
ARC
8
DEFAULT_255_1_388
10
5.1142205
20
115.8193484
40
0.1464007
50
78.4379126
51
90.4311892
0
ARC
8
DEFAULT_255_1_388
10
5.1250852
20
115.8700017
40
0.094599
50
56.8961942
51
78.7357785
0
ARC
8
DEFAULT_255_1_388
10
5.1321963
20
115.8824075
40
0.0803272
50
42.6503148
51
56.3122241
0
ARC
8
DEFAULT_255_1_388
10
5.1177864
20
115.8691661
40
0.099897
50
3.8141057
51
42.636595
0
ARC
8
DEFAULT_255_1_388
10
5.0855186
20
115.8646616
40
0.1324137
50
359.9498843
51
4.8301897
0
ARC
8
DEFAULT_255_1_388
10
5.1110324
20
115.8634722
40
0.1069053
50
340.9378148
51
0.5753733
0
ARC
8
DEFAULT_255_1_388
10
5.1236906
20
115.8600569
40
0.0938301
50
316.0798885
51
340.3845117
0
ARC
8
DEFAULT_255_1_388
10
5.1302217
20
115.854052
40
0.0849605
50
285.8512844
51
315.941661
0
ARC
8
DEFAULT_255_1_388
10
5.1170097
20
115.896762
40
0.1296594
50
273.1293204
51
286.3125006
0
ARC
8
DEFAULT_255_1_388
10
5.1132607
20
115.9419586
40
0.1749979
50
269.9535313
51
273.5471598
0
ARC
8
DEFAULT_255_1_388
10
5.1120213
20
115.9173833
40
0.1504266
50
259.0487117
51
270.4180248
0
ARC
8
DEFAULT_255_1_388
10
5.1011825
20
115.8636783
40
0.0956414
50
239.7583641
51
259.3115656
0
ARC
8
DEFAULT_255_1_388
10
5.0920758
20
115.8467048
40
0.0763945
50
222.6243303
51
239.2473835
0
ARC
8
DEFAULT_255_1_388
10
5.1071929
20
115.8605572
40
0.0968985
50
182.9231258
51
222.598101
0
ARC
8
DEFAULT_255_1_388
10
5.1375129
20
115.8644696
40
0.1274004
50
179.9657458
51
183.9850364
0
LINE
8
DEFAULT_255_1_388
10
6.0257188
20
117.0988148
11
6.0257188
21
115.7769
0
LINE
8
DEFAULT_255_1_388
10
6.0257188
20
115.7769
11
5.8576559
21
115.7769
0
LINE
8
DEFAULT_255_1_388
10
5.8576559
20
115.7769
11
5.8576559
21
116.890995
0
LINE
8
DEFAULT_255_1_388
10
5.8576559
20
116.890995
11
5.5206263
21
116.7672066
0
LINE
8
DEFAULT_255_1_388
10
5.5206263
20
116.7672066
11
5.5206263
21
116.9190055
0
LINE
8
DEFAULT_255_1_388
10
5.5206263
20
116.9190055
11
5.9995155
21
117.0988148
0
LINE
8
DEFAULT_255_1_388
10
5.9995155
20
117.0988148
11
6.0257188
21
117.0988148
0
LINE
8
DEFAULT_255_1_388
10
4.7822856
20
124.492369
11
4.7822856
21
124.2755135
0
LINE
8
DEFAULT_255_1_388
10
3.9519099
20
124.2529244
11
3.9519099
21
124.4761048
0
LINE
8
DEFAULT_255_1_388
10
4.6151262
20
124.2303353
11
4.6151262
21
124.5041153
0
LINE
8
DEFAULT_255_1_388
10
4.1190693
20
124.5167652
11
4.1190693
21
124.2493102
0
ARC
8
DEFAULT_255_1_388
10
3.404519
20
124.2700118
40
1.3777776
50
353.8440855
51
0.2287917
0
ARC
8
DEFAULT_255_1_388
10
3.9264208
20
124.2117414
40
0.852639
50
344.4934746
51
353.9763743
0
ARC
8
DEFAULT_255_1_388
10
4.2631015
20
124.1160191
40
0.5026273
50
329.2803599
51
344.7473406
0
ARC
8
DEFAULT_255_1_388
10
4.3746511
20
124.0548038
40
0.3754848
50
324.9361395
51
328.6153007
0
ARC
8
DEFAULT_255_1_388
10
4.4172161
20
124.0250586
40
0.3235566
50
280.5801797
51
324.9173226
0
ARC
8
DEFAULT_255_1_388
10
4.3720789
20
124.2130236
40
0.5167077
50
269.5979457
51
281.6732777
0
ARC
8
DEFAULT_255_1_388
10
4.3639693
20
124.1995113
40
0.5032026
50
256.6228565
51
270.5105488
0
ARC
8
DEFAULT_255_1_388
10
4.3187435
20
124.0253345
40
0.3233092
50
215.8618351
51
257.2787793
0
ARC
8
DEFAULT_255_1_388
10
4.4336142
20
124.1024106
40
0.4615831
50
197.9695203
51
215.2622745
0
ARC
8
DEFAULT_255_1_388
10
4.7131818
20
124.1967641
40
0.7566307
50
187.8816486
51
198.2346584
0
ARC
8
DEFAULT_255_1_388
10
5.1585056
20
124.2610453
40
1.2065653
50
180.8977266
51
188.0054894
0
ARC
8
DEFAULT_255_1_388
10
5.463527
20
124.27254
40
1.5117443
50
180.7434591
51
181.152202
0
ARC
8
DEFAULT_255_1_388
10
5.2960266
20
124.4815371
40
1.3441277
50
173.7674302
51
180.2315596
0
ARC
8
DEFAULT_255_1_388
10
4.7878135
20
124.5389779
40
0.8326847
50
164.3058537
51
173.9000553
0
ARC
8
DEFAULT_255_1_388
10
4.4602135
20
124.6333652
40
0.4917711
50
148.7922028
51
164.5682288
0
ARC
8
DEFAULT_255_1_388
10
4.3532872
20
124.6930457
40
0.3694204
50
144.5883979
51
148.1161588
0
ARC
8
DEFAULT_255_1_388
10
4.3145618
20
124.7200667
40
0.322202
50
101.6440149
51
144.5142619
0
ARC
8
DEFAULT_255_1_388
10
4.362381
20
124.5300337
40
0.5180451
50
89.528284
51
102.5820197
0
ARC
8
DEFAULT_255_1_388
10
4.3712802
20
124.5256376
40
0.5224441
50
77.0437914
51
90.508231
0
ARC
8
DEFAULT_255_1_388
10
4.4165055
20
124.7104272
40
0.3322297
50
48.2777708
51
77.4996087
0
ARC
8
DEFAULT_255_1_388
10
4.4246795
20
124.7249557
40
0.315966
50
36.3141586
51
47.6307332
0
ARC
8
DEFAULT_255_1_388
10
4.3269518
20
124.6591159
40
0.4337313
50
18.2931065
51
35.6770203
0
ARC
8
DEFAULT_255_1_388
10
4.0408358
20
124.5609107
40
0.7362203
50
8.0246996
51
18.5605636
0
ARC
8
DEFAULT_255_1_388
10
3.5724714
20
124.4917432
40
1.2096583
50
1.127539
51
8.1718423
0
ARC
8
DEFAULT_255_1_388
10
3.2075847
20
124.4774374
40
1.5747719
50
0.5432713
51
1.38669
0
ARC
8
DEFAULT_255_1_388
10
3.4133226
20
124.5081163
40
1.2018103
50
359.8092569
51
4.9408001
0
ARC
8
DEFAULT_255_1_388
10
3.8869807
20
124.55039
40
0.7262727
50
4.8364937
51
12.2906017
0
ARC
8
DEFAULT_255_1_388
10
4.1969272
20
124.6194485
40
0.4087324
50
12.0806994
51
23.8171225
0
ARC
8
DEFAULT_255_1_388
10
4.3289668
20
124.6753508
40
0.2653719
50
24.2874621
51
31.3934353
0
ARC
8
DEFAULT_255_1_388
10
4.3880104
20
124.7139822
40
0.1948607
50
30.7407708
51
82.4658033
0
ARC
8
DEFAULT_255_1_388
10
4.3677765
20
124.6146017
40
0.2961198
50
81.1057101
51
90.2187368
0
ARC
8
DEFAULT_255_1_388
10
4.3637577
20
124.6436421
40
0.2670929
50
89.380395
51
105.6763916
0
ARC
8
DEFAULT_255_1_388
10
4.3431299
20
124.718632
40
0.1893189
50
105.7980655
51
149.7387869
0
ARC
8
DEFAULT_255_1_388
10
4.4628439
20
124.6466719
40
0.3289892
50
149.4208441
51
163.628295
0
ARC
8
DEFAULT_255_1_388
10
4.6980668
20
124.5749345
40
0.5749004
50
163.3764549
51
172.141138
0
ARC
8
DEFAULT_255_1_388
10
5.069339
20
124.5217582
40
0.9499585
50
172.0258462
51
178.0705453
0
ARC
8
DEFAULT_255_1_388
10
5.4114943
20
124.5055682
40
1.2924734
50
177.8639301
51
179.5036263
0
ARC
8
DEFAULT_255_1_388
10
5.2895961
20
124.2452151
40
1.170534
50
179.7995545
51
185.246089
0
ARC
8
DEFAULT_255_1_388
10
4.8347554
20
124.2021404
40
0.7136613
50
185.1411911
51
193.0082205
0
ARC
8
DEFAULT_255_1_388
10
4.5373815
20
124.1318441
40
0.4080987
50
192.7897338
51
205.2507384
0
ARC
8
DEFAULT_255_1_388
10
4.4196025
20
124.0792538
40
0.2791522
50
205.8001921
51
211.2545876
0
ARC
8
DEFAULT_255_1_388
10
4.3607564
20
124.0398132
40
0.2084074
50
210.3789935
51
238.4007996
0
ARC
8
DEFAULT_255_1_388
10
4.358565
20
124.0450786
40
0.2117943
50
239.6521916
51
265.9793852
0
ARC
8
DEFAULT_255_1_388
10
4.3681499
20
124.1207358
40
0.2879689
50
265.1324455
51
270.0603288
0
ARC
8
DEFAULT_255_1_388
10
4.3713876
20
124.0842418
40
0.2514919
50
269.3314378
51
287.2180039
0
ARC
8
DEFAULT_255_1_388
10
4.3868958
20
124.0276291
40
0.1928357
50
287.7957942
51
329.0808983
0
ARC
8
DEFAULT_255_1_388
10
4.2791715
20
124.0948651
40
0.319808
50
328.6635261
51
343.3325043
0
ARC
8
DEFAULT_255_1_388
10
4.0347174
20
124.1710195
40
0.5758408
50
343.0498092
51
351.9392499
0
ARC
8
DEFAULT_255_1_388
10
3.6446496
20
124.2285205
40
0.9701202
50
351.8071632
51
357.7957897
0
ARC
8
DEFAULT_255_1_388
10
3.2811973
20
124.2473724
40
1.3340376
50
357.5870923
51
359.2682493
0
ARC
8
DEFAULT_255_1_388
10
5.1376138
20
123.8031142
40
0.1204062
50
163.5412609
51
180.5084512
0
ARC
8
DEFAULT_255_1_388
10
5.1160037
20
123.808946
40
0.0980307
50
138.1652
51
163.2315563
0
ARC
8
DEFAULT_255_1_388
10
5.1033778
20
123.8196456
40
0.0814881
50
105.6860499
51
137.8492655
0
ARC
8
DEFAULT_255_1_388
10
5.1166979
20
123.7764109
40
0.126719
50
92.6078949
51
106.199173
0
ARC
8
DEFAULT_255_1_388
10
5.1201169
20
123.7318207
40
0.1714243
50
89.9659531
51
93.0713334
0
ARC
8
DEFAULT_255_1_388
10
5.1213205
20
123.7568484
40
0.1464007
50
78.4379126
51
90.4311892
0
ARC
8
DEFAULT_255_1_388
10
5.1321852
20
123.8075017
40
0.094599
50
56.8961942
51
78.7357785
0
ARC
8
DEFAULT_255_1_388
10
5.1392963
20
123.8199075
40
0.0803272
50
42.6503148
51
56.3122241
0
ARC
8
DEFAULT_255_1_388
10
5.1248864
20
123.8066661
40
0.099897
50
3.8141057
51
42.636595
0
ARC
8
DEFAULT_255_1_388
10
5.0926186
20
123.8021616
40
0.1324137
50
359.9498843
51
4.8301897
0
ARC
8
DEFAULT_255_1_388
10
5.1181324
20
123.8009722
40
0.1069053
50
340.9378148
51
0.5753733
0
ARC
8
DEFAULT_255_1_388
10
5.1307906
20
123.7975569
40
0.0938301
50
316.0798885
51
340.3845117
0
ARC
8
DEFAULT_255_1_388
10
5.1373217
20
123.791552
40
0.0849605
50
285.8512844
51
315.941661
0
ARC
8
DEFAULT_255_1_388
10
5.1241097
20
123.834262
40
0.1296594
50
273.1293204
51
286.3125006
0
ARC
8
DEFAULT_255_1_388
10
5.1203607
20
123.8794586
40
0.1749979
50
269.9535313
51
273.5471598
0
ARC
8
DEFAULT_255_1_388
10
5.1191213
20
123.8548833
40
0.1504266
50
259.0487117
51
270.4180248
0
ARC
8
DEFAULT_255_1_388
10
5.1082825
20
123.8011783
40
0.0956414
50
239.7583641
51
259.3115656
0
ARC
8
DEFAULT_255_1_388
10
5.0991758
20
123.7842048
40
0.0763945
50
222.6243303
51
239.2473835
0
ARC
8
DEFAULT_255_1_388
10
5.1142929
20
123.7980572
40
0.0968985
50
182.9231258
51
222.598101
0
ARC
8
DEFAULT_255_1_388
10
5.1446129
20
123.8019696
40
0.1274004
50
179.9657458
51
183.9850364
0
LINE
8
DEFAULT_255_1_388
10
6.308406
20
124.492369
11
6.308406
21
124.2755135
0
LINE
8
DEFAULT_255_1_388
10
5.4780303
20
124.2529244
11
5.4780303
21
124.4761048
0
LINE
8
DEFAULT_255_1_388
10
6.1412466
20
124.2303353
11
6.1412466
21
124.5041153
0
LINE
8
DEFAULT_255_1_388
10
5.6451897
20
124.5167652
11
5.6451897
21
124.2493102
0
ARC
8
DEFAULT_255_1_388
10
4.9306394
20
124.2700118
40
1.3777776
50
353.8440855
51
0.2287917
0
ARC
8
DEFAULT_255_1_388
10
5.4525411
20
124.2117414
40
0.852639
50
344.4934746
51
353.9763743
0
ARC
8
DEFAULT_255_1_388
10
5.7892219
20
124.1160191
40
0.5026273
50
329.2803599
51
344.7473406
0
ARC
8
DEFAULT_255_1_388
10
5.9007714
20
124.0548038
40
0.3754848
50
324.9361395
51
328.6153007
0
ARC
8
DEFAULT_255_1_388
10
5.9433364
20
124.0250586
40
0.3235566
50
280.5801797
51
324.9173226
0
ARC
8
DEFAULT_255_1_388
10
5.8981993
20
124.2130236
40
0.5167077
50
269.5979457
51
281.6732777
0
ARC
8
DEFAULT_255_1_388
10
5.8900896
20
124.1995113
40
0.5032026
50
256.6228565
51
270.5105488
0
ARC
8
DEFAULT_255_1_388
10
5.8448639
20
124.0253345
40
0.3233092
50
215.8618351
51
257.2787793
0
ARC
8
DEFAULT_255_1_388
10
5.9597346
20
124.1024106
40
0.4615831
50
197.9695203
51
215.2622745
0
ARC
8
DEFAULT_255_1_388
10
6.2393022
20
124.1967641
40
0.7566307
50
187.8816486
51
198.2346584
0
ARC
8
DEFAULT_255_1_388
10
6.684626
20
124.2610453
40
1.2065653
50
180.8977266
51
188.0054894
0
ARC
8
DEFAULT_255_1_388
10
6.9896474
20
124.27254
40
1.5117443
50
180.7434591
51
181.152202
0
ARC
8
DEFAULT_255_1_388
10
6.822147
20
124.4815371
40
1.3441277
50
173.7674302
51
180.2315596
0
ARC
8
DEFAULT_255_1_388
10
6.3139338
20
124.5389779
40
0.8326847
50
164.3058537
51
173.9000553
0
ARC
8
DEFAULT_255_1_388
10
5.9863339
20
124.6333652
40
0.4917711
50
148.7922028
51
164.5682288
0
ARC
8
DEFAULT_255_1_388
10
5.8794076
20
124.6930457
40
0.3694204
50
144.5883979
51
148.1161588
0
ARC
8
DEFAULT_255_1_388
10
5.8406821
20
124.7200667
40
0.322202
50
101.6440149
51
144.5142619
0
ARC
8
DEFAULT_255_1_388
10
5.8885013
20
124.5300337
40
0.5180451
50
89.528284
51
102.5820197
0
ARC
8
DEFAULT_255_1_388
10
5.8974005
20
124.5256376
40
0.5224441
50
77.0437914
51
90.508231
0
ARC
8
DEFAULT_255_1_388
10
5.9426259
20
124.7104272
40
0.3322297
50
48.2777708
51
77.4996087
0
ARC
8
DEFAULT_255_1_388
10
5.9507999
20
124.7249557
40
0.315966
50
36.3141586
51
47.6307332
0
ARC
8
DEFAULT_255_1_388
10
5.8530721
20
124.6591159
40
0.4337313
50
18.2931065
51
35.6770203
0
ARC
8
DEFAULT_255_1_388
10
5.5669562
20
124.5609107
40
0.7362203
50
8.0246996
51
18.5605636
0
ARC
8
DEFAULT_255_1_388
10
5.0985918
20
124.4917432
40
1.2096583
50
1.127539
51
8.1718423
0
ARC
8
DEFAULT_255_1_388
10
4.7337051
20
124.4774374
40
1.5747719
50
0.5432713
51
1.38669
0
ARC
8
DEFAULT_255_1_388
10
4.939443
20
124.5081163
40
1.2018103
50
359.8092569
51
4.9408001
0
ARC
8
DEFAULT_255_1_388
10
5.4131011
20
124.55039
40
0.7262727
50
4.8364937
51
12.2906017
0
ARC
8
DEFAULT_255_1_388
10
5.7230476
20
124.6194485
40
0.4087324
50
12.0806994
51
23.8171225
0
ARC
8
DEFAULT_255_1_388
10
5.8550872
20
124.6753508
40
0.2653719
50
24.2874621
51
31.3934353
0
ARC
8
DEFAULT_255_1_388
10
5.9141308
20
124.7139822
40
0.1948607
50
30.7407708
51
82.4658033
0
ARC
8
DEFAULT_255_1_388
10
5.8938968
20
124.6146017
40
0.2961198
50
81.1057101
51
90.2187368
0
ARC
8
DEFAULT_255_1_388
10
5.889878
20
124.6436421
40
0.2670929
50
89.380395
51
105.6763916
0
ARC
8
DEFAULT_255_1_388
10
5.8692502
20
124.718632
40
0.1893189
50
105.7980655
51
149.7387869
0
ARC
8
DEFAULT_255_1_388
10
5.9889642
20
124.6466719
40
0.3289892
50
149.4208441
51
163.628295
0
ARC
8
DEFAULT_255_1_388
10
6.2241872
20
124.5749345
40
0.5749004
50
163.3764549
51
172.141138
0
ARC
8
DEFAULT_255_1_388
10
6.5954593
20
124.5217582
40
0.9499585
50
172.0258462
51
178.0705453
0
ARC
8
DEFAULT_255_1_388
10
6.9376146
20
124.5055682
40
1.2924734
50
177.8639301
51
179.5036263
0
ARC
8
DEFAULT_255_1_388
10
6.8157165
20
124.2452151
40
1.170534
50
179.7995545
51
185.246089
0
ARC
8
DEFAULT_255_1_388
10
6.3608758
20
124.2021404
40
0.7136613
50
185.1411911
51
193.0082205
0
ARC
8
DEFAULT_255_1_388
10
6.0635019
20
124.1318441
40
0.4080987
50
192.7897338
51
205.2507384
0
ARC
8
DEFAULT_255_1_388
10
5.9457229
20
124.0792538
40
0.2791522
50
205.8001921
51
211.2545876
0
ARC
8
DEFAULT_255_1_388
10
5.8868768
20
124.0398132
40
0.2084074
50
210.3789935
51
238.4007996
0
ARC
8
DEFAULT_255_1_388
10
5.8846854
20
124.0450786
40
0.2117943
50
239.6521916
51
265.9793852
0
ARC
8
DEFAULT_255_1_388
10
5.8942703
20
124.1207358
40
0.2879689
50
265.1324455
51
270.0603288
0
ARC
8
DEFAULT_255_1_388
10
5.897508
20
124.0842418
40
0.2514919
50
269.3314378
51
287.2180039
0
ARC
8
DEFAULT_255_1_388
10
5.9130162
20
124.0276291
40
0.1928357
50
287.7957942
51
329.0808983
0
ARC
8
DEFAULT_255_1_388
10
5.8052919
20
124.0948651
40
0.319808
50
328.6635261
51
343.3325043
0
ARC
8
DEFAULT_255_1_388
10
5.5608378
20
124.1710195
40
0.5758408
50
343.0498092
51
351.9392499
0
ARC
8
DEFAULT_255_1_388
10
5.1707699
20
124.2285205
40
0.9701202
50
351.8071632
51
357.7957897
0
ARC
8
DEFAULT_255_1_388
10
4.8073176
20
124.2473724
40
1.3340376
50
357.5870923
51
359.2682493
0
LINE
8
DEFAULT_255_1_388
10
23.0065024
20
132.9674898
11
23.2305864
21
132.9674898
0
LINE
8
DEFAULT_255_1_388
10
23.2305864
20
132.9674898
11
23.6606831
21
131.8940553
0
LINE
8
DEFAULT_255_1_388
10
23.6606831
20
131.8940553
11
24.0907797
21
132.9674898
0
LINE
8
DEFAULT_255_1_388
10
24.0907797
20
132.9674898
11
24.3157673
21
132.9674898
0
LINE
8
DEFAULT_255_1_388
10
24.3157673
20
132.9674898
11
24.3157673
21
131.6519
0
LINE
8
DEFAULT_255_1_388
10
24.3157673
20
131.6519
11
24.1422829
21
131.6519
0
LINE
8
DEFAULT_255_1_388
10
24.1422829
20
131.6519
11
24.1422829
21
132.164221
0
LINE
8
DEFAULT_255_1_388
10
24.1422829
20
132.164221
11
24.1585471
21
132.7172025
0
LINE
8
DEFAULT_255_1_388
10
24.1585471
20
132.7172025
11
23.7266433
21
131.6519
0
LINE
8
DEFAULT_255_1_388
10
23.7266433
20
131.6519
11
23.5938193
21
131.6519
0
LINE
8
DEFAULT_255_1_388
10
23.5938193
20
131.6519
11
23.162819
21
132.7144918
0
LINE
8
DEFAULT_255_1_388
10
23.162819
20
132.7144918
11
23.1799868
21
132.164221
0
LINE
8
DEFAULT_255_1_388
10
23.1799868
20
132.164221
11
23.1799868
21
131.6519
0
LINE
8
DEFAULT_255_1_388
10
23.1799868
20
131.6519
11
23.0065024
21
131.6519
0
LINE
8
DEFAULT_255_1_388
10
23.0065024
20
131.6519
11
23.0065024
21
132.9674898
0
LINE
8
DEFAULT_255_1_388
10
22.2516901
20
5.2545775
11
22.2516901
21
5.3910157
0
LINE
8
DEFAULT_255_1_388
10
22.2516901
20
5.3910157
11
22.3772856
21
5.3910157
0
LINE
8
DEFAULT_255_1_388
10
22.1631408
20
5.6223282
11
21.9959814
21
5.6223282
0
LINE
8
DEFAULT_255_1_388
10
21.9842351
20
4.9988688
11
22.152298
21
4.9988688
0
LINE
8
DEFAULT_255_1_388
10
22.3772856
20
5.2545775
11
22.2516901
21
5.2545775
0
ARC
8
DEFAULT_255_1_388
10
22.3740082
20
5.7726922
40
0.3816905
50
270.491971
51
281.8953028
0
ARC
8
DEFAULT_255_1_388
10
22.4011509
20
5.6487199
40
0.2547877
50
281.6690378
51
301.2943765
0
ARC
8
DEFAULT_255_1_388
10
22.4202961
20
5.6136926
40
0.2149197
50
301.7834992
51
311.754567
0
ARC
8
DEFAULT_255_1_388
10
22.4306002
20
5.602265
40
0.1995326
50
311.7325027
51
354.2803031
0
ARC
8
DEFAULT_255_1_388
10
22.3488418
20
5.616328
40
0.2823461
50
353.0941646
51
0.1174696
0
ARC
8
DEFAULT_255_1_388
10
22.2969976
20
5.6216874
40
0.3342238
50
359.1804452
51
15.0452323
0
ARC
8
DEFAULT_255_1_388
10
22.4484034
20
5.6658546
40
0.1765747
50
13.957816
51
77.6713812
0
ARC
8
DEFAULT_255_1_388
10
22.404927
20
5.5100464
40
0.3381982
50
76.111571
51
90.7028736
0
ARC
8
DEFAULT_255_1_388
10
22.3982682
20
5.540825
40
0.3074046
50
89.5321574
51
103.5319393
0
ARC
8
DEFAULT_255_1_388
10
22.3757066
20
5.6307443
40
0.2147041
50
103.2930114
51
133.5619756
0
ARC
8
DEFAULT_255_1_388
10
22.3707007
20
5.6374351
40
0.2064084
50
133.8349761
51
173.5343225
0
ARC
8
DEFAULT_255_1_388
10
22.4520665
20
5.6230144
40
0.2889266
50
172.5097183
51
180.1360699
0
ARC
8
DEFAULT_255_1_388
10
22.3450429
20
5.626888
40
0.3490913
50
155.3483706
51
180.7484035
0
ARC
8
DEFAULT_255_1_388
10
22.3395404
20
5.6236519
40
0.3454798
50
131.5745177
51
154.4799474
0
ARC
8
DEFAULT_255_1_388
10
22.3747687
20
5.5880422
40
0.3955058
50
96.9874487
51
131.9690874
0
ARC
8
DEFAULT_255_1_388
10
22.399458
20
5.4479407
40
0.537622
50
89.8592909
51
97.7827481
0
ARC
8
DEFAULT_255_1_388
10
22.4048689
20
5.418436
40
0.5671399
50
78.3654493
51
90.4132586
0
ARC
8
DEFAULT_255_1_388
10
22.445133
20
5.6050918
40
0.3762034
50
56.6229818
51
78.6387103
0
ARC
8
DEFAULT_255_1_388
10
22.4693159
20
5.6473846
40
0.3275964
50
47.0254604
51
56.085558
0
ARC
8
DEFAULT_255_1_388
10
22.471541
20
5.6518189
40
0.3228382
50
10.9207523
51
46.777927
0
ARC
8
DEFAULT_255_1_388
10
22.3181004
20
5.6163401
40
0.4802559
50
359.6364235
51
11.6087615
0
ARC
8
DEFAULT_255_1_388
10
22.524517
20
5.6146404
40
0.273833
50
332.3549969
51
359.7179765
0
ARC
8
DEFAULT_255_1_388
10
22.451357
20
5.6493285
40
0.3547505
50
325.2332381
51
332.8746682
0
ARC
8
DEFAULT_255_1_388
10
22.4685153
20
5.6373763
40
0.3338396
50
292.9803892
51
325.2391113
0
ARC
8
DEFAULT_255_1_388
10
22.4374349
20
5.6978679
40
0.4016959
50
292.542178
51
293.6931461
0
ARC
8
DEFAULT_255_1_388
10
22.4817921
20
4.9713036
40
0.372079
50
57.643292
51
72.8626085
0
ARC
8
DEFAULT_255_1_388
10
22.5216755
20
5.0359273
40
0.2961455
50
36.7246661
51
57.4701329
0
ARC
8
DEFAULT_255_1_388
10
22.5203912
20
5.037347
40
0.2963321
50
8.054535
51
36.3561529
0
ARC
8
DEFAULT_255_1_388
10
22.4233585
20
5.0199073
40
0.3948682
50
359.8316595
51
8.5873361
0
ARC
8
DEFAULT_255_1_388
10
22.3811059
20
5.014497
40
0.4371398
50
343.9831631
51
0.557075
0
ARC
8
DEFAULT_255_1_388
10
22.4808108
20
4.9871963
40
0.3337749
50
311.6358204
51
343.7652116
0
ARC
8
DEFAULT_255_1_388
10
22.4382362
20
5.0351955
40
0.3979351
50
279.7829743
51
311.625622
0
ARC
8
DEFAULT_255_1_388
10
22.4043497
20
5.1968642
40
0.5630417
50
269.7285092
51
280.3857694
0
ARC
8
DEFAULT_255_1_388
10
22.397381
20
5.1922241
40
0.5584119
50
256.6827433
51
270.4412869
0
ARC
8
DEFAULT_255_1_388
10
22.3592797
20
5.0364698
40
0.3980715
50
229.4223821
51
256.8554507
0
ARC
8
DEFAULT_255_1_388
10
22.312635
20
4.9839683
40
0.3278564
50
181.8183354
51
229.6455015
0
ARC
8
DEFAULT_255_1_388
10
22.429596
20
4.9986825
40
0.4453611
50
179.9760419
51
183.2330638
0
ARC
8
DEFAULT_255_1_388
10
22.4102512
20
4.9963781
40
0.2579652
50
179.4467996
51
196.2871626
0
ARC
8
DEFAULT_255_1_388
10
22.3553966
20
4.9813709
40
0.2011057
50
196.5661293
51
227.7059371
0
ARC
8
DEFAULT_255_1_388
10
22.3738573
20
5.0020155
40
0.2287994
50
227.7653015
51
257.8763321
0
ARC
8
DEFAULT_255_1_388
10
22.3991656
20
5.1080961
40
0.3378385
50
257.4583525
51
270.4267406
0
ARC
8
DEFAULT_255_1_388
10
22.4042906
20
5.140723
40
0.3704652
50
269.5965319
51
280.8788143
0
ARC
8
DEFAULT_255_1_388
10
22.4301134
20
5.0117529
40
0.2389415
50
280.6347277
51
299.8594068
0
ARC
8
DEFAULT_255_1_388
10
22.4515903
20
4.9709736
40
0.19289
50
300.3575552
51
314.5515667
0
ARC
8
DEFAULT_255_1_388
10
22.4422579
20
4.9778025
40
0.204312
50
315.0730962
51
345.0429362
0
ARC
8
DEFAULT_255_1_388
10
22.3384087
20
5.0080539
40
0.31246
50
344.598526
51
357.9270698
0
ARC
8
DEFAULT_255_1_388
10
22.2374391
20
5.0149705
40
0.4136265
50
357.4755098
51
0.0224936
0
ARC
8
DEFAULT_255_1_388
10
22.3527269
20
5.0177099
40
0.2983498
50
359.5051035
51
13.4236939
0
ARC
8
DEFAULT_255_1_388
10
22.4502359
20
5.0426637
40
0.1977186
50
12.9497905
51
48.7550905
0
ARC
8
DEFAULT_255_1_388
10
22.4297281
20
5.0146373
40
0.2323321
50
49.509109
51
72.1832965
0
ARC
8
DEFAULT_255_1_388
10
22.3894749
20
4.8951632
40
0.358397
50
71.9008458
51
84.3555134
0
ARC
8
DEFAULT_255_1_388
10
22.3713144
20
4.7419712
40
0.512641
50
84.019632
51
89.3326067
0
ARC
8
DEFAULT_255_1_388
10
23.1889138
20
4.7406142
40
0.1204062
50
163.5412609
51
180.5084512
0
ARC
8
DEFAULT_255_1_388
10
23.1673037
20
4.746446
40
0.0980307
50
138.1652
51
163.2315563
0
ARC
8
DEFAULT_255_1_388
10
23.1546778
20
4.7571456
40
0.0814881
50
105.6860499
51
137.8492655
0
ARC
8
DEFAULT_255_1_388
10
23.1679979
20
4.7139109
40
0.126719
50
92.6078949
51
106.199173
0
ARC
8
DEFAULT_255_1_388
10
23.1714169
20
4.6693207
40
0.1714243
50
89.9659531
51
93.0713334
0
ARC
8
DEFAULT_255_1_388
10
23.1726205
20
4.6943484
40
0.1464007
50
78.4379126
51
90.4311892
0
ARC
8
DEFAULT_255_1_388
10
23.1834852
20
4.7450017
40
0.094599
50
56.8961942
51
78.7357785
0
ARC
8
DEFAULT_255_1_388
10
23.1905963
20
4.7574075
40
0.0803272
50
42.6503148
51
56.3122241
0
ARC
8
DEFAULT_255_1_388
10
23.1761864
20
4.7441661
40
0.099897
50
3.8141057
51
42.636595
0
ARC
8
DEFAULT_255_1_388
10
23.1439186
20
4.7396616
40
0.1324137
50
359.9498843
51
4.8301897
0
ARC
8
DEFAULT_255_1_388
10
23.1694324
20
4.7384722
40
0.1069053
50
340.9378148
51
0.5753733
0
ARC
8
DEFAULT_255_1_388
10
23.1820906
20
4.7350569
40
0.0938301
50
316.0798885
51
340.3845117
0
ARC
8
DEFAULT_255_1_388
10
23.1886217
20
4.729052
40
0.0849605
50
285.8512844
51
315.941661
0
ARC
8
DEFAULT_255_1_388
10
23.1754097
20
4.771762
40
0.1296594
50
273.1293204
51
286.3125006
0
ARC
8
DEFAULT_255_1_388
10
23.1716607
20
4.8169586
40
0.1749979
50
269.9535313
51
273.5471598
0
ARC
8
DEFAULT_255_1_388
10
23.1704213
20
4.7923833
40
0.1504266
50
259.0487117
51
270.4180248
0
ARC
8
DEFAULT_255_1_388
10
23.1595825
20
4.7386783
40
0.0956414
50
239.7583641
51
259.3115656
0
ARC
8
DEFAULT_255_1_388
10
23.1504758
20
4.7217048
40
0.0763945
50
222.6243303
51
239.2473835
0
ARC
8
DEFAULT_255_1_388
10
23.1655929
20
4.7355572
40
0.0968985
50
182.9231258
51
222.598101
0
ARC
8
DEFAULT_255_1_388
10
23.1959129
20
4.7394696
40
0.1274004
50
179.9657458
51
183.9850364
0
LINE
8
DEFAULT_255_1_388
10
24.3841022
20
5.9674898
11
24.3841022
21
5.8735191
0
LINE
8
DEFAULT_255_1_388
10
24.3841022
20
5.8735191
11
23.8392529
21
4.6519
0
LINE
8
DEFAULT_255_1_388
10
23.8392529
20
4.6519
11
23.6639614
21
4.6519
0
LINE
8
DEFAULT_255_1_388
10
23.6639614
20
4.6519
11
24.2070036
21
5.830148
0
LINE
8
DEFAULT_255_1_388
10
24.2070036
20
5.830148
11
23.4949948
21
5.830148
0
LINE
8
DEFAULT_255_1_388
10
23.4949948
20
5.830148
11
23.4949948
21
5.9674898
0
LINE
8
DEFAULT_255_1_388
10
23.4949948
20
5.9674898
11
24.3841022
21
5.9674898
0
LINE
8
DEFAULT_255_1_388
10
22.2516901
20
13.1920775
11
22.2516901
21
13.3285157
0
LINE
8
DEFAULT_255_1_388
10
22.2516901
20
13.3285157
11
22.3772856
21
13.3285157
0
LINE
8
DEFAULT_255_1_388
10
22.1631408
20
13.5598282
11
21.9959814
21
13.5598282
0
LINE
8
DEFAULT_255_1_388
10
21.9842351
20
12.9363688
11
22.152298
21
12.9363688
0
LINE
8
DEFAULT_255_1_388
10
22.3772856
20
13.1920775
11
22.2516901
21
13.1920775
0
ARC
8
DEFAULT_255_1_388
10
22.3740082
20
13.7101922
40
0.3816905
50
270.491971
51
281.8953028
0
ARC
8
DEFAULT_255_1_388
10
22.4011509
20
13.5862199
40
0.2547877
50
281.6690378
51
301.2943765
0
ARC
8
DEFAULT_255_1_388
10
22.4202961
20
13.5511926
40
0.2149197
50
301.7834992
51
311.754567
0
ARC
8
DEFAULT_255_1_388
10
22.4306002
20
13.539765
40
0.1995326
50
311.7325027
51
354.2803031
0
ARC
8
DEFAULT_255_1_388
10
22.3488418
20
13.553828
40
0.2823461
50
353.0941646
51
0.1174696
0
ARC
8
DEFAULT_255_1_388
10
22.2969976
20
13.5591874
40
0.3342238
50
359.1804452
51
15.0452323
0
ARC
8
DEFAULT_255_1_388
10
22.4484034
20
13.6033546
40
0.1765747
50
13.957816
51
77.6713812
0
ARC
8
DEFAULT_255_1_388
10
22.404927
20
13.4475464
40
0.3381982
50
76.111571
51
90.7028736
0
ARC
8
DEFAULT_255_1_388
10
22.3982682
20
13.478325
40
0.3074046
50
89.5321574
51
103.5319393
0
ARC
8
DEFAULT_255_1_388
10
22.3757066
20
13.5682443
40
0.2147041
50
103.2930114
51
133.5619756
0
ARC
8
DEFAULT_255_1_388
10
22.3707007
20
13.5749351
40
0.2064084
50
133.8349761
51
173.5343225
0
ARC
8
DEFAULT_255_1_388
10
22.4520665
20
13.5605144
40
0.2889266
50
172.5097183
51
180.1360699
0
ARC
8
DEFAULT_255_1_388
10
22.3450429
20
13.564388
40
0.3490913
50
155.3483706
51
180.7484035
0
ARC
8
DEFAULT_255_1_388
10
22.3395404
20
13.5611519
40
0.3454798
50
131.5745177
51
154.4799474
0
ARC
8
DEFAULT_255_1_388
10
22.3747687
20
13.5255422
40
0.3955058
50
96.9874487
51
131.9690874
0
ARC
8
DEFAULT_255_1_388
10
22.399458
20
13.3854407
40
0.537622
50
89.8592909
51
97.7827481
0
ARC
8
DEFAULT_255_1_388
10
22.4048689
20
13.355936
40
0.5671399
50
78.3654493
51
90.4132586
0
ARC
8
DEFAULT_255_1_388
10
22.445133
20
13.5425918
40
0.3762034
50
56.6229818
51
78.6387103
0
ARC
8
DEFAULT_255_1_388
10
22.4693159
20
13.5848846
40
0.3275964
50
47.0254604
51
56.085558
0
ARC
8
DEFAULT_255_1_388
10
22.471541
20
13.5893189
40
0.3228382
50
10.9207523
51
46.777927
0
ARC
8
DEFAULT_255_1_388
10
22.3181004
20
13.5538401
40
0.4802559
50
359.6364235
51
11.6087615
0
ARC
8
DEFAULT_255_1_388
10
22.524517
20
13.5521404
40
0.273833
50
332.3549969
51
359.7179765
0
ARC
8
DEFAULT_255_1_388
10
22.451357
20
13.5868285
40
0.3547505
50
325.2332381
51
332.8746682
0
ARC
8
DEFAULT_255_1_388
10
22.4685153
20
13.5748763
40
0.3338396
50
292.9803892
51
325.2391113
0
ARC
8
DEFAULT_255_1_388
10
22.4374349
20
13.6353679
40
0.4016959
50
292.542178
51
293.6931461
0
ARC
8
DEFAULT_255_1_388
10
22.4817921
20
12.9088036
40
0.372079
50
57.643292
51
72.8626085
0
ARC
8
DEFAULT_255_1_388
10
22.5216755
20
12.9734273
40
0.2961455
50
36.7246661
51
57.4701329
0
ARC
8
DEFAULT_255_1_388
10
22.5203912
20
12.974847
40
0.2963321
50
8.054535
51
36.3561529
0
ARC
8
DEFAULT_255_1_388
10
22.4233585
20
12.9574073
40
0.3948682
50
359.8316595
51
8.5873361
0
ARC
8
DEFAULT_255_1_388
10
22.3811059
20
12.951997
40
0.4371398
50
343.9831631
51
0.557075
0
ARC
8
DEFAULT_255_1_388
10
22.4808108
20
12.9246963
40
0.3337749
50
311.6358204
51
343.7652116
0
ARC
8
DEFAULT_255_1_388
10
22.4382362
20
12.9726955
40
0.3979351
50
279.7829743
51
311.625622
0
ARC
8
DEFAULT_255_1_388
10
22.4043497
20
13.1343642
40
0.5630417
50
269.7285092
51
280.3857694
0
ARC
8
DEFAULT_255_1_388
10
22.397381
20
13.1297241
40
0.5584119
50
256.6827433
51
270.4412869
0
ARC
8
DEFAULT_255_1_388
10
22.3592797
20
12.9739698
40
0.3980715
50
229.4223821
51
256.8554507
0
ARC
8
DEFAULT_255_1_388
10
22.312635
20
12.9214683
40
0.3278564
50
181.8183354
51
229.6455015
0
ARC
8
DEFAULT_255_1_388
10
22.429596
20
12.9361825
40
0.4453611
50
179.9760419
51
183.2330638
0
ARC
8
DEFAULT_255_1_388
10
22.4102512
20
12.9338781
40
0.2579652
50
179.4467996
51
196.2871626
0
ARC
8
DEFAULT_255_1_388
10
22.3553966
20
12.9188709
40
0.2011057
50
196.5661293
51
227.7059371
0
ARC
8
DEFAULT_255_1_388
10
22.3738573
20
12.9395155
40
0.2287994
50
227.7653015
51
257.8763321
0
ARC
8
DEFAULT_255_1_388
10
22.3991656
20
13.0455961
40
0.3378385
50
257.4583525
51
270.4267406
0
ARC
8
DEFAULT_255_1_388
10
22.4042906
20
13.078223
40
0.3704652
50
269.5965319
51
280.8788143
0
ARC
8
DEFAULT_255_1_388
10
22.4301134
20
12.9492529
40
0.2389415
50
280.6347277
51
299.8594068
0
ARC
8
DEFAULT_255_1_388
10
22.4515903
20
12.9084736
40
0.19289
50
300.3575552
51
314.5515667
0
ARC
8
DEFAULT_255_1_388
10
22.4422579
20
12.9153025
40
0.204312
50
315.0730962
51
345.0429362
0
ARC
8
DEFAULT_255_1_388
10
22.3384087
20
12.9455539
40
0.31246
50
344.598526
51
357.9270698
0
ARC
8
DEFAULT_255_1_388
10
22.2374391
20
12.9524705
40
0.4136265
50
357.4755098
51
0.0224936
0
ARC
8
DEFAULT_255_1_388
10
22.3527269
20
12.9552099
40
0.2983498
50
359.5051035
51
13.4236939
0
ARC
8
DEFAULT_255_1_388
10
22.4502359
20
12.9801637
40
0.1977186
50
12.9497905
51
48.7550905
0
ARC
8
DEFAULT_255_1_388
10
22.4297281
20
12.9521373
40
0.2323321
50
49.509109
51
72.1832965
0
ARC
8
DEFAULT_255_1_388
10
22.3894749
20
12.8326632
40
0.358397
50
71.9008458
51
84.3555134
0
ARC
8
DEFAULT_255_1_388
10
22.3713144
20
12.6794712
40
0.512641
50
84.019632
51
89.3326067
0
ARC
8
DEFAULT_255_1_388
10
23.1889138
20
12.6781142
40
0.1204062
50
163.5412609
51
180.5084512
0
ARC
8
DEFAULT_255_1_388
10
23.1673037
20
12.683946
40
0.0980307
50
138.1652
51
163.2315563
0
ARC
8
DEFAULT_255_1_388
10
23.1546778
20
12.6946456
40
0.0814881
50
105.6860499
51
137.8492655
0
ARC
8
DEFAULT_255_1_388
10
23.1679979
20
12.6514109
40
0.126719
50
92.6078949
51
106.199173
0
ARC
8
DEFAULT_255_1_388
10
23.1714169
20
12.6068207
40
0.1714243
50
89.9659531
51
93.0713334
0
ARC
8
DEFAULT_255_1_388
10
23.1726205
20
12.6318484
40
0.1464007
50
78.4379126
51
90.4311892
0
ARC
8
DEFAULT_255_1_388
10
23.1834852
20
12.6825017
40
0.094599
50
56.8961942
51
78.7357785
0
ARC
8
DEFAULT_255_1_388
10
23.1905963
20
12.6949075
40
0.0803272
50
42.6503148
51
56.3122241
0
ARC
8
DEFAULT_255_1_388
10
23.1761864
20
12.6816661
40
0.099897
50
3.8141057
51
42.636595
0
ARC
8
DEFAULT_255_1_388
10
23.1439186
20
12.6771616
40
0.1324137
50
359.9498843
51
4.8301897
0
ARC
8
DEFAULT_255_1_388
10
23.1694324
20
12.6759722
40
0.1069053
50
340.9378148
51
0.5753733
0
ARC
8
DEFAULT_255_1_388
10
23.1820906
20
12.6725569
40
0.0938301
50
316.0798885
51
340.3845117
0
ARC
8
DEFAULT_255_1_388
10
23.1886217
20
12.666552
40
0.0849605
50
285.8512844
51
315.941661
0
ARC
8
DEFAULT_255_1_388
10
23.1754097
20
12.709262
40
0.1296594
50
273.1293204
51
286.3125006
0
ARC
8
DEFAULT_255_1_388
10
23.1716607
20
12.7544586
40
0.1749979
50
269.9535313
51
273.5471598
0
ARC
8
DEFAULT_255_1_388
10
23.1704213
20
12.7298833
40
0.1504266
50
259.0487117
51
270.4180248
0
ARC
8
DEFAULT_255_1_388
10
23.1595825
20
12.6761783
40
0.0956414
50
239.7583641
51
259.3115656
0
ARC
8
DEFAULT_255_1_388
10
23.1504758
20
12.6592048
40
0.0763945
50
222.6243303
51
239.2473835
0
ARC
8
DEFAULT_255_1_388
10
23.1655929
20
12.6730572
40
0.0968985
50
182.9231258
51
222.598101
0
ARC
8
DEFAULT_255_1_388
10
23.1959129
20
12.6769696
40
0.1274004
50
179.9657458
51
183.9850364
0
LINE
8
DEFAULT_255_1_388
10
24.1609218
20
13.9058934
11
24.1907395
21
13.9058934
0
LINE
8
DEFAULT_255_1_388
10
24.1907395
20
13.9058934
11
24.1907395
21
13.7640338
0
LINE
8
DEFAULT_255_1_388
10
24.1907395
20
13.7640338
11
24.1600183
21
13.7640338
0
LINE
8
DEFAULT_255_1_388
10
23.5446909
20
13.0899747
11
23.5446909
21
13.1541278
0
LINE
8
DEFAULT_255_1_388
10
23.7127539
20
13.1324422
11
23.7127539
21
13.0709999
0
ARC
8
DEFAULT_255_1_388
10
24.1659074
20
13.2017826
40
0.562282
50
90.6001079
51
104.5146616
0
ARC
8
DEFAULT_255_1_388
10
24.1222034
20
13.36431
40
0.3939917
50
104.2855758
51
133.8630124
0
ARC
8
DEFAULT_255_1_388
10
24.1406286
20
13.3521243
40
0.4155734
50
134.5304124
51
161.6210222
0
ARC
8
DEFAULT_255_1_388
10
24.3266219
20
13.2865421
40
0.6127682
50
161.2850533
51
174.2074364
0
ARC
8
DEFAULT_255_1_388
10
24.4855785
20
13.2646437
40
0.7731446
50
173.7817938
51
174.9251711
0
ARC
8
DEFAULT_255_1_388
10
23.9729979
20
13.109127
40
0.3412588
50
95.8332067
51
138.995412
0
ARC
8
DEFAULT_255_1_388
10
23.9981259
20
12.9652695
40
0.4870358
50
89.8755506
51
97.0540979
0
ARC
8
DEFAULT_255_1_388
10
24.0034648
20
13.0592841
40
0.3930432
50
71.6407016
51
90.6240821
0
ARC
8
DEFAULT_255_1_388
10
24.0204042
20
13.1216433
40
0.3285421
50
39.6368051
51
71.0190743
0
ARC
8
DEFAULT_255_1_388
10
23.9487949
20
13.0597586
40
0.4231706
50
10.6588054
51
39.9044509
0
ARC
8
DEFAULT_255_1_388
10
23.7746495
20
13.0219223
40
0.60133
50
359.6827842
51
11.1326896
0
ARC
8
DEFAULT_255_1_388
10
23.7701831
20
13.0139715
40
0.6058047
50
347.2485908
51
0.4371098
0
ARC
8
DEFAULT_255_1_388
10
23.9577616
20
12.9688379
40
0.4128987
50
318.1408565
51
347.6118497
0
ARC
8
DEFAULT_255_1_388
10
23.9943213
20
12.9387903
40
0.3656244
50
275.6342406
51
317.824739
0
ARC
8
DEFAULT_255_1_388
10
23.9694734
20
13.0849827
40
0.513655
50
269.8872513
51
276.7916069
0
ARC
8
DEFAULT_255_1_388
10
23.9632927
20
12.9696181
40
0.398323
50
246.9139443
51
270.7436787
0
ARC
8
DEFAULT_255_1_388
10
23.9640122
20
12.9536044
40
0.3839368
50
218.1665534
51
245.8780431
0
ARC
8
DEFAULT_255_1_388
10
24.0629495
20
13.0363903
40
0.5128958
50
191.4115343
51
218.6077624
0
ARC
8
DEFAULT_255_1_388
10
24.2809811
20
13.0852777
40
0.7363054
50
179.6344971
51
191.7836758
0
ARC
8
DEFAULT_255_1_388
10
24.9089685
20
13.1616495
40
1.3642984
50
171.4523743
51
180.3158856
0
ARC
8
DEFAULT_255_1_388
10
24.4145412
20
13.2385895
40
0.8639311
50
157.9802296
51
171.6246761
0
ARC
8
DEFAULT_255_1_388
10
24.1654763
20
13.3379038
40
0.5958004
50
141.4299236
51
157.8541251
0
ARC
8
DEFAULT_255_1_388
10
24.0932846
20
13.3889746
40
0.5075416
50
102.871586
51
140.8564533
0
ARC
8
DEFAULT_255_1_388
10
24.1661399
20
13.1144943
40
0.7914163
50
90.377773
51
103.5868422
0
ARC
8
DEFAULT_255_1_388
10
23.970592
20
13.0464543
40
0.2667015
50
89.8751238
51
126.2072139
0
ARC
8
DEFAULT_255_1_388
10
23.9757391
20
13.0290847
40
0.2838229
50
124.9742447
51
144.8960197
0
ARC
8
DEFAULT_255_1_388
10
23.9559636
20
13.0451981
40
0.2583845
50
145.2974778
51
160.2660922
0
ARC
8
DEFAULT_255_1_388
10
24.3016125
20
13.0674151
40
0.5888695
50
179.6512124
51
190.285571
0
ARC
8
DEFAULT_255_1_388
10
24.1110604
20
13.0314968
40
0.3949683
50
190.0944895
51
207.5099647
0
ARC
8
DEFAULT_255_1_388
10
24.0474186
20
13.0012177
40
0.3245464
50
207.9585471
51
216.325377
0
ARC
8
DEFAULT_255_1_388
10
24.0091823
20
12.9697712
40
0.2751259
50
215.7661336
51
232.5457193
0
ARC
8
DEFAULT_255_1_388
10
23.9660939
20
12.9150273
40
0.2054668
50
232.8005815
51
270.6605497
0
ARC
8
DEFAULT_255_1_388
10
23.9712363
20
12.9559853
40
0.2464268
50
269.3550767
51
288.474612
0
ARC
8
DEFAULT_255_1_388
10
23.981687
20
12.9166721
40
0.2058436
50
289.1831976
51
322.9685307
0
ARC
8
DEFAULT_255_1_388
10
23.9128972
20
12.9709279
40
0.2934408
50
322.6007085
51
346.5183319
0
ARC
8
DEFAULT_255_1_388
10
23.7826728
20
13.0041434
40
0.4278249
50
346.2584622
51
358.7739592
0
ARC
8
DEFAULT_255_1_388
10
23.6675303
20
13.0103829
40
0.5430876
50
358.3757628
51
0.0082477
0
ARC
8
DEFAULT_255_1_388
10
23.7532122
20
13.0134856
40
0.4574157
50
359.6211417
51
11.28403
0
ARC
8
DEFAULT_255_1_388
10
23.8968728
20
13.0434535
40
0.3106708
50
11.0483152
51
31.8145585
0
ARC
8
DEFAULT_255_1_388
10
23.9316433
20
13.0623045
40
0.2711963
50
32.3028554
51
38.0820598
0
ARC
8
DEFAULT_255_1_388
10
23.9789666
20
13.1051717
40
0.2075566
50
36.8249851
51
85.741667
0
ARC
8
DEFAULT_255_1_388
10
23.9714079
20
13.0488065
40
0.2643487
50
85.0150021
51
90.050843
0
LINE
8
DEFAULT_255_1_388
10
22.2516901
20
21.1295775
11
22.2516901
21
21.2660157
0
LINE
8
DEFAULT_255_1_388
10
22.2516901
20
21.2660157
11
22.3772856
21
21.2660157
0
LINE
8
DEFAULT_255_1_388
10
22.1631408
20
21.4973282
11
21.9959814
21
21.4973282
0
LINE
8
DEFAULT_255_1_388
10
21.9842351
20
20.8738687
11
22.152298
21
20.8738687
0
LINE
8
DEFAULT_255_1_388
10
22.3772856
20
21.1295775
11
22.2516901
21
21.1295775
0
ARC
8
DEFAULT_255_1_388
10
22.3740082
20
21.6476922
40
0.3816905
50
270.491971
51
281.8953028
0
ARC
8
DEFAULT_255_1_388
10
22.4011509
20
21.5237199
40
0.2547877
50
281.6690378
51
301.2943765
0
ARC
8
DEFAULT_255_1_388
10
22.4202961
20
21.4886926
40
0.2149197
50
301.7834992
51
311.754567
0
ARC
8
DEFAULT_255_1_388
10
22.4306002
20
21.477265
40
0.1995326
50
311.7325027
51
354.2803031
0
ARC
8
DEFAULT_255_1_388
10
22.3488418
20
21.491328
40
0.2823461
50
353.0941646
51
0.1174696
0
ARC
8
DEFAULT_255_1_388
10
22.2969976
20
21.4966874
40
0.3342238
50
359.1804452
51
15.0452323
0
ARC
8
DEFAULT_255_1_388
10
22.4484034
20
21.5408546
40
0.1765747
50
13.957816
51
77.6713812
0
ARC
8
DEFAULT_255_1_388
10
22.404927
20
21.3850464
40
0.3381982
50
76.111571
51
90.7028736
0
ARC
8
DEFAULT_255_1_388
10
22.3982682
20
21.415825
40
0.3074046
50
89.5321574
51
103.5319393
0
ARC
8
DEFAULT_255_1_388
10
22.3757066
20
21.5057443
40
0.2147041
50
103.2930114
51
133.5619756
0
ARC
8
DEFAULT_255_1_388
10
22.3707007
20
21.5124351
40
0.2064084
50
133.8349761
51
173.5343225
0
ARC
8
DEFAULT_255_1_388
10
22.4520665
20
21.4980144
40
0.2889266
50
172.5097183
51
180.1360699
0
ARC
8
DEFAULT_255_1_388
10
22.3450429
20
21.501888
40
0.3490913
50
155.3483706
51
180.7484035
0
ARC
8
DEFAULT_255_1_388
10
22.3395404
20
21.4986519
40
0.3454798
50
131.5745177
51
154.4799474
0
ARC
8
DEFAULT_255_1_388
10
22.3747687
20
21.4630422
40
0.3955058
50
96.9874487
51
131.9690874
0
ARC
8
DEFAULT_255_1_388
10
22.399458
20
21.3229407
40
0.537622
50
89.8592909
51
97.7827481
0
ARC
8
DEFAULT_255_1_388
10
22.4048689
20
21.293436
40
0.5671399
50
78.3654493
51
90.4132586
0
ARC
8
DEFAULT_255_1_388
10
22.445133
20
21.4800918
40
0.3762034
50
56.6229818
51
78.6387103
0
ARC
8
DEFAULT_255_1_388
10
22.4693159
20
21.5223846
40
0.3275964
50
47.0254604
51
56.085558
0
ARC
8
DEFAULT_255_1_388
10
22.471541
20
21.5268189
40
0.3228382
50
10.9207523
51
46.777927
0
ARC
8
DEFAULT_255_1_388
10
22.3181004
20
21.4913401
40
0.4802559
50
359.6364235
51
11.6087615
0
ARC
8
DEFAULT_255_1_388
10
22.524517
20
21.4896404
40
0.273833
50
332.3549969
51
359.7179765
0
ARC
8
DEFAULT_255_1_388
10
22.451357
20
21.5243285
40
0.3547505
50
325.2332381
51
332.8746682
0
ARC
8
DEFAULT_255_1_388
10
22.4685153
20
21.5123763
40
0.3338396
50
292.9803892
51
325.2391113
0
ARC
8
DEFAULT_255_1_388
10
22.4374349
20
21.5728679
40
0.4016959
50
292.542178
51
293.6931461
0
ARC
8
DEFAULT_255_1_388
10
22.4817921
20
20.8463036
40
0.372079
50
57.643292
51
72.8626085
0
ARC
8
DEFAULT_255_1_388
10
22.5216755
20
20.9109273
40
0.2961455
50
36.7246661
51
57.4701329
0
ARC
8
DEFAULT_255_1_388
10
22.5203912
20
20.912347
40
0.2963321
50
8.054535
51
36.3561529
0
ARC
8
DEFAULT_255_1_388
10
22.4233585
20
20.8949073
40
0.3948682
50
359.8316595
51
8.5873361
0
ARC
8
DEFAULT_255_1_388
10
22.3811059
20
20.889497
40
0.4371398
50
343.9831631
51
0.557075
0
ARC
8
DEFAULT_255_1_388
10
22.4808108
20
20.8621963
40
0.3337749
50
311.6358204
51
343.7652116
0
ARC
8
DEFAULT_255_1_388
10
22.4382362
20
20.9101955
40
0.3979351
50
279.7829743
51
311.625622
0
ARC
8
DEFAULT_255_1_388
10
22.4043497
20
21.0718642
40
0.5630417
50
269.7285092
51
280.3857694
0
ARC
8
DEFAULT_255_1_388
10
22.397381
20
21.0672241
40
0.5584119
50
256.6827433
51
270.4412869
0
ARC
8
DEFAULT_255_1_388
10
22.3592797
20
20.9114698
40
0.3980715
50
229.4223821
51
256.8554507
0
ARC
8
DEFAULT_255_1_388
10
22.312635
20
20.8589683
40
0.3278564
50
181.8183354
51
229.6455015
0
ARC
8
DEFAULT_255_1_388
10
22.429596
20
20.8736825
40
0.4453611
50
179.9760419
51
183.2330638
0
ARC
8
DEFAULT_255_1_388
10
22.4102512
20
20.8713781
40
0.2579652
50
179.4467996
51
196.2871626
0
ARC
8
DEFAULT_255_1_388
10
22.3553966
20
20.8563709
40
0.2011057
50
196.5661293
51
227.7059371
0
ARC
8
DEFAULT_255_1_388
10
22.3738573
20
20.8770155
40
0.2287994
50
227.7653015
51
257.8763321
0
ARC
8
DEFAULT_255_1_388
10
22.3991656
20
20.9830961
40
0.3378385
50
257.4583525
51
270.4267406
0
ARC
8
DEFAULT_255_1_388
10
22.4042906
20
21.015723
40
0.3704652
50
269.5965319
51
280.8788143
0
ARC
8
DEFAULT_255_1_388
10
22.4301134
20
20.8867529
40
0.2389415
50
280.6347277
51
299.8594068
0
ARC
8
DEFAULT_255_1_388
10
22.4515903
20
20.8459736
40
0.19289
50
300.3575552
51
314.5515667
0
ARC
8
DEFAULT_255_1_388
10
22.4422579
20
20.8528025
40
0.204312
50
315.0730962
51
345.0429362
0
ARC
8
DEFAULT_255_1_388
10
22.3384087
20
20.8830539
40
0.31246
50
344.598526
51
357.9270698
0
ARC
8
DEFAULT_255_1_388
10
22.2374391
20
20.8899705
40
0.4136265
50
357.4755098
51
0.0224936
0
ARC
8
DEFAULT_255_1_388
10
22.3527269
20
20.8927099
40
0.2983498
50
359.5051035
51
13.4236939
0
ARC
8
DEFAULT_255_1_388
10
22.4502359
20
20.9176637
40
0.1977186
50
12.9497905
51
48.7550905
0
ARC
8
DEFAULT_255_1_388
10
22.4297281
20
20.8896373
40
0.2323321
50
49.509109
51
72.1832965
0
ARC
8
DEFAULT_255_1_388
10
22.3894749
20
20.7701632
40
0.358397
50
71.9008458
51
84.3555134
0
ARC
8
DEFAULT_255_1_388
10
22.3713144
20
20.6169712
40
0.512641
50
84.019632
51
89.3326067
0
ARC
8
DEFAULT_255_1_388
10
23.1889138
20
20.6156142
40
0.1204062
50
163.5412609
51
180.5084512
0
ARC
8
DEFAULT_255_1_388
10
23.1673037
20
20.621446
40
0.0980307
50
138.1652
51
163.2315563
0
ARC
8
DEFAULT_255_1_388
10
23.1546778
20
20.6321456
40
0.0814881
50
105.6860499
51
137.8492655
0
ARC
8
DEFAULT_255_1_388
10
23.1679979
20
20.5889109
40
0.126719
50
92.6078949
51
106.199173
0
ARC
8
DEFAULT_255_1_388
10
23.1714169
20
20.5443207
40
0.1714243
50
89.9659531
51
93.0713334
0
ARC
8
DEFAULT_255_1_388
10
23.1726205
20
20.5693484
40
0.1464007
50
78.4379126
51
90.4311892
0
ARC
8
DEFAULT_255_1_388
10
23.1834852
20
20.6200017
40
0.094599
50
56.8961942
51
78.7357785
0
ARC
8
DEFAULT_255_1_388
10
23.1905963
20
20.6324075
40
0.0803272
50
42.6503148
51
56.3122241
0
ARC
8
DEFAULT_255_1_388
10
23.1761864
20
20.6191661
40
0.099897
50
3.8141057
51
42.636595
0
ARC
8
DEFAULT_255_1_388
10
23.1439186
20
20.6146616
40
0.1324137
50
359.9498843
51
4.8301897
0
ARC
8
DEFAULT_255_1_388
10
23.1694324
20
20.6134722
40
0.1069053
50
340.9378148
51
0.5753733
0
ARC
8
DEFAULT_255_1_388
10
23.1820906
20
20.6100569
40
0.0938301
50
316.0798885
51
340.3845117
0
ARC
8
DEFAULT_255_1_388
10
23.1886217
20
20.604052
40
0.0849605
50
285.8512844
51
315.941661
0
ARC
8
DEFAULT_255_1_388
10
23.1754097
20
20.646762
40
0.1296594
50
273.1293204
51
286.3125006
0
ARC
8
DEFAULT_255_1_388
10
23.1716607
20
20.6919586
40
0.1749979
50
269.9535313
51
273.5471598
0
ARC
8
DEFAULT_255_1_388
10
23.1704213
20
20.6673833
40
0.1504266
50
259.0487117
51
270.4180248
0
ARC
8
DEFAULT_255_1_388
10
23.1595825
20
20.6136783
40
0.0956414
50
239.7583641
51
259.3115656
0
ARC
8
DEFAULT_255_1_388
10
23.1504758
20
20.5967048
40
0.0763945
50
222.6243303
51
239.2473835
0
ARC
8
DEFAULT_255_1_388
10
23.1655929
20
20.6105572
40
0.0968985
50
182.9231258
51
222.598101
0
ARC
8
DEFAULT_255_1_388
10
23.1959129
20
20.6144696
40
0.1274004
50
179.9657458
51
183.9850364
0
LINE
8
DEFAULT_255_1_388
10
23.7452822
20
21.1521666
11
23.6115546
21
21.1865021
0
LINE
8
DEFAULT_255_1_388
10
23.6115546
20
21.1865021
11
23.6784184
21
21.8424898
0
LINE
8
DEFAULT_255_1_388
10
23.6784184
20
21.8424898
11
24.3524775
21
21.8424898
0
LINE
8
DEFAULT_255_1_388
10
24.3524775
20
21.8424898
11
24.3524775
21
21.6879803
0
LINE
8
DEFAULT_255_1_388
10
24.3524775
20
21.6879803
11
23.820278
21
21.6879803
0
LINE
8
DEFAULT_255_1_388
10
23.820278
20
21.6879803
11
23.7805212
21
21.3292652
0
LINE
8
DEFAULT_255_1_388
10
23.5645693
20
20.8729652
11
23.7226931
21
20.8729652
0
LINE
8
DEFAULT_255_1_388
10
23.7895568
20
21.1883092
11
23.7452822
21
21.1521666
0
ARC
8
DEFAULT_255_1_388
10
23.9891825
20
20.9715241
40
0.4141476
50
93.7181681
51
120.253934
0
ARC
8
DEFAULT_255_1_388
10
23.9997878
20
20.8806284
40
0.5055616
50
89.9660471
51
94.2495185
0
ARC
8
DEFAULT_255_1_388
10
24.00437
20
20.9469154
40
0.4392953
50
73.8045384
51
90.5585736
0
ARC
8
DEFAULT_255_1_388
10
24.0307957
20
21.043452
40
0.3392225
50
41.3071072
51
73.543002
0
ARC
8
DEFAULT_255_1_388
10
23.9839777
20
21.0031461
40
0.4009977
50
13.5075837
51
41.2174839
0
ARC
8
DEFAULT_255_1_388
10
23.7992875
20
20.9547907
40
0.5918864
50
1.1330171
51
13.8830737
0
ARC
8
DEFAULT_255_1_388
10
23.639652
20
20.9462522
40
0.7516787
50
359.9925091
51
1.5431298
0
ARC
8
DEFAULT_255_1_388
10
23.7841135
20
20.9416027
40
0.6072343
50
347.8572712
51
0.4294349
0
ARC
8
DEFAULT_255_1_388
10
23.981027
20
20.8969898
40
0.4053482
50
323.6727442
51
348.1674594
0
ARC
8
DEFAULT_255_1_388
10
24.0141235
20
20.8768175
40
0.3667495
50
316.8171818
51
323.1486802
0
ARC
8
DEFAULT_255_1_388
10
24.0210358
20
20.8726612
40
0.358869
50
281.839603
51
316.5458142
0
ARC
8
DEFAULT_255_1_388
10
23.9787646
20
21.0476363
40
0.5388223
50
269.5770964
51
282.4214641
0
ARC
8
DEFAULT_255_1_388
10
23.9707567
20
21.023593
40
0.5147801
50
256.2425863
51
270.4486481
0
ARC
8
DEFAULT_255_1_388
10
23.9371094
20
20.8886124
40
0.3756708
50
228.9024379
51
256.33135
0
ARC
8
DEFAULT_255_1_388
10
23.9288075
20
20.8755054
40
0.360344
50
193.7536029
51
228.5272638
0
ARC
8
DEFAULT_255_1_388
10
24.068064
20
20.9163463
40
0.5053599
50
184.9244437
51
194.4976052
0
ARC
8
DEFAULT_255_1_388
10
24.0897281
20
20.9203722
40
0.3700839
50
187.3596909
51
198.6733728
0
ARC
8
DEFAULT_255_1_388
10
23.9716524
20
20.8794373
40
0.2451195
50
198.4453795
51
217.7945479
0
ARC
8
DEFAULT_255_1_388
10
23.9383697
20
20.8558563
40
0.2043754
50
218.2887146
51
228.5613203
0
ARC
8
DEFAULT_255_1_388
10
23.9493704
20
20.8706902
40
0.2227819
50
228.9652423
51
258.1237049
0
ARC
8
DEFAULT_255_1_388
10
23.9725141
20
20.9697964
40
0.3245374
50
257.7260585
51
270.4013717
0
ARC
8
DEFAULT_255_1_388
10
23.9775639
20
20.9197255
40
0.2744726
50
269.4204315
51
286.420998
0
ARC
8
DEFAULT_255_1_388
10
23.9942695
20
20.8590705
40
0.2115721
50
286.7250065
51
320.6004665
0
ARC
8
DEFAULT_255_1_388
10
23.951161
20
20.8940527
40
0.2670878
50
320.6712228
51
344.5440474
0
ARC
8
DEFAULT_255_1_388
10
23.8210324
20
20.9322394
40
0.4026927
50
344.241448
51
356.735803
0
ARC
8
DEFAULT_255_1_388
10
23.6806631
20
20.9438656
40
0.5435085
50
356.3547471
51
0.0507222
0
ARC
8
DEFAULT_255_1_388
10
23.8308896
20
20.9473812
40
0.3932934
50
359.5579289
51
12.9534322
0
ARC
8
DEFAULT_255_1_388
10
23.9495736
20
20.9761586
40
0.2711827
50
12.6489751
51
41.608121
0
ARC
8
DEFAULT_255_1_388
10
23.9754896
20
20.9981946
40
0.2371737
50
41.7851122
51
85.9892156
0
ARC
8
DEFAULT_255_1_388
10
23.9616206
20
20.9066738
40
0.3295244
50
84.6965848
51
90.0672125
0
ARC
8
DEFAULT_255_1_388
10
23.9589774
20
20.8315118
40
0.4046926
50
89.6804991
51
99.161352
0
ARC
8
DEFAULT_255_1_388
10
23.9358783
20
20.9695848
40
0.2647044
50
98.9836248
51
113.8905702
0
ARC
8
DEFAULT_255_1_388
10
23.9100458
20
21.0305118
40
0.1985386
50
114.195234
51
127.3641866
0
LINE
8
DEFAULT_255_1_388
10
22.1193901
20
29.0670775
11
22.1193901
21
29.2035157
0
LINE
8
DEFAULT_255_1_388
10
22.1193901
20
29.2035157
11
22.2449856
21
29.2035157
0
LINE
8
DEFAULT_255_1_388
10
22.0308408
20
29.4348282
11
21.8636814
21
29.4348282
0
LINE
8
DEFAULT_255_1_388
10
21.8519351
20
28.8113687
11
22.019998
21
28.8113687
0
LINE
8
DEFAULT_255_1_388
10
22.2449856
20
29.0670775
11
22.1193901
21
29.0670775
0
ARC
8
DEFAULT_255_1_388
10
22.2417082
20
29.5851922
40
0.3816905
50
270.491971
51
281.8953028
0
ARC
8
DEFAULT_255_1_388
10
22.2688509
20
29.4612199
40
0.2547877
50
281.6690378
51
301.2943765
0
ARC
8
DEFAULT_255_1_388
10
22.2879961
20
29.4261926
40
0.2149197
50
301.7834992
51
311.754567
0
ARC
8
DEFAULT_255_1_388
10
22.2983002
20
29.414765
40
0.1995326
50
311.7325027
51
354.2803031
0
ARC
8
DEFAULT_255_1_388
10
22.2165418
20
29.428828
40
0.2823461
50
353.0941646
51
0.1174696
0
ARC
8
DEFAULT_255_1_388
10
22.1646976
20
29.4341874
40
0.3342238
50
359.1804452
51
15.0452323
0
ARC
8
DEFAULT_255_1_388
10
22.3161034
20
29.4783546
40
0.1765747
50
13.957816
51
77.6713812
0
ARC
8
DEFAULT_255_1_388
10
22.272627
20
29.3225464
40
0.3381982
50
76.111571
51
90.7028736
0
ARC
8
DEFAULT_255_1_388
10
22.2659682
20
29.353325
40
0.3074046
50
89.5321574
51
103.5319393
0
ARC
8
DEFAULT_255_1_388
10
22.2434066
20
29.4432443
40
0.2147041
50
103.2930114
51
133.5619756
0
ARC
8
DEFAULT_255_1_388
10
22.2384007
20
29.4499351
40
0.2064084
50
133.8349761
51
173.5343225
0
ARC
8
DEFAULT_255_1_388
10
22.3197665
20
29.4355144
40
0.2889266
50
172.5097183
51
180.1360699
0
ARC
8
DEFAULT_255_1_388
10
22.2127429
20
29.439388
40
0.3490913
50
155.3483706
51
180.7484035
0
ARC
8
DEFAULT_255_1_388
10
22.2072404
20
29.4361519
40
0.3454798
50
131.5745177
51
154.4799474
0
ARC
8
DEFAULT_255_1_388
10
22.2424687
20
29.4005422
40
0.3955058
50
96.9874487
51
131.9690874
0
ARC
8
DEFAULT_255_1_388
10
22.267158
20
29.2604407
40
0.537622
50
89.8592909
51
97.7827481
0
ARC
8
DEFAULT_255_1_388
10
22.2725689
20
29.230936
40
0.5671399
50
78.3654493
51
90.4132586
0
ARC
8
DEFAULT_255_1_388
10
22.312833
20
29.4175918
40
0.3762034
50
56.6229818
51
78.6387103
0
ARC
8
DEFAULT_255_1_388
10
22.3370159
20
29.4598846
40
0.3275964
50
47.0254604
51
56.085558
0
ARC
8
DEFAULT_255_1_388
10
22.339241
20
29.4643189
40
0.3228382
50
10.9207523
51
46.777927
0
ARC
8
DEFAULT_255_1_388
10
22.1858004
20
29.4288401
40
0.4802559
50
359.6364235
51
11.6087615
0
ARC
8
DEFAULT_255_1_388
10
22.392217
20
29.4271404
40
0.273833
50
332.3549969
51
359.7179765
0
ARC
8
DEFAULT_255_1_388
10
22.319057
20
29.4618285
40
0.3547505
50
325.2332381
51
332.8746682
0
ARC
8
DEFAULT_255_1_388
10
22.3362153
20
29.4498763
40
0.3338396
50
292.9803892
51
325.2391113
0
ARC
8
DEFAULT_255_1_388
10
22.3051349
20
29.5103679
40
0.4016959
50
292.542178
51
293.6931461
0
ARC
8
DEFAULT_255_1_388
10
22.3494921
20
28.7838036
40
0.372079
50
57.643292
51
72.8626085
0
ARC
8
DEFAULT_255_1_388
10
22.3893755
20
28.8484273
40
0.2961455
50
36.7246661
51
57.4701329
0
ARC
8
DEFAULT_255_1_388
10
22.3880912
20
28.849847
40
0.2963321
50
8.054535
51
36.3561529
0
ARC
8
DEFAULT_255_1_388
10
22.2910585
20
28.8324073
40
0.3948682
50
359.8316595
51
8.5873361
0
ARC
8
DEFAULT_255_1_388
10
22.2488059
20
28.826997
40
0.4371398
50
343.9831631
51
0.557075
0
ARC
8
DEFAULT_255_1_388
10
22.3485108
20
28.7996963
40
0.3337749
50
311.6358204
51
343.7652116
0
ARC
8
DEFAULT_255_1_388
10
22.3059362
20
28.8476955
40
0.3979351
50
279.7829743
51
311.625622
0
ARC
8
DEFAULT_255_1_388
10
22.2720497
20
29.0093642
40
0.5630417
50
269.7285092
51
280.3857694
0
ARC
8
DEFAULT_255_1_388
10
22.265081
20
29.0047241
40
0.5584119
50
256.6827433
51
270.4412869
0
ARC
8
DEFAULT_255_1_388
10
22.2269797
20
28.8489698
40
0.3980715
50
229.4223821
51
256.8554507
0
ARC
8
DEFAULT_255_1_388
10
22.180335
20
28.7964683
40
0.3278564
50
181.8183354
51
229.6455015
0
ARC
8
DEFAULT_255_1_388
10
22.297296
20
28.8111825
40
0.4453611
50
179.9760419
51
183.2330638
0
ARC
8
DEFAULT_255_1_388
10
22.2779512
20
28.8088781
40
0.2579652
50
179.4467996
51
196.2871626
0
ARC
8
DEFAULT_255_1_388
10
22.2230966
20
28.7938709
40
0.2011057
50
196.5661293
51
227.7059371
0
ARC
8
DEFAULT_255_1_388
10
22.2415573
20
28.8145155
40
0.2287994
50
227.7653015
51
257.8763321
0
ARC
8
DEFAULT_255_1_388
10
22.2668656
20
28.9205961
40
0.3378385
50
257.4583525
51
270.4267406
0
ARC
8
DEFAULT_255_1_388
10
22.2719906
20
28.953223
40
0.3704652
50
269.5965319
51
280.8788143
0
ARC
8
DEFAULT_255_1_388
10
22.2978134
20
28.8242529
40
0.2389415
50
280.6347277
51
299.8594068
0
ARC
8
DEFAULT_255_1_388
10
22.3192903
20
28.7834736
40
0.19289
50
300.3575552
51
314.5515667
0
ARC
8
DEFAULT_255_1_388
10
22.3099579
20
28.7903025
40
0.204312
50
315.0730962
51
345.0429362
0
ARC
8
DEFAULT_255_1_388
10
22.2061087
20
28.8205539
40
0.31246
50
344.598526
51
357.9270698
0
ARC
8
DEFAULT_255_1_388
10
22.1051391
20
28.8274705
40
0.4136265
50
357.4755098
51
0.0224936
0
ARC
8
DEFAULT_255_1_388
10
22.2204269
20
28.8302099
40
0.2983498
50
359.5051035
51
13.4236939
0
ARC
8
DEFAULT_255_1_388
10
22.3179359
20
28.8551637
40
0.1977186
50
12.9497905
51
48.7550905
0
ARC
8
DEFAULT_255_1_388
10
22.2974281
20
28.8271373
40
0.2323321
50
49.509109
51
72.1832965
0
ARC
8
DEFAULT_255_1_388
10
22.2571749
20
28.7076632
40
0.358397
50
71.9008458
51
84.3555134
0
ARC
8
DEFAULT_255_1_388
10
22.2390144
20
28.5544712
40
0.512641
50
84.019632
51
89.3326067
0
ARC
8
DEFAULT_255_1_388
10
23.0566138
20
28.5531142
40
0.1204062
50
163.5412609
51
180.5084512
0
ARC
8
DEFAULT_255_1_388
10
23.0350037
20
28.558946
40
0.0980307
50
138.1652
51
163.2315563
0
ARC
8
DEFAULT_255_1_388
10
23.0223778
20
28.5696456
40
0.0814881
50
105.6860499
51
137.8492655
0
ARC
8
DEFAULT_255_1_388
10
23.0356979
20
28.5264109
40
0.126719
50
92.6078949
51
106.199173
0
ARC
8
DEFAULT_255_1_388
10
23.0391169
20
28.4818207
40
0.1714243
50
89.9659531
51
93.0713334
0
ARC
8
DEFAULT_255_1_388
10
23.0403205
20
28.5068484
40
0.1464007
50
78.4379126
51
90.4311892
0
ARC
8
DEFAULT_255_1_388
10
23.0511852
20
28.5575017
40
0.094599
50
56.8961942
51
78.7357785
0
ARC
8
DEFAULT_255_1_388
10
23.0582963
20
28.5699075
40
0.0803272
50
42.6503148
51
56.3122241
0
ARC
8
DEFAULT_255_1_388
10
23.0438864
20
28.5566661
40
0.099897
50
3.8141057
51
42.636595
0
ARC
8
DEFAULT_255_1_388
10
23.0116186
20
28.5521616
40
0.1324137
50
359.9498843
51
4.8301897
0
ARC
8
DEFAULT_255_1_388
10
23.0371324
20
28.5509722
40
0.1069053
50
340.9378148
51
0.5753733
0
ARC
8
DEFAULT_255_1_388
10
23.0497906
20
28.5475569
40
0.0938301
50
316.0798885
51
340.3845117
0
ARC
8
DEFAULT_255_1_388
10
23.0563217
20
28.541552
40
0.0849605
50
285.8512844
51
315.941661
0
ARC
8
DEFAULT_255_1_388
10
23.0431097
20
28.584262
40
0.1296594
50
273.1293204
51
286.3125006
0
ARC
8
DEFAULT_255_1_388
10
23.0393607
20
28.6294586
40
0.1749979
50
269.9535313
51
273.5471598
0
ARC
8
DEFAULT_255_1_388
10
23.0381213
20
28.6048833
40
0.1504266
50
259.0487117
51
270.4180248
0
ARC
8
DEFAULT_255_1_388
10
23.0272825
20
28.5511783
40
0.0956414
50
239.7583641
51
259.3115656
0
ARC
8
DEFAULT_255_1_388
10
23.0181758
20
28.5342048
40
0.0763945
50
222.6243303
51
239.2473835
0
ARC
8
DEFAULT_255_1_388
10
23.0332929
20
28.5480572
40
0.0968985
50
182.9231258
51
222.598101
0
ARC
8
DEFAULT_255_1_388
10
23.0636129
20
28.5519696
40
0.1274004
50
179.9657458
51
183.9850364
0
LINE
8
DEFAULT_255_1_388
10
24.1081355
20
29.7799898
11
24.1081355
21
28.906243
0
LINE
8
DEFAULT_255_1_388
10
24.1081355
20
28.906243
11
24.2906555
21
28.906243
0
LINE
8
DEFAULT_255_1_388
10
24.2906555
20
28.906243
11
24.2906555
21
28.7698048
0
LINE
8
DEFAULT_255_1_388
10
24.2906555
20
28.7698048
11
24.1081355
21
28.7698048
0
LINE
8
DEFAULT_255_1_388
10
24.1081355
20
28.7698048
11
24.1081355
21
28.4644
0
LINE
8
DEFAULT_255_1_388
10
24.1081355
20
28.4644
11
23.9400725
21
28.4644
0
LINE
8
DEFAULT_255_1_388
10
23.9400725
20
28.4644
11
23.9400725
21
28.7698048
0
LINE
8
DEFAULT_255_1_388
10
23.9400725
20
28.7698048
11
23.3410093
21
28.7698048
0
LINE
8
DEFAULT_255_1_388
10
23.3410093
20
28.7698048
11
23.3410093
21
28.8682933
0
LINE
8
DEFAULT_255_1_388
10
23.3410093
20
28.8682933
11
23.9301333
21
29.7799898
0
LINE
8
DEFAULT_255_1_388
10
23.9301333
20
29.7799898
11
24.1081355
21
29.7799898
0
LINE
8
DEFAULT_255_1_388
10
23.9201941
20
29.5152455
11
23.5307578
21
28.906243
0
LINE
8
DEFAULT_255_1_388
10
23.5307578
20
28.906243
11
23.9400725
21
28.906243
0
LINE
8
DEFAULT_255_1_388
10
23.9400725
20
28.906243
11
23.9400725
21
29.551388
0
LINE
8
DEFAULT_255_1_388
10
23.9400725
20
29.551388
11
23.9201941
21
29.5152455
0
LINE
8
DEFAULT_255_1_388
10
22.2516901
20
37.0045775
11
22.2516901
21
37.1410157
0
LINE
8
DEFAULT_255_1_388
10
22.2516901
20
37.1410157
11
22.3772856
21
37.1410157
0
LINE
8
DEFAULT_255_1_388
10
22.1631408
20
37.3723282
11
21.9959814
21
37.3723282
0
LINE
8
DEFAULT_255_1_388
10
21.9842351
20
36.7488688
11
22.152298
21
36.7488688
0
LINE
8
DEFAULT_255_1_388
10
22.3772856
20
37.0045775
11
22.2516901
21
37.0045775
0
ARC
8
DEFAULT_255_1_388
10
22.3740082
20
37.5226922
40
0.3816905
50
270.491971
51
281.8953028
0
ARC
8
DEFAULT_255_1_388
10
22.4011509
20
37.3987199
40
0.2547877
50
281.6690378
51
301.2943765
0
ARC
8
DEFAULT_255_1_388
10
22.4202961
20
37.3636926
40
0.2149197
50
301.7834992
51
311.754567
0
ARC
8
DEFAULT_255_1_388
10
22.4306002
20
37.352265
40
0.1995326
50
311.7325027
51
354.2803031
0
ARC
8
DEFAULT_255_1_388
10
22.3488418
20
37.366328
40
0.2823461
50
353.0941646
51
0.1174696
0
ARC
8
DEFAULT_255_1_388
10
22.2969976
20
37.3716874
40
0.3342238
50
359.1804452
51
15.0452323
0
ARC
8
DEFAULT_255_1_388
10
22.4484034
20
37.4158546
40
0.1765747
50
13.957816
51
77.6713812
0
ARC
8
DEFAULT_255_1_388
10
22.404927
20
37.2600464
40
0.3381982
50
76.111571
51
90.7028736
0
ARC
8
DEFAULT_255_1_388
10
22.3982682
20
37.290825
40
0.3074046
50
89.5321574
51
103.5319393
0
ARC
8
DEFAULT_255_1_388
10
22.3757066
20
37.3807443
40
0.2147041
50
103.2930114
51
133.5619756
0
ARC
8
DEFAULT_255_1_388
10
22.3707007
20
37.3874351
40
0.2064084
50
133.8349761
51
173.5343225
0
ARC
8
DEFAULT_255_1_388
10
22.4520665
20
37.3730144
40
0.2889266
50
172.5097183
51
180.1360699
0
ARC
8
DEFAULT_255_1_388
10
22.3450429
20
37.376888
40
0.3490913
50
155.3483706
51
180.7484035
0
ARC
8
DEFAULT_255_1_388
10
22.3395404
20
37.3736519
40
0.3454798
50
131.5745177
51
154.4799474
0
ARC
8
DEFAULT_255_1_388
10
22.3747687
20
37.3380422
40
0.3955058
50
96.9874487
51
131.9690874
0
ARC
8
DEFAULT_255_1_388
10
22.399458
20
37.1979407
40
0.537622
50
89.8592909
51
97.7827481
0
ARC
8
DEFAULT_255_1_388
10
22.4048689
20
37.168436
40
0.5671399
50
78.3654493
51
90.4132586
0
ARC
8
DEFAULT_255_1_388
10
22.445133
20
37.3550918
40
0.3762034
50
56.6229818
51
78.6387103
0
ARC
8
DEFAULT_255_1_388
10
22.4693159
20
37.3973846
40
0.3275964
50
47.0254604
51
56.085558
0
ARC
8
DEFAULT_255_1_388
10
22.471541
20
37.4018189
40
0.3228382
50
10.9207523
51
46.777927
0
ARC
8
DEFAULT_255_1_388
10
22.3181004
20
37.3663401
40
0.4802559
50
359.6364235
51
11.6087615
0
ARC
8
DEFAULT_255_1_388
10
22.524517
20
37.3646404
40
0.273833
50
332.3549969
51
359.7179765
0
ARC
8
DEFAULT_255_1_388
10
22.451357
20
37.3993285
40
0.3547505
50
325.2332381
51
332.8746682
0
ARC
8
DEFAULT_255_1_388
10
22.4685153
20
37.3873763
40
0.3338396
50
292.9803892
51
325.2391113
0
ARC
8
DEFAULT_255_1_388
10
22.4374349
20
37.4478679
40
0.4016959
50
292.542178
51
293.6931461
0
ARC
8
DEFAULT_255_1_388
10
22.4817921
20
36.7213036
40
0.372079
50
57.643292
51
72.8626085
0
ARC
8
DEFAULT_255_1_388
10
22.5216755
20
36.7859273
40
0.2961455
50
36.7246661
51
57.4701329
0
ARC
8
DEFAULT_255_1_388
10
22.5203912
20
36.787347
40
0.2963321
50
8.054535
51
36.3561529
0
ARC
8
DEFAULT_255_1_388
10
22.4233585
20
36.7699073
40
0.3948682
50
359.8316595
51
8.5873361
0
ARC
8
DEFAULT_255_1_388
10
22.3811059
20
36.764497
40
0.4371398
50
343.9831631
51
0.557075
0
ARC
8
DEFAULT_255_1_388
10
22.4808108
20
36.7371963
40
0.3337749
50
311.6358204
51
343.7652116
0
ARC
8
DEFAULT_255_1_388
10
22.4382362
20
36.7851955
40
0.3979351
50
279.7829743
51
311.625622
0
ARC
8
DEFAULT_255_1_388
10
22.4043497
20
36.9468642
40
0.5630417
50
269.7285092
51
280.3857694
0
ARC
8
DEFAULT_255_1_388
10
22.397381
20
36.9422241
40
0.5584119
50
256.6827433
51
270.4412869
0
ARC
8
DEFAULT_255_1_388
10
22.3592797
20
36.7864698
40
0.3980715
50
229.4223821
51
256.8554507
0
ARC
8
DEFAULT_255_1_388
10
22.312635
20
36.7339683
40
0.3278564
50
181.8183354
51
229.6455015
0
ARC
8
DEFAULT_255_1_388
10
22.429596
20
36.7486825
40
0.4453611
50
179.9760419
51
183.2330638
0
ARC
8
DEFAULT_255_1_388
10
22.4102512
20
36.7463781
40
0.2579652
50
179.4467996
51
196.2871626
0
ARC
8
DEFAULT_255_1_388
10
22.3553966
20
36.7313709
40
0.2011057
50
196.5661293
51
227.7059371
0
ARC
8
DEFAULT_255_1_388
10
22.3738573
20
36.7520155
40
0.2287994
50
227.7653015
51
257.8763321
0
ARC
8
DEFAULT_255_1_388
10
22.3991656
20
36.8580961
40
0.3378385
50
257.4583525
51
270.4267406
0
ARC
8
DEFAULT_255_1_388
10
22.4042906
20
36.890723
40
0.3704652
50
269.5965319
51
280.8788143
0
ARC
8
DEFAULT_255_1_388
10
22.4301134
20
36.7617529
40
0.2389415
50
280.6347277
51
299.8594068
0
ARC
8
DEFAULT_255_1_388
10
22.4515903
20
36.7209736
40
0.19289
50
300.3575552
51
314.5515667
0
ARC
8
DEFAULT_255_1_388
10
22.4422579
20
36.7278025
40
0.204312
50
315.0730962
51
345.0429362
0
ARC
8
DEFAULT_255_1_388
10
22.3384087
20
36.7580539
40
0.31246
50
344.598526
51
357.9270698
0
ARC
8
DEFAULT_255_1_388
10
22.2374391
20
36.7649705
40
0.4136265
50
357.4755098
51
0.0224936
0
ARC
8
DEFAULT_255_1_388
10
22.3527269
20
36.7677099
40
0.2983498
50
359.5051035
51
13.4236939
0
ARC
8
DEFAULT_255_1_388
10
22.4502359
20
36.7926637
40
0.1977186
50
12.9497905
51
48.7550905
0
ARC
8
DEFAULT_255_1_388
10
22.4297281
20
36.7646373
40
0.2323321
50
49.509109
51
72.1832965
0
ARC
8
DEFAULT_255_1_388
10
22.3894749
20
36.6451632
40
0.358397
50
71.9008458
51
84.3555134
0
ARC
8
DEFAULT_255_1_388
10
22.3713144
20
36.4919712
40
0.512641
50
84.019632
51
89.3326067
0
ARC
8
DEFAULT_255_1_388
10
23.1889138
20
36.4906142
40
0.1204062
50
163.5412609
51
180.5084512
0
ARC
8
DEFAULT_255_1_388
10
23.1673037
20
36.496446
40
0.0980307
50
138.1652
51
163.2315563
0
ARC
8
DEFAULT_255_1_388
10
23.1546778
20
36.5071456
40
0.0814881
50
105.6860499
51
137.8492655
0
ARC
8
DEFAULT_255_1_388
10
23.1679979
20
36.4639109
40
0.126719
50
92.6078949
51
106.199173
0
ARC
8
DEFAULT_255_1_388
10
23.1714169
20
36.4193207
40
0.1714243
50
89.9659531
51
93.0713334
0
ARC
8
DEFAULT_255_1_388
10
23.1726205
20
36.4443484
40
0.1464007
50
78.4379126
51
90.4311892
0
ARC
8
DEFAULT_255_1_388
10
23.1834852
20
36.4950017
40
0.094599
50
56.8961942
51
78.7357785
0
ARC
8
DEFAULT_255_1_388
10
23.1905963
20
36.5074075
40
0.0803272
50
42.6503148
51
56.3122241
0
ARC
8
DEFAULT_255_1_388
10
23.1761864
20
36.4941661
40
0.099897
50
3.8141057
51
42.636595
0
ARC
8
DEFAULT_255_1_388
10
23.1439186
20
36.4896616
40
0.1324137
50
359.9498843
51
4.8301897
0
ARC
8
DEFAULT_255_1_388
10
23.1694324
20
36.4884722
40
0.1069053
50
340.9378148
51
0.5753733
0
ARC
8
DEFAULT_255_1_388
10
23.1820906
20
36.4850569
40
0.0938301
50
316.0798885
51
340.3845117
0
ARC
8
DEFAULT_255_1_388
10
23.1886217
20
36.479052
40
0.0849605
50
285.8512844
51
315.941661
0
ARC
8
DEFAULT_255_1_388
10
23.1754097
20
36.521762
40
0.1296594
50
273.1293204
51
286.3125006
0
ARC
8
DEFAULT_255_1_388
10
23.1716607
20
36.5669586
40
0.1749979
50
269.9535313
51
273.5471598
0
ARC
8
DEFAULT_255_1_388
10
23.1704213
20
36.5423833
40
0.1504266
50
259.0487117
51
270.4180248
0
ARC
8
DEFAULT_255_1_388
10
23.1595825
20
36.4886783
40
0.0956414
50
239.7583641
51
259.3115656
0
ARC
8
DEFAULT_255_1_388
10
23.1504758
20
36.4717048
40
0.0763945
50
222.6243303
51
239.2473835
0
ARC
8
DEFAULT_255_1_388
10
23.1655929
20
36.4855572
40
0.0968985
50
182.9231258
51
222.598101
0
ARC
8
DEFAULT_255_1_388
10
23.1959129
20
36.4894696
40
0.1274004
50
179.9657458
51
183.9850364
0
LINE
8
DEFAULT_255_1_388
10
23.7778105
20
37.0045775
11
23.7778105
21
37.1410157
0
LINE
8
DEFAULT_255_1_388
10
23.7778105
20
37.1410157
11
23.903406
21
37.1410157
0
LINE
8
DEFAULT_255_1_388
10
23.6892612
20
37.3723282
11
23.5221018
21
37.3723282
0
LINE
8
DEFAULT_255_1_388
10
23.5103554
20
36.7488688
11
23.6784184
21
36.7488688
0
LINE
8
DEFAULT_255_1_388
10
23.903406
20
37.0045775
11
23.7778105
21
37.0045775
0
ARC
8
DEFAULT_255_1_388
10
23.9001286
20
37.5226922
40
0.3816905
50
270.491971
51
281.8953028
0
ARC
8
DEFAULT_255_1_388
10
23.9272713
20
37.3987199
40
0.2547877
50
281.6690378
51
301.2943765
0
ARC
8
DEFAULT_255_1_388
10
23.9464164
20
37.3636926
40
0.2149197
50
301.7834992
51
311.754567
0
ARC
8
DEFAULT_255_1_388
10
23.9567206
20
37.352265
40
0.1995326
50
311.7325027
51
354.2803031
0
ARC
8
DEFAULT_255_1_388
10
23.8749622
20
37.366328
40
0.2823461
50
353.0941646
51
0.1174696
0
ARC
8
DEFAULT_255_1_388
10
23.823118
20
37.3716874
40
0.3342238
50
359.1804452
51
15.0452323
0
ARC
8
DEFAULT_255_1_388
10
23.9745238
20
37.4158546
40
0.1765747
50
13.957816
51
77.6713812
0
ARC
8
DEFAULT_255_1_388
10
23.9310474
20
37.2600464
40
0.3381982
50
76.111571
51
90.7028736
0
ARC
8
DEFAULT_255_1_388
10
23.9243886
20
37.290825
40
0.3074046
50
89.5321574
51
103.5319393
0
ARC
8
DEFAULT_255_1_388
10
23.9018269
20
37.3807443
40
0.2147041
50
103.2930114
51
133.5619756
0
ARC
8
DEFAULT_255_1_388
10
23.8968211
20
37.3874351
40
0.2064084
50
133.8349761
51
173.5343225
0
ARC
8
DEFAULT_255_1_388
10
23.9781868
20
37.3730144
40
0.2889266
50
172.5097183
51
180.1360699
0
ARC
8
DEFAULT_255_1_388
10
23.8711632
20
37.376888
40
0.3490913
50
155.3483706
51
180.7484035
0
ARC
8
DEFAULT_255_1_388
10
23.8656608
20
37.3736519
40
0.3454798
50
131.5745177
51
154.4799474
0
ARC
8
DEFAULT_255_1_388
10
23.9008891
20
37.3380422
40
0.3955058
50
96.9874487
51
131.9690874
0
ARC
8
DEFAULT_255_1_388
10
23.9255783
20
37.1979407
40
0.537622
50
89.8592909
51
97.7827481
0
ARC
8
DEFAULT_255_1_388
10
23.9309892
20
37.168436
40
0.5671399
50
78.3654493
51
90.4132586
0
ARC
8
DEFAULT_255_1_388
10
23.9712533
20
37.3550918
40
0.3762034
50
56.6229818
51
78.6387103
0
ARC
8
DEFAULT_255_1_388
10
23.9954363
20
37.3973846
40
0.3275964
50
47.0254604
51
56.085558
0
ARC
8
DEFAULT_255_1_388
10
23.9976614
20
37.4018189
40
0.3228382
50
10.9207523
51
46.777927
0
ARC
8
DEFAULT_255_1_388
10
23.8442208
20
37.3663401
40
0.4802559
50
359.6364235
51
11.6087615
0
ARC
8
DEFAULT_255_1_388
10
24.0506373
20
37.3646404
40
0.273833
50
332.3549969
51
359.7179765
0
ARC
8
DEFAULT_255_1_388
10
23.9774774
20
37.3993285
40
0.3547505
50
325.2332381
51
332.8746682
0
ARC
8
DEFAULT_255_1_388
10
23.9946357
20
37.3873763
40
0.3338396
50
292.9803892
51
325.2391113
0
ARC
8
DEFAULT_255_1_388
10
23.9635553
20
37.4478679
40
0.4016959
50
292.542178
51
293.6931461
0
ARC
8
DEFAULT_255_1_388
10
24.0079125
20
36.7213036
40
0.372079
50
57.643292
51
72.8626085
0
ARC
8
DEFAULT_255_1_388
10
24.0477959
20
36.7859273
40
0.2961455
50
36.7246661
51
57.4701329
0
ARC
8
DEFAULT_255_1_388
10
24.0465116
20
36.787347
40
0.2963321
50
8.054535
51
36.3561529
0
ARC
8
DEFAULT_255_1_388
10
23.9494788
20
36.7699073
40
0.3948682
50
359.8316595
51
8.5873361
0
ARC
8
DEFAULT_255_1_388
10
23.9072263
20
36.764497
40
0.4371398
50
343.9831631
51
0.557075
0
ARC
8
DEFAULT_255_1_388
10
24.0069312
20
36.7371963
40
0.3337749
50
311.6358204
51
343.7652116
0
ARC
8
DEFAULT_255_1_388
10
23.9643566
20
36.7851955
40
0.3979351
50
279.7829743
51
311.625622
0
ARC
8
DEFAULT_255_1_388
10
23.9304701
20
36.9468642
40
0.5630417
50
269.7285092
51
280.3857694
0
ARC
8
DEFAULT_255_1_388
10
23.9235014
20
36.9422241
40
0.5584119
50
256.6827433
51
270.4412869
0
ARC
8
DEFAULT_255_1_388
10
23.8854001
20
36.7864698
40
0.3980715
50
229.4223821
51
256.8554507
0
ARC
8
DEFAULT_255_1_388
10
23.8387554
20
36.7339683
40
0.3278564
50
181.8183354
51
229.6455015
0
ARC
8
DEFAULT_255_1_388
10
23.9557163
20
36.7486825
40
0.4453611
50
179.9760419
51
183.2330638
0
ARC
8
DEFAULT_255_1_388
10
23.9363716
20
36.7463781
40
0.2579652
50
179.4467996
51
196.2871626
0
ARC
8
DEFAULT_255_1_388
10
23.8815169
20
36.7313709
40
0.2011057
50
196.5661293
51
227.7059371
0
ARC
8
DEFAULT_255_1_388
10
23.8999777
20
36.7520155
40
0.2287994
50
227.7653015
51
257.8763321
0
ARC
8
DEFAULT_255_1_388
10
23.925286
20
36.8580961
40
0.3378385
50
257.4583525
51
270.4267406
0
ARC
8
DEFAULT_255_1_388
10
23.9304109
20
36.890723
40
0.3704652
50
269.5965319
51
280.8788143
0
ARC
8
DEFAULT_255_1_388
10
23.9562337
20
36.7617529
40
0.2389415
50
280.6347277
51
299.8594068
0
ARC
8
DEFAULT_255_1_388
10
23.9777107
20
36.7209736
40
0.19289
50
300.3575552
51
314.5515667
0
ARC
8
DEFAULT_255_1_388
10
23.9683783
20
36.7278025
40
0.204312
50
315.0730962
51
345.0429362
0
ARC
8
DEFAULT_255_1_388
10
23.864529
20
36.7580539
40
0.31246
50
344.598526
51
357.9270698
0
ARC
8
DEFAULT_255_1_388
10
23.7635595
20
36.7649705
40
0.4136265
50
357.4755098
51
0.0224936
0
ARC
8
DEFAULT_255_1_388
10
23.8788473
20
36.7677099
40
0.2983498
50
359.5051035
51
13.4236939
0
ARC
8
DEFAULT_255_1_388
10
23.9763563
20
36.7926637
40
0.1977186
50
12.9497905
51
48.7550905
0
ARC
8
DEFAULT_255_1_388
10
23.9558484
20
36.7646373
40
0.2323321
50
49.509109
51
72.1832965
0
ARC
8
DEFAULT_255_1_388
10
23.9155953
20
36.6451632
40
0.358397
50
71.9008458
51
84.3555134
0
ARC
8
DEFAULT_255_1_388
10
23.8974347
20
36.4919712
40
0.512641
50
84.019632
51
89.3326067
0
LINE
8
DEFAULT_255_1_388
10
22.2516901
20
44.9420775
11
22.2516901
21
45.0785157
0
LINE
8
DEFAULT_255_1_388
10
22.2516901
20
45.0785157
11
22.3772856
21
45.0785157
0
LINE
8
DEFAULT_255_1_388
10
22.1631408
20
45.3098282
11
21.9959814
21
45.3098282
0
LINE
8
DEFAULT_255_1_388
10
21.9842351
20
44.6863688
11
22.152298
21
44.6863688
0
LINE
8
DEFAULT_255_1_388
10
22.3772856
20
44.9420775
11
22.2516901
21
44.9420775
0
ARC
8
DEFAULT_255_1_388
10
22.3740082
20
45.4601922
40
0.3816905
50
270.491971
51
281.8953028
0
ARC
8
DEFAULT_255_1_388
10
22.4011509
20
45.3362199
40
0.2547877
50
281.6690378
51
301.2943765
0
ARC
8
DEFAULT_255_1_388
10
22.4202961
20
45.3011926
40
0.2149197
50
301.7834992
51
311.754567
0
ARC
8
DEFAULT_255_1_388
10
22.4306002
20
45.289765
40
0.1995326
50
311.7325027
51
354.2803031
0
ARC
8
DEFAULT_255_1_388
10
22.3488418
20
45.303828
40
0.2823461
50
353.0941646
51
0.1174696
0
ARC
8
DEFAULT_255_1_388
10
22.2969976
20
45.3091874
40
0.3342238
50
359.1804452
51
15.0452323
0
ARC
8
DEFAULT_255_1_388
10
22.4484034
20
45.3533546
40
0.1765747
50
13.957816
51
77.6713812
0
ARC
8
DEFAULT_255_1_388
10
22.404927
20
45.1975464
40
0.3381982
50
76.111571
51
90.7028736
0
ARC
8
DEFAULT_255_1_388
10
22.3982682
20
45.228325
40
0.3074046
50
89.5321574
51
103.5319393
0
ARC
8
DEFAULT_255_1_388
10
22.3757066
20
45.3182443
40
0.2147041
50
103.2930114
51
133.5619756
0
ARC
8
DEFAULT_255_1_388
10
22.3707007
20
45.3249351
40
0.2064084
50
133.8349761
51
173.5343225
0
ARC
8
DEFAULT_255_1_388
10
22.4520665
20
45.3105144
40
0.2889266
50
172.5097183
51
180.1360699
0
ARC
8
DEFAULT_255_1_388
10
22.3450429
20
45.314388
40
0.3490913
50
155.3483706
51
180.7484035
0
ARC
8
DEFAULT_255_1_388
10
22.3395404
20
45.3111519
40
0.3454798
50
131.5745177
51
154.4799474
0
ARC
8
DEFAULT_255_1_388
10
22.3747687
20
45.2755422
40
0.3955058
50
96.9874487
51
131.9690874
0
ARC
8
DEFAULT_255_1_388
10
22.399458
20
45.1354407
40
0.537622
50
89.8592909
51
97.7827481
0
ARC
8
DEFAULT_255_1_388
10
22.4048689
20
45.105936
40
0.5671399
50
78.3654493
51
90.4132586
0
ARC
8
DEFAULT_255_1_388
10
22.445133
20
45.2925918
40
0.3762034
50
56.6229818
51
78.6387103
0
ARC
8
DEFAULT_255_1_388
10
22.4693159
20
45.3348846
40
0.3275964
50
47.0254604
51
56.085558
0
ARC
8
DEFAULT_255_1_388
10
22.471541
20
45.3393189
40
0.3228382
50
10.9207523
51
46.777927
0
ARC
8
DEFAULT_255_1_388
10
22.3181004
20
45.3038401
40
0.4802559
50
359.6364235
51
11.6087615
0
ARC
8
DEFAULT_255_1_388
10
22.524517
20
45.3021404
40
0.273833
50
332.3549969
51
359.7179765
0
ARC
8
DEFAULT_255_1_388
10
22.451357
20
45.3368285
40
0.3547505
50
325.2332381
51
332.8746682
0
ARC
8
DEFAULT_255_1_388
10
22.4685153
20
45.3248763
40
0.3338396
50
292.9803892
51
325.2391113
0
ARC
8
DEFAULT_255_1_388
10
22.4374349
20
45.3853679
40
0.4016959
50
292.542178
51
293.6931461
0
ARC
8
DEFAULT_255_1_388
10
22.4817921
20
44.6588036
40
0.372079
50
57.643292
51
72.8626085
0
ARC
8
DEFAULT_255_1_388
10
22.5216755
20
44.7234273
40
0.2961455
50
36.7246661
51
57.4701329
0
ARC
8
DEFAULT_255_1_388
10
22.5203912
20
44.724847
40
0.2963321
50
8.054535
51
36.3561529
0
ARC
8
DEFAULT_255_1_388
10
22.4233585
20
44.7074073
40
0.3948682
50
359.8316595
51
8.5873361
0
ARC
8
DEFAULT_255_1_388
10
22.3811059
20
44.701997
40
0.4371398
50
343.9831631
51
0.557075
0
ARC
8
DEFAULT_255_1_388
10
22.4808108
20
44.6746963
40
0.3337749
50
311.6358204
51
343.7652116
0
ARC
8
DEFAULT_255_1_388
10
22.4382362
20
44.7226955
40
0.3979351
50
279.7829743
51
311.625622
0
ARC
8
DEFAULT_255_1_388
10
22.4043497
20
44.8843642
40
0.5630417
50
269.7285092
51
280.3857694
0
ARC
8
DEFAULT_255_1_388
10
22.397381
20
44.8797241
40
0.5584119
50
256.6827433
51
270.4412869
0
ARC
8
DEFAULT_255_1_388
10
22.3592797
20
44.7239698
40
0.3980715
50
229.4223821
51
256.8554507
0
ARC
8
DEFAULT_255_1_388
10
22.312635
20
44.6714683
40
0.3278564
50
181.8183354
51
229.6455015
0
ARC
8
DEFAULT_255_1_388
10
22.429596
20
44.6861825
40
0.4453611
50
179.9760419
51
183.2330638
0
ARC
8
DEFAULT_255_1_388
10
22.4102512
20
44.6838781
40
0.2579652
50
179.4467996
51
196.2871626
0
ARC
8
DEFAULT_255_1_388
10
22.3553966
20
44.6688709
40
0.2011057
50
196.5661293
51
227.7059371
0
ARC
8
DEFAULT_255_1_388
10
22.3738573
20
44.6895155
40
0.2287994
50
227.7653015
51
257.8763321
0
ARC
8
DEFAULT_255_1_388
10
22.3991656
20
44.7955961
40
0.3378385
50
257.4583525
51
270.4267406
0
ARC
8
DEFAULT_255_1_388
10
22.4042906
20
44.828223
40
0.3704652
50
269.5965319
51
280.8788143
0
ARC
8
DEFAULT_255_1_388
10
22.4301134
20
44.6992529
40
0.2389415
50
280.6347277
51
299.8594068
0
ARC
8
DEFAULT_255_1_388
10
22.4515903
20
44.6584736
40
0.19289
50
300.3575552
51
314.5515667
0
ARC
8
DEFAULT_255_1_388
10
22.4422579
20
44.6653025
40
0.204312
50
315.0730962
51
345.0429362
0
ARC
8
DEFAULT_255_1_388
10
22.3384087
20
44.6955539
40
0.31246
50
344.598526
51
357.9270698
0
ARC
8
DEFAULT_255_1_388
10
22.2374391
20
44.7024705
40
0.4136265
50
357.4755098
51
0.0224936
0
ARC
8
DEFAULT_255_1_388
10
22.3527269
20
44.7052099
40
0.2983498
50
359.5051035
51
13.4236939
0
ARC
8
DEFAULT_255_1_388
10
22.4502359
20
44.7301637
40
0.1977186
50
12.9497905
51
48.7550905
0
ARC
8
DEFAULT_255_1_388
10
22.4297281
20
44.7021373
40
0.2323321
50
49.509109
51
72.1832965
0
ARC
8
DEFAULT_255_1_388
10
22.3894749
20
44.5826632
40
0.358397
50
71.9008458
51
84.3555134
0
ARC
8
DEFAULT_255_1_388
10
22.3713144
20
44.4294712
40
0.512641
50
84.019632
51
89.3326067
0
ARC
8
DEFAULT_255_1_388
10
23.1889138
20
44.4281142
40
0.1204062
50
163.5412609
51
180.5084512
0
ARC
8
DEFAULT_255_1_388
10
23.1673037
20
44.433946
40
0.0980307
50
138.1652
51
163.2315563
0
ARC
8
DEFAULT_255_1_388
10
23.1546778
20
44.4446456
40
0.0814881
50
105.6860499
51
137.8492655
0
ARC
8
DEFAULT_255_1_388
10
23.1679979
20
44.4014109
40
0.126719
50
92.6078949
51
106.199173
0
ARC
8
DEFAULT_255_1_388
10
23.1714169
20
44.3568207
40
0.1714243
50
89.9659531
51
93.0713334
0
ARC
8
DEFAULT_255_1_388
10
23.1726205
20
44.3818484
40
0.1464007
50
78.4379126
51
90.4311892
0
ARC
8
DEFAULT_255_1_388
10
23.1834852
20
44.4325017
40
0.094599
50
56.8961942
51
78.7357785
0
ARC
8
DEFAULT_255_1_388
10
23.1905963
20
44.4449075
40
0.0803272
50
42.6503148
51
56.3122241
0
ARC
8
DEFAULT_255_1_388
10
23.1761864
20
44.4316661
40
0.099897
50
3.8141057
51
42.636595
0
ARC
8
DEFAULT_255_1_388
10
23.1439186
20
44.4271616
40
0.1324137
50
359.9498843
51
4.8301897
0
ARC
8
DEFAULT_255_1_388
10
23.1694324
20
44.4259722
40
0.1069053
50
340.9378148
51
0.5753733
0
ARC
8
DEFAULT_255_1_388
10
23.1820906
20
44.4225569
40
0.0938301
50
316.0798885
51
340.3845117
0
ARC
8
DEFAULT_255_1_388
10
23.1886217
20
44.416552
40
0.0849605
50
285.8512844
51
315.941661
0
ARC
8
DEFAULT_255_1_388
10
23.1754097
20
44.459262
40
0.1296594
50
273.1293204
51
286.3125006
0
ARC
8
DEFAULT_255_1_388
10
23.1716607
20
44.5044586
40
0.1749979
50
269.9535313
51
273.5471598
0
ARC
8
DEFAULT_255_1_388
10
23.1704213
20
44.4798833
40
0.1504266
50
259.0487117
51
270.4180248
0
ARC
8
DEFAULT_255_1_388
10
23.1595825
20
44.4261783
40
0.0956414
50
239.7583641
51
259.3115656
0
ARC
8
DEFAULT_255_1_388
10
23.1504758
20
44.4092048
40
0.0763945
50
222.6243303
51
239.2473835
0
ARC
8
DEFAULT_255_1_388
10
23.1655929
20
44.4230572
40
0.0968985
50
182.9231258
51
222.598101
0
ARC
8
DEFAULT_255_1_388
10
23.1959129
20
44.4269696
40
0.1274004
50
179.9657458
51
183.9850364
0
LINE
8
DEFAULT_255_1_388
10
24.3967521
20
44.4758382
11
24.3967521
21
44.3394
0
LINE
8
DEFAULT_255_1_388
10
24.3967521
20
44.3394
11
23.5347517
21
44.3394
0
LINE
8
DEFAULT_255_1_388
10
23.5347517
20
44.3394
11
23.5347517
21
44.4595741
0
LINE
8
DEFAULT_255_1_388
10
23.5347517
20
44.4595741
11
23.9901481
21
44.9655702
0
LINE
8
DEFAULT_255_1_388
10
23.6766113
20
45.2673607
11
23.5094519
21
45.2673607
0
LINE
8
DEFAULT_255_1_388
10
24.0886367
20
44.858046
11
23.7362465
21
44.4758382
0
LINE
8
DEFAULT_255_1_388
10
23.7362465
20
44.4758382
11
24.3967521
21
44.4758382
0
ARC
8
DEFAULT_255_1_388
10
22.4725541
20
46.3075983
40
2.0258655
50
318.5132526
51
320.7829045
0
ARC
8
DEFAULT_255_1_388
10
23.0673498
20
45.8234929
40
1.2589638
50
320.7372878
51
323.9739031
0
ARC
8
DEFAULT_255_1_388
10
23.508243
20
45.5040554
40
0.7145141
50
323.8962701
51
328.64194
0
ARC
8
DEFAULT_255_1_388
10
23.7384687
20
45.3620545
40
0.4440242
50
328.8294576
51
331.7891185
0
ARC
8
DEFAULT_255_1_388
10
23.8507007
20
45.3041374
40
0.3177517
50
331.4254512
51
352.9365785
0
ARC
8
DEFAULT_255_1_388
10
23.8660007
20
45.300705
40
0.3021496
50
353.2257659
51
0.0166158
0
ARC
8
DEFAULT_255_1_388
10
23.8896768
20
45.3032894
40
0.2784847
50
359.486299
51
15.9343185
0
ARC
8
DEFAULT_255_1_388
10
23.9467035
20
45.3186269
40
0.2194403
50
16.1712913
51
43.5286088
0
ARC
8
DEFAULT_255_1_388
10
23.9553979
20
45.3273191
40
0.2071504
50
43.4417391
51
83.1661095
0
ARC
8
DEFAULT_255_1_388
10
23.940314
20
45.2444316
40
0.2912888
50
82.160179
51
90.1505708
0
ARC
8
DEFAULT_255_1_388
10
23.9367622
20
45.1840279
40
0.3517025
50
89.5460741
51
102.5418361
0
ARC
8
DEFAULT_255_1_388
10
23.9094342
20
45.2999933
40
0.2325748
50
102.1738499
51
129.206123
0
ARC
8
DEFAULT_255_1_388
10
23.9005795
20
45.3139664
40
0.2161591
50
129.72865
51
135.753947
0
ARC
8
DEFAULT_255_1_388
10
23.9142277
20
45.3030728
40
0.2335433
50
136.1757367
51
166.3673339
0
ARC
8
DEFAULT_255_1_388
10
24.0274966
20
45.2727148
40
0.3507873
50
165.9090694
51
178.8684636
0
ARC
8
DEFAULT_255_1_388
10
24.1250737
20
45.2674263
40
0.4484624
50
178.4391136
51
180.0083808
0
ARC
8
DEFAULT_255_1_388
10
23.9671439
20
45.2718197
40
0.4577138
50
163.2878482
51
180.5581842
0
ARC
8
DEFAULT_255_1_388
10
23.876948
20
45.2966393
40
0.3641968
50
133.4540601
51
162.947111
0
ARC
8
DEFAULT_255_1_388
10
23.8970362
20
45.2752789
40
0.3935189
50
100.7869829
51
133.4382499
0
ARC
8
DEFAULT_255_1_388
10
23.9361607
20
45.1010399
40
0.5720313
50
89.660664
51
101.3702276
0
ARC
8
DEFAULT_255_1_388
10
23.9436216
20
45.1079263
40
0.5651495
50
78.2172678
51
90.412935
0
ARC
8
DEFAULT_255_1_388
10
23.9835681
20
45.2906511
40
0.378122
50
55.9269121
51
78.4888449
0
ARC
8
DEFAULT_255_1_388
10
24.0056397
20
45.3287187
40
0.3342379
50
47.929771
51
55.4049217
0
ARC
8
DEFAULT_255_1_388
10
24.0170927
20
45.3403618
40
0.3179217
50
4.334829
51
48.0560205
0
ARC
8
DEFAULT_255_1_388
10
23.8938729
20
45.3212487
40
0.442341
50
359.9251713
51
5.5971671
0
ARC
8
DEFAULT_255_1_388
10
23.9420883
20
45.3275728
40
0.3941854
50
337.8914027
51
358.9967534
0
ARC
8
DEFAULT_255_1_388
10
23.6368453
20
45.4453295
40
0.7213271
50
326.9132501
51
338.3508308
0
ARC
8
DEFAULT_255_1_388
10
23.1884565
20
45.7327105
40
1.2538973
50
319.6471833
51
327.0959558
0
ARC
8
DEFAULT_255_1_388
10
22.7571223
20
46.088505
40
1.8129975
50
317.2588228
51
319.9045804
0
LINE
8
DEFAULT_255_1_388
10
22.2587901
20
52.8795775
11
22.2587901
21
53.0160157
0
LINE
8
DEFAULT_255_1_388
10
22.2587901
20
53.0160157
11
22.3843856
21
53.0160157
0
LINE
8
DEFAULT_255_1_388
10
22.1702408
20
53.2473282
11
22.0030814
21
53.2473282
0
LINE
8
DEFAULT_255_1_388
10
21.9913351
20
52.6238688
11
22.159398
21
52.6238688
0
LINE
8
DEFAULT_255_1_388
10
22.3843856
20
52.8795775
11
22.2587901
21
52.8795775
0
ARC
8
DEFAULT_255_1_388
10
22.3811082
20
53.3976922
40
0.3816905
50
270.491971
51
281.8953028
0
ARC
8
DEFAULT_255_1_388
10
22.4082509
20
53.2737199
40
0.2547877
50
281.6690378
51
301.2943765
0
ARC
8
DEFAULT_255_1_388
10
22.4273961
20
53.2386926
40
0.2149197
50
301.7834992
51
311.754567
0
ARC
8
DEFAULT_255_1_388
10
22.4377002
20
53.227265
40
0.1995326
50
311.7325027
51
354.2803031
0
ARC
8
DEFAULT_255_1_388
10
22.3559418
20
53.241328
40
0.2823461
50
353.0941646
51
0.1174696
0
ARC
8
DEFAULT_255_1_388
10
22.3040976
20
53.2466874
40
0.3342238
50
359.1804452
51
15.0452323
0
ARC
8
DEFAULT_255_1_388
10
22.4555034
20
53.2908546
40
0.1765747
50
13.957816
51
77.6713812
0
ARC
8
DEFAULT_255_1_388
10
22.412027
20
53.1350464
40
0.3381982
50
76.111571
51
90.7028736
0
ARC
8
DEFAULT_255_1_388
10
22.4053682
20
53.165825
40
0.3074046
50
89.5321574
51
103.5319393
0
ARC
8
DEFAULT_255_1_388
10
22.3828066
20
53.2557443
40
0.2147041
50
103.2930114
51
133.5619756
0
ARC
8
DEFAULT_255_1_388
10
22.3778007
20
53.2624351
40
0.2064084
50
133.8349761
51
173.5343225
0
ARC
8
DEFAULT_255_1_388
10
22.4591665
20
53.2480144
40
0.2889266
50
172.5097183
51
180.1360699
0
ARC
8
DEFAULT_255_1_388
10
22.3521429
20
53.251888
40
0.3490913
50
155.3483706
51
180.7484035
0
ARC
8
DEFAULT_255_1_388
10
22.3466404
20
53.2486519
40
0.3454798
50
131.5745177
51
154.4799474
0
ARC
8
DEFAULT_255_1_388
10
22.3818687
20
53.2130422
40
0.3955058
50
96.9874487
51
131.9690874
0
ARC
8
DEFAULT_255_1_388
10
22.406558
20
53.0729407
40
0.537622
50
89.8592909
51
97.7827481
0
ARC
8
DEFAULT_255_1_388
10
22.4119689
20
53.043436
40
0.5671399
50
78.3654493
51
90.4132586
0
ARC
8
DEFAULT_255_1_388
10
22.452233
20
53.2300918
40
0.3762034
50
56.6229818
51
78.6387103
0
ARC
8
DEFAULT_255_1_388
10
22.4764159
20
53.2723846
40
0.3275964
50
47.0254604
51
56.085558
0
ARC
8
DEFAULT_255_1_388
10
22.478641
20
53.2768189
40
0.3228382
50
10.9207523
51
46.777927
0
ARC
8
DEFAULT_255_1_388
10
22.3252004
20
53.2413401
40
0.4802559
50
359.6364235
51
11.6087615
0
ARC
8
DEFAULT_255_1_388
10
22.531617
20
53.2396404
40
0.273833
50
332.3549969
51
359.7179765
0
ARC
8
DEFAULT_255_1_388
10
22.458457
20
53.2743285
40
0.3547505
50
325.2332381
51
332.8746682
0
ARC
8
DEFAULT_255_1_388
10
22.4756153
20
53.2623763
40
0.3338396
50
292.9803892
51
325.2391113
0
ARC
8
DEFAULT_255_1_388
10
22.4445349
20
53.3228679
40
0.4016959
50
292.542178
51
293.6931461
0
ARC
8
DEFAULT_255_1_388
10
22.4888921
20
52.5963036
40
0.372079
50
57.643292
51
72.8626085
0
ARC
8
DEFAULT_255_1_388
10
22.5287755
20
52.6609273
40
0.2961455
50
36.7246661
51
57.4701329
0
ARC
8
DEFAULT_255_1_388
10
22.5274912
20
52.662347
40
0.2963321
50
8.054535
51
36.3561529
0
ARC
8
DEFAULT_255_1_388
10
22.4304585
20
52.6449073
40
0.3948682
50
359.8316595
51
8.5873361
0
ARC
8
DEFAULT_255_1_388
10
22.3882059
20
52.639497
40
0.4371398
50
343.9831631
51
0.557075
0
ARC
8
DEFAULT_255_1_388
10
22.4879108
20
52.6121963
40
0.3337749
50
311.6358204
51
343.7652116
0
ARC
8
DEFAULT_255_1_388
10
22.4453362
20
52.6601955
40
0.3979351
50
279.7829743
51
311.625622
0
ARC
8
DEFAULT_255_1_388
10
22.4114497
20
52.8218642
40
0.5630417
50
269.7285092
51
280.3857694
0
ARC
8
DEFAULT_255_1_388
10
22.404481
20
52.8172241
40
0.5584119
50
256.6827433
51
270.4412869
0
ARC
8
DEFAULT_255_1_388
10
22.3663797
20
52.6614698
40
0.3980715
50
229.4223821
51
256.8554507
0
ARC
8
DEFAULT_255_1_388
10
22.319735
20
52.6089683
40
0.3278564
50
181.8183354
51
229.6455015
0
ARC
8
DEFAULT_255_1_388
10
22.436696
20
52.6236825
40
0.4453611
50
179.9760419
51
183.2330638
0
ARC
8
DEFAULT_255_1_388
10
22.4173512
20
52.6213781
40
0.2579652
50
179.4467996
51
196.2871626
0
ARC
8
DEFAULT_255_1_388
10
22.3624966
20
52.6063709
40
0.2011057
50
196.5661293
51
227.7059371
0
ARC
8
DEFAULT_255_1_388
10
22.3809573
20
52.6270155
40
0.2287994
50
227.7653015
51
257.8763321
0
ARC
8
DEFAULT_255_1_388
10
22.4062656
20
52.7330961
40
0.3378385
50
257.4583525
51
270.4267406
0
ARC
8
DEFAULT_255_1_388
10
22.4113906
20
52.765723
40
0.3704652
50
269.5965319
51
280.8788143
0
ARC
8
DEFAULT_255_1_388
10
22.4372134
20
52.6367529
40
0.2389415
50
280.6347277
51
299.8594068
0
ARC
8
DEFAULT_255_1_388
10
22.4586903
20
52.5959736
40
0.19289
50
300.3575552
51
314.5515667
0
ARC
8
DEFAULT_255_1_388
10
22.4493579
20
52.6028025
40
0.204312
50
315.0730962
51
345.0429362
0
ARC
8
DEFAULT_255_1_388
10
22.3455087
20
52.6330539
40
0.31246
50
344.598526
51
357.9270698
0
ARC
8
DEFAULT_255_1_388
10
22.2445391
20
52.6399705
40
0.4136265
50
357.4755098
51
0.0224936
0
ARC
8
DEFAULT_255_1_388
10
22.3598269
20
52.6427099
40
0.2983498
50
359.5051035
51
13.4236939
0
ARC
8
DEFAULT_255_1_388
10
22.4573359
20
52.6676637
40
0.1977186
50
12.9497905
51
48.7550905
0
ARC
8
DEFAULT_255_1_388
10
22.4368281
20
52.6396373
40
0.2323321
50
49.509109
51
72.1832965
0
ARC
8
DEFAULT_255_1_388
10
22.3965749
20
52.5201632
40
0.358397
50
71.9008458
51
84.3555134
0
ARC
8
DEFAULT_255_1_388
10
22.3784144
20
52.3669712
40
0.512641
50
84.019632
51
89.3326067
0
ARC
8
DEFAULT_255_1_388
10
23.1960138
20
52.3656142
40
0.1204062
50
163.5412609
51
180.5084512
0
ARC
8
DEFAULT_255_1_388
10
23.1744037
20
52.371446
40
0.0980307
50
138.1652
51
163.2315563
0
ARC
8
DEFAULT_255_1_388
10
23.1617778
20
52.3821456
40
0.0814881
50
105.6860499
51
137.8492655
0
ARC
8
DEFAULT_255_1_388
10
23.1750979
20
52.3389109
40
0.126719
50
92.6078949
51
106.199173
0
ARC
8
DEFAULT_255_1_388
10
23.1785169
20
52.2943207
40
0.1714243
50
89.9659531
51
93.0713334
0
ARC
8
DEFAULT_255_1_388
10
23.1797205
20
52.3193484
40
0.1464007
50
78.4379126
51
90.4311892
0
ARC
8
DEFAULT_255_1_388
10
23.1905852
20
52.3700017
40
0.094599
50
56.8961942
51
78.7357785
0
ARC
8
DEFAULT_255_1_388
10
23.1976963
20
52.3824075
40
0.0803272
50
42.6503148
51
56.3122241
0
ARC
8
DEFAULT_255_1_388
10
23.1832864
20
52.3691661
40
0.099897
50
3.8141057
51
42.636595
0
ARC
8
DEFAULT_255_1_388
10
23.1510186
20
52.3646616
40
0.1324137
50
359.9498843
51
4.8301897
0
ARC
8
DEFAULT_255_1_388
10
23.1765324
20
52.3634722
40
0.1069053
50
340.9378148
51
0.5753733
0
ARC
8
DEFAULT_255_1_388
10
23.1891906
20
52.3600569
40
0.0938301
50
316.0798885
51
340.3845117
0
ARC
8
DEFAULT_255_1_388
10
23.1957217
20
52.354052
40
0.0849605
50
285.8512844
51
315.941661
0
ARC
8
DEFAULT_255_1_388
10
23.1825097
20
52.396762
40
0.1296594
50
273.1293204
51
286.3125006
0
ARC
8
DEFAULT_255_1_388
10
23.1787607
20
52.4419586
40
0.1749979
50
269.9535313
51
273.5471598
0
ARC
8
DEFAULT_255_1_388
10
23.1775213
20
52.4173833
40
0.1504266
50
259.0487117
51
270.4180248
0
ARC
8
DEFAULT_255_1_388
10
23.1666825
20
52.3636783
40
0.0956414
50
239.7583641
51
259.3115656
0
ARC
8
DEFAULT_255_1_388
10
23.1575758
20
52.3467048
40
0.0763945
50
222.6243303
51
239.2473835
0
ARC
8
DEFAULT_255_1_388
10
23.1726929
20
52.3605572
40
0.0968985
50
182.9231258
51
222.598101
0
ARC
8
DEFAULT_255_1_388
10
23.2030129
20
52.3644696
40
0.1274004
50
179.9657458
51
183.9850364
0
LINE
8
DEFAULT_255_1_388
10
24.0912188
20
53.5988148
11
24.0912188
21
52.2769
0
LINE
8
DEFAULT_255_1_388
10
24.0912188
20
52.2769
11
23.9231559
21
52.2769
0
LINE
8
DEFAULT_255_1_388
10
23.9231559
20
52.2769
11
23.9231559
21
53.390995
0
LINE
8
DEFAULT_255_1_388
10
23.9231559
20
53.390995
11
23.5861263
21
53.2672066
0
LINE
8
DEFAULT_255_1_388
10
23.5861263
20
53.2672066
11
23.5861263
21
53.4190055
0
LINE
8
DEFAULT_255_1_388
10
23.5861263
20
53.4190055
11
24.0650155
21
53.5988148
0
LINE
8
DEFAULT_255_1_388
10
24.0650155
20
53.5988148
11
24.0912188
21
53.5988148
0
LINE
8
DEFAULT_255_1_388
10
22.2516901
20
60.8170775
11
22.2516901
21
60.9535157
0
LINE
8
DEFAULT_255_1_388
10
22.2516901
20
60.9535157
11
22.3772856
21
60.9535157
0
LINE
8
DEFAULT_255_1_388
10
22.1631408
20
61.1848282
11
21.9959814
21
61.1848282
0
LINE
8
DEFAULT_255_1_388
10
21.9842351
20
60.5613688
11
22.152298
21
60.5613688
0
LINE
8
DEFAULT_255_1_388
10
22.3772856
20
60.8170775
11
22.2516901
21
60.8170775
0
ARC
8
DEFAULT_255_1_388
10
22.3740082
20
61.3351922
40
0.3816905
50
270.491971
51
281.8953028
0
ARC
8
DEFAULT_255_1_388
10
22.4011509
20
61.2112199
40
0.2547877
50
281.6690378
51
301.2943765
0
ARC
8
DEFAULT_255_1_388
10
22.4202961
20
61.1761926
40
0.2149197
50
301.7834992
51
311.754567
0
ARC
8
DEFAULT_255_1_388
10
22.4306002
20
61.164765
40
0.1995326
50
311.7325027
51
354.2803031
0
ARC
8
DEFAULT_255_1_388
10
22.3488418
20
61.178828
40
0.2823461
50
353.0941646
51
0.1174696
0
ARC
8
DEFAULT_255_1_388
10
22.2969976
20
61.1841874
40
0.3342238
50
359.1804452
51
15.0452323
0
ARC
8
DEFAULT_255_1_388
10
22.4484034
20
61.2283546
40
0.1765747
50
13.957816
51
77.6713812
0
ARC
8
DEFAULT_255_1_388
10
22.404927
20
61.0725464
40
0.3381982
50
76.111571
51
90.7028736
0
ARC
8
DEFAULT_255_1_388
10
22.3982682
20
61.103325
40
0.3074046
50
89.5321574
51
103.5319393
0
ARC
8
DEFAULT_255_1_388
10
22.3757066
20
61.1932443
40
0.2147041
50
103.2930114
51
133.5619756
0
ARC
8
DEFAULT_255_1_388
10
22.3707007
20
61.1999351
40
0.2064084
50
133.8349761
51
173.5343225
0
ARC
8
DEFAULT_255_1_388
10
22.4520665
20
61.1855144
40
0.2889266
50
172.5097183
51
180.1360699
0
ARC
8
DEFAULT_255_1_388
10
22.3450429
20
61.189388
40
0.3490913
50
155.3483706
51
180.7484035
0
ARC
8
DEFAULT_255_1_388
10
22.3395404
20
61.1861519
40
0.3454798
50
131.5745177
51
154.4799474
0
ARC
8
DEFAULT_255_1_388
10
22.3747687
20
61.1505422
40
0.3955058
50
96.9874487
51
131.9690874
0
ARC
8
DEFAULT_255_1_388
10
22.399458
20
61.0104407
40
0.537622
50
89.8592909
51
97.7827481
0
ARC
8
DEFAULT_255_1_388
10
22.4048689
20
60.980936
40
0.5671399
50
78.3654493
51
90.4132586
0
ARC
8
DEFAULT_255_1_388
10
22.445133
20
61.1675918
40
0.3762034
50
56.6229818
51
78.6387103
0
ARC
8
DEFAULT_255_1_388
10
22.4693159
20
61.2098846
40
0.3275964
50
47.0254604
51
56.085558
0
ARC
8
DEFAULT_255_1_388
10
22.471541
20
61.2143189
40
0.3228382
50
10.9207523
51
46.777927
0
ARC
8
DEFAULT_255_1_388
10
22.3181004
20
61.1788401
40
0.4802559
50
359.6364235
51
11.6087615
0
ARC
8
DEFAULT_255_1_388
10
22.524517
20
61.1771404
40
0.273833
50
332.3549969
51
359.7179765
0
ARC
8
DEFAULT_255_1_388
10
22.451357
20
61.2118285
40
0.3547505
50
325.2332381
51
332.8746682
0
ARC
8
DEFAULT_255_1_388
10
22.4685153
20
61.1998763
40
0.3338396
50
292.9803892
51
325.2391113
0
ARC
8
DEFAULT_255_1_388
10
22.4374349
20
61.2603679
40
0.4016959
50
292.542178
51
293.6931461
0
ARC
8
DEFAULT_255_1_388
10
22.4817921
20
60.5338036
40
0.372079
50
57.643292
51
72.8626085
0
ARC
8
DEFAULT_255_1_388
10
22.5216755
20
60.5984273
40
0.2961455
50
36.7246661
51
57.4701329
0
ARC
8
DEFAULT_255_1_388
10
22.5203912
20
60.599847
40
0.2963321
50
8.054535
51
36.3561529
0
ARC
8
DEFAULT_255_1_388
10
22.4233585
20
60.5824073
40
0.3948682
50
359.8316595
51
8.5873361
0
ARC
8
DEFAULT_255_1_388
10
22.3811059
20
60.576997
40
0.4371398
50
343.9831631
51
0.557075
0
ARC
8
DEFAULT_255_1_388
10
22.4808108
20
60.5496963
40
0.3337749
50
311.6358204
51
343.7652116
0
ARC
8
DEFAULT_255_1_388
10
22.4382362
20
60.5976955
40
0.3979351
50
279.7829743
51
311.625622
0
ARC
8
DEFAULT_255_1_388
10
22.4043497
20
60.7593642
40
0.5630417
50
269.7285092
51
280.3857694
0
ARC
8
DEFAULT_255_1_388
10
22.397381
20
60.7547241
40
0.5584119
50
256.6827433
51
270.4412869
0
ARC
8
DEFAULT_255_1_388
10
22.3592797
20
60.5989698
40
0.3980715
50
229.4223821
51
256.8554507
0
ARC
8
DEFAULT_255_1_388
10
22.312635
20
60.5464683
40
0.3278564
50
181.8183354
51
229.6455015
0
ARC
8
DEFAULT_255_1_388
10
22.429596
20
60.5611825
40
0.4453611
50
179.9760419
51
183.2330638
0
ARC
8
DEFAULT_255_1_388
10
22.4102512
20
60.5588781
40
0.2579652
50
179.4467996
51
196.2871626
0
ARC
8
DEFAULT_255_1_388
10
22.3553966
20
60.5438709
40
0.2011057
50
196.5661293
51
227.7059371
0
ARC
8
DEFAULT_255_1_388
10
22.3738573
20
60.5645155
40
0.2287994
50
227.7653015
51
257.8763321
0
ARC
8
DEFAULT_255_1_388
10
22.3991656
20
60.6705961
40
0.3378385
50
257.4583525
51
270.4267406
0
ARC
8
DEFAULT_255_1_388
10
22.4042906
20
60.703223
40
0.3704652
50
269.5965319
51
280.8788143
0
ARC
8
DEFAULT_255_1_388
10
22.4301134
20
60.5742529
40
0.2389415
50
280.6347277
51
299.8594068
0
ARC
8
DEFAULT_255_1_388
10
22.4515903
20
60.5334736
40
0.19289
50
300.3575552
51
314.5515667
0
ARC
8
DEFAULT_255_1_388
10
22.4422579
20
60.5403025
40
0.204312
50
315.0730962
51
345.0429362
0
ARC
8
DEFAULT_255_1_388
10
22.3384087
20
60.5705539
40
0.31246
50
344.598526
51
357.9270698
0
ARC
8
DEFAULT_255_1_388
10
22.2374391
20
60.5774705
40
0.4136265
50
357.4755098
51
0.0224936
0
ARC
8
DEFAULT_255_1_388
10
22.3527269
20
60.5802099
40
0.2983498
50
359.5051035
51
13.4236939
0
ARC
8
DEFAULT_255_1_388
10
22.4502359
20
60.6051637
40
0.1977186
50
12.9497905
51
48.7550905
0
ARC
8
DEFAULT_255_1_388
10
22.4297281
20
60.5771373
40
0.2323321
50
49.509109
51
72.1832965
0
ARC
8
DEFAULT_255_1_388
10
22.3894749
20
60.4576632
40
0.358397
50
71.9008458
51
84.3555134
0
ARC
8
DEFAULT_255_1_388
10
22.3713144
20
60.3044712
40
0.512641
50
84.019632
51
89.3326067
0
ARC
8
DEFAULT_255_1_388
10
23.1889138
20
60.3031142
40
0.1204062
50
163.5412609
51
180.5084512
0
ARC
8
DEFAULT_255_1_388
10
23.1673037
20
60.308946
40
0.0980307
50
138.1652
51
163.2315563
0
ARC
8
DEFAULT_255_1_388
10
23.1546778
20
60.3196456
40
0.0814881
50
105.6860499
51
137.8492655
0
ARC
8
DEFAULT_255_1_388
10
23.1679979
20
60.2764109
40
0.126719
50
92.6078949
51
106.199173
0
ARC
8
DEFAULT_255_1_388
10
23.1714169
20
60.2318207
40
0.1714243
50
89.9659531
51
93.0713334
0
ARC
8
DEFAULT_255_1_388
10
23.1726205
20
60.2568484
40
0.1464007
50
78.4379126
51
90.4311892
0
ARC
8
DEFAULT_255_1_388
10
23.1834852
20
60.3075017
40
0.094599
50
56.8961942
51
78.7357785
0
ARC
8
DEFAULT_255_1_388
10
23.1905963
20
60.3199075
40
0.0803272
50
42.6503148
51
56.3122241
0
ARC
8
DEFAULT_255_1_388
10
23.1761864
20
60.3066661
40
0.099897
50
3.8141057
51
42.636595
0
ARC
8
DEFAULT_255_1_388
10
23.1439186
20
60.3021616
40
0.1324137
50
359.9498843
51
4.8301897
0
ARC
8
DEFAULT_255_1_388
10
23.1694324
20
60.3009722
40
0.1069053
50
340.9378148
51
0.5753733
0
ARC
8
DEFAULT_255_1_388
10
23.1820906
20
60.2975569
40
0.0938301
50
316.0798885
51
340.3845117
0
ARC
8
DEFAULT_255_1_388
10
23.1886217
20
60.291552
40
0.0849605
50
285.8512844
51
315.941661
0
ARC
8
DEFAULT_255_1_388
10
23.1754097
20
60.334262
40
0.1296594
50
273.1293204
51
286.3125006
0
ARC
8
DEFAULT_255_1_388
10
23.1716607
20
60.3794586
40
0.1749979
50
269.9535313
51
273.5471598
0
ARC
8
DEFAULT_255_1_388
10
23.1704213
20
60.3548833
40
0.1504266
50
259.0487117
51
270.4180248
0
ARC
8
DEFAULT_255_1_388
10
23.1595825
20
60.3011783
40
0.0956414
50
239.7583641
51
259.3115656
0
ARC
8
DEFAULT_255_1_388
10
23.1504758
20
60.2842048
40
0.0763945
50
222.6243303
51
239.2473835
0
ARC
8
DEFAULT_255_1_388
10
23.1655929
20
60.2980572
40
0.0968985
50
182.9231258
51
222.598101
0
ARC
8
DEFAULT_255_1_388
10
23.1959129
20
60.3019696
40
0.1274004
50
179.9657458
51
183.9850364
0
LINE
8
DEFAULT_255_1_388
10
24.359706
20
60.992369
11
24.359706
21
60.7755135
0
LINE
8
DEFAULT_255_1_388
10
23.5293303
20
60.7529244
11
23.5293303
21
60.9761048
0
LINE
8
DEFAULT_255_1_388
10
24.1925466
20
60.7303353
11
24.1925466
21
61.0041153
0
LINE
8
DEFAULT_255_1_388
10
23.6964897
20
61.0167652
11
23.6964897
21
60.7493102
0
ARC
8
DEFAULT_255_1_388
10
22.9819394
20
60.7700118
40
1.3777776
50
353.8440855
51
0.2287917
0
ARC
8
DEFAULT_255_1_388
10
23.5038411
20
60.7117414
40
0.852639
50
344.4934746
51
353.9763743
0
ARC
8
DEFAULT_255_1_388
10
23.8405219
20
60.6160191
40
0.5026273
50
329.2803599
51
344.7473406
0
ARC
8
DEFAULT_255_1_388
10
23.9520714
20
60.5548038
40
0.3754848
50
324.9361395
51
328.6153007
0
ARC
8
DEFAULT_255_1_388
10
23.9946364
20
60.5250586
40
0.3235566
50
280.5801797
51
324.9173226
0
ARC
8
DEFAULT_255_1_388
10
23.9494993
20
60.7130236
40
0.5167077
50
269.5979457
51
281.6732777
0
ARC
8
DEFAULT_255_1_388
10
23.9413896
20
60.6995113
40
0.5032026
50
256.6228565
51
270.5105488
0
ARC
8
DEFAULT_255_1_388
10
23.8961639
20
60.5253345
40
0.3233092
50
215.8618351
51
257.2787793
0
ARC
8
DEFAULT_255_1_388
10
24.0110346
20
60.6024106
40
0.4615831
50
197.9695203
51
215.2622745
0
ARC
8
DEFAULT_255_1_388
10
24.2906022
20
60.6967641
40
0.7566307
50
187.8816486
51
198.2346584
0
ARC
8
DEFAULT_255_1_388
10
24.735926
20
60.7610453
40
1.2065653
50
180.8977266
51
188.0054894
0
ARC
8
DEFAULT_255_1_388
10
25.0409474
20
60.77254
40
1.5117443
50
180.7434591
51
181.152202
0
ARC
8
DEFAULT_255_1_388
10
24.873447
20
60.9815371
40
1.3441277
50
173.7674302
51
180.2315596
0
ARC
8
DEFAULT_255_1_388
10
24.3652338
20
61.0389779
40
0.8326847
50
164.3058537
51
173.9000553
0
ARC
8
DEFAULT_255_1_388
10
24.0376339
20
61.1333652
40
0.4917711
50
148.7922028
51
164.5682288
0
ARC
8
DEFAULT_255_1_388
10
23.9307076
20
61.1930457
40
0.3694204
50
144.5883979
51
148.1161588
0
ARC
8
DEFAULT_255_1_388
10
23.8919821
20
61.2200667
40
0.322202
50
101.6440149
51
144.5142619
0
ARC
8
DEFAULT_255_1_388
10
23.9398013
20
61.0300337
40
0.5180451
50
89.528284
51
102.5820197
0
ARC
8
DEFAULT_255_1_388
10
23.9487005
20
61.0256376
40
0.5224441
50
77.0437914
51
90.508231
0
ARC
8
DEFAULT_255_1_388
10
23.9939259
20
61.2104272
40
0.3322297
50
48.2777708
51
77.4996087
0
ARC
8
DEFAULT_255_1_388
10
24.0020999
20
61.2249557
40
0.315966
50
36.3141586
51
47.6307332
0
ARC
8
DEFAULT_255_1_388
10
23.9043721
20
61.1591159
40
0.4337313
50
18.2931065
51
35.6770203
0
ARC
8
DEFAULT_255_1_388
10
23.6182562
20
61.0609107
40
0.7362203
50
8.0246996
51
18.5605636
0
ARC
8
DEFAULT_255_1_388
10
23.1498918
20
60.9917432
40
1.2096583
50
1.127539
51
8.1718423
0
ARC
8
DEFAULT_255_1_388
10
22.7850051
20
60.9774374
40
1.5747719
50
0.5432713
51
1.38669
0
ARC
8
DEFAULT_255_1_388
10
22.990743
20
61.0081163
40
1.2018103
50
359.8092569
51
4.9408001
0
ARC
8
DEFAULT_255_1_388
10
23.4644011
20
61.05039
40
0.7262727
50
4.8364937
51
12.2906017
0
ARC
8
DEFAULT_255_1_388
10
23.7743476
20
61.1194485
40
0.4087324
50
12.0806994
51
23.8171225
0
ARC
8
DEFAULT_255_1_388
10
23.9063872
20
61.1753508
40
0.2653719
50
24.2874621
51
31.3934353
0
ARC
8
DEFAULT_255_1_388
10
23.9654308
20
61.2139822
40
0.1948607
50
30.7407708
51
82.4658033
0
ARC
8
DEFAULT_255_1_388
10
23.9451968
20
61.1146017
40
0.2961198
50
81.1057101
51
90.2187368
0
ARC
8
DEFAULT_255_1_388
10
23.941178
20
61.1436421
40
0.2670929
50
89.380395
51
105.6763916
0
ARC
8
DEFAULT_255_1_388
10
23.9205502
20
61.218632
40
0.1893189
50
105.7980655
51
149.7387869
0
ARC
8
DEFAULT_255_1_388
10
24.0402642
20
61.1466719
40
0.3289892
50
149.4208441
51
163.628295
0
ARC
8
DEFAULT_255_1_388
10
24.2754872
20
61.0749345
40
0.5749004
50
163.3764549
51
172.141138
0
ARC
8
DEFAULT_255_1_388
10
24.6467593
20
61.0217582
40
0.9499585
50
172.0258462
51
178.0705453
0
ARC
8
DEFAULT_255_1_388
10
24.9889146
20
61.0055682
40
1.2924734
50
177.8639301
51
179.5036263
0
ARC
8
DEFAULT_255_1_388
10
24.8670165
20
60.7452151
40
1.170534
50
179.7995545
51
185.246089
0
ARC
8
DEFAULT_255_1_388
10
24.4121758
20
60.7021404
40
0.7136613
50
185.1411911
51
193.0082205
0
ARC
8
DEFAULT_255_1_388
10
24.1148019
20
60.6318441
40
0.4080987
50
192.7897338
51
205.2507384
0
ARC
8
DEFAULT_255_1_388
10
23.9970229
20
60.5792538
40
0.2791522
50
205.8001921
51
211.2545876
0
ARC
8
DEFAULT_255_1_388
10
23.9381768
20
60.5398132
40
0.2084074
50
210.3789935
51
238.4007996
0
ARC
8
DEFAULT_255_1_388
10
23.9359854
20
60.5450786
40
0.2117943
50
239.6521916
51
265.9793852
0
ARC
8
DEFAULT_255_1_388
10
23.9455703
20
60.6207358
40
0.2879689
50
265.1324455
51
270.0603288
0
ARC
8
DEFAULT_255_1_388
10
23.948808
20
60.5842418
40
0.2514919
50
269.3314378
51
287.2180039
0
ARC
8
DEFAULT_255_1_388
10
23.9643162
20
60.5276291
40
0.1928357
50
287.7957942
51
329.0808983
0
ARC
8
DEFAULT_255_1_388
10
23.8565919
20
60.5948651
40
0.319808
50
328.6635261
51
343.3325043
0
ARC
8
DEFAULT_255_1_388
10
23.6121378
20
60.6710195
40
0.5758408
50
343.0498092
51
351.9392499
0
ARC
8
DEFAULT_255_1_388
10
23.2220699
20
60.7285205
40
0.9701202
50
351.8071632
51
357.7957897
0
ARC
8
DEFAULT_255_1_388
10
22.8586176
20
60.7473724
40
1.3340376
50
357.5870923
51
359.2682493
0
LINE
8
DEFAULT_255_1_388
10
22.8706318
20
68.2883382
11
22.8706318
21
68.1519
0
LINE
8
DEFAULT_255_1_388
10
22.8706318
20
68.1519
11
22.0086313
21
68.1519
0
LINE
8
DEFAULT_255_1_388
10
22.0086313
20
68.1519
11
22.0086313
21
68.2720741
0
LINE
8
DEFAULT_255_1_388
10
22.0086313
20
68.2720741
11
22.4640278
21
68.7780702
0
LINE
8
DEFAULT_255_1_388
10
22.1504909
20
69.0798607
11
21.9833315
21
69.0798607
0
LINE
8
DEFAULT_255_1_388
10
22.5625163
20
68.670546
11
22.2101262
21
68.2883382
0
LINE
8
DEFAULT_255_1_388
10
22.2101262
20
68.2883382
11
22.8706318
21
68.2883382
0
ARC
8
DEFAULT_255_1_388
10
20.9464337
20
70.1200983
40
2.0258655
50
318.5132526
51
320.7829045
0
ARC
8
DEFAULT_255_1_388
10
21.5412294
20
69.6359929
40
1.2589638
50
320.7372878
51
323.9739031
0
ARC
8
DEFAULT_255_1_388
10
21.9821226
20
69.3165554
40
0.7145141
50
323.8962701
51
328.64194
0
ARC
8
DEFAULT_255_1_388
10
22.2123484
20
69.1745545
40
0.4440242
50
328.8294576
51
331.7891185
0
ARC
8
DEFAULT_255_1_388
10
22.3245804
20
69.1166374
40
0.3177517
50
331.4254512
51
352.9365785
0
ARC
8
DEFAULT_255_1_388
10
22.3398804
20
69.113205
40
0.3021496
50
353.2257659
51
0.0166158
0
ARC
8
DEFAULT_255_1_388
10
22.3635564
20
69.1157894
40
0.2784847
50
359.486299
51
15.9343185
0
ARC
8
DEFAULT_255_1_388
10
22.4205831
20
69.1311269
40
0.2194403
50
16.1712913
51
43.5286088
0
ARC
8
DEFAULT_255_1_388
10
22.4292776
20
69.1398191
40
0.2071504
50
43.4417391
51
83.1661095
0
ARC
8
DEFAULT_255_1_388
10
22.4141937
20
69.0569316
40
0.2912888
50
82.160179
51
90.1505708
0
ARC
8
DEFAULT_255_1_388
10
22.4106418
20
68.9965279
40
0.3517025
50
89.5460741
51
102.5418361
0
ARC
8
DEFAULT_255_1_388
10
22.3833138
20
69.1124933
40
0.2325748
50
102.1738499
51
129.206123
0
ARC
8
DEFAULT_255_1_388
10
22.3744592
20
69.1264664
40
0.2161591
50
129.72865
51
135.753947
0
ARC
8
DEFAULT_255_1_388
10
22.3881074
20
69.1155728
40
0.2335433
50
136.1757367
51
166.3673339
0
ARC
8
DEFAULT_255_1_388
10
22.5013762
20
69.0852148
40
0.3507873
50
165.9090694
51
178.8684636
0
ARC
8
DEFAULT_255_1_388
10
22.5989534
20
69.0799263
40
0.4484624
50
178.4391136
51
180.0083808
0
ARC
8
DEFAULT_255_1_388
10
22.4410235
20
69.0843197
40
0.4577138
50
163.2878482
51
180.5581842
0
ARC
8
DEFAULT_255_1_388
10
22.3508276
20
69.1091393
40
0.3641968
50
133.4540601
51
162.947111
0
ARC
8
DEFAULT_255_1_388
10
22.3709158
20
69.0877789
40
0.3935189
50
100.7869829
51
133.4382499
0
ARC
8
DEFAULT_255_1_388
10
22.4100403
20
68.9135399
40
0.5720313
50
89.660664
51
101.3702276
0
ARC
8
DEFAULT_255_1_388
10
22.4175012
20
68.9204263
40
0.5651495
50
78.2172678
51
90.412935
0
ARC
8
DEFAULT_255_1_388
10
22.4574478
20
69.1031511
40
0.378122
50
55.9269121
51
78.4888449
0
ARC
8
DEFAULT_255_1_388
10
22.4795193
20
69.1412187
40
0.3342379
50
47.929771
51
55.4049217
0
ARC
8
DEFAULT_255_1_388
10
22.4909723
20
69.1528618
40
0.3179217
50
4.334829
51
48.0560205
0
ARC
8
DEFAULT_255_1_388
10
22.3677525
20
69.1337487
40
0.442341
50
359.9251713
51
5.5971671
0
ARC
8
DEFAULT_255_1_388
10
22.415968
20
69.1400728
40
0.3941854
50
337.8914027
51
358.9967534
0
ARC
8
DEFAULT_255_1_388
10
22.110725
20
69.2578295
40
0.7213271
50
326.9132501
51
338.3508308
0
ARC
8
DEFAULT_255_1_388
10
21.6623362
20
69.5452105
40
1.2538973
50
319.6471833
51
327.0959558
0
ARC
8
DEFAULT_255_1_388
10
21.231002
20
69.901005
40
1.8129975
50
317.2588228
51
319.9045804
0
ARC
8
DEFAULT_255_1_388
10
23.1889138
20
68.2406142
40
0.1204062
50
163.5412609
51
180.5084512
0
ARC
8
DEFAULT_255_1_388
10
23.1673037
20
68.246446
40
0.0980307
50
138.1652
51
163.2315563
0
ARC
8
DEFAULT_255_1_388
10
23.1546778
20
68.2571456
40
0.0814881
50
105.6860499
51
137.8492655
0
ARC
8
DEFAULT_255_1_388
10
23.1679979
20
68.2139109
40
0.126719
50
92.6078949
51
106.199173
0
ARC
8
DEFAULT_255_1_388
10
23.1714169
20
68.1693207
40
0.1714243
50
89.9659531
51
93.0713334
0
ARC
8
DEFAULT_255_1_388
10
23.1726205
20
68.1943484
40
0.1464007
50
78.4379126
51
90.4311892
0
ARC
8
DEFAULT_255_1_388
10
23.1834852
20
68.2450017
40
0.094599
50
56.8961942
51
78.7357785
0
ARC
8
DEFAULT_255_1_388
10
23.1905963
20
68.2574075
40
0.0803272
50
42.6503148
51
56.3122241
0
ARC
8
DEFAULT_255_1_388
10
23.1761864
20
68.2441661
40
0.099897
50
3.8141057
51
42.636595
0
ARC
8
DEFAULT_255_1_388
10
23.1439186
20
68.2396616
40
0.1324137
50
359.9498843
51
4.8301897
0
ARC
8
DEFAULT_255_1_388
10
23.1694324
20
68.2384722
40
0.1069053
50
340.9378148
51
0.5753733
0
ARC
8
DEFAULT_255_1_388
10
23.1820906
20
68.2350569
40
0.0938301
50
316.0798885
51
340.3845117
0
ARC
8
DEFAULT_255_1_388
10
23.1886217
20
68.229052
40
0.0849605
50
285.8512844
51
315.941661
0
ARC
8
DEFAULT_255_1_388
10
23.1754097
20
68.271762
40
0.1296594
50
273.1293204
51
286.3125006
0
ARC
8
DEFAULT_255_1_388
10
23.1716607
20
68.3169586
40
0.1749979
50
269.9535313
51
273.5471598
0
ARC
8
DEFAULT_255_1_388
10
23.1704213
20
68.2923833
40
0.1504266
50
259.0487117
51
270.4180248
0
ARC
8
DEFAULT_255_1_388
10
23.1595825
20
68.2386783
40
0.0956414
50
239.7583641
51
259.3115656
0
ARC
8
DEFAULT_255_1_388
10
23.1504758
20
68.2217048
40
0.0763945
50
222.6243303
51
239.2473835
0
ARC
8
DEFAULT_255_1_388
10
23.1655929
20
68.2355572
40
0.0968985
50
182.9231258
51
222.598101
0
ARC
8
DEFAULT_255_1_388
10
23.1959129
20
68.2394696
40
0.1274004
50
179.9657458
51
183.9850364
0
LINE
8
DEFAULT_255_1_388
10
24.3841022
20
69.4674898
11
24.3841022
21
69.3735191
0
LINE
8
DEFAULT_255_1_388
10
24.3841022
20
69.3735191
11
23.8392529
21
68.1519
0
LINE
8
DEFAULT_255_1_388
10
23.8392529
20
68.1519
11
23.6639614
21
68.1519
0
LINE
8
DEFAULT_255_1_388
10
23.6639614
20
68.1519
11
24.2070036
21
69.330148
0
LINE
8
DEFAULT_255_1_388
10
24.2070036
20
69.330148
11
23.4949948
21
69.330148
0
LINE
8
DEFAULT_255_1_388
10
23.4949948
20
69.330148
11
23.4949948
21
69.4674898
0
LINE
8
DEFAULT_255_1_388
10
23.4949948
20
69.4674898
11
24.3841022
21
69.4674898
0
LINE
8
DEFAULT_255_1_388
10
22.8706318
20
76.2258382
11
22.8706318
21
76.0894
0
LINE
8
DEFAULT_255_1_388
10
22.8706318
20
76.0894
11
22.0086313
21
76.0894
0
LINE
8
DEFAULT_255_1_388
10
22.0086313
20
76.0894
11
22.0086313
21
76.2095741
0
LINE
8
DEFAULT_255_1_388
10
22.0086313
20
76.2095741
11
22.4640278
21
76.7155702
0
LINE
8
DEFAULT_255_1_388
10
22.1504909
20
77.0173607
11
21.9833315
21
77.0173607
0
LINE
8
DEFAULT_255_1_388
10
22.5625163
20
76.608046
11
22.2101262
21
76.2258382
0
LINE
8
DEFAULT_255_1_388
10
22.2101262
20
76.2258382
11
22.8706318
21
76.2258382
0
ARC
8
DEFAULT_255_1_388
10
20.9464337
20
78.0575983
40
2.0258655
50
318.5132526
51
320.7829045
0
ARC
8
DEFAULT_255_1_388
10
21.5412294
20
77.5734929
40
1.2589638
50
320.7372878
51
323.9739031
0
ARC
8
DEFAULT_255_1_388
10
21.9821226
20
77.2540554
40
0.7145141
50
323.8962701
51
328.64194
0
ARC
8
DEFAULT_255_1_388
10
22.2123484
20
77.1120545
40
0.4440242
50
328.8294576
51
331.7891185
0
ARC
8
DEFAULT_255_1_388
10
22.3245804
20
77.0541374
40
0.3177517
50
331.4254512
51
352.9365785
0
ARC
8
DEFAULT_255_1_388
10
22.3398804
20
77.050705
40
0.3021496
50
353.2257659
51
0.0166158
0
ARC
8
DEFAULT_255_1_388
10
22.3635564
20
77.0532894
40
0.2784847
50
359.486299
51
15.9343185
0
ARC
8
DEFAULT_255_1_388
10
22.4205831
20
77.0686269
40
0.2194403
50
16.1712913
51
43.5286088
0
ARC
8
DEFAULT_255_1_388
10
22.4292776
20
77.0773191
40
0.2071504
50
43.4417391
51
83.1661095
0
ARC
8
DEFAULT_255_1_388
10
22.4141937
20
76.9944316
40
0.2912888
50
82.160179
51
90.1505708
0
ARC
8
DEFAULT_255_1_388
10
22.4106418
20
76.9340279
40
0.3517025
50
89.5460741
51
102.5418361
0
ARC
8
DEFAULT_255_1_388
10
22.3833138
20
77.0499933
40
0.2325748
50
102.1738499
51
129.206123
0
ARC
8
DEFAULT_255_1_388
10
22.3744592
20
77.0639664
40
0.2161591
50
129.72865
51
135.753947
0
ARC
8
DEFAULT_255_1_388
10
22.3881074
20
77.0530728
40
0.2335433
50
136.1757367
51
166.3673339
0
ARC
8
DEFAULT_255_1_388
10
22.5013762
20
77.0227148
40
0.3507873
50
165.9090694
51
178.8684636
0
ARC
8
DEFAULT_255_1_388
10
22.5989534
20
77.0174263
40
0.4484624
50
178.4391136
51
180.0083808
0
ARC
8
DEFAULT_255_1_388
10
22.4410235
20
77.0218197
40
0.4577138
50
163.2878482
51
180.5581842
0
ARC
8
DEFAULT_255_1_388
10
22.3508276
20
77.0466393
40
0.3641968
50
133.4540601
51
162.947111
0
ARC
8
DEFAULT_255_1_388
10
22.3709158
20
77.0252789
40
0.3935189
50
100.7869829
51
133.4382499
0
ARC
8
DEFAULT_255_1_388
10
22.4100403
20
76.8510399
40
0.5720313
50
89.660664
51
101.3702276
0
ARC
8
DEFAULT_255_1_388
10
22.4175012
20
76.8579263
40
0.5651495
50
78.2172678
51
90.412935
0
ARC
8
DEFAULT_255_1_388
10
22.4574478
20
77.0406511
40
0.378122
50
55.9269121
51
78.4888449
0
ARC
8
DEFAULT_255_1_388
10
22.4795193
20
77.0787187
40
0.3342379
50
47.929771
51
55.4049217
0
ARC
8
DEFAULT_255_1_388
10
22.4909723
20
77.0903618
40
0.3179217
50
4.334829
51
48.0560205
0
ARC
8
DEFAULT_255_1_388
10
22.3677525
20
77.0712487
40
0.442341
50
359.9251713
51
5.5971671
0
ARC
8
DEFAULT_255_1_388
10
22.415968
20
77.0775728
40
0.3941854
50
337.8914027
51
358.9967534
0
ARC
8
DEFAULT_255_1_388
10
22.110725
20
77.1953295
40
0.7213271
50
326.9132501
51
338.3508308
0
ARC
8
DEFAULT_255_1_388
10
21.6623362
20
77.4827105
40
1.2538973
50
319.6471833
51
327.0959558
0
ARC
8
DEFAULT_255_1_388
10
21.231002
20
77.838505
40
1.8129975
50
317.2588228
51
319.9045804
0
ARC
8
DEFAULT_255_1_388
10
23.1889138
20
76.1781142
40
0.1204062
50
163.5412609
51
180.5084512
0
ARC
8
DEFAULT_255_1_388
10
23.1673037
20
76.183946
40
0.0980307
50
138.1652
51
163.2315563
0
ARC
8
DEFAULT_255_1_388
10
23.1546778
20
76.1946456
40
0.0814881
50
105.6860499
51
137.8492655
0
ARC
8
DEFAULT_255_1_388
10
23.1679979
20
76.1514109
40
0.126719
50
92.6078949
51
106.199173
0
ARC
8
DEFAULT_255_1_388
10
23.1714169
20
76.1068207
40
0.1714243
50
89.9659531
51
93.0713334
0
ARC
8
DEFAULT_255_1_388
10
23.1726205
20
76.1318484
40
0.1464007
50
78.4379126
51
90.4311892
0
ARC
8
DEFAULT_255_1_388
10
23.1834852
20
76.1825017
40
0.094599
50
56.8961942
51
78.7357785
0
ARC
8
DEFAULT_255_1_388
10
23.1905963
20
76.1949075
40
0.0803272
50
42.6503148
51
56.3122241
0
ARC
8
DEFAULT_255_1_388
10
23.1761864
20
76.1816661
40
0.099897
50
3.8141057
51
42.636595
0
ARC
8
DEFAULT_255_1_388
10
23.1439186
20
76.1771616
40
0.1324137
50
359.9498843
51
4.8301897
0
ARC
8
DEFAULT_255_1_388
10
23.1694324
20
76.1759722
40
0.1069053
50
340.9378148
51
0.5753733
0
ARC
8
DEFAULT_255_1_388
10
23.1820906
20
76.1725569
40
0.0938301
50
316.0798885
51
340.3845117
0
ARC
8
DEFAULT_255_1_388
10
23.1886217
20
76.166552
40
0.0849605
50
285.8512844
51
315.941661
0
ARC
8
DEFAULT_255_1_388
10
23.1754097
20
76.209262
40
0.1296594
50
273.1293204
51
286.3125006
0
ARC
8
DEFAULT_255_1_388
10
23.1716607
20
76.2544586
40
0.1749979
50
269.9535313
51
273.5471598
0
ARC
8
DEFAULT_255_1_388
10
23.1704213
20
76.2298833
40
0.1504266
50
259.0487117
51
270.4180248
0
ARC
8
DEFAULT_255_1_388
10
23.1595825
20
76.1761783
40
0.0956414
50
239.7583641
51
259.3115656
0
ARC
8
DEFAULT_255_1_388
10
23.1504758
20
76.1592048
40
0.0763945
50
222.6243303
51
239.2473835
0
ARC
8
DEFAULT_255_1_388
10
23.1655929
20
76.1730572
40
0.0968985
50
182.9231258
51
222.598101
0
ARC
8
DEFAULT_255_1_388
10
23.1959129
20
76.1769696
40
0.1274004
50
179.9657458
51
183.9850364
0
LINE
8
DEFAULT_255_1_388
10
24.1609218
20
77.4058934
11
24.1907395
21
77.4058934
0
LINE
8
DEFAULT_255_1_388
10
24.1907395
20
77.4058934
11
24.1907395
21
77.2640338
0
LINE
8
DEFAULT_255_1_388
10
24.1907395
20
77.2640338
11
24.1600183
21
77.2640338
0
LINE
8
DEFAULT_255_1_388
10
23.5446909
20
76.5899747
11
23.5446909
21
76.6541278
0
LINE
8
DEFAULT_255_1_388
10
23.7127539
20
76.6324422
11
23.7127539
21
76.5709999
0
ARC
8
DEFAULT_255_1_388
10
24.1659074
20
76.7017826
40
0.562282
50
90.6001079
51
104.5146616
0
ARC
8
DEFAULT_255_1_388
10
24.1222034
20
76.86431
40
0.3939917
50
104.2855758
51
133.8630124
0
ARC
8
DEFAULT_255_1_388
10
24.1406286
20
76.8521243
40
0.4155734
50
134.5304124
51
161.6210222
0
ARC
8
DEFAULT_255_1_388
10
24.3266219
20
76.7865421
40
0.6127682
50
161.2850533
51
174.2074364
0
ARC
8
DEFAULT_255_1_388
10
24.4855785
20
76.7646437
40
0.7731446
50
173.7817938
51
174.9251711
0
ARC
8
DEFAULT_255_1_388
10
23.9729979
20
76.609127
40
0.3412588
50
95.8332067
51
138.995412
0
ARC
8
DEFAULT_255_1_388
10
23.9981259
20
76.4652695
40
0.4870358
50
89.8755506
51
97.0540979
0
ARC
8
DEFAULT_255_1_388
10
24.0034648
20
76.5592841
40
0.3930432
50
71.6407016
51
90.6240821
0
ARC
8
DEFAULT_255_1_388
10
24.0204042
20
76.6216433
40
0.3285421
50
39.6368051
51
71.0190743
0
ARC
8
DEFAULT_255_1_388
10
23.9487949
20
76.5597586
40
0.4231706
50
10.6588054
51
39.9044509
0
ARC
8
DEFAULT_255_1_388
10
23.7746495
20
76.5219223
40
0.60133
50
359.6827842
51
11.1326896
0
ARC
8
DEFAULT_255_1_388
10
23.7701831
20
76.5139715
40
0.6058047
50
347.2485908
51
0.4371098
0
ARC
8
DEFAULT_255_1_388
10
23.9577616
20
76.4688379
40
0.4128987
50
318.1408565
51
347.6118497
0
ARC
8
DEFAULT_255_1_388
10
23.9943213
20
76.4387903
40
0.3656244
50
275.6342406
51
317.824739
0
ARC
8
DEFAULT_255_1_388
10
23.9694734
20
76.5849827
40
0.513655
50
269.8872513
51
276.7916069
0
ARC
8
DEFAULT_255_1_388
10
23.9632927
20
76.4696181
40
0.398323
50
246.9139443
51
270.7436787
0
ARC
8
DEFAULT_255_1_388
10
23.9640122
20
76.4536044
40
0.3839368
50
218.1665534
51
245.8780431
0
ARC
8
DEFAULT_255_1_388
10
24.0629495
20
76.5363903
40
0.5128958
50
191.4115343
51
218.6077624
0
ARC
8
DEFAULT_255_1_388
10
24.2809811
20
76.5852777
40
0.7363054
50
179.6344971
51
191.7836758
0
ARC
8
DEFAULT_255_1_388
10
24.9089685
20
76.6616495
40
1.3642984
50
171.4523743
51
180.3158856
0
ARC
8
DEFAULT_255_1_388
10
24.4145412
20
76.7385895
40
0.8639311
50
157.9802296
51
171.6246761
0
ARC
8
DEFAULT_255_1_388
10
24.1654763
20
76.8379038
40
0.5958004
50
141.4299236
51
157.8541251
0
ARC
8
DEFAULT_255_1_388
10
24.0932846
20
76.8889746
40
0.5075416
50
102.871586
51
140.8564533
0
ARC
8
DEFAULT_255_1_388
10
24.1661399
20
76.6144943
40
0.7914163
50
90.377773
51
103.5868422
0
ARC
8
DEFAULT_255_1_388
10
23.970592
20
76.5464543
40
0.2667015
50
89.8751238
51
126.2072139
0
ARC
8
DEFAULT_255_1_388
10
23.9757391
20
76.5290847
40
0.2838229
50
124.9742447
51
144.8960197
0
ARC
8
DEFAULT_255_1_388
10
23.9559636
20
76.5451981
40
0.2583845
50
145.2974778
51
160.2660922
0
ARC
8
DEFAULT_255_1_388
10
24.3016125
20
76.5674151
40
0.5888695
50
179.6512124
51
190.285571
0
ARC
8
DEFAULT_255_1_388
10
24.1110604
20
76.5314968
40
0.3949683
50
190.0944895
51
207.5099647
0
ARC
8
DEFAULT_255_1_388
10
24.0474186
20
76.5012177
40
0.3245464
50
207.9585471
51
216.325377
0
ARC
8
DEFAULT_255_1_388
10
24.0091823
20
76.4697712
40
0.2751259
50
215.7661336
51
232.5457193
0
ARC
8
DEFAULT_255_1_388
10
23.9660939
20
76.4150273
40
0.2054668
50
232.8005815
51
270.6605497
0
ARC
8
DEFAULT_255_1_388
10
23.9712363
20
76.4559853
40
0.2464268
50
269.3550767
51
288.474612
0
ARC
8
DEFAULT_255_1_388
10
23.981687
20
76.4166721
40
0.2058436
50
289.1831976
51
322.9685307
0
ARC
8
DEFAULT_255_1_388
10
23.9128972
20
76.4709279
40
0.2934408
50
322.6007085
51
346.5183319
0
ARC
8
DEFAULT_255_1_388
10
23.7826728
20
76.5041434
40
0.4278249
50
346.2584622
51
358.7739592
0
ARC
8
DEFAULT_255_1_388
10
23.6675303
20
76.5103829
40
0.5430876
50
358.3757628
51
0.0082477
0
ARC
8
DEFAULT_255_1_388
10
23.7532122
20
76.5134856
40
0.4574157
50
359.6211417
51
11.28403
0
ARC
8
DEFAULT_255_1_388
10
23.8968728
20
76.5434535
40
0.3106708
50
11.0483152
51
31.8145585
0
ARC
8
DEFAULT_255_1_388
10
23.9316433
20
76.5623045
40
0.2711963
50
32.3028554
51
38.0820598
0
ARC
8
DEFAULT_255_1_388
10
23.9789666
20
76.6051717
40
0.2075566
50
36.8249851
51
85.741667
0
ARC
8
DEFAULT_255_1_388
10
23.9714079
20
76.5488065
40
0.2643487
50
85.0150021
51
90.050843
0
LINE
8
DEFAULT_255_1_388
10
22.8706318
20
84.1633382
11
22.8706318
21
84.0269
0
LINE
8
DEFAULT_255_1_388
10
22.8706318
20
84.0269
11
22.0086313
21
84.0269
0
LINE
8
DEFAULT_255_1_388
10
22.0086313
20
84.0269
11
22.0086313
21
84.1470741
0
LINE
8
DEFAULT_255_1_388
10
22.0086313
20
84.1470741
11
22.4640278
21
84.6530702
0
LINE
8
DEFAULT_255_1_388
10
22.1504909
20
84.9548607
11
21.9833315
21
84.9548607
0
LINE
8
DEFAULT_255_1_388
10
22.5625163
20
84.545546
11
22.2101262
21
84.1633382
0
LINE
8
DEFAULT_255_1_388
10
22.2101262
20
84.1633382
11
22.8706318
21
84.1633382
0
ARC
8
DEFAULT_255_1_388
10
20.9464337
20
85.9950983
40
2.0258655
50
318.5132526
51
320.7829045
0
ARC
8
DEFAULT_255_1_388
10
21.5412294
20
85.5109929
40
1.2589638
50
320.7372878
51
323.9739031
0
ARC
8
DEFAULT_255_1_388
10
21.9821226
20
85.1915554
40
0.7145141
50
323.8962701
51
328.64194
0
ARC
8
DEFAULT_255_1_388
10
22.2123484
20
85.0495545
40
0.4440242
50
328.8294576
51
331.7891185
0
ARC
8
DEFAULT_255_1_388
10
22.3245804
20
84.9916374
40
0.3177517
50
331.4254512
51
352.9365785
0
ARC
8
DEFAULT_255_1_388
10
22.3398804
20
84.988205
40
0.3021496
50
353.2257659
51
0.0166158
0
ARC
8
DEFAULT_255_1_388
10
22.3635564
20
84.9907894
40
0.2784847
50
359.486299
51
15.9343185
0
ARC
8
DEFAULT_255_1_388
10
22.4205831
20
85.0061269
40
0.2194403
50
16.1712913
51
43.5286088
0
ARC
8
DEFAULT_255_1_388
10
22.4292776
20
85.0148191
40
0.2071504
50
43.4417391
51
83.1661095
0
ARC
8
DEFAULT_255_1_388
10
22.4141937
20
84.9319316
40
0.2912888
50
82.160179
51
90.1505708
0
ARC
8
DEFAULT_255_1_388
10
22.4106418
20
84.8715279
40
0.3517025
50
89.5460741
51
102.5418361
0
ARC
8
DEFAULT_255_1_388
10
22.3833138
20
84.9874933
40
0.2325748
50
102.1738499
51
129.206123
0
ARC
8
DEFAULT_255_1_388
10
22.3744592
20
85.0014664
40
0.2161591
50
129.72865
51
135.753947
0
ARC
8
DEFAULT_255_1_388
10
22.3881074
20
84.9905728
40
0.2335433
50
136.1757367
51
166.3673339
0
ARC
8
DEFAULT_255_1_388
10
22.5013762
20
84.9602148
40
0.3507873
50
165.9090694
51
178.8684636
0
ARC
8
DEFAULT_255_1_388
10
22.5989534
20
84.9549263
40
0.4484624
50
178.4391136
51
180.0083808
0
ARC
8
DEFAULT_255_1_388
10
22.4410235
20
84.9593197
40
0.4577138
50
163.2878482
51
180.5581842
0
ARC
8
DEFAULT_255_1_388
10
22.3508276
20
84.9841393
40
0.3641968
50
133.4540601
51
162.947111
0
ARC
8
DEFAULT_255_1_388
10
22.3709158
20
84.9627789
40
0.3935189
50
100.7869829
51
133.4382499
0
ARC
8
DEFAULT_255_1_388
10
22.4100403
20
84.7885399
40
0.5720313
50
89.660664
51
101.3702276
0
ARC
8
DEFAULT_255_1_388
10
22.4175012
20
84.7954263
40
0.5651495
50
78.2172678
51
90.412935
0
ARC
8
DEFAULT_255_1_388
10
22.4574478
20
84.9781511
40
0.378122
50
55.9269121
51
78.4888449
0
ARC
8
DEFAULT_255_1_388
10
22.4795193
20
85.0162187
40
0.3342379
50
47.929771
51
55.4049217
0
ARC
8
DEFAULT_255_1_388
10
22.4909723
20
85.0278618
40
0.3179217
50
4.334829
51
48.0560205
0
ARC
8
DEFAULT_255_1_388
10
22.3677525
20
85.0087487
40
0.442341
50
359.9251713
51
5.5971671
0
ARC
8
DEFAULT_255_1_388
10
22.415968
20
85.0150728
40
0.3941854
50
337.8914027
51
358.9967534
0
ARC
8
DEFAULT_255_1_388
10
22.110725
20
85.1328295
40
0.7213271
50
326.9132501
51
338.3508308
0
ARC
8
DEFAULT_255_1_388
10
21.6623362
20
85.4202105
40
1.2538973
50
319.6471833
51
327.0959558
0
ARC
8
DEFAULT_255_1_388
10
21.231002
20
85.776005
40
1.8129975
50
317.2588228
51
319.9045804
0
ARC
8
DEFAULT_255_1_388
10
23.1889138
20
84.1156142
40
0.1204062
50
163.5412609
51
180.5084512
0
ARC
8
DEFAULT_255_1_388
10
23.1673037
20
84.121446
40
0.0980307
50
138.1652
51
163.2315563
0
ARC
8
DEFAULT_255_1_388
10
23.1546778
20
84.1321456
40
0.0814881
50
105.6860499
51
137.8492655
0
ARC
8
DEFAULT_255_1_388
10
23.1679979
20
84.0889109
40
0.126719
50
92.6078949
51
106.199173
0
ARC
8
DEFAULT_255_1_388
10
23.1714169
20
84.0443207
40
0.1714243
50
89.9659531
51
93.0713334
0
ARC
8
DEFAULT_255_1_388
10
23.1726205
20
84.0693484
40
0.1464007
50
78.4379126
51
90.4311892
0
ARC
8
DEFAULT_255_1_388
10
23.1834852
20
84.1200017
40
0.094599
50
56.8961942
51
78.7357785
0
ARC
8
DEFAULT_255_1_388
10
23.1905963
20
84.1324075
40
0.0803272
50
42.6503148
51
56.3122241
0
ARC
8
DEFAULT_255_1_388
10
23.1761864
20
84.1191661
40
0.099897
50
3.8141057
51
42.636595
0
ARC
8
DEFAULT_255_1_388
10
23.1439186
20
84.1146616
40
0.1324137
50
359.9498843
51
4.8301897
0
ARC
8
DEFAULT_255_1_388
10
23.1694324
20
84.1134722
40
0.1069053
50
340.9378148
51
0.5753733
0
ARC
8
DEFAULT_255_1_388
10
23.1820906
20
84.1100569
40
0.0938301
50
316.0798885
51
340.3845117
0
ARC
8
DEFAULT_255_1_388
10
23.1886217
20
84.104052
40
0.0849605
50
285.8512844
51
315.941661
0
ARC
8
DEFAULT_255_1_388
10
23.1754097
20
84.146762
40
0.1296594
50
273.1293204
51
286.3125006
0
ARC
8
DEFAULT_255_1_388
10
23.1716607
20
84.1919586
40
0.1749979
50
269.9535313
51
273.5471598
0
ARC
8
DEFAULT_255_1_388
10
23.1704213
20
84.1673833
40
0.1504266
50
259.0487117
51
270.4180248
0
ARC
8
DEFAULT_255_1_388
10
23.1595825
20
84.1136783
40
0.0956414
50
239.7583641
51
259.3115656
0
ARC
8
DEFAULT_255_1_388
10
23.1504758
20
84.0967048
40
0.0763945
50
222.6243303
51
239.2473835
0
ARC
8
DEFAULT_255_1_388
10
23.1655929
20
84.1105572
40
0.0968985
50
182.9231258
51
222.598101
0
ARC
8
DEFAULT_255_1_388
10
23.1959129
20
84.1144696
40
0.1274004
50
179.9657458
51
183.9850364
0
LINE
8
DEFAULT_255_1_388
10
23.7452822
20
84.6521666
11
23.6115546
21
84.6865021
0
LINE
8
DEFAULT_255_1_388
10
23.6115546
20
84.6865021
11
23.6784184
21
85.3424898
0
LINE
8
DEFAULT_255_1_388
10
23.6784184
20
85.3424898
11
24.3524775
21
85.3424898
0
LINE
8
DEFAULT_255_1_388
10
24.3524775
20
85.3424898
11
24.3524775
21
85.1879803
0
LINE
8
DEFAULT_255_1_388
10
24.3524775
20
85.1879803
11
23.820278
21
85.1879803
0
LINE
8
DEFAULT_255_1_388
10
23.820278
20
85.1879803
11
23.7805212
21
84.8292652
0
LINE
8
DEFAULT_255_1_388
10
23.5645693
20
84.3729652
11
23.7226931
21
84.3729652
0
LINE
8
DEFAULT_255_1_388
10
23.7895568
20
84.6883092
11
23.7452822
21
84.6521666
0
ARC
8
DEFAULT_255_1_388
10
23.9891825
20
84.4715241
40
0.4141476
50
93.7181681
51
120.253934
0
ARC
8
DEFAULT_255_1_388
10
23.9997878
20
84.3806284
40
0.5055616
50
89.9660471
51
94.2495185
0
ARC
8
DEFAULT_255_1_388
10
24.00437
20
84.4469154
40
0.4392953
50
73.8045384
51
90.5585736
0
ARC
8
DEFAULT_255_1_388
10
24.0307957
20
84.543452
40
0.3392225
50
41.3071072
51
73.543002
0
ARC
8
DEFAULT_255_1_388
10
23.9839777
20
84.5031461
40
0.4009977
50
13.5075837
51
41.2174839
0
ARC
8
DEFAULT_255_1_388
10
23.7992875
20
84.4547907
40
0.5918864
50
1.1330171
51
13.8830737
0
ARC
8
DEFAULT_255_1_388
10
23.639652
20
84.4462522
40
0.7516787
50
359.9925091
51
1.5431298
0
ARC
8
DEFAULT_255_1_388
10
23.7841135
20
84.4416027
40
0.6072343
50
347.8572712
51
0.4294349
0
ARC
8
DEFAULT_255_1_388
10
23.981027
20
84.3969898
40
0.4053482
50
323.6727442
51
348.1674594
0
ARC
8
DEFAULT_255_1_388
10
24.0141235
20
84.3768175
40
0.3667495
50
316.8171818
51
323.1486802
0
ARC
8
DEFAULT_255_1_388
10
24.0210358
20
84.3726612
40
0.358869
50
281.839603
51
316.5458142
0
ARC
8
DEFAULT_255_1_388
10
23.9787646
20
84.5476363
40
0.5388223
50
269.5770964
51
282.4214641
0
ARC
8
DEFAULT_255_1_388
10
23.9707567
20
84.523593
40
0.5147801
50
256.2425863
51
270.4486481
0
ARC
8
DEFAULT_255_1_388
10
23.9371094
20
84.3886124
40
0.3756708
50
228.9024379
51
256.33135
0
ARC
8
DEFAULT_255_1_388
10
23.9288075
20
84.3755054
40
0.360344
50
193.7536029
51
228.5272638
0
ARC
8
DEFAULT_255_1_388
10
24.068064
20
84.4163463
40
0.5053599
50
184.9244437
51
194.4976052
0
ARC
8
DEFAULT_255_1_388
10
24.0897281
20
84.4203722
40
0.3700839
50
187.3596909
51
198.6733728
0
ARC
8
DEFAULT_255_1_388
10
23.9716524
20
84.3794373
40
0.2451195
50
198.4453795
51
217.7945479
0
ARC
8
DEFAULT_255_1_388
10
23.9383697
20
84.3558563
40
0.2043754
50
218.2887146
51
228.5613203
0
ARC
8
DEFAULT_255_1_388
10
23.9493704
20
84.3706902
40
0.2227819
50
228.9652423
51
258.1237049
0
ARC
8
DEFAULT_255_1_388
10
23.9725141
20
84.4697964
40
0.3245374
50
257.7260585
51
270.4013717
0
ARC
8
DEFAULT_255_1_388
10
23.9775639
20
84.4197255
40
0.2744726
50
269.4204315
51
286.420998
0
ARC
8
DEFAULT_255_1_388
10
23.9942695
20
84.3590705
40
0.2115721
50
286.7250065
51
320.6004665
0
ARC
8
DEFAULT_255_1_388
10
23.951161
20
84.3940527
40
0.2670878
50
320.6712228
51
344.5440474
0
ARC
8
DEFAULT_255_1_388
10
23.8210324
20
84.4322394
40
0.4026927
50
344.241448
51
356.735803
0
ARC
8
DEFAULT_255_1_388
10
23.6806631
20
84.4438656
40
0.5435085
50
356.3547471
51
0.0507222
0
ARC
8
DEFAULT_255_1_388
10
23.8308896
20
84.4473812
40
0.3932934
50
359.5579289
51
12.9534322
0
ARC
8
DEFAULT_255_1_388
10
23.9495736
20
84.4761586
40
0.2711827
50
12.6489751
51
41.608121
0
ARC
8
DEFAULT_255_1_388
10
23.9754896
20
84.4981946
40
0.2371737
50
41.7851122
51
85.9892156
0
ARC
8
DEFAULT_255_1_388
10
23.9616206
20
84.4066738
40
0.3295244
50
84.6965848
51
90.0672125
0
ARC
8
DEFAULT_255_1_388
10
23.9589774
20
84.3315118
40
0.4046926
50
89.6804991
51
99.161352
0
ARC
8
DEFAULT_255_1_388
10
23.9358783
20
84.4695848
40
0.2647044
50
98.9836248
51
113.8905702
0
ARC
8
DEFAULT_255_1_388
10
23.9100458
20
84.5305118
40
0.1985386
50
114.195234
51
127.3641866
0
LINE
8
DEFAULT_255_1_388
10
22.7383318
20
92.1008382
11
22.7383318
21
91.9644
0
LINE
8
DEFAULT_255_1_388
10
22.7383318
20
91.9644
11
21.8763313
21
91.9644
0
LINE
8
DEFAULT_255_1_388
10
21.8763313
20
91.9644
11
21.8763313
21
92.0845741
0
LINE
8
DEFAULT_255_1_388
10
21.8763313
20
92.0845741
11
22.3317278
21
92.5905702
0
LINE
8
DEFAULT_255_1_388
10
22.0181909
20
92.8923607
11
21.8510315
21
92.8923607
0
LINE
8
DEFAULT_255_1_388
10
22.4302163
20
92.483046
11
22.0778262
21
92.1008382
0
LINE
8
DEFAULT_255_1_388
10
22.0778262
20
92.1008382
11
22.7383318
21
92.1008382
0
ARC
8
DEFAULT_255_1_388
10
20.8141337
20
93.9325983
40
2.0258655
50
318.5132526
51
320.7829045
0
ARC
8
DEFAULT_255_1_388
10
21.4089294
20
93.4484929
40
1.2589638
50
320.7372878
51
323.9739031
0
ARC
8
DEFAULT_255_1_388
10
21.8498226
20
93.1290554
40
0.7145141
50
323.8962701
51
328.64194
0
ARC
8
DEFAULT_255_1_388
10
22.0800484
20
92.9870545
40
0.4440242
50
328.8294576
51
331.7891185
0
ARC
8
DEFAULT_255_1_388
10
22.1922804
20
92.9291374
40
0.3177517
50
331.4254512
51
352.9365785
0
ARC
8
DEFAULT_255_1_388
10
22.2075804
20
92.925705
40
0.3021496
50
353.2257659
51
0.0166158
0
ARC
8
DEFAULT_255_1_388
10
22.2312564
20
92.9282894
40
0.2784847
50
359.486299
51
15.9343185
0
ARC
8
DEFAULT_255_1_388
10
22.2882831
20
92.9436269
40
0.2194403
50
16.1712913
51
43.5286088
0
ARC
8
DEFAULT_255_1_388
10
22.2969776
20
92.9523191
40
0.2071504
50
43.4417391
51
83.1661095
0
ARC
8
DEFAULT_255_1_388
10
22.2818937
20
92.8694316
40
0.2912888
50
82.160179
51
90.1505708
0
ARC
8
DEFAULT_255_1_388
10
22.2783418
20
92.8090279
40
0.3517025
50
89.5460741
51
102.5418361
0
ARC
8
DEFAULT_255_1_388
10
22.2510138
20
92.9249933
40
0.2325748
50
102.1738499
51
129.206123
0
ARC
8
DEFAULT_255_1_388
10
22.2421592
20
92.9389664
40
0.2161591
50
129.72865
51
135.753947
0
ARC
8
DEFAULT_255_1_388
10
22.2558074
20
92.9280728
40
0.2335433
50
136.1757367
51
166.3673339
0
ARC
8
DEFAULT_255_1_388
10
22.3690762
20
92.8977148
40
0.3507873
50
165.9090694
51
178.8684636
0
ARC
8
DEFAULT_255_1_388
10
22.4666534
20
92.8924263
40
0.4484624
50
178.4391136
51
180.0083808
0
ARC
8
DEFAULT_255_1_388
10
22.3087235
20
92.8968197
40
0.4577138
50
163.2878482
51
180.5581842
0
ARC
8
DEFAULT_255_1_388
10
22.2185276
20
92.9216393
40
0.3641968
50
133.4540601
51
162.947111
0
ARC
8
DEFAULT_255_1_388
10
22.2386158
20
92.9002789
40
0.3935189
50
100.7869829
51
133.4382499
0
ARC
8
DEFAULT_255_1_388
10
22.2777403
20
92.7260399
40
0.5720313
50
89.660664
51
101.3702276
0
ARC
8
DEFAULT_255_1_388
10
22.2852012
20
92.7329263
40
0.5651495
50
78.2172678
51
90.412935
0
ARC
8
DEFAULT_255_1_388
10
22.3251478
20
92.9156511
40
0.378122
50
55.9269121
51
78.4888449
0
ARC
8
DEFAULT_255_1_388
10
22.3472193
20
92.9537187
40
0.3342379
50
47.929771
51
55.4049217
0
ARC
8
DEFAULT_255_1_388
10
22.3586723
20
92.9653618
40
0.3179217
50
4.334829
51
48.0560205
0
ARC
8
DEFAULT_255_1_388
10
22.2354525
20
92.9462487
40
0.442341
50
359.9251713
51
5.5971671
0
ARC
8
DEFAULT_255_1_388
10
22.283668
20
92.9525728
40
0.3941854
50
337.8914027
51
358.9967534
0
ARC
8
DEFAULT_255_1_388
10
21.978425
20
93.0703295
40
0.7213271
50
326.9132501
51
338.3508308
0
ARC
8
DEFAULT_255_1_388
10
21.5300362
20
93.3577105
40
1.2538973
50
319.6471833
51
327.0959558
0
ARC
8
DEFAULT_255_1_388
10
21.098702
20
93.713505
40
1.8129975
50
317.2588228
51
319.9045804
0
ARC
8
DEFAULT_255_1_388
10
23.0566138
20
92.0531142
40
0.1204062
50
163.5412609
51
180.5084512
0
ARC
8
DEFAULT_255_1_388
10
23.0350037
20
92.058946
40
0.0980307
50
138.1652
51
163.2315563
0
ARC
8
DEFAULT_255_1_388
10
23.0223778
20
92.0696456
40
0.0814881
50
105.6860499
51
137.8492655
0
ARC
8
DEFAULT_255_1_388
10
23.0356979
20
92.0264109
40
0.126719
50
92.6078949
51
106.199173
0
ARC
8
DEFAULT_255_1_388
10
23.0391169
20
91.9818207
40
0.1714243
50
89.9659531
51
93.0713334
0
ARC
8
DEFAULT_255_1_388
10
23.0403205
20
92.0068484
40
0.1464007
50
78.4379126
51
90.4311892
0
ARC
8
DEFAULT_255_1_388
10
23.0511852
20
92.0575017
40
0.094599
50
56.8961942
51
78.7357785
0
ARC
8
DEFAULT_255_1_388
10
23.0582963
20
92.0699075
40
0.0803272
50
42.6503148
51
56.3122241
0
ARC
8
DEFAULT_255_1_388
10
23.0438864
20
92.0566661
40
0.099897
50
3.8141057
51
42.636595
0
ARC
8
DEFAULT_255_1_388
10
23.0116186
20
92.0521616
40
0.1324137
50
359.9498843
51
4.8301897
0
ARC
8
DEFAULT_255_1_388
10
23.0371324
20
92.0509722
40
0.1069053
50
340.9378148
51
0.5753733
0
ARC
8
DEFAULT_255_1_388
10
23.0497906
20
92.0475569
40
0.0938301
50
316.0798885
51
340.3845117
0
ARC
8
DEFAULT_255_1_388
10
23.0563217
20
92.041552
40
0.0849605
50
285.8512844
51
315.941661
0
ARC
8
DEFAULT_255_1_388
10
23.0431097
20
92.084262
40
0.1296594
50
273.1293204
51
286.3125006
0
ARC
8
DEFAULT_255_1_388
10
23.0393607
20
92.1294586
40
0.1749979
50
269.9535313
51
273.5471598
0
ARC
8
DEFAULT_255_1_388
10
23.0381213
20
92.1048833
40
0.1504266
50
259.0487117
51
270.4180248
0
ARC
8
DEFAULT_255_1_388
10
23.0272825
20
92.0511783
40
0.0956414
50
239.7583641
51
259.3115656
0
ARC
8
DEFAULT_255_1_388
10
23.0181758
20
92.0342048
40
0.0763945
50
222.6243303
51
239.2473835
0
ARC
8
DEFAULT_255_1_388
10
23.0332929
20
92.0480572
40
0.0968985
50
182.9231258
51
222.598101
0
ARC
8
DEFAULT_255_1_388
10
23.0636129
20
92.0519696
40
0.1274004
50
179.9657458
51
183.9850364
0
LINE
8
DEFAULT_255_1_388
10
24.1081355
20
93.2799898
11
24.1081355
21
92.406243
0
LINE
8
DEFAULT_255_1_388
10
24.1081355
20
92.406243
11
24.2906555
21
92.406243
0
LINE
8
DEFAULT_255_1_388
10
24.2906555
20
92.406243
11
24.2906555
21
92.2698048
0
LINE
8
DEFAULT_255_1_388
10
24.2906555
20
92.2698048
11
24.1081355
21
92.2698048
0
LINE
8
DEFAULT_255_1_388
10
24.1081355
20
92.2698048
11
24.1081355
21
91.9644
0
LINE
8
DEFAULT_255_1_388
10
24.1081355
20
91.9644
11
23.9400725
21
91.9644
0
LINE
8
DEFAULT_255_1_388
10
23.9400725
20
91.9644
11
23.9400725
21
92.2698048
0
LINE
8
DEFAULT_255_1_388
10
23.9400725
20
92.2698048
11
23.3410093
21
92.2698048
0
LINE
8
DEFAULT_255_1_388
10
23.3410093
20
92.2698048
11
23.3410093
21
92.3682933
0
LINE
8
DEFAULT_255_1_388
10
23.3410093
20
92.3682933
11
23.9301333
21
93.2799898
0
LINE
8
DEFAULT_255_1_388
10
23.9301333
20
93.2799898
11
24.1081355
21
93.2799898
0
LINE
8
DEFAULT_255_1_388
10
23.9201941
20
93.0152455
11
23.5307578
21
92.406243
0
LINE
8
DEFAULT_255_1_388
10
23.5307578
20
92.406243
11
23.9400725
21
92.406243
0
LINE
8
DEFAULT_255_1_388
10
23.9400725
20
92.406243
11
23.9400725
21
93.051388
0
LINE
8
DEFAULT_255_1_388
10
23.9400725
20
93.051388
11
23.9201941
21
93.0152455
0
LINE
8
DEFAULT_255_1_388
10
22.8706318
20
100.0383382
11
22.8706318
21
99.9019
0
LINE
8
DEFAULT_255_1_388
10
22.8706318
20
99.9019
11
22.0086313
21
99.9019
0
LINE
8
DEFAULT_255_1_388
10
22.0086313
20
99.9019
11
22.0086313
21
100.0220741
0
LINE
8
DEFAULT_255_1_388
10
22.0086313
20
100.0220741
11
22.4640278
21
100.5280702
0
LINE
8
DEFAULT_255_1_388
10
22.1504909
20
100.8298607
11
21.9833315
21
100.8298607
0
LINE
8
DEFAULT_255_1_388
10
22.5625163
20
100.420546
11
22.2101262
21
100.0383382
0
LINE
8
DEFAULT_255_1_388
10
22.2101262
20
100.0383382
11
22.8706318
21
100.0383382
0
ARC
8
DEFAULT_255_1_388
10
20.9464337
20
101.8700983
40
2.0258655
50
318.5132526
51
320.7829045
0
ARC
8
DEFAULT_255_1_388
10
21.5412294
20
101.3859929
40
1.2589638
50
320.7372878
51
323.9739031
0
ARC
8
DEFAULT_255_1_388
10
21.9821226
20
101.0665554
40
0.7145141
50
323.8962701
51
328.64194
0
ARC
8
DEFAULT_255_1_388
10
22.2123484
20
100.9245545
40
0.4440242
50
328.8294576
51
331.7891185
0
ARC
8
DEFAULT_255_1_388
10
22.3245804
20
100.8666374
40
0.3177517
50
331.4254512
51
352.9365785
0
ARC
8
DEFAULT_255_1_388
10
22.3398804
20
100.863205
40
0.3021496
50
353.2257659
51
0.0166158
0
ARC
8
DEFAULT_255_1_388
10
22.3635564
20
100.8657894
40
0.2784847
50
359.486299
51
15.9343185
0
ARC
8
DEFAULT_255_1_388
10
22.4205831
20
100.8811269
40
0.2194403
50
16.1712913
51
43.5286088
0
ARC
8
DEFAULT_255_1_388
10
22.4292776
20
100.8898191
40
0.2071504
50
43.4417391
51
83.1661095
0
ARC
8
DEFAULT_255_1_388
10
22.4141937
20
100.8069316
40
0.2912888
50
82.160179
51
90.1505708
0
ARC
8
DEFAULT_255_1_388
10
22.4106418
20
100.7465279
40
0.3517025
50
89.5460741
51
102.5418361
0
ARC
8
DEFAULT_255_1_388
10
22.3833138
20
100.8624933
40
0.2325748
50
102.1738499
51
129.206123
0
ARC
8
DEFAULT_255_1_388
10
22.3744592
20
100.8764664
40
0.2161591
50
129.72865
51
135.753947
0
ARC
8
DEFAULT_255_1_388
10
22.3881074
20
100.8655728
40
0.2335433
50
136.1757367
51
166.3673339
0
ARC
8
DEFAULT_255_1_388
10
22.5013762
20
100.8352148
40
0.3507873
50
165.9090694
51
178.8684636
0
ARC
8
DEFAULT_255_1_388
10
22.5989534
20
100.8299263
40
0.4484624
50
178.4391136
51
180.0083808
0
ARC
8
DEFAULT_255_1_388
10
22.4410235
20
100.8343197
40
0.4577138
50
163.2878482
51
180.5581842
0
ARC
8
DEFAULT_255_1_388
10
22.3508276
20
100.8591393
40
0.3641968
50
133.4540601
51
162.947111
0
ARC
8
DEFAULT_255_1_388
10
22.3709158
20
100.8377789
40
0.3935189
50
100.7869829
51
133.4382499
0
ARC
8
DEFAULT_255_1_388
10
22.4100403
20
100.6635399
40
0.5720313
50
89.660664
51
101.3702276
0
ARC
8
DEFAULT_255_1_388
10
22.4175012
20
100.6704263
40
0.5651495
50
78.2172678
51
90.412935
0
ARC
8
DEFAULT_255_1_388
10
22.4574478
20
100.8531511
40
0.378122
50
55.9269121
51
78.4888449
0
ARC
8
DEFAULT_255_1_388
10
22.4795193
20
100.8912187
40
0.3342379
50
47.929771
51
55.4049217
0
ARC
8
DEFAULT_255_1_388
10
22.4909723
20
100.9028618
40
0.3179217
50
4.334829
51
48.0560205
0
ARC
8
DEFAULT_255_1_388
10
22.3677525
20
100.8837487
40
0.442341
50
359.9251713
51
5.5971671
0
ARC
8
DEFAULT_255_1_388
10
22.415968
20
100.8900728
40
0.3941854
50
337.8914027
51
358.9967534
0
ARC
8
DEFAULT_255_1_388
10
22.110725
20
101.0078295
40
0.7213271
50
326.9132501
51
338.3508308
0
ARC
8
DEFAULT_255_1_388
10
21.6623362
20
101.2952105
40
1.2538973
50
319.6471833
51
327.0959558
0
ARC
8
DEFAULT_255_1_388
10
21.231002
20
101.651005
40
1.8129975
50
317.2588228
51
319.9045804
0
ARC
8
DEFAULT_255_1_388
10
23.1889138
20
99.9906142
40
0.1204062
50
163.5412609
51
180.5084512
0
ARC
8
DEFAULT_255_1_388
10
23.1673037
20
99.996446
40
0.0980307
50
138.1652
51
163.2315563
0
ARC
8
DEFAULT_255_1_388
10
23.1546778
20
100.0071456
40
0.0814881
50
105.6860499
51
137.8492655
0
ARC
8
DEFAULT_255_1_388
10
23.1679979
20
99.9639109
40
0.126719
50
92.6078949
51
106.199173
0
ARC
8
DEFAULT_255_1_388
10
23.1714169
20
99.9193207
40
0.1714243
50
89.9659531
51
93.0713334
0
ARC
8
DEFAULT_255_1_388
10
23.1726205
20
99.9443484
40
0.1464007
50
78.4379126
51
90.4311892
0
ARC
8
DEFAULT_255_1_388
10
23.1834852
20
99.9950017
40
0.094599
50
56.8961942
51
78.7357785
0
ARC
8
DEFAULT_255_1_388
10
23.1905963
20
100.0074075
40
0.0803272
50
42.6503148
51
56.3122241
0
ARC
8
DEFAULT_255_1_388
10
23.1761864
20
99.9941661
40
0.099897
50
3.8141057
51
42.636595
0
ARC
8
DEFAULT_255_1_388
10
23.1439186
20
99.9896616
40
0.1324137
50
359.9498843
51
4.8301897
0
ARC
8
DEFAULT_255_1_388
10
23.1694324
20
99.9884722
40
0.1069053
50
340.9378148
51
0.5753733
0
ARC
8
DEFAULT_255_1_388
10
23.1820906
20
99.9850569
40
0.0938301
50
316.0798885
51
340.3845117
0
ARC
8
DEFAULT_255_1_388
10
23.1886217
20
99.979052
40
0.0849605
50
285.8512844
51
315.941661
0
ARC
8
DEFAULT_255_1_388
10
23.1754097
20
100.021762
40
0.1296594
50
273.1293204
51
286.3125006
0
ARC
8
DEFAULT_255_1_388
10
23.1716607
20
100.0669586
40
0.1749979
50
269.9535313
51
273.5471598
0
ARC
8
DEFAULT_255_1_388
10
23.1704213
20
100.0423833
40
0.1504266
50
259.0487117
51
270.4180248
0
ARC
8
DEFAULT_255_1_388
10
23.1595825
20
99.9886783
40
0.0956414
50
239.7583641
51
259.3115656
0
ARC
8
DEFAULT_255_1_388
10
23.1504758
20
99.9717048
40
0.0763945
50
222.6243303
51
239.2473835
0
ARC
8
DEFAULT_255_1_388
10
23.1655929
20
99.9855572
40
0.0968985
50
182.9231258
51
222.598101
0
ARC
8
DEFAULT_255_1_388
10
23.1959129
20
99.9894696
40
0.1274004
50
179.9657458
51
183.9850364
0
LINE
8
DEFAULT_255_1_388
10
23.7778105
20
100.5045775
11
23.7778105
21
100.6410157
0
LINE
8
DEFAULT_255_1_388
10
23.7778105
20
100.6410157
11
23.903406
21
100.6410157
0
LINE
8
DEFAULT_255_1_388
10
23.6892612
20
100.8723282
11
23.5221018
21
100.8723282
0
LINE
8
DEFAULT_255_1_388
10
23.5103554
20
100.2488688
11
23.6784184
21
100.2488688
0
LINE
8
DEFAULT_255_1_388
10
23.903406
20
100.5045775
11
23.7778105
21
100.5045775
0
ARC
8
DEFAULT_255_1_388
10
23.9001286
20
101.0226922
40
0.3816905
50
270.491971
51
281.8953028
0
ARC
8
DEFAULT_255_1_388
10
23.9272713
20
100.8987199
40
0.2547877
50
281.6690378
51
301.2943765
0
ARC
8
DEFAULT_255_1_388
10
23.9464164
20
100.8636926
40
0.2149197
50
301.7834992
51
311.754567
0
ARC
8
DEFAULT_255_1_388
10
23.9567206
20
100.852265
40
0.1995326
50
311.7325027
51
354.2803031
0
ARC
8
DEFAULT_255_1_388
10
23.8749622
20
100.866328
40
0.2823461
50
353.0941646
51
0.1174696
0
ARC
8
DEFAULT_255_1_388
10
23.823118
20
100.8716874
40
0.3342238
50
359.1804452
51
15.0452323
0
ARC
8
DEFAULT_255_1_388
10
23.9745238
20
100.9158546
40
0.1765747
50
13.957816
51
77.6713812
0
ARC
8
DEFAULT_255_1_388
10
23.9310474
20
100.7600464
40
0.3381982
50
76.111571
51
90.7028736
0
ARC
8
DEFAULT_255_1_388
10
23.9243886
20
100.790825
40
0.3074046
50
89.5321574
51
103.5319393
0
ARC
8
DEFAULT_255_1_388
10
23.9018269
20
100.8807443
40
0.2147041
50
103.2930114
51
133.5619756
0
ARC
8
DEFAULT_255_1_388
10
23.8968211
20
100.8874351
40
0.2064084
50
133.8349761
51
173.5343225
0
ARC
8
DEFAULT_255_1_388
10
23.9781868
20
100.8730144
40
0.2889266
50
172.5097183
51
180.1360699
0
ARC
8
DEFAULT_255_1_388
10
23.8711632
20
100.876888
40
0.3490913
50
155.3483706
51
180.7484035
0
ARC
8
DEFAULT_255_1_388
10
23.8656608
20
100.8736519
40
0.3454798
50
131.5745177
51
154.4799474
0
ARC
8
DEFAULT_255_1_388
10
23.9008891
20
100.8380422
40
0.3955058
50
96.9874487
51
131.9690874
0
ARC
8
DEFAULT_255_1_388
10
23.9255783
20
100.6979407
40
0.537622
50
89.8592909
51
97.7827481
0
ARC
8
DEFAULT_255_1_388
10
23.9309892
20
100.668436
40
0.5671399
50
78.3654493
51
90.4132586
0
ARC
8
DEFAULT_255_1_388
10
23.9712533
20
100.8550918
40
0.3762034
50
56.6229818
51
78.6387103
0
ARC
8
DEFAULT_255_1_388
10
23.9954363
20
100.8973846
40
0.3275964
50
47.0254604
51
56.085558
0
ARC
8
DEFAULT_255_1_388
10
23.9976614
20
100.9018189
40
0.3228382
50
10.9207523
51
46.777927
0
ARC
8
DEFAULT_255_1_388
10
23.8442208
20
100.8663401
40
0.4802559
50
359.6364235
51
11.6087615
0
ARC
8
DEFAULT_255_1_388
10
24.0506373
20
100.8646404
40
0.273833
50
332.3549969
51
359.7179765
0
ARC
8
DEFAULT_255_1_388
10
23.9774774
20
100.8993285
40
0.3547505
50
325.2332381
51
332.8746682
0
ARC
8
DEFAULT_255_1_388
10
23.9946357
20
100.8873763
40
0.3338396
50
292.9803892
51
325.2391113
0
ARC
8
DEFAULT_255_1_388
10
23.9635553
20
100.9478679
40
0.4016959
50
292.542178
51
293.6931461
0
ARC
8
DEFAULT_255_1_388
10
24.0079125
20
100.2213036
40
0.372079
50
57.643292
51
72.8626085
0
ARC
8
DEFAULT_255_1_388
10
24.0477959
20
100.2859273
40
0.2961455
50
36.7246661
51
57.4701329
0
ARC
8
DEFAULT_255_1_388
10
24.0465116
20
100.287347
40
0.2963321
50
8.054535
51
36.3561529
0
ARC
8
DEFAULT_255_1_388
10
23.9494788
20
100.2699073
40
0.3948682
50
359.8316595
51
8.5873361
0
ARC
8
DEFAULT_255_1_388
10
23.9072263
20
100.264497
40
0.4371398
50
343.9831631
51
0.557075
0
ARC
8
DEFAULT_255_1_388
10
24.0069312
20
100.2371963
40
0.3337749
50
311.6358204
51
343.7652116
0
ARC
8
DEFAULT_255_1_388
10
23.9643566
20
100.2851955
40
0.3979351
50
279.7829743
51
311.625622
0
ARC
8
DEFAULT_255_1_388
10
23.9304701
20
100.4468642
40
0.5630417
50
269.7285092
51
280.3857694
0
ARC
8
DEFAULT_255_1_388
10
23.9235014
20
100.4422241
40
0.5584119
50
256.6827433
51
270.4412869
0
ARC
8
DEFAULT_255_1_388
10
23.8854001
20
100.2864698
40
0.3980715
50
229.4223821
51
256.8554507
0
ARC
8
DEFAULT_255_1_388
10
23.8387554
20
100.2339683
40
0.3278564
50
181.8183354
51
229.6455015
0
ARC
8
DEFAULT_255_1_388
10
23.9557163
20
100.2486825
40
0.4453611
50
179.9760419
51
183.2330638
0
ARC
8
DEFAULT_255_1_388
10
23.9363716
20
100.2463781
40
0.2579652
50
179.4467996
51
196.2871626
0
ARC
8
DEFAULT_255_1_388
10
23.8815169
20
100.2313709
40
0.2011057
50
196.5661293
51
227.7059371
0
ARC
8
DEFAULT_255_1_388
10
23.8999777
20
100.2520155
40
0.2287994
50
227.7653015
51
257.8763321
0
ARC
8
DEFAULT_255_1_388
10
23.925286
20
100.3580961
40
0.3378385
50
257.4583525
51
270.4267406
0
ARC
8
DEFAULT_255_1_388
10
23.9304109
20
100.390723
40
0.3704652
50
269.5965319
51
280.8788143
0
ARC
8
DEFAULT_255_1_388
10
23.9562337
20
100.2617529
40
0.2389415
50
280.6347277
51
299.8594068
0
ARC
8
DEFAULT_255_1_388
10
23.9777107
20
100.2209736
40
0.19289
50
300.3575552
51
314.5515667
0
ARC
8
DEFAULT_255_1_388
10
23.9683783
20
100.2278025
40
0.204312
50
315.0730962
51
345.0429362
0
ARC
8
DEFAULT_255_1_388
10
23.864529
20
100.2580539
40
0.31246
50
344.598526
51
357.9270698
0
ARC
8
DEFAULT_255_1_388
10
23.7635595
20
100.2649705
40
0.4136265
50
357.4755098
51
0.0224936
0
ARC
8
DEFAULT_255_1_388
10
23.8788473
20
100.2677099
40
0.2983498
50
359.5051035
51
13.4236939
0
ARC
8
DEFAULT_255_1_388
10
23.9763563
20
100.2926637
40
0.1977186
50
12.9497905
51
48.7550905
0
ARC
8
DEFAULT_255_1_388
10
23.9558484
20
100.2646373
40
0.2323321
50
49.509109
51
72.1832965
0
ARC
8
DEFAULT_255_1_388
10
23.9155953
20
100.1451632
40
0.358397
50
71.9008458
51
84.3555134
0
ARC
8
DEFAULT_255_1_388
10
23.8974347
20
99.9919712
40
0.512641
50
84.019632
51
89.3326067
0
LINE
8
DEFAULT_255_1_388
10
22.8706318
20
107.9758382
11
22.8706318
21
107.8394
0
LINE
8
DEFAULT_255_1_388
10
22.8706318
20
107.8394
11
22.0086313
21
107.8394
0
LINE
8
DEFAULT_255_1_388
10
22.0086313
20
107.8394
11
22.0086313
21
107.9595741
0
LINE
8
DEFAULT_255_1_388
10
22.0086313
20
107.9595741
11
22.4640278
21
108.4655702
0
LINE
8
DEFAULT_255_1_388
10
22.1504909
20
108.7673607
11
21.9833315
21
108.7673607
0
LINE
8
DEFAULT_255_1_388
10
22.5625163
20
108.358046
11
22.2101262
21
107.9758382
0
LINE
8
DEFAULT_255_1_388
10
22.2101262
20
107.9758382
11
22.8706318
21
107.9758382
0
ARC
8
DEFAULT_255_1_388
10
20.9464337
20
109.8075983
40
2.0258655
50
318.5132526
51
320.7829045
0
ARC
8
DEFAULT_255_1_388
10
21.5412294
20
109.3234929
40
1.2589638
50
320.7372878
51
323.9739031
0
ARC
8
DEFAULT_255_1_388
10
21.9821226
20
109.0040554
40
0.7145141
50
323.8962701
51
328.64194
0
ARC
8
DEFAULT_255_1_388
10
22.2123484
20
108.8620545
40
0.4440242
50
328.8294576
51
331.7891185
0
ARC
8
DEFAULT_255_1_388
10
22.3245804
20
108.8041374
40
0.3177517
50
331.4254512
51
352.9365785
0
ARC
8
DEFAULT_255_1_388
10
22.3398804
20
108.800705
40
0.3021496
50
353.2257659
51
0.0166158
0
ARC
8
DEFAULT_255_1_388
10
22.3635564
20
108.8032894
40
0.2784847
50
359.486299
51
15.9343185
0
ARC
8
DEFAULT_255_1_388
10
22.4205831
20
108.8186269
40
0.2194403
50
16.1712913
51
43.5286088
0
ARC
8
DEFAULT_255_1_388
10
22.4292776
20
108.8273191
40
0.2071504
50
43.4417391
51
83.1661095
0
ARC
8
DEFAULT_255_1_388
10
22.4141937
20
108.7444316
40
0.2912888
50
82.160179
51
90.1505708
0
ARC
8
DEFAULT_255_1_388
10
22.4106418
20
108.6840279
40
0.3517025
50
89.5460741
51
102.5418361
0
ARC
8
DEFAULT_255_1_388
10
22.3833138
20
108.7999933
40
0.2325748
50
102.1738499
51
129.206123
0
ARC
8
DEFAULT_255_1_388
10
22.3744592
20
108.8139664
40
0.2161591
50
129.72865
51
135.753947
0
ARC
8
DEFAULT_255_1_388
10
22.3881074
20
108.8030728
40
0.2335433
50
136.1757367
51
166.3673339
0
ARC
8
DEFAULT_255_1_388
10
22.5013762
20
108.7727148
40
0.3507873
50
165.9090694
51
178.8684636
0
ARC
8
DEFAULT_255_1_388
10
22.5989534
20
108.7674263
40
0.4484624
50
178.4391136
51
180.0083808
0
ARC
8
DEFAULT_255_1_388
10
22.4410235
20
108.7718197
40
0.4577138
50
163.2878482
51
180.5581842
0
ARC
8
DEFAULT_255_1_388
10
22.3508276
20
108.7966393
40
0.3641968
50
133.4540601
51
162.947111
0
ARC
8
DEFAULT_255_1_388
10
22.3709158
20
108.7752789
40
0.3935189
50
100.7869829
51
133.4382499
0
ARC
8
DEFAULT_255_1_388
10
22.4100403
20
108.6010399
40
0.5720313
50
89.660664
51
101.3702276
0
ARC
8
DEFAULT_255_1_388
10
22.4175012
20
108.6079263
40
0.5651495
50
78.2172678
51
90.412935
0
ARC
8
DEFAULT_255_1_388
10
22.4574478
20
108.7906511
40
0.378122
50
55.9269121
51
78.4888449
0
ARC
8
DEFAULT_255_1_388
10
22.4795193
20
108.8287187
40
0.3342379
50
47.929771
51
55.4049217
0
ARC
8
DEFAULT_255_1_388
10
22.4909723
20
108.8403618
40
0.3179217
50
4.334829
51
48.0560205
0
ARC
8
DEFAULT_255_1_388
10
22.3677525
20
108.8212487
40
0.442341
50
359.9251713
51
5.5971671
0
ARC
8
DEFAULT_255_1_388
10
22.415968
20
108.8275728
40
0.3941854
50
337.8914027
51
358.9967534
0
ARC
8
DEFAULT_255_1_388
10
22.110725
20
108.9453295
40
0.7213271
50
326.9132501
51
338.3508308
0
ARC
8
DEFAULT_255_1_388
10
21.6623362
20
109.2327105
40
1.2538973
50
319.6471833
51
327.0959558
0
ARC
8
DEFAULT_255_1_388
10
21.231002
20
109.588505
40
1.8129975
50
317.2588228
51
319.9045804
0
ARC
8
DEFAULT_255_1_388
10
23.1889138
20
107.9281142
40
0.1204062
50
163.5412609
51
180.5084512
0
ARC
8
DEFAULT_255_1_388
10
23.1673037
20
107.933946
40
0.0980307
50
138.1652
51
163.2315563
0
ARC
8
DEFAULT_255_1_388
10
23.1546778
20
107.9446456
40
0.0814881
50
105.6860499
51
137.8492655
0
ARC
8
DEFAULT_255_1_388
10
23.1679979
20
107.9014109
40
0.126719
50
92.6078949
51
106.199173
0
ARC
8
DEFAULT_255_1_388
10
23.1714169
20
107.8568207
40
0.1714243
50
89.9659531
51
93.0713334
0
ARC
8
DEFAULT_255_1_388
10
23.1726205
20
107.8818484
40
0.1464007
50
78.4379126
51
90.4311892
0
ARC
8
DEFAULT_255_1_388
10
23.1834852
20
107.9325017
40
0.094599
50
56.8961942
51
78.7357785
0
ARC
8
DEFAULT_255_1_388
10
23.1905963
20
107.9449075
40
0.0803272
50
42.6503148
51
56.3122241
0
ARC
8
DEFAULT_255_1_388
10
23.1761864
20
107.9316661
40
0.099897
50
3.8141057
51
42.636595
0
ARC
8
DEFAULT_255_1_388
10
23.1439186
20
107.9271616
40
0.1324137
50
359.9498843
51
4.8301897
0
ARC
8
DEFAULT_255_1_388
10
23.1694324
20
107.9259722
40
0.1069053
50
340.9378148
51
0.5753733
0
ARC
8
DEFAULT_255_1_388
10
23.1820906
20
107.9225569
40
0.0938301
50
316.0798885
51
340.3845117
0
ARC
8
DEFAULT_255_1_388
10
23.1886217
20
107.916552
40
0.0849605
50
285.8512844
51
315.941661
0
ARC
8
DEFAULT_255_1_388
10
23.1754097
20
107.959262
40
0.1296594
50
273.1293204
51
286.3125006
0
ARC
8
DEFAULT_255_1_388
10
23.1716607
20
108.0044586
40
0.1749979
50
269.9535313
51
273.5471598
0
ARC
8
DEFAULT_255_1_388
10
23.1704213
20
107.9798833
40
0.1504266
50
259.0487117
51
270.4180248
0
ARC
8
DEFAULT_255_1_388
10
23.1595825
20
107.9261783
40
0.0956414
50
239.7583641
51
259.3115656
0
ARC
8
DEFAULT_255_1_388
10
23.1504758
20
107.9092048
40
0.0763945
50
222.6243303
51
239.2473835
0
ARC
8
DEFAULT_255_1_388
10
23.1655929
20
107.9230572
40
0.0968985
50
182.9231258
51
222.598101
0
ARC
8
DEFAULT_255_1_388
10
23.1959129
20
107.9269696
40
0.1274004
50
179.9657458
51
183.9850364
0
LINE
8
DEFAULT_255_1_388
10
24.3967521
20
107.9758382
11
24.3967521
21
107.8394
0
LINE
8
DEFAULT_255_1_388
10
24.3967521
20
107.8394
11
23.5347517
21
107.8394
0
LINE
8
DEFAULT_255_1_388
10
23.5347517
20
107.8394
11
23.5347517
21
107.9595741
0
LINE
8
DEFAULT_255_1_388
10
23.5347517
20
107.9595741
11
23.9901481
21
108.4655702
0
LINE
8
DEFAULT_255_1_388
10
23.6766113
20
108.7673607
11
23.5094519
21
108.7673607
0
LINE
8
DEFAULT_255_1_388
10
24.0886367
20
108.358046
11
23.7362465
21
107.9758382
0
LINE
8
DEFAULT_255_1_388
10
23.7362465
20
107.9758382
11
24.3967521
21
107.9758382
0
ARC
8
DEFAULT_255_1_388
10
22.4725541
20
109.8075983
40
2.0258655
50
318.5132526
51
320.7829045
0
ARC
8
DEFAULT_255_1_388
10
23.0673498
20
109.3234929
40
1.2589638
50
320.7372878
51
323.9739031
0
ARC
8
DEFAULT_255_1_388
10
23.508243
20
109.0040554
40
0.7145141
50
323.8962701
51
328.64194
0
ARC
8
DEFAULT_255_1_388
10
23.7384687
20
108.8620545
40
0.4440242
50
328.8294576
51
331.7891185
0
ARC
8
DEFAULT_255_1_388
10
23.8507007
20
108.8041374
40
0.3177517
50
331.4254512
51
352.9365785
0
ARC
8
DEFAULT_255_1_388
10
23.8660007
20
108.800705
40
0.3021496
50
353.2257659
51
0.0166158
0
ARC
8
DEFAULT_255_1_388
10
23.8896768
20
108.8032894
40
0.2784847
50
359.486299
51
15.9343185
0
ARC
8
DEFAULT_255_1_388
10
23.9467035
20
108.8186269
40
0.2194403
50
16.1712913
51
43.5286088
0
ARC
8
DEFAULT_255_1_388
10
23.9553979
20
108.8273191
40
0.2071504
50
43.4417391
51
83.1661095
0
ARC
8
DEFAULT_255_1_388
10
23.940314
20
108.7444316
40
0.2912888
50
82.160179
51
90.1505708
0
ARC
8
DEFAULT_255_1_388
10
23.9367622
20
108.6840279
40
0.3517025
50
89.5460741
51
102.5418361
0
ARC
8
DEFAULT_255_1_388
10
23.9094342
20
108.7999933
40
0.2325748
50
102.1738499
51
129.206123
0
ARC
8
DEFAULT_255_1_388
10
23.9005795
20
108.8139664
40
0.2161591
50
129.72865
51
135.753947
0
ARC
8
DEFAULT_255_1_388
10
23.9142277
20
108.8030728
40
0.2335433
50
136.1757367
51
166.3673339
0
ARC
8
DEFAULT_255_1_388
10
24.0274966
20
108.7727148
40
0.3507873
50
165.9090694
51
178.8684636
0
ARC
8
DEFAULT_255_1_388
10
24.1250737
20
108.7674263
40
0.4484624
50
178.4391136
51
180.0083808
0
ARC
8
DEFAULT_255_1_388
10
23.9671439
20
108.7718197
40
0.4577138
50
163.2878482
51
180.5581842
0
ARC
8
DEFAULT_255_1_388
10
23.876948
20
108.7966393
40
0.3641968
50
133.4540601
51
162.947111
0
ARC
8
DEFAULT_255_1_388
10
23.8970362
20
108.7752789
40
0.3935189
50
100.7869829
51
133.4382499
0
ARC
8
DEFAULT_255_1_388
10
23.9361607
20
108.6010399
40
0.5720313
50
89.660664
51
101.3702276
0
ARC
8
DEFAULT_255_1_388
10
23.9436216
20
108.6079263
40
0.5651495
50
78.2172678
51
90.412935
0
ARC
8
DEFAULT_255_1_388
10
23.9835681
20
108.7906511
40
0.378122
50
55.9269121
51
78.4888449
0
ARC
8
DEFAULT_255_1_388
10
24.0056397
20
108.8287187
40
0.3342379
50
47.929771
51
55.4049217
0
ARC
8
DEFAULT_255_1_388
10
24.0170927
20
108.8403618
40
0.3179217
50
4.334829
51
48.0560205
0
ARC
8
DEFAULT_255_1_388
10
23.8938729
20
108.8212487
40
0.442341
50
359.9251713
51
5.5971671
0
ARC
8
DEFAULT_255_1_388
10
23.9420883
20
108.8275728
40
0.3941854
50
337.8914027
51
358.9967534
0
ARC
8
DEFAULT_255_1_388
10
23.6368453
20
108.9453295
40
0.7213271
50
326.9132501
51
338.3508308
0
ARC
8
DEFAULT_255_1_388
10
23.1884565
20
109.2327105
40
1.2538973
50
319.6471833
51
327.0959558
0
ARC
8
DEFAULT_255_1_388
10
22.7571223
20
109.588505
40
1.8129975
50
317.2588228
51
319.9045804
0
LINE
8
DEFAULT_255_1_388
10
22.8777318
20
115.9133382
11
22.8777318
21
115.7769
0
LINE
8
DEFAULT_255_1_388
10
22.8777318
20
115.7769
11
22.0157313
21
115.7769
0
LINE
8
DEFAULT_255_1_388
10
22.0157313
20
115.7769
11
22.0157313
21
115.8970741
0
LINE
8
DEFAULT_255_1_388
10
22.0157313
20
115.8970741
11
22.4711278
21
116.4030702
0
LINE
8
DEFAULT_255_1_388
10
22.1575909
20
116.7048607
11
21.9904315
21
116.7048607
0
LINE
8
DEFAULT_255_1_388
10
22.5696163
20
116.295546
11
22.2172262
21
115.9133382
0
LINE
8
DEFAULT_255_1_388
10
22.2172262
20
115.9133382
11
22.8777318
21
115.9133382
0
ARC
8
DEFAULT_255_1_388
10
20.9535337
20
117.7450983
40
2.0258655
50
318.5132526
51
320.7829045
0
ARC
8
DEFAULT_255_1_388
10
21.5483294
20
117.2609929
40
1.2589638
50
320.7372878
51
323.9739031
0
ARC
8
DEFAULT_255_1_388
10
21.9892226
20
116.9415554
40
0.7145141
50
323.8962701
51
328.64194
0
ARC
8
DEFAULT_255_1_388
10
22.2194484
20
116.7995545
40
0.4440242
50
328.8294576
51
331.7891185
0
ARC
8
DEFAULT_255_1_388
10
22.3316804
20
116.7416374
40
0.3177517
50
331.4254512
51
352.9365785
0
ARC
8
DEFAULT_255_1_388
10
22.3469804
20
116.738205
40
0.3021496
50
353.2257659
51
0.0166158
0
ARC
8
DEFAULT_255_1_388
10
22.3706564
20
116.7407894
40
0.2784847
50
359.486299
51
15.9343185
0
ARC
8
DEFAULT_255_1_388
10
22.4276831
20
116.7561269
40
0.2194403
50
16.1712913
51
43.5286088
0
ARC
8
DEFAULT_255_1_388
10
22.4363776
20
116.7648191
40
0.2071504
50
43.4417391
51
83.1661095
0
ARC
8
DEFAULT_255_1_388
10
22.4212937
20
116.6819316
40
0.2912888
50
82.160179
51
90.1505708
0
ARC
8
DEFAULT_255_1_388
10
22.4177418
20
116.6215279
40
0.3517025
50
89.5460741
51
102.5418361
0
ARC
8
DEFAULT_255_1_388
10
22.3904138
20
116.7374933
40
0.2325748
50
102.1738499
51
129.206123
0
ARC
8
DEFAULT_255_1_388
10
22.3815592
20
116.7514664
40
0.2161591
50
129.72865
51
135.753947
0
ARC
8
DEFAULT_255_1_388
10
22.3952074
20
116.7405728
40
0.2335433
50
136.1757367
51
166.3673339
0
ARC
8
DEFAULT_255_1_388
10
22.5084762
20
116.7102148
40
0.3507873
50
165.9090694
51
178.8684636
0
ARC
8
DEFAULT_255_1_388
10
22.6060534
20
116.7049263
40
0.4484624
50
178.4391136
51
180.0083808
0
ARC
8
DEFAULT_255_1_388
10
22.4481235
20
116.7093197
40
0.4577138
50
163.2878482
51
180.5581842
0
ARC
8
DEFAULT_255_1_388
10
22.3579276
20
116.7341393
40
0.3641968
50
133.4540601
51
162.947111
0
ARC
8
DEFAULT_255_1_388
10
22.3780158
20
116.7127789
40
0.3935189
50
100.7869829
51
133.4382499
0
ARC
8
DEFAULT_255_1_388
10
22.4171403
20
116.5385399
40
0.5720313
50
89.660664
51
101.3702276
0
ARC
8
DEFAULT_255_1_388
10
22.4246012
20
116.5454263
40
0.5651495
50
78.2172678
51
90.412935
0
ARC
8
DEFAULT_255_1_388
10
22.4645478
20
116.7281511
40
0.378122
50
55.9269121
51
78.4888449
0
ARC
8
DEFAULT_255_1_388
10
22.4866193
20
116.7662187
40
0.3342379
50
47.929771
51
55.4049217
0
ARC
8
DEFAULT_255_1_388
10
22.4980723
20
116.7778618
40
0.3179217
50
4.334829
51
48.0560205
0
ARC
8
DEFAULT_255_1_388
10
22.3748525
20
116.7587487
40
0.442341
50
359.9251713
51
5.5971671
0
ARC
8
DEFAULT_255_1_388
10
22.423068
20
116.7650728
40
0.3941854
50
337.8914027
51
358.9967534
0
ARC
8
DEFAULT_255_1_388
10
22.117825
20
116.8828295
40
0.7213271
50
326.9132501
51
338.3508308
0
ARC
8
DEFAULT_255_1_388
10
21.6694362
20
117.1702105
40
1.2538973
50
319.6471833
51
327.0959558
0
ARC
8
DEFAULT_255_1_388
10
21.238102
20
117.526005
40
1.8129975
50
317.2588228
51
319.9045804
0
ARC
8
DEFAULT_255_1_388
10
23.1960138
20
115.8656142
40
0.1204062
50
163.5412609
51
180.5084512
0
ARC
8
DEFAULT_255_1_388
10
23.1744037
20
115.871446
40
0.0980307
50
138.1652
51
163.2315563
0
ARC
8
DEFAULT_255_1_388
10
23.1617778
20
115.8821456
40
0.0814881
50
105.6860499
51
137.8492655
0
ARC
8
DEFAULT_255_1_388
10
23.1750979
20
115.8389109
40
0.126719
50
92.6078949
51
106.199173
0
ARC
8
DEFAULT_255_1_388
10
23.1785169
20
115.7943207
40
0.1714243
50
89.9659531
51
93.0713334
0
ARC
8
DEFAULT_255_1_388
10
23.1797205
20
115.8193484
40
0.1464007
50
78.4379126
51
90.4311892
0
ARC
8
DEFAULT_255_1_388
10
23.1905852
20
115.8700017
40
0.094599
50
56.8961942
51
78.7357785
0
ARC
8
DEFAULT_255_1_388
10
23.1976963
20
115.8824075
40
0.0803272
50
42.6503148
51
56.3122241
0
ARC
8
DEFAULT_255_1_388
10
23.1832864
20
115.8691661
40
0.099897
50
3.8141057
51
42.636595
0
ARC
8
DEFAULT_255_1_388
10
23.1510186
20
115.8646616
40
0.1324137
50
359.9498843
51
4.8301897
0
ARC
8
DEFAULT_255_1_388
10
23.1765324
20
115.8634722
40
0.1069053
50
340.9378148
51
0.5753733
0
ARC
8
DEFAULT_255_1_388
10
23.1891906
20
115.8600569
40
0.0938301
50
316.0798885
51
340.3845117
0
ARC
8
DEFAULT_255_1_388
10
23.1957217
20
115.854052
40
0.0849605
50
285.8512844
51
315.941661
0
ARC
8
DEFAULT_255_1_388
10
23.1825097
20
115.896762
40
0.1296594
50
273.1293204
51
286.3125006
0
ARC
8
DEFAULT_255_1_388
10
23.1787607
20
115.9419586
40
0.1749979
50
269.9535313
51
273.5471598
0
ARC
8
DEFAULT_255_1_388
10
23.1775213
20
115.9173833
40
0.1504266
50
259.0487117
51
270.4180248
0
ARC
8
DEFAULT_255_1_388
10
23.1666825
20
115.8636783
40
0.0956414
50
239.7583641
51
259.3115656
0
ARC
8
DEFAULT_255_1_388
10
23.1575758
20
115.8467048
40
0.0763945
50
222.6243303
51
239.2473835
0
ARC
8
DEFAULT_255_1_388
10
23.1726929
20
115.8605572
40
0.0968985
50
182.9231258
51
222.598101
0
ARC
8
DEFAULT_255_1_388
10
23.2030129
20
115.8644696
40
0.1274004
50
179.9657458
51
183.9850364
0
LINE
8
DEFAULT_255_1_388
10
24.0912188
20
117.0988148
11
24.0912188
21
115.7769
0
LINE
8
DEFAULT_255_1_388
10
24.0912188
20
115.7769
11
23.9231559
21
115.7769
0
LINE
8
DEFAULT_255_1_388
10
23.9231559
20
115.7769
11
23.9231559
21
116.890995
0
LINE
8
DEFAULT_255_1_388
10
23.9231559
20
116.890995
11
23.5861263
21
116.7672066
0
LINE
8
DEFAULT_255_1_388
10
23.5861263
20
116.7672066
11
23.5861263
21
116.9190055
0
LINE
8
DEFAULT_255_1_388
10
23.5861263
20
116.9190055
11
24.0650155
21
117.0988148
0
LINE
8
DEFAULT_255_1_388
10
24.0650155
20
117.0988148
11
24.0912188
21
117.0988148
0
LINE
8
DEFAULT_255_1_388
10
22.8706318
20
123.8508382
11
22.8706318
21
123.7144
0
LINE
8
DEFAULT_255_1_388
10
22.8706318
20
123.7144
11
22.0086313
21
123.7144
0
LINE
8
DEFAULT_255_1_388
10
22.0086313
20
123.7144
11
22.0086313
21
123.8345741
0
LINE
8
DEFAULT_255_1_388
10
22.0086313
20
123.8345741
11
22.4640278
21
124.3405702
0
LINE
8
DEFAULT_255_1_388
10
22.1504909
20
124.6423607
11
21.9833315
21
124.6423607
0
LINE
8
DEFAULT_255_1_388
10
22.5625163
20
124.233046
11
22.2101262
21
123.8508382
0
LINE
8
DEFAULT_255_1_388
10
22.2101262
20
123.8508382
11
22.8706318
21
123.8508382
0
ARC
8
DEFAULT_255_1_388
10
20.9464337
20
125.6825983
40
2.0258655
50
318.5132526
51
320.7829045
0
ARC
8
DEFAULT_255_1_388
10
21.5412294
20
125.1984929
40
1.2589638
50
320.7372878
51
323.9739031
0
ARC
8
DEFAULT_255_1_388
10
21.9821226
20
124.8790554
40
0.7145141
50
323.8962701
51
328.64194
0
ARC
8
DEFAULT_255_1_388
10
22.2123484
20
124.7370545
40
0.4440242
50
328.8294576
51
331.7891185
0
ARC
8
DEFAULT_255_1_388
10
22.3245804
20
124.6791374
40
0.3177517
50
331.4254512
51
352.9365785
0
ARC
8
DEFAULT_255_1_388
10
22.3398804
20
124.675705
40
0.3021496
50
353.2257659
51
0.0166158
0
ARC
8
DEFAULT_255_1_388
10
22.3635564
20
124.6782894
40
0.2784847
50
359.486299
51
15.9343185
0
ARC
8
DEFAULT_255_1_388
10
22.4205831
20
124.6936269
40
0.2194403
50
16.1712913
51
43.5286088
0
ARC
8
DEFAULT_255_1_388
10
22.4292776
20
124.7023191
40
0.2071504
50
43.4417391
51
83.1661095
0
ARC
8
DEFAULT_255_1_388
10
22.4141937
20
124.6194316
40
0.2912888
50
82.160179
51
90.1505708
0
ARC
8
DEFAULT_255_1_388
10
22.4106418
20
124.5590279
40
0.3517025
50
89.5460741
51
102.5418361
0
ARC
8
DEFAULT_255_1_388
10
22.3833138
20
124.6749933
40
0.2325748
50
102.1738499
51
129.206123
0
ARC
8
DEFAULT_255_1_388
10
22.3744592
20
124.6889664
40
0.2161591
50
129.72865
51
135.753947
0
ARC
8
DEFAULT_255_1_388
10
22.3881074
20
124.6780728
40
0.2335433
50
136.1757367
51
166.3673339
0
ARC
8
DEFAULT_255_1_388
10
22.5013762
20
124.6477148
40
0.3507873
50
165.9090694
51
178.8684636
0
ARC
8
DEFAULT_255_1_388
10
22.5989534
20
124.6424263
40
0.4484624
50
178.4391136
51
180.0083808
0
ARC
8
DEFAULT_255_1_388
10
22.4410235
20
124.6468197
40
0.4577138
50
163.2878482
51
180.5581842
0
ARC
8
DEFAULT_255_1_388
10
22.3508276
20
124.6716393
40
0.3641968
50
133.4540601
51
162.947111
0
ARC
8
DEFAULT_255_1_388
10
22.3709158
20
124.6502789
40
0.3935189
50
100.7869829
51
133.4382499
0
ARC
8
DEFAULT_255_1_388
10
22.4100403
20
124.4760399
40
0.5720313
50
89.660664
51
101.3702276
0
ARC
8
DEFAULT_255_1_388
10
22.4175012
20
124.4829263
40
0.5651495
50
78.2172678
51
90.412935
0
ARC
8
DEFAULT_255_1_388
10
22.4574478
20
124.6656511
40
0.378122
50
55.9269121
51
78.4888449
0
ARC
8
DEFAULT_255_1_388
10
22.4795193
20
124.7037187
40
0.3342379
50
47.929771
51
55.4049217
0
ARC
8
DEFAULT_255_1_388
10
22.4909723
20
124.7153618
40
0.3179217
50
4.334829
51
48.0560205
0
ARC
8
DEFAULT_255_1_388
10
22.3677525
20
124.6962487
40
0.442341
50
359.9251713
51
5.5971671
0
ARC
8
DEFAULT_255_1_388
10
22.415968
20
124.7025728
40
0.3941854
50
337.8914027
51
358.9967534
0
ARC
8
DEFAULT_255_1_388
10
22.110725
20
124.8203295
40
0.7213271
50
326.9132501
51
338.3508308
0
ARC
8
DEFAULT_255_1_388
10
21.6623362
20
125.1077105
40
1.2538973
50
319.6471833
51
327.0959558
0
ARC
8
DEFAULT_255_1_388
10
21.231002
20
125.463505
40
1.8129975
50
317.2588228
51
319.9045804
0
ARC
8
DEFAULT_255_1_388
10
23.1889138
20
123.8031142
40
0.1204062
50
163.5412609
51
180.5084512
0
ARC
8
DEFAULT_255_1_388
10
23.1673037
20
123.808946
40
0.0980307
50
138.1652
51
163.2315563
0
ARC
8
DEFAULT_255_1_388
10
23.1546778
20
123.8196456
40
0.0814881
50
105.6860499
51
137.8492655
0
ARC
8
DEFAULT_255_1_388
10
23.1679979
20
123.7764109
40
0.126719
50
92.6078949
51
106.199173
0
ARC
8
DEFAULT_255_1_388
10
23.1714169
20
123.7318207
40
0.1714243
50
89.9659531
51
93.0713334
0
ARC
8
DEFAULT_255_1_388
10
23.1726205
20
123.7568484
40
0.1464007
50
78.4379126
51
90.4311892
0
ARC
8
DEFAULT_255_1_388
10
23.1834852
20
123.8075017
40
0.094599
50
56.8961942
51
78.7357785
0
ARC
8
DEFAULT_255_1_388
10
23.1905963
20
123.8199075
40
0.0803272
50
42.6503148
51
56.3122241
0
ARC
8
DEFAULT_255_1_388
10
23.1761864
20
123.8066661
40
0.099897
50
3.8141057
51
42.636595
0
ARC
8
DEFAULT_255_1_388
10
23.1439186
20
123.8021616
40
0.1324137
50
359.9498843
51
4.8301897
0
ARC
8
DEFAULT_255_1_388
10
23.1694324
20
123.8009722
40
0.1069053
50
340.9378148
51
0.5753733
0
ARC
8
DEFAULT_255_1_388
10
23.1820906
20
123.7975569
40
0.0938301
50
316.0798885
51
340.3845117
0
ARC
8
DEFAULT_255_1_388
10
23.1886217
20
123.791552
40
0.0849605
50
285.8512844
51
315.941661
0
ARC
8
DEFAULT_255_1_388
10
23.1754097
20
123.834262
40
0.1296594
50
273.1293204
51
286.3125006
0
ARC
8
DEFAULT_255_1_388
10
23.1716607
20
123.8794586
40
0.1749979
50
269.9535313
51
273.5471598
0
ARC
8
DEFAULT_255_1_388
10
23.1704213
20
123.8548833
40
0.1504266
50
259.0487117
51
270.4180248
0
ARC
8
DEFAULT_255_1_388
10
23.1595825
20
123.8011783
40
0.0956414
50
239.7583641
51
259.3115656
0
ARC
8
DEFAULT_255_1_388
10
23.1504758
20
123.7842048
40
0.0763945
50
222.6243303
51
239.2473835
0
ARC
8
DEFAULT_255_1_388
10
23.1655929
20
123.7980572
40
0.0968985
50
182.9231258
51
222.598101
0
ARC
8
DEFAULT_255_1_388
10
23.1959129
20
123.8019696
40
0.1274004
50
179.9657458
51
183.9850364
0
LINE
8
DEFAULT_255_1_388
10
24.359706
20
124.492369
11
24.359706
21
124.2755135
0
LINE
8
DEFAULT_255_1_388
10
23.5293303
20
124.2529244
11
23.5293303
21
124.4761048
0
LINE
8
DEFAULT_255_1_388
10
24.1925466
20
124.2303353
11
24.1925466
21
124.5041153
0
LINE
8
DEFAULT_255_1_388
10
23.6964897
20
124.5167652
11
23.6964897
21
124.2493102
0
ARC
8
DEFAULT_255_1_388
10
22.9819394
20
124.2700118
40
1.3777776
50
353.8440855
51
0.2287917
0
ARC
8
DEFAULT_255_1_388
10
23.5038411
20
124.2117414
40
0.852639
50
344.4934746
51
353.9763743
0
ARC
8
DEFAULT_255_1_388
10
23.8405219
20
124.1160191
40
0.5026273
50
329.2803599
51
344.7473406
0
ARC
8
DEFAULT_255_1_388
10
23.9520714
20
124.0548038
40
0.3754848
50
324.9361395
51
328.6153007
0
ARC
8
DEFAULT_255_1_388
10
23.9946364
20
124.0250586
40
0.3235566
50
280.5801797
51
324.9173226
0
ARC
8
DEFAULT_255_1_388
10
23.9494993
20
124.2130236
40
0.5167077
50
269.5979457
51
281.6732777
0
ARC
8
DEFAULT_255_1_388
10
23.9413896
20
124.1995113
40
0.5032026
50
256.6228565
51
270.5105488
0
ARC
8
DEFAULT_255_1_388
10
23.8961639
20
124.0253345
40
0.3233092
50
215.8618351
51
257.2787793
0
ARC
8
DEFAULT_255_1_388
10
24.0110346
20
124.1024106
40
0.4615831
50
197.9695203
51
215.2622745
0
ARC
8
DEFAULT_255_1_388
10
24.2906022
20
124.1967641
40
0.7566307
50
187.8816486
51
198.2346584
0
ARC
8
DEFAULT_255_1_388
10
24.735926
20
124.2610453
40
1.2065653
50
180.8977266
51
188.0054894
0
ARC
8
DEFAULT_255_1_388
10
25.0409474
20
124.27254
40
1.5117443
50
180.7434591
51
181.152202
0
ARC
8
DEFAULT_255_1_388
10
24.873447
20
124.4815371
40
1.3441277
50
173.7674302
51
180.2315596
0
ARC
8
DEFAULT_255_1_388
10
24.3652338
20
124.5389779
40
0.8326847
50
164.3058537
51
173.9000553
0
ARC
8
DEFAULT_255_1_388
10
24.0376339
20
124.6333652
40
0.4917711
50
148.7922028
51
164.5682288
0
ARC
8
DEFAULT_255_1_388
10
23.9307076
20
124.6930457
40
0.3694204
50
144.5883979
51
148.1161588
0
ARC
8
DEFAULT_255_1_388
10
23.8919821
20
124.7200667
40
0.322202
50
101.6440149
51
144.5142619
0
ARC
8
DEFAULT_255_1_388
10
23.9398013
20
124.5300337
40
0.5180451
50
89.528284
51
102.5820197
0
ARC
8
DEFAULT_255_1_388
10
23.9487005
20
124.5256376
40
0.5224441
50
77.0437914
51
90.508231
0
ARC
8
DEFAULT_255_1_388
10
23.9939259
20
124.7104272
40
0.3322297
50
48.2777708
51
77.4996087
0
ARC
8
DEFAULT_255_1_388
10
24.0020999
20
124.7249557
40
0.315966
50
36.3141586
51
47.6307332
0
ARC
8
DEFAULT_255_1_388
10
23.9043721
20
124.6591159
40
0.4337313
50
18.2931065
51
35.6770203
0
ARC
8
DEFAULT_255_1_388
10
23.6182562
20
124.5609107
40
0.7362203
50
8.0246996
51
18.5605636
0
ARC
8
DEFAULT_255_1_388
10
23.1498918
20
124.4917432
40
1.2096583
50
1.127539
51
8.1718423
0
ARC
8
DEFAULT_255_1_388
10
22.7850051
20
124.4774374
40
1.5747719
50
0.5432713
51
1.38669
0
ARC
8
DEFAULT_255_1_388
10
22.990743
20
124.5081163
40
1.2018103
50
359.8092569
51
4.9408001
0
ARC
8
DEFAULT_255_1_388
10
23.4644011
20
124.55039
40
0.7262727
50
4.8364937
51
12.2906017
0
ARC
8
DEFAULT_255_1_388
10
23.7743476
20
124.6194485
40
0.4087324
50
12.0806994
51
23.8171225
0
ARC
8
DEFAULT_255_1_388
10
23.9063872
20
124.6753508
40
0.2653719
50
24.2874621
51
31.3934353
0
ARC
8
DEFAULT_255_1_388
10
23.9654308
20
124.7139822
40
0.1948607
50
30.7407708
51
82.4658033
0
ARC
8
DEFAULT_255_1_388
10
23.9451968
20
124.6146017
40
0.2961198
50
81.1057101
51
90.2187368
0
ARC
8
DEFAULT_255_1_388
10
23.941178
20
124.6436421
40
0.2670929
50
89.380395
51
105.6763916
0
ARC
8
DEFAULT_255_1_388
10
23.9205502
20
124.718632
40
0.1893189
50
105.7980655
51
149.7387869
0
ARC
8
DEFAULT_255_1_388
10
24.0402642
20
124.6466719
40
0.3289892
50
149.4208441
51
163.628295
0
ARC
8
DEFAULT_255_1_388
10
24.2754872
20
124.5749345
40
0.5749004
50
163.3764549
51
172.141138
0
ARC
8
DEFAULT_255_1_388
10
24.6467593
20
124.5217582
40
0.9499585
50
172.0258462
51
178.0705453
0
ARC
8
DEFAULT_255_1_388
10
24.9889146
20
124.5055682
40
1.2924734
50
177.8639301
51
179.5036263
0
ARC
8
DEFAULT_255_1_388
10
24.8670165
20
124.2452151
40
1.170534
50
179.7995545
51
185.246089
0
ARC
8
DEFAULT_255_1_388
10
24.4121758
20
124.2021404
40
0.7136613
50
185.1411911
51
193.0082205
0
ARC
8
DEFAULT_255_1_388
10
24.1148019
20
124.1318441
40
0.4080987
50
192.7897338
51
205.2507384
0
ARC
8
DEFAULT_255_1_388
10
23.9970229
20
124.0792538
40
0.2791522
50
205.8001921
51
211.2545876
0
ARC
8
DEFAULT_255_1_388
10
23.9381768
20
124.0398132
40
0.2084074
50
210.3789935
51
238.4007996
0
ARC
8
DEFAULT_255_1_388
10
23.9359854
20
124.0450786
40
0.2117943
50
239.6521916
51
265.9793852
0
ARC
8
DEFAULT_255_1_388
10
23.9455703
20
124.1207358
40
0.2879689
50
265.1324455
51
270.0603288
0
ARC
8
DEFAULT_255_1_388
10
23.948808
20
124.0842418
40
0.2514919
50
269.3314378
51
287.2180039
0
ARC
8
DEFAULT_255_1_388
10
23.9643162
20
124.0276291
40
0.1928357
50
287.7957942
51
329.0808983
0
ARC
8
DEFAULT_255_1_388
10
23.8565919
20
124.0948651
40
0.319808
50
328.6635261
51
343.3325043
0
ARC
8
DEFAULT_255_1_388
10
23.6121378
20
124.1710195
40
0.5758408
50
343.0498092
51
351.9392499
0
ARC
8
DEFAULT_255_1_388
10
23.2220699
20
124.2285205
40
0.9701202
50
351.8071632
51
357.7957897
0
ARC
8
DEFAULT_255_1_388
10
22.8586176
20
124.2473724
40
1.3340376
50
357.5870923
51
359.2682493
0
ENDSEC
0
EOF