0
SECTION
2
HEADER
9
$MEASUREMENT
70
1
0
ENDSEC
0
SECTION
2
TABLES
0
TABLE
2
LTYPE
0
LTYPE
72
65
70
64
2
CONTINUOUS
3
______
73
0
40
0
0
ENDTAB
0
TABLE
2
LAYER
0
LAYER
2
DEFAULT_255_2_778
70
0
62
255
6
CONTINUOUS
0
LAYER
2
DEFAULT_255_1_234
70
0
62
255
6
CONTINUOUS
0
ENDTAB
0
ENDSEC
0
SECTION
2
ENTITIES
0
ARC
8
DEFAULT_255_2_778
10
3.5695693
20
75.805203
40
0.7914215
50
129.1312896
51
180.1450914
0
ARC
8
DEFAULT_255_2_778
10
3.5698345
20
75.8056901
40
0.7912112
50
89.854026
51
129.1684493
0
ARC
8
DEFAULT_255_2_778
10
25.7988937
20
75.8053767
40
0.7915249
50
39.4792447
51
90.147911
0
ARC
8
DEFAULT_255_2_778
10
25.7994935
20
75.8052233
40
0.7911595
50
359.8533901
51
39.5154338
0
ARC
8
DEFAULT_255_2_778
10
25.7991693
20
-1.9863492
40
0.7914836
50
309.4761667
51
0.1482649
0
ARC
8
DEFAULT_255_2_778
10
25.798898
20
-1.9867803
40
0.7913235
50
269.8517415
51
309.511178
0
ARC
8
DEFAULT_255_2_778
10
3.569842
20
-1.9867221
40
0.7913815
50
219.1282118
51
270.1454017
0
ARC
8
DEFAULT_255_2_778
10
3.5695247
20
-1.9863397
40
0.7913769
50
179.8524075
51
219.1641908
0
LINE
8
DEFAULT_255_2_778
10
3.5718503
20
76.5968989
11
25.7968503
21
76.5968989
0
LINE
8
DEFAULT_255_2_778
10
26.5906503
20
75.8031989
11
26.5906503
21
-1.9843011
0
LINE
8
DEFAULT_255_2_778
10
25.7968503
20
-2.7781011
11
3.5718503
21
-2.7781011
0
LINE
8
DEFAULT_255_2_778
10
2.7781503
20
-1.9843011
11
2.7781503
21
75.8031989
0
LINE
8
DEFAULT_255_1_234
10
6.8039835
20
0.5189243
11
6.8304882
21
0.5189243
0
LINE
8
DEFAULT_255_1_234
10
6.8304882
20
0.5189243
11
6.8304882
21
0.392826
0
LINE
8
DEFAULT_255_1_234
10
6.8304882
20
0.392826
11
6.8031803
21
0.392826
0
LINE
8
DEFAULT_255_1_234
10
6.2562189
20
-0.2063417
11
6.2562189
21
-0.1493164
0
LINE
8
DEFAULT_255_1_234
10
6.4056093
20
-0.1685925
11
6.4056093
21
-0.2232083
0
ARC
8
DEFAULT_255_1_234
10
6.8084151
20
-0.1069545
40
0.4998079
50
90.6001036
51
104.514704
0
ARC
8
DEFAULT_255_1_234
10
6.7695667
20
0.0375131
40
0.3502176
50
104.2855254
51
133.862935
0
ARC
8
DEFAULT_255_1_234
10
6.7859424
20
0.026683
40
0.3693984
50
134.5302688
51
161.6210873
0
ARC
8
DEFAULT_255_1_234
10
6.9512613
20
-0.0316105
40
0.5446739
50
161.2849839
51
174.2076652
0
ARC
8
DEFAULT_255_1_234
10
7.091955
20
-0.0510213
40
0.6866274
50
173.7810589
51
174.9254635
0
ARC
8
DEFAULT_255_1_234
10
6.6369382
20
-0.1893161
40
0.3033419
50
95.8330959
51
138.9954921
0
ARC
8
DEFAULT_255_1_234
10
6.6592738
20
-0.3171625
40
0.4328947
50
89.8753725
51
97.0544009
0
ARC
8
DEFAULT_255_1_234
10
6.6640204
20
-0.2336252
40
0.3493769
50
71.6407809
51
90.6240094
0
ARC
8
DEFAULT_255_1_234
10
6.6790777
20
-0.1781918
40
0.2920396
50
39.6367836
51
71.019018
0
ARC
8
DEFAULT_255_1_234
10
6.615425
20
-0.2332002
40
0.3761538
50
10.658731
51
39.9043955
0
ARC
8
DEFAULT_255_1_234
10
6.4606333
20
-0.2668314
40
0.5345136
50
359.682601
51
11.132623
0
ARC
8
DEFAULT_255_1_234
10
6.4566464
20
-0.273899
40
0.5385081
50
347.2486944
51
0.4369317
0
ARC
8
DEFAULT_255_1_234
10
6.6233941
20
-0.3140193
40
0.3670249
50
318.1409698
51
347.6118597
0
ARC
8
DEFAULT_255_1_234
10
6.6558934
20
-0.3407298
40
0.3250007
50
275.6342139
51
317.8248465
0
ARC
8
DEFAULT_255_1_234
10
6.6338045
20
-0.2107781
40
0.4565864
50
269.8874292
51
276.7917694
0
ARC
8
DEFAULT_255_1_234
10
6.6283116
20
-0.3133257
40
0.3540676
50
246.9140195
51
270.7437342
0
ARC
8
DEFAULT_255_1_234
10
6.6289506
20
-0.3275616
40
0.3412781
50
218.1665114
51
245.878116
0
ARC
8
DEFAULT_255_1_234
10
6.7168967
20
-0.2539721
40
0.455911
50
191.4115814
51
218.6077802
0
ARC
8
DEFAULT_255_1_234
10
6.9107056
20
-0.2105167
40
0.6545001
50
179.6345085
51
191.7836486
0
ARC
8
DEFAULT_255_1_234
10
7.4689393
20
-0.1426303
40
1.2127388
50
171.4525249
51
180.3158839
0
ARC
8
DEFAULT_255_1_234
10
7.0294269
20
-0.0742392
40
0.7679464
50
157.9802646
51
171.6246686
0
ARC
8
DEFAULT_255_1_234
10
6.808029
20
0.0140421
40
0.5296008
50
141.4298019
51
157.854097
0
ARC
8
DEFAULT_255_1_234
10
6.743861
20
0.0594381
40
0.4511509
50
102.8715806
51
140.8564722
0
ARC
8
DEFAULT_255_1_234
10
6.8086226
20
-0.1845448
40
0.7034845
50
90.3778349
51
103.5869322
0
ARC
8
DEFAULT_255_1_234
10
6.6348002
20
-0.245027
40
0.2370698
50
89.8751008
51
126.2071704
0
ARC
8
DEFAULT_255_1_234
10
6.6393792
20
-0.2604697
40
0.2522934
50
124.9745049
51
144.895901
0
ARC
8
DEFAULT_255_1_234
10
6.6217982
20
-0.246144
40
0.2296779
50
145.2974905
51
160.2660252
0
ARC
8
DEFAULT_255_1_234
10
6.9290521
20
-0.2263929
40
0.5234525
50
179.6514266
51
190.2855912
0
ARC
8
DEFAULT_255_1_234
10
6.7596658
20
-0.2583214
40
0.3510893
50
190.0945431
51
207.5098196
0
ARC
8
DEFAULT_255_1_234
10
6.7030928
20
-0.2852377
40
0.288489
50
207.9583163
51
216.3251085
0
ARC
8
DEFAULT_255_1_234
10
6.6691036
20
-0.3131895
40
0.2445587
50
215.7661442
51
232.5456785
0
ARC
8
DEFAULT_255_1_234
10
6.6308019
20
-0.3618518
40
0.1826382
50
232.8005391
51
270.6605633
0
ARC
8
DEFAULT_255_1_234
10
6.635372
20
-0.3254388
40
0.2190529
50
269.35537
51
288.4744281
0
ARC
8
DEFAULT_255_1_234
10
6.6446617
20
-0.3603882
40
0.1829749
50
289.1833337
51
322.9683818
0
ARC
8
DEFAULT_255_1_234
10
6.5835139
20
-0.3121609
40
0.2608399
50
322.6007884
51
346.5182367
0
ARC
8
DEFAULT_255_1_234
10
6.4677735
20
-0.2826384
40
0.3802777
50
346.2582162
51
358.7741648
0
ARC
8
DEFAULT_255_1_234
10
6.3659404
20
-0.2771035
40
0.4822176
50
358.3755224
51
0.0098023
0
ARC
8
DEFAULT_255_1_234
10
6.4415591
20
-0.2743343
40
0.4066078
50
359.6214041
51
11.2839074
0
ARC
8
DEFAULT_255_1_234
10
6.5692738
20
-0.2476934
40
0.2761514
50
11.0482309
51
31.8146458
0
ARC
8
DEFAULT_255_1_234
10
6.6001781
20
-0.2309416
40
0.2410679
50
32.3035391
51
38.082671
0
ARC
8
DEFAULT_255_1_234
10
6.6422441
20
-0.1928338
40
0.1844966
50
36.825067
51
85.7415724
0
ARC
8
DEFAULT_255_1_234
10
6.6355274
20
-0.2428699
40
0.2349122
50
85.0140713
51
90.0513278
0
LINE
8
DEFAULT_255_1_234
10
7.8705983
20
0.0153343
11
7.8705983
21
-0.110764
0
LINE
8
DEFAULT_255_1_234
10
7.8705983
20
-0.110764
11
7.3637957
21
-0.110764
0
LINE
8
DEFAULT_255_1_234
10
7.3637957
20
-0.110764
11
7.3637957
21
-0.5252017
0
LINE
8
DEFAULT_255_1_234
10
7.3637957
20
-0.5252017
11
7.9525221
21
-0.5252017
0
LINE
8
DEFAULT_255_1_234
10
7.9525221
20
-0.5252017
11
7.9525221
21
-0.6513
0
LINE
8
DEFAULT_255_1_234
10
7.9525221
20
-0.6513
11
7.2095863
21
-0.6513
0
LINE
8
DEFAULT_255_1_234
10
7.2095863
20
-0.6513
11
7.2095863
21
0.5181211
0
LINE
8
DEFAULT_255_1_234
10
7.2095863
20
0.5181211
11
7.9444903
21
0.5181211
0
LINE
8
DEFAULT_255_1_234
10
7.9444903
20
0.5181211
11
7.9444903
21
0.3912196
0
LINE
8
DEFAULT_255_1_234
10
7.9444903
20
0.3912196
11
7.3637957
21
0.3912196
0
LINE
8
DEFAULT_255_1_234
10
7.3637957
20
0.3912196
11
7.3637957
21
0.0153343
0
LINE
8
DEFAULT_255_1_234
10
7.3637957
20
0.0153343
11
7.8705983
21
0.0153343
0
LINE
8
DEFAULT_255_1_234
10
8.9203465
20
0.1799849
11
8.765334
21
0.1799849
0
LINE
8
DEFAULT_255_1_234
10
8.0729981
20
-0.3123606
11
8.2280107
21
-0.3123606
0
ARC
8
DEFAULT_255_1_234
10
8.8312153
20
1.0746768
40
1.252368
50
248.9199003
51
254.1439814
0
ARC
8
DEFAULT_255_1_234
10
8.6631648
20
0.6420234
40
0.788226
50
241.633709
51
249.0064503
0
ARC
8
DEFAULT_255_1_234
10
8.5103042
20
0.3619317
40
0.4691427
50
230.498225
51
241.8087113
0
ARC
8
DEFAULT_255_1_234
10
8.4318616
20
0.2619906
40
0.3421437
50
227.4064532
51
229.9881192
0
ARC
8
DEFAULT_255_1_234
10
8.3831137
20
0.2144088
40
0.2741476
50
200.6781896
51
228.1763934
0
ARC
8
DEFAULT_255_1_234
10
8.3903447
20
0.2129077
40
0.2804109
50
179.5061581
51
199.8694617
0
ARC
8
DEFAULT_255_1_234
10
8.3894199
20
0.220321
40
0.2795204
50
132.4834203
51
181.0242172
0
ARC
8
DEFAULT_255_1_234
10
8.4489782
20
0.1640704
40
0.3612768
50
129.2532479
51
133.4242687
0
ARC
8
DEFAULT_255_1_234
10
8.4636231
20
0.1420965
40
0.3875675
50
101.98776
51
128.8742646
0
ARC
8
DEFAULT_255_1_234
10
8.5034842
20
-0.0300259
40
0.5642249
50
89.5906553
51
102.3169264
0
ARC
8
DEFAULT_255_1_234
10
8.5105334
20
0.0018148
40
0.5323783
50
77.2360837
51
90.3248275
0
ARC
8
DEFAULT_255_1_234
10
8.5312413
20
0.09854
40
0.4334697
50
63.837784
51
77.0809408
0
ARC
8
DEFAULT_255_1_234
10
8.5590175
20
0.1502911
40
0.3747796
50
45.9864267
51
64.1607727
0
ARC
8
DEFAULT_255_1_234
10
8.5851056
20
0.1800866
40
0.3352302
50
32.2747395
51
45.6547121
0
ARC
8
DEFAULT_255_1_234
10
8.5917497
20
0.181988
40
0.328603
50
359.6507365
51
32.6130309
0
ARC
8
DEFAULT_255_1_234
10
8.4974592
20
0.182466
40
0.2678863
50
359.469343
51
14.9832209
0
ARC
8
DEFAULT_255_1_234
10
8.5679654
20
0.2013539
40
0.1948938
50
14.9781179
51
48.2004265
0
ARC
8
DEFAULT_255_1_234
10
8.5515299
20
0.1806983
40
0.2212521
50
48.5927837
51
74.1241538
0
ARC
8
DEFAULT_255_1_234
10
8.5181788
20
0.0706248
40
0.3362561
50
73.7888341
51
86.6652678
0
ARC
8
DEFAULT_255_1_234
10
8.5079354
20
-0.0501119
40
0.4573953
50
86.2640471
51
90.0526343
0
ARC
8
DEFAULT_255_1_234
10
8.5051066
20
-0.0105808
40
0.4178709
50
89.6697524
51
99.2309573
0
ARC
8
DEFAULT_255_1_234
10
8.4808517
20
0.1338964
40
0.2713749
50
99.069534
51
113.7658566
0
ARC
8
DEFAULT_255_1_234
10
8.4534708
20
0.1984677
40
0.2012469
50
114.0401004
51
127.9850673
0
ARC
8
DEFAULT_255_1_234
10
8.4294272
20
0.228073
40
0.1631167
50
127.7287463
51
176.7105154
0
ARC
8
DEFAULT_255_1_234
10
8.497299
20
0.2179693
40
0.2315392
50
175.1779447
51
180.0581938
0
ARC
8
DEFAULT_255_1_234
10
8.4129836
20
0.2167428
40
0.1472271
50
179.6142195
51
228.1246017
0
ARC
8
DEFAULT_255_1_234
10
8.4571505
20
0.2576308
40
0.2072299
50
226.5779593
51
230.8800004
0
ARC
8
DEFAULT_255_1_234
10
8.5042584
20
0.3201636
40
0.2854818
50
231.4635071
51
241.9260842
0
ARC
8
DEFAULT_255_1_234
10
8.6239762
20
0.54048
40
0.53622
50
241.7178533
51
248.3259551
0
ARC
8
DEFAULT_255_1_234
10
8.7625134
20
0.8837064
40
0.9063478
50
248.2007737
51
252.4528373
0
ARC
8
DEFAULT_255_1_234
10
8.8828858
20
1.2558441
40
1.2974635
50
252.3391078
51
254.3469452
0
ARC
8
DEFAULT_255_1_234
10
8.1286561
20
-1.4418852
40
1.5037162
50
71.0197183
51
74.4087047
0
ARC
8
DEFAULT_255_1_234
10
8.2981246
20
-0.9526889
40
0.9859993
50
66.1847285
51
71.086374
0
ARC
8
DEFAULT_255_1_234
10
8.4537559
20
-0.60228
40
0.6025855
50
59.3536294
51
66.2691831
0
ARC
8
DEFAULT_255_1_234
10
8.5426211
20
-0.4519391
40
0.4279449
50
49.1020879
51
59.3293958
0
ARC
8
DEFAULT_255_1_234
10
8.6244951
20
-0.3586166
40
0.3038015
50
32.7919921
51
49.2505539
0
ARC
8
DEFAULT_255_1_234
10
8.6566041
20
-0.3357809
40
0.264448
50
31.1181161
51
32.4005348
0
ARC
8
DEFAULT_255_1_234
10
8.6477579
20
-0.3393221
40
0.2738556
50
8.1116974
51
30.7958831
0
ARC
8
DEFAULT_255_1_234
10
8.5667247
20
-0.3531247
40
0.3560327
50
359.8389159
51
8.4706516
0
ARC
8
DEFAULT_255_1_234
10
8.6293038
20
-0.3579863
40
0.2934776
50
337.4731098
51
0.7537279
0
ARC
8
DEFAULT_255_1_234
10
8.6471733
20
-0.3599613
40
0.2762607
50
307.5917067
51
336.4315538
0
ARC
8
DEFAULT_255_1_234
10
8.6011561
20
-0.3086898
40
0.3449979
50
307.6551545
51
308.4529766
0
ARC
8
DEFAULT_255_1_234
10
8.578128
20
-0.273175
40
0.3871988
50
284.3734338
51
307.1424381
0
ARC
8
DEFAULT_255_1_234
10
8.528611
20
-0.0910068
40
0.5759636
50
272.4382747
51
284.646547
0
ARC
8
DEFAULT_255_1_234
10
8.5159319
20
0.0889893
40
0.7563528
50
269.9708387
51
272.8178037
0
ARC
8
DEFAULT_255_1_234
10
8.5116358
20
-0.1148284
40
0.5525489
50
248.2707594
51
270.4055579
0
ARC
8
DEFAULT_255_1_234
10
8.50621
20
-0.1338808
40
0.5328452
50
246.1383403
51
248.0542782
0
ARC
8
DEFAULT_255_1_234
10
8.4643478
20
-0.2218157
40
0.4355005
50
233.1670131
51
246.4950969
0
ARC
8
DEFAULT_255_1_234
10
8.4089383
20
-0.2966188
40
0.3424126
50
215.3403242
51
233.0843104
0
ARC
8
DEFAULT_255_1_234
10
8.3816815
20
-0.3164451
40
0.3087104
50
179.2419209
51
215.2648451
0
ARC
8
DEFAULT_255_1_234
10
8.4584409
20
-0.3150334
40
0.2304457
50
179.335461
51
199.1045811
0
ARC
8
DEFAULT_255_1_234
10
8.4252085
20
-0.3237234
40
0.1962176
50
199.8828939
51
232.7063202
0
ARC
8
DEFAULT_255_1_234
10
8.4724353
20
-0.2643212
40
0.2720938
50
232.3738199
51
255.5136649
0
ARC
8
DEFAULT_255_1_234
10
8.506522
20
-0.1399165
40
0.4010747
50
255.2446292
51
267.5320849
0
ARC
8
DEFAULT_255_1_234
10
8.5152843
20
-0.0166298
40
0.5246356
50
267.1557994
51
270.0286766
0
ARC
8
DEFAULT_255_1_234
10
8.5180616
20
-0.061005
40
0.4802668
50
269.7000017
51
278.1660162
0
ARC
8
DEFAULT_255_1_234
10
8.543662
20
-0.2340485
40
0.3053425
50
278.0231263
51
290.625471
0
ARC
8
DEFAULT_255_1_234
10
8.5784308
20
-0.3267975
40
0.206291
50
290.6619762
51
307.0370976
0
ARC
8
DEFAULT_255_1_234
10
8.6084697
20
-0.3636496
40
0.1587906
50
306.3943566
51
355.3030547
0
ARC
8
DEFAULT_255_1_234
10
8.5572628
20
-0.3559887
40
0.2104809
50
354.3660432
51
0.0698737
0
ARC
8
DEFAULT_255_1_234
10
8.5714973
20
-0.3537383
40
0.1962563
50
359.417946
51
16.1971788
0
ARC
8
DEFAULT_255_1_234
10
8.6170284
20
-0.3412582
40
0.149053
50
16.4723299
51
52.6262157
0
ARC
8
DEFAULT_255_1_234
10
8.5349338
20
-0.4496567
40
0.2850296
50
52.7386432
51
62.4979148
0
ARC
8
DEFAULT_255_1_234
10
8.3964415
20
-0.7102717
40
0.5801521
50
62.2515216
51
68.1220564
0
ARC
8
DEFAULT_255_1_234
10
8.2244325
20
-1.1330128
40
1.0365451
50
68.0062803
51
71.8053402
0
ARC
8
DEFAULT_255_1_234
10
8.0448697
20
-1.6715242
40
1.6042013
50
71.7183119
51
73.9258742
0
LINE
8
DEFAULT_255_1_234
10
9.8367679
20
0.5181211
11
9.8367679
21
0.434591
0
LINE
8
DEFAULT_255_1_234
10
9.8367679
20
0.434591
11
9.3524541
21
-0.6513
0
LINE
8
DEFAULT_255_1_234
10
9.3524541
20
-0.6513
11
9.1966383
21
-0.6513
0
LINE
8
DEFAULT_255_1_234
10
9.1966383
20
-0.6513
11
9.6793458
21
0.3960387
0
LINE
8
DEFAULT_255_1_234
10
9.6793458
20
0.3960387
11
9.0464448
21
0.3960387
0
LINE
8
DEFAULT_255_1_234
10
9.0464448
20
0.3960387
11
9.0464448
21
0.5181211
0
LINE
8
DEFAULT_255_1_234
10
9.0464448
20
0.5181211
11
9.8367679
21
0.5181211
0
LINE
8
DEFAULT_255_1_234
10
10.2214881
20
-0.1155831
11
10.2214881
21
0.0056962
0
LINE
8
DEFAULT_255_1_234
10
10.2214881
20
0.0056962
11
10.3331293
21
0.0056962
0
LINE
8
DEFAULT_255_1_234
10
10.1427771
20
0.2113087
11
9.9941899
21
0.2113087
0
LINE
8
DEFAULT_255_1_234
10
9.9837487
20
-0.3428813
11
10.133139
21
-0.3428813
0
LINE
8
DEFAULT_255_1_234
10
10.3331293
20
-0.1155831
11
10.2214881
21
-0.1155831
0
ARC
8
DEFAULT_255_1_234
10
10.3302159
20
0.3449713
40
0.3392876
50
270.4919872
51
281.8951556
0
ARC
8
DEFAULT_255_1_234
10
10.3543421
20
0.2347702
40
0.2264817
50
281.6691735
51
301.2943132
0
ARC
8
DEFAULT_255_1_234
10
10.3713631
20
0.2036304
40
0.1910381
50
301.7833094
51
311.7545298
0
ARC
8
DEFAULT_255_1_234
10
10.3805207
20
0.1934748
40
0.1773635
50
311.7323931
51
354.2802411
0
ARC
8
DEFAULT_255_1_234
10
10.3078832
20
0.2059722
40
0.2509385
50
353.0937916
51
0.1181479
0
ARC
8
DEFAULT_255_1_234
10
10.2617617
20
0.2107386
40
0.2970898
50
359.1805295
51
15.0453146
0
ARC
8
DEFAULT_255_1_234
10
10.3963454
20
0.2499992
40
0.1569564
50
13.9577229
51
77.6713066
0
ARC
8
DEFAULT_255_1_234
10
10.3576983
20
0.1114949
40
0.3006298
50
76.1116566
51
90.7026153
0
ARC
8
DEFAULT_255_1_234
10
10.3517822
20
0.1388545
40
0.2732568
50
89.5324876
51
103.531937
0
ARC
8
DEFAULT_255_1_234
10
10.3317266
20
0.2187884
40
0.1908508
50
103.2931773
51
133.5619022
0
ARC
8
DEFAULT_255_1_234
10
10.3272754
20
0.2247375
40
0.1834746
50
133.8349307
51
173.5344437
0
ARC
8
DEFAULT_255_1_234
10
10.3995797
20
0.2119213
40
0.2568033
50
172.5096846
51
180.1366907
0
ARC
8
DEFAULT_255_1_234
10
10.3044691
20
0.2153622
40
0.3103056
50
155.3484492
51
180.7484736
0
ARC
8
DEFAULT_255_1_234
10
10.299578
20
0.2124846
40
0.3070957
50
131.5744599
51
154.4798489
0
ARC
8
DEFAULT_255_1_234
10
10.3308928
20
0.180831
40
0.3515643
50
96.9875458
51
131.9690667
0
ARC
8
DEFAULT_255_1_234
10
10.3528407
20
0.0562636
40
0.4779224
50
89.8596053
51
97.7825159
0
ARC
8
DEFAULT_255_1_234
10
10.3576471
20
0.0300616
40
0.5041361
50
78.3655447
51
90.4131539
0
ARC
8
DEFAULT_255_1_234
10
10.3934388
20
0.1959887
40
0.3344039
50
56.6229102
51
78.638727
0
ARC
8
DEFAULT_255_1_234
10
10.4149332
20
0.2335805
40
0.2912001
50
47.0253525
51
56.0854072
0
ARC
8
DEFAULT_255_1_234
10
10.4169112
20
0.2375223
40
0.2869704
50
10.9208013
51
46.7778124
0
ARC
8
DEFAULT_255_1_234
10
10.2805179
20
0.2059857
40
0.426899
50
359.6364486
51
11.6087304
0
ARC
8
DEFAULT_255_1_234
10
10.4640023
20
0.2044752
40
0.243409
50
332.3549906
51
359.7179418
0
ARC
8
DEFAULT_255_1_234
10
10.3989624
20
0.2353142
40
0.3153459
50
325.2333722
51
332.8745602
0
ARC
8
DEFAULT_255_1_234
10
10.4142248
20
0.2246828
40
0.2967456
50
292.9802137
51
325.2392345
0
ARC
8
DEFAULT_255_1_234
10
10.3867622
20
0.2780863
40
0.3566604
50
292.5402179
51
293.6924929
0
ARC
8
DEFAULT_255_1_234
10
10.4260218
20
-0.3673909
40
0.3307468
50
57.6435486
51
72.8625112
0
ARC
8
DEFAULT_255_1_234
10
10.4614717
20
-0.3099451
40
0.2632492
50
36.7248896
51
57.4697979
0
ARC
8
DEFAULT_255_1_234
10
10.460335
20
-0.308678
40
0.2634081
50
8.0545065
51
36.356114
0
ARC
8
DEFAULT_255_1_234
10
10.3740535
20
-0.3241826
40
0.3510261
50
359.8320645
51
8.5869982
0
ARC
8
DEFAULT_255_1_234
10
10.3365312
20
-0.3289899
40
0.3885653
50
343.9829931
51
0.5571613
0
ARC
8
DEFAULT_255_1_234
10
10.4251509
20
-0.3532562
40
0.2966924
50
311.6359546
51
343.7651759
0
ARC
8
DEFAULT_255_1_234
10
10.3873078
20
-0.3105898
40
0.3537231
50
279.7829875
51
311.6255694
0
ARC
8
DEFAULT_255_1_234
10
10.3571854
20
-0.166872
40
0.5004971
50
269.7286406
51
280.3856417
0
ARC
8
DEFAULT_255_1_234
10
10.3509927
20
-0.1710004
40
0.4963778
50
256.6828919
51
270.4412052
0
ARC
8
DEFAULT_255_1_234
10
10.3171223
20
-0.3094606
40
0.3538406
50
229.4223008
51
256.8556159
0
ARC
8
DEFAULT_255_1_234
10
10.2756615
20
-0.3561264
40
0.2914296
50
181.818294
51
229.6455059
0
ARC
8
DEFAULT_255_1_234
10
10.3796572
20
-0.3430504
40
0.3959084
50
179.9755256
51
183.2323064
0
ARC
8
DEFAULT_255_1_234
10
10.3624317
20
-0.3450963
40
0.2293034
50
179.4465117
51
196.2869258
0
ARC
8
DEFAULT_255_1_234
10
10.3136725
20
-0.3584349
40
0.1787621
50
196.5661473
51
227.705904
0
ARC
8
DEFAULT_255_1_234
10
10.330082
20
-0.3400845
40
0.2033784
50
227.7652068
51
257.8762805
0
ARC
8
DEFAULT_255_1_234
10
10.352579
20
-0.2457844
40
0.3003081
50
257.4584385
51
270.426602
0
ARC
8
DEFAULT_255_1_234
10
10.3571357
20
-0.2168004
40
0.329292
50
269.5962073
51
280.8789248
0
ARC
8
DEFAULT_255_1_234
10
10.3800885
20
-0.3314315
40
0.2123908
50
280.6346389
51
299.8595945
0
ARC
8
DEFAULT_255_1_234
10
10.3991792
20
-0.3676788
40
0.171457
50
300.3576302
51
314.5517981
0
ARC
8
DEFAULT_255_1_234
10
10.3908852
20
-0.3616081
40
0.1816095
50
315.0728369
51
345.0431014
0
ARC
8
DEFAULT_255_1_234
10
10.2985667
20
-0.3347159
40
0.2777492
50
344.5986631
51
357.9269593
0
ARC
8
DEFAULT_255_1_234
10
10.2089993
20
-0.3285724
40
0.3674917
50
357.4748886
51
0.0231117
0
ARC
8
DEFAULT_255_1_234
10
10.3113102
20
-0.3261321
40
0.2651907
50
359.5047933
51
13.4239635
0
ARC
8
DEFAULT_255_1_234
10
10.3979746
20
-0.3039522
40
0.1757509
50
12.9498199
51
48.7551375
0
ARC
8
DEFAULT_255_1_234
10
10.379748
20
-0.32886
40
0.2065134
50
49.5088623
51
72.1836453
0
ARC
8
DEFAULT_255_1_234
10
10.3439632
20
-0.4350709
40
0.3185836
50
71.9010081
51
84.3554254
0
ARC
8
DEFAULT_255_1_234
10
10.3278264
20
-0.5711674
40
0.4556151
50
84.0193428
51
89.333121
0
LINE
8
DEFAULT_255_1_234
10
11.6953121
20
-0.5300208
11
11.6953121
21
-0.6513
0
LINE
8
DEFAULT_255_1_234
10
11.6953121
20
-0.6513
11
10.9290843
21
-0.6513
0
LINE
8
DEFAULT_255_1_234
10
10.9290843
20
-0.6513
11
10.9290843
21
-0.5444779
0
LINE
8
DEFAULT_255_1_234
10
10.9290843
20
-0.5444779
11
11.3338839
21
-0.0947005
0
LINE
8
DEFAULT_255_1_234
10
11.0551826
20
0.1735595
11
10.9065954
21
0.1735595
0
LINE
8
DEFAULT_255_1_234
10
11.4214298
20
-0.1902782
11
11.108192
21
-0.5300208
0
LINE
8
DEFAULT_255_1_234
10
11.108192
20
-0.5300208
11
11.6953121
21
-0.5300208
0
ARC
8
DEFAULT_255_1_234
10
9.9848672
20
1.0982527
40
1.8008286
50
318.5132453
51
320.7828378
0
ARC
8
DEFAULT_255_1_234
10
10.5135647
20
0.6679426
40
1.1191493
50
320.7372736
51
323.9737074
0
ARC
8
DEFAULT_255_1_234
10
10.9055503
20
0.3839361
40
0.6350923
50
323.8961724
51
328.6421089
0
ARC
8
DEFAULT_255_1_234
10
11.1102098
20
0.2577031
40
0.3946393
50
328.8299013
51
331.789948
0
ARC
8
DEFAULT_255_1_234
10
11.2099277
20
0.2062509
40
0.2824501
50
331.4255242
51
352.9364833
0
ARC
8
DEFAULT_255_1_234
10
11.2235778
20
0.2031976
40
0.2685315
50
353.2248685
51
0.0169286
0
ARC
8
DEFAULT_255_1_234
10
11.2445654
20
0.205495
40
0.2475536
50
359.4866256
51
15.9339782
0
ARC
8
DEFAULT_255_1_234
10
11.295264
20
0.2191286
40
0.1950618
50
16.1714718
51
43.5284424
0
ARC
8
DEFAULT_255_1_234
10
11.3029948
20
0.2268573
40
0.184134
50
43.4415429
51
83.1661404
0
ARC
8
DEFAULT_255_1_234
10
11.2895866
20
0.1531771
40
0.258926
50
82.160215
51
90.1505798
0
ARC
8
DEFAULT_255_1_234
10
11.2864294
20
0.0994865
40
0.3126255
50
89.5460705
51
102.5418777
0
ARC
8
DEFAULT_255_1_234
10
11.262138
20
0.2025665
40
0.2067346
50
102.1739365
51
129.2061916
0
ARC
8
DEFAULT_255_1_234
10
11.2542452
20
0.2150094
40
0.1921118
50
129.7279328
51
135.7542026
0
ARC
8
DEFAULT_255_1_234
10
11.2663979
20
0.2053045
40
0.2075944
50
136.175737
51
166.3674722
0
ARC
8
DEFAULT_255_1_234
10
11.3670899
20
0.1783182
40
0.3118201
50
165.9092917
51
178.8683903
0
ARC
8
DEFAULT_255_1_234
10
11.453576
20
0.1736179
40
0.3983935
50
178.438168
51
180.0083905
0
ARC
8
DEFAULT_255_1_234
10
11.3134362
20
0.1775231
40
0.4068601
50
163.2878735
51
180.5581814
0
ARC
8
DEFAULT_255_1_234
10
11.2332623
20
0.199584
40
0.3237344
50
133.454115
51
162.9470031
0
ARC
8
DEFAULT_255_1_234
10
11.2511165
20
0.1806
40
0.349795
50
100.7869394
51
133.4384016
0
ARC
8
DEFAULT_255_1_234
10
11.2858936
20
0.0257319
40
0.5084616
50
89.6605301
51
101.3704185
0
ARC
8
DEFAULT_255_1_234
10
11.2925275
20
0.0318496
40
0.502348
50
78.2171172
51
90.4130393
0
ARC
8
DEFAULT_255_1_234
10
11.3280353
20
0.1942637
40
0.3361092
50
55.9268222
51
78.4888551
0
ARC
8
DEFAULT_255_1_234
10
11.3476793
20
0.2281324
40
0.2970617
50
47.9292255
51
55.4054003
0
ARC
8
DEFAULT_255_1_234
10
11.3578354
20
0.2384502
40
0.2825983
50
4.3347696
51
48.0560701
0
ARC
8
DEFAULT_255_1_234
10
11.2482748
20
0.2214601
40
0.393225
50
359.925209
51
5.5967654
0
ARC
8
DEFAULT_255_1_234
10
11.2911639
20
0.2270816
40
0.3503892
50
337.8914096
51
358.9967724
0
ARC
8
DEFAULT_255_1_234
10
11.0198052
20
0.3317706
40
0.6412172
50
326.9135351
51
338.3505194
0
ARC
8
DEFAULT_255_1_234
10
10.6212355
20
0.5872284
40
1.1146189
50
319.6472867
51
327.095818
0
ARC
8
DEFAULT_255_1_234
10
10.2379358
20
0.9034
40
1.6114559
50
317.2586784
51
319.9046139
0
LINE
8
DEFAULT_255_1_234
10
12.3410639
20
0.5237433
11
12.3410639
21
-0.6513
0
LINE
8
DEFAULT_255_1_234
10
12.3410639
20
-0.6513
11
12.1916735
21
-0.6513
0
LINE
8
DEFAULT_255_1_234
10
12.1916735
20
-0.6513
11
12.1916735
21
0.3390133
0
LINE
8
DEFAULT_255_1_234
10
12.1916735
20
0.3390133
11
11.8920897
21
0.2289785
0
LINE
8
DEFAULT_255_1_234
10
11.8920897
20
0.2289785
11
11.8920897
21
0.3639117
0
LINE
8
DEFAULT_255_1_234
10
11.8920897
20
0.3639117
11
12.3177718
21
0.5237433
0
LINE
8
DEFAULT_255_1_234
10
12.3177718
20
0.5237433
11
12.3410639
21
0.5237433
0
LINE
8
DEFAULT_255_1_234
10
13.1008663
20
-0.0938974
11
13.1008663
21
-0.2151766
0
LINE
8
DEFAULT_255_1_234
10
13.1008663
20
-0.2151766
11
12.7089175
21
-0.2151766
0
LINE
8
DEFAULT_255_1_234
10
12.7089175
20
-0.2151766
11
12.7089175
21
-0.0938974
0
LINE
8
DEFAULT_255_1_234
10
12.7089175
20
-0.0938974
11
13.1008663
21
-0.0938974
0
LINE
8
DEFAULT_255_1_234
10
13.718507
20
0.5237433
11
13.718507
21
-0.6513
0
LINE
8
DEFAULT_255_1_234
10
13.718507
20
-0.6513
11
13.5691167
21
-0.6513
0
LINE
8
DEFAULT_255_1_234
10
13.5691167
20
-0.6513
11
13.5691167
21
0.3390133
0
LINE
8
DEFAULT_255_1_234
10
13.5691167
20
0.3390133
11
13.2695328
21
0.2289785
0
LINE
8
DEFAULT_255_1_234
10
13.2695328
20
0.2289785
11
13.2695328
21
0.3639117
0
LINE
8
DEFAULT_255_1_234
10
13.2695328
20
0.3639117
11
13.6952149
21
0.5237433
0
LINE
8
DEFAULT_255_1_234
10
13.6952149
20
0.5237433
11
13.718507
21
0.5237433
0
LINE
8
DEFAULT_255_1_234
10
14.8373281
20
-0.0087609
11
14.8373281
21
-0.1348592
0
LINE
8
DEFAULT_255_1_234
10
14.8373281
20
-0.1348592
11
14.3465889
21
-0.1348592
0
LINE
8
DEFAULT_255_1_234
10
14.3465889
20
-0.1348592
11
14.3465889
21
-0.6513
0
LINE
8
DEFAULT_255_1_234
10
14.3465889
20
-0.6513
11
14.1923795
21
-0.6513
0
LINE
8
DEFAULT_255_1_234
10
14.1923795
20
-0.6513
11
14.1923795
21
0.5181211
0
LINE
8
DEFAULT_255_1_234
10
14.1923795
20
0.5181211
11
14.9168423
21
0.5181211
0
LINE
8
DEFAULT_255_1_234
10
14.9168423
20
0.5181211
11
14.9168423
21
0.3912196
0
LINE
8
DEFAULT_255_1_234
10
14.9168423
20
0.3912196
11
14.3465889
21
0.3912196
0
LINE
8
DEFAULT_255_1_234
10
14.3465889
20
0.3912196
11
14.3465889
21
-0.0087609
0
LINE
8
DEFAULT_255_1_234
10
14.3465889
20
-0.0087609
11
14.8373281
21
-0.0087609
0
LINE
8
DEFAULT_255_1_234
10
15.7465209
20
-0.0087609
11
15.7465209
21
-0.1348592
0
LINE
8
DEFAULT_255_1_234
10
15.7465209
20
-0.1348592
11
15.2557817
21
-0.1348592
0
LINE
8
DEFAULT_255_1_234
10
15.2557817
20
-0.1348592
11
15.2557817
21
-0.6513
0
LINE
8
DEFAULT_255_1_234
10
15.2557817
20
-0.6513
11
15.1015723
21
-0.6513
0
LINE
8
DEFAULT_255_1_234
10
15.1015723
20
-0.6513
11
15.1015723
21
0.5181211
0
LINE
8
DEFAULT_255_1_234
10
15.1015723
20
0.5181211
11
15.8260351
21
0.5181211
0
LINE
8
DEFAULT_255_1_234
10
15.8260351
20
0.5181211
11
15.8260351
21
0.3912196
0
LINE
8
DEFAULT_255_1_234
10
15.8260351
20
0.3912196
11
15.2557817
21
0.3912196
0
LINE
8
DEFAULT_255_1_234
10
15.2557817
20
0.3912196
11
15.2557817
21
-0.0087609
0
LINE
8
DEFAULT_255_1_234
10
15.2557817
20
-0.0087609
11
15.7465209
21
-0.0087609
0
LINE
8
DEFAULT_255_1_234
10
16.7055104
20
0.0402327
11
16.7055104
21
-0.1525291
0
LINE
8
DEFAULT_255_1_234
10
15.9673937
20
-0.1726084
11
15.9673937
21
0.0257755
0
LINE
8
DEFAULT_255_1_234
10
16.5569233
20
-0.1926877
11
16.5569233
21
0.0506739
0
LINE
8
DEFAULT_255_1_234
10
16.1159809
20
0.0619184
11
16.1159809
21
-0.1758211
0
ARC
8
DEFAULT_255_1_234
10
15.4807994
20
-0.1574195
40
1.2247208
50
353.8441951
51
0.2287902
0
ARC
8
DEFAULT_255_1_234
10
15.9447498
20
-0.2092194
40
0.7578929
50
344.4934747
51
353.9765454
0
ARC
8
DEFAULT_255_1_234
10
16.2440088
20
-0.2943019
40
0.4467846
50
329.2803592
51
344.7472793
0
ARC
8
DEFAULT_255_1_234
10
16.3432913
20
-0.3487982
40
0.3336173
50
324.9352394
51
328.6160465
0
ARC
8
DEFAULT_255_1_234
10
16.3810022
20
-0.3751573
40
0.2876076
50
280.580143
51
324.9173126
0
ARC
8
DEFAULT_255_1_234
10
16.3408814
20
-0.2080901
40
0.4592847
50
269.5977311
51
281.6734359
0
ARC
8
DEFAULT_255_1_234
10
16.333672
20
-0.2200827
40
0.4472986
50
256.6228859
51
270.51044
0
ARC
8
DEFAULT_255_1_234
10
16.2934698
20
-0.3749123
40
0.2873874
50
215.8618325
51
257.2788573
0
ARC
8
DEFAULT_255_1_234
10
16.3955729
20
-0.3064023
40
0.4102928
50
197.9693508
51
215.2623606
0
ARC
8
DEFAULT_255_1_234
10
16.6440845
20
-0.2225291
40
0.6725652
50
187.8816417
51
198.2346507
0
ARC
8
DEFAULT_255_1_234
10
17.0399053
20
-0.1653921
40
1.0724845
50
180.8976217
51
188.0055519
0
ARC
8
DEFAULT_255_1_234
10
17.3199241
20
-0.1550223
40
1.3526448
50
180.7449369
51
181.1510016
0
ARC
8
DEFAULT_255_1_234
10
17.162197
20
0.0306042
40
1.1948131
50
173.7675579
51
180.231553
0
ARC
8
DEFAULT_255_1_234
10
16.7104117
20
0.0816666
40
0.7401564
50
164.3058563
51
173.9002247
0
ARC
8
DEFAULT_255_1_234
10
16.4192186
20
0.1655656
40
0.4371288
50
148.7922025
51
164.568378
0
ARC
8
DEFAULT_255_1_234
10
16.3240638
20
0.2186929
40
0.3282386
50
144.5883898
51
148.1176286
0
ARC
8
DEFAULT_255_1_234
10
16.2897536
20
0.2426315
40
0.2864044
50
101.6440918
51
144.514236
0
ARC
8
DEFAULT_255_1_234
10
16.3322603
20
0.0737069
40
0.4604934
50
89.5284041
51
102.5819763
0
ARC
8
DEFAULT_255_1_234
10
16.340169
20
0.0698018
40
0.464401
50
77.0437873
51
90.5081339
0
ARC
8
DEFAULT_255_1_234
10
16.3803692
20
0.2340615
40
0.2953195
50
48.2778575
51
77.4994676
0
ARC
8
DEFAULT_255_1_234
10
16.3876323
20
0.2469746
40
0.2808655
50
36.3142134
51
47.6305865
0
ARC
8
DEFAULT_255_1_234
10
16.300763
20
0.1884515
40
0.3855453
50
18.2931786
51
35.6769206
0
ARC
8
DEFAULT_255_1_234
10
16.0464389
20
0.1011593
40
0.654423
50
8.024666
51
18.5605216
0
ARC
8
DEFAULT_255_1_234
10
15.6301309
20
0.0396792
40
1.0752407
50
1.1274072
51
8.1718305
0
ARC
8
DEFAULT_255_1_234
10
15.30655
20
0.0269885
40
1.3990231
50
0.5424119
51
1.3863029
0
ARC
8
DEFAULT_255_1_234
10
15.4886878
20
0.0542342
40
1.0682415
50
359.8090433
51
4.9407866
0
ARC
8
DEFAULT_255_1_234
10
15.9096892
20
0.0918113
40
0.6455691
50
4.8362157
51
12.2904523
0
ARC
8
DEFAULT_255_1_234
10
16.1852006
20
0.1531965
40
0.3633074
50
12.0805627
51
23.8173984
0
ARC
8
DEFAULT_255_1_234
10
16.3025712
20
0.2028919
40
0.2358723
50
24.2871213
51
31.3935614
0
ARC
8
DEFAULT_255_1_234
10
16.3550409
20
0.2372233
40
0.1732111
50
30.7407893
51
82.4657128
0
ARC
8
DEFAULT_255_1_234
10
16.3370543
20
0.1488691
40
0.263235
50
81.1060089
51
90.2184952
0
ARC
8
DEFAULT_255_1_234
10
16.3334842
20
0.1746924
40
0.2374236
50
89.3806855
51
105.6762551
0
ARC
8
DEFAULT_255_1_234
10
16.3151473
20
0.2413567
40
0.1682847
50
105.7981136
51
149.7388061
0
ARC
8
DEFAULT_255_1_234
10
16.4215551
20
0.177395
40
0.2924306
50
149.4208916
51
163.6286378
0
ARC
8
DEFAULT_255_1_234
10
16.6306439
20
0.113625
40
0.5110213
50
163.3763315
51
172.1410975
0
ARC
8
DEFAULT_255_1_234
10
16.9607158
20
0.0663518
40
0.8444586
50
172.0259487
51
178.0703232
0
ARC
8
DEFAULT_255_1_234
10
17.2637248
20
0.0519906
40
1.1477868
50
177.8631668
51
179.5044149
0
ARC
8
DEFAULT_255_1_234
10
17.1564652
20
-0.1794611
40
1.0404907
50
179.7995573
51
185.2460446
0
ARC
8
DEFAULT_255_1_234
10
16.7521691
20
-0.2177487
40
0.6343885
50
185.1411642
51
193.0079639
0
ARC
8
DEFAULT_255_1_234
10
16.4878164
20
-0.2802359
40
0.3627568
50
192.7897626
51
205.2507664
0
ARC
8
DEFAULT_255_1_234
10
16.3831711
20
-0.3269585
40
0.2481908
50
205.8005384
51
211.2537509
0
ARC
8
DEFAULT_255_1_234
10
16.3308151
20
-0.362042
40
0.1852521
50
210.3789793
51
238.4008143
0
ARC
8
DEFAULT_255_1_234
10
16.3288673
20
-0.3573624
40
0.1882621
50
239.6520629
51
265.9793761
0
ARC
8
DEFAULT_255_1_234
10
16.3373873
20
-0.2901573
40
0.2559272
50
265.1315437
51
270.060332
0
ARC
8
DEFAULT_255_1_234
10
16.3402652
20
-0.3225466
40
0.2235528
50
269.3314664
51
287.2178029
0
ARC
8
DEFAULT_255_1_234
10
16.3540504
20
-0.3728721
40
0.1714108
50
287.7958004
51
329.080874
0
ARC
8
DEFAULT_255_1_234
10
16.2582961
20
-0.313107
40
0.2842745
50
328.6634704
51
343.3325132
0
ARC
8
DEFAULT_255_1_234
10
16.0409981
20
-0.2454137
40
0.5118644
50
343.0499468
51
351.9393422
0
ARC
8
DEFAULT_255_1_234
10
15.6943281
20
-0.1943051
40
0.8622784
50
351.8069023
51
357.7959224
0
ARC
8
DEFAULT_255_1_234
10
15.3707837
20
-0.1775279
40
1.1862365
50
357.5871873
51
359.2677531
0
LINE
8
DEFAULT_255_1_234
10
17.3841923
20
0.5237433
11
17.3841923
21
-0.6513
0
LINE
8
DEFAULT_255_1_234
10
17.3841923
20
-0.6513
11
17.234802
21
-0.6513
0
LINE
8
DEFAULT_255_1_234
10
17.234802
20
-0.6513
11
17.234802
21
0.3390133
0
LINE
8
DEFAULT_255_1_234
10
17.234802
20
0.3390133
11
16.9352182
21
0.2289785
0
LINE
8
DEFAULT_255_1_234
10
16.9352182
20
0.2289785
11
16.9352182
21
0.3639117
0
LINE
8
DEFAULT_255_1_234
10
16.9352182
20
0.3639117
11
17.3609003
21
0.5237433
0
LINE
8
DEFAULT_255_1_234
10
17.3609003
20
0.5237433
11
17.3841923
21
0.5237433
0
LINE
8
DEFAULT_255_1_234
10
18.1439948
20
-0.0938974
11
18.1439948
21
-0.2151766
0
LINE
8
DEFAULT_255_1_234
10
18.1439948
20
-0.2151766
11
17.7520459
21
-0.2151766
0
LINE
8
DEFAULT_255_1_234
10
17.7520459
20
-0.2151766
11
17.7520459
21
-0.0938974
0
LINE
8
DEFAULT_255_1_234
10
17.7520459
20
-0.0938974
11
18.1439948
21
-0.0938974
0
LINE
8
DEFAULT_255_1_234
10
19.0066035
20
0.0402327
11
19.0066035
21
-0.1525291
0
LINE
8
DEFAULT_255_1_234
10
18.2684867
20
-0.1726084
11
18.2684867
21
0.0257755
0
LINE
8
DEFAULT_255_1_234
10
18.8580163
20
-0.1926877
11
18.8580163
21
0.0506739
0
LINE
8
DEFAULT_255_1_234
10
18.4170739
20
0.0619184
11
18.4170739
21
-0.1758211
0
ARC
8
DEFAULT_255_1_234
10
17.7818924
20
-0.1574195
40
1.2247208
50
353.8441951
51
0.2287902
0
ARC
8
DEFAULT_255_1_234
10
18.2458428
20
-0.2092194
40
0.7578929
50
344.4934747
51
353.9765454
0
ARC
8
DEFAULT_255_1_234
10
18.5451018
20
-0.2943019
40
0.4467846
50
329.2803592
51
344.7472793
0
ARC
8
DEFAULT_255_1_234
10
18.6443843
20
-0.3487982
40
0.3336173
50
324.9352394
51
328.6160465
0
ARC
8
DEFAULT_255_1_234
10
18.6820952
20
-0.3751573
40
0.2876076
50
280.580143
51
324.9173126
0
ARC
8
DEFAULT_255_1_234
10
18.6419744
20
-0.2080901
40
0.4592847
50
269.5977311
51
281.6734359
0
ARC
8
DEFAULT_255_1_234
10
18.634765
20
-0.2200827
40
0.4472986
50
256.6228859
51
270.51044
0
ARC
8
DEFAULT_255_1_234
10
18.5945628
20
-0.3749123
40
0.2873874
50
215.8618325
51
257.2788573
0
ARC
8
DEFAULT_255_1_234
10
18.6966659
20
-0.3064023
40
0.4102928
50
197.9693508
51
215.2623606
0
ARC
8
DEFAULT_255_1_234
10
18.9451775
20
-0.2225291
40
0.6725652
50
187.8816417
51
198.2346507
0
ARC
8
DEFAULT_255_1_234
10
19.3409983
20
-0.1653921
40
1.0724845
50
180.8976217
51
188.0055519
0
ARC
8
DEFAULT_255_1_234
10
19.6210171
20
-0.1550223
40
1.3526448
50
180.7449369
51
181.1510016
0
ARC
8
DEFAULT_255_1_234
10
19.46329
20
0.0306042
40
1.1948131
50
173.7675579
51
180.231553
0
ARC
8
DEFAULT_255_1_234
10
19.0115047
20
0.0816666
40
0.7401564
50
164.3058563
51
173.9002247
0
ARC
8
DEFAULT_255_1_234
10
18.7203116
20
0.1655656
40
0.4371288
50
148.7922025
51
164.568378
0
ARC
8
DEFAULT_255_1_234
10
18.6251568
20
0.2186929
40
0.3282386
50
144.5883898
51
148.1176286
0
ARC
8
DEFAULT_255_1_234
10
18.5908466
20
0.2426315
40
0.2864044
50
101.6440918
51
144.514236
0
ARC
8
DEFAULT_255_1_234
10
18.6333533
20
0.0737069
40
0.4604934
50
89.5284041
51
102.5819763
0
ARC
8
DEFAULT_255_1_234
10
18.641262
20
0.0698018
40
0.464401
50
77.0437873
51
90.5081339
0
ARC
8
DEFAULT_255_1_234
10
18.6814622
20
0.2340615
40
0.2953195
50
48.2778575
51
77.4994676
0
ARC
8
DEFAULT_255_1_234
10
18.6887254
20
0.2469746
40
0.2808655
50
36.3142134
51
47.6305865
0
ARC
8
DEFAULT_255_1_234
10
18.601856
20
0.1884515
40
0.3855453
50
18.2931786
51
35.6769206
0
ARC
8
DEFAULT_255_1_234
10
18.3475319
20
0.1011593
40
0.654423
50
8.024666
51
18.5605216
0
ARC
8
DEFAULT_255_1_234
10
17.9312239
20
0.0396792
40
1.0752407
50
1.1274072
51
8.1718305
0
ARC
8
DEFAULT_255_1_234
10
17.607643
20
0.0269885
40
1.3990231
50
0.5424119
51
1.3863029
0
ARC
8
DEFAULT_255_1_234
10
17.7897808
20
0.0542342
40
1.0682415
50
359.8090433
51
4.9407866
0
ARC
8
DEFAULT_255_1_234
10
18.2107822
20
0.0918113
40
0.6455691
50
4.8362157
51
12.2904523
0
ARC
8
DEFAULT_255_1_234
10
18.4862937
20
0.1531965
40
0.3633074
50
12.0805627
51
23.8173984
0
ARC
8
DEFAULT_255_1_234
10
18.6036642
20
0.2028919
40
0.2358723
50
24.2871213
51
31.3935614
0
ARC
8
DEFAULT_255_1_234
10
18.6561339
20
0.2372233
40
0.1732111
50
30.7407893
51
82.4657128
0
ARC
8
DEFAULT_255_1_234
10
18.6381473
20
0.1488691
40
0.263235
50
81.1060089
51
90.2184952
0
ARC
8
DEFAULT_255_1_234
10
18.6345772
20
0.1746924
40
0.2374236
50
89.3806855
51
105.6762551
0
ARC
8
DEFAULT_255_1_234
10
18.6162403
20
0.2413567
40
0.1682847
50
105.7981136
51
149.7388061
0
ARC
8
DEFAULT_255_1_234
10
18.7226481
20
0.177395
40
0.2924306
50
149.4208916
51
163.6286378
0
ARC
8
DEFAULT_255_1_234
10
18.9317369
20
0.113625
40
0.5110213
50
163.3763315
51
172.1410975
0
ARC
8
DEFAULT_255_1_234
10
19.2618088
20
0.0663518
40
0.8444586
50
172.0259487
51
178.0703232
0
ARC
8
DEFAULT_255_1_234
10
19.5648178
20
0.0519906
40
1.1477868
50
177.8631668
51
179.5044149
0
ARC
8
DEFAULT_255_1_234
10
19.4575582
20
-0.1794611
40
1.0404907
50
179.7995573
51
185.2460446
0
ARC
8
DEFAULT_255_1_234
10
19.0532622
20
-0.2177487
40
0.6343885
50
185.1411642
51
193.0079639
0
ARC
8
DEFAULT_255_1_234
10
18.7889094
20
-0.2802359
40
0.3627568
50
192.7897626
51
205.2507664
0
ARC
8
DEFAULT_255_1_234
10
18.6842641
20
-0.3269585
40
0.2481908
50
205.8005384
51
211.2537509
0
ARC
8
DEFAULT_255_1_234
10
18.6319082
20
-0.362042
40
0.1852521
50
210.3789793
51
238.4008143
0
ARC
8
DEFAULT_255_1_234
10
18.6299603
20
-0.3573624
40
0.1882621
50
239.6520629
51
265.9793761
0
ARC
8
DEFAULT_255_1_234
10
18.6384804
20
-0.2901573
40
0.2559272
50
265.1315437
51
270.060332
0
ARC
8
DEFAULT_255_1_234
10
18.6413582
20
-0.3225466
40
0.2235528
50
269.3314664
51
287.2178029
0
ARC
8
DEFAULT_255_1_234
10
18.6551434
20
-0.3728721
40
0.1714108
50
287.7958004
51
329.080874
0
ARC
8
DEFAULT_255_1_234
10
18.5593891
20
-0.313107
40
0.2842745
50
328.6634704
51
343.3325132
0
ARC
8
DEFAULT_255_1_234
10
18.3420911
20
-0.2454137
40
0.5118644
50
343.0499468
51
351.9393422
0
ARC
8
DEFAULT_255_1_234
10
17.9954211
20
-0.1943051
40
0.8622784
50
351.8069023
51
357.7959224
0
ARC
8
DEFAULT_255_1_234
10
17.6718767
20
-0.1775279
40
1.1862365
50
357.5871873
51
359.2677531
0
LINE
8
DEFAULT_255_1_234
10
19.9929009
20
-0.6513
11
19.8812598
21
-0.3460939
0
LINE
8
DEFAULT_255_1_234
10
19.8812598
20
-0.3460939
11
19.3913237
21
-0.3460939
0
LINE
8
DEFAULT_255_1_234
10
19.3913237
20
-0.3460939
11
19.2812889
21
-0.6513
0
LINE
8
DEFAULT_255_1_234
10
19.2812889
20
-0.6513
11
19.1222605
21
-0.6513
0
LINE
8
DEFAULT_255_1_234
10
19.1222605
20
-0.6513
11
19.5688251
21
0.5181211
0
LINE
8
DEFAULT_255_1_234
10
19.5688251
20
0.5181211
11
19.7037583
21
0.5181211
0
LINE
8
DEFAULT_255_1_234
10
19.7037583
20
0.5181211
11
20.1511262
21
-0.6513
0
LINE
8
DEFAULT_255_1_234
10
20.1511262
20
-0.6513
11
19.9929009
21
-0.6513
0
LINE
8
DEFAULT_255_1_234
10
19.6362917
20
0.3277689
11
19.4379078
21
-0.2191925
0
LINE
8
DEFAULT_255_1_234
10
19.4379078
20
-0.2191925
11
19.8354789
21
-0.2191925
0
LINE
8
DEFAULT_255_1_234
10
19.8354789
20
-0.2191925
11
19.6362917
21
0.3277689
0
LINE
8
DEFAULT_255_1_234
10
21.0659412
20
-0.6513
11
20.9543
21
-0.3460939
0
LINE
8
DEFAULT_255_1_234
10
20.9543
20
-0.3460939
11
20.464364
21
-0.3460939
0
LINE
8
DEFAULT_255_1_234
10
20.464364
20
-0.3460939
11
20.3543292
21
-0.6513
0
LINE
8
DEFAULT_255_1_234
10
20.3543292
20
-0.6513
11
20.1953007
21
-0.6513
0
LINE
8
DEFAULT_255_1_234
10
20.1953007
20
-0.6513
11
20.6418654
21
0.5181211
0
LINE
8
DEFAULT_255_1_234
10
20.6418654
20
0.5181211
11
20.7767986
21
0.5181211
0
LINE
8
DEFAULT_255_1_234
10
20.7767986
20
0.5181211
11
21.2241664
21
-0.6513
0
LINE
8
DEFAULT_255_1_234
10
21.2241664
20
-0.6513
11
21.0659412
21
-0.6513
0
LINE
8
DEFAULT_255_1_234
10
20.709332
20
0.3277689
11
20.510948
21
-0.2191925
0
LINE
8
DEFAULT_255_1_234
10
20.510948
20
-0.2191925
11
20.9085191
21
-0.2191925
0
LINE
8
DEFAULT_255_1_234
10
20.9085191
20
-0.2191925
11
20.709332
21
0.3277689
0
LINE
8
DEFAULT_255_1_234
10
22.0763338
20
0.0402327
11
22.0763338
21
-0.1525291
0
LINE
8
DEFAULT_255_1_234
10
21.3382171
20
-0.1726084
11
21.3382171
21
0.0257755
0
LINE
8
DEFAULT_255_1_234
10
21.9277467
20
-0.1926877
11
21.9277467
21
0.0506739
0
LINE
8
DEFAULT_255_1_234
10
21.4868042
20
0.0619184
11
21.4868042
21
-0.1758211
0
ARC
8
DEFAULT_255_1_234
10
20.8516228
20
-0.1574195
40
1.2247208
50
353.8441951
51
0.2287902
0
ARC
8
DEFAULT_255_1_234
10
21.3155732
20
-0.2092194
40
0.7578929
50
344.4934747
51
353.9765454
0
ARC
8
DEFAULT_255_1_234
10
21.6148322
20
-0.2943019
40
0.4467846
50
329.2803592
51
344.7472793
0
ARC
8
DEFAULT_255_1_234
10
21.7141147
20
-0.3487982
40
0.3336173
50
324.9352394
51
328.6160465
0
ARC
8
DEFAULT_255_1_234
10
21.7518255
20
-0.3751573
40
0.2876076
50
280.580143
51
324.9173126
0
ARC
8
DEFAULT_255_1_234
10
21.7117048
20
-0.2080901
40
0.4592847
50
269.5977311
51
281.6734359
0
ARC
8
DEFAULT_255_1_234
10
21.7044954
20
-0.2200827
40
0.4472986
50
256.6228859
51
270.51044
0
ARC
8
DEFAULT_255_1_234
10
21.6642931
20
-0.3749123
40
0.2873874
50
215.8618325
51
257.2788573
0
ARC
8
DEFAULT_255_1_234
10
21.7663963
20
-0.3064023
40
0.4102928
50
197.9693508
51
215.2623606
0
ARC
8
DEFAULT_255_1_234
10
22.0149079
20
-0.2225291
40
0.6725652
50
187.8816417
51
198.2346507
0
ARC
8
DEFAULT_255_1_234
10
22.4107287
20
-0.1653921
40
1.0724845
50
180.8976217
51
188.0055519
0
ARC
8
DEFAULT_255_1_234
10
22.6907475
20
-0.1550223
40
1.3526448
50
180.7449369
51
181.1510016
0
ARC
8
DEFAULT_255_1_234
10
22.5330204
20
0.0306042
40
1.1948131
50
173.7675579
51
180.231553
0
ARC
8
DEFAULT_255_1_234
10
22.0812351
20
0.0816666
40
0.7401564
50
164.3058563
51
173.9002247
0
ARC
8
DEFAULT_255_1_234
10
21.790042
20
0.1655656
40
0.4371288
50
148.7922025
51
164.568378
0
ARC
8
DEFAULT_255_1_234
10
21.6948872
20
0.2186929
40
0.3282386
50
144.5883898
51
148.1176286
0
ARC
8
DEFAULT_255_1_234
10
21.660577
20
0.2426315
40
0.2864044
50
101.6440918
51
144.514236
0
ARC
8
DEFAULT_255_1_234
10
21.7030836
20
0.0737069
40
0.4604934
50
89.5284041
51
102.5819763
0
ARC
8
DEFAULT_255_1_234
10
21.7109924
20
0.0698018
40
0.464401
50
77.0437873
51
90.5081339
0
ARC
8
DEFAULT_255_1_234
10
21.7511926
20
0.2340615
40
0.2953195
50
48.2778575
51
77.4994676
0
ARC
8
DEFAULT_255_1_234
10
21.7584557
20
0.2469746
40
0.2808655
50
36.3142134
51
47.6305865
0
ARC
8
DEFAULT_255_1_234
10
21.6715864
20
0.1884515
40
0.3855453
50
18.2931786
51
35.6769206
0
ARC
8
DEFAULT_255_1_234
10
21.4172623
20
0.1011593
40
0.654423
50
8.024666
51
18.5605216
0
ARC
8
DEFAULT_255_1_234
10
21.0009543
20
0.0396792
40
1.0752407
50
1.1274072
51
8.1718305
0
ARC
8
DEFAULT_255_1_234
10
20.6773734
20
0.0269885
40
1.3990231
50
0.5424119
51
1.3863029
0
ARC
8
DEFAULT_255_1_234
10
20.8595111
20
0.0542342
40
1.0682415
50
359.8090433
51
4.9407866
0
ARC
8
DEFAULT_255_1_234
10
21.2805125
20
0.0918113
40
0.6455691
50
4.8362157
51
12.2904523
0
ARC
8
DEFAULT_255_1_234
10
21.556024
20
0.1531965
40
0.3633074
50
12.0805627
51
23.8173984
0
ARC
8
DEFAULT_255_1_234
10
21.6733946
20
0.2028919
40
0.2358723
50
24.2871213
51
31.3935614
0
ARC
8
DEFAULT_255_1_234
10
21.7258643
20
0.2372233
40
0.1732111
50
30.7407893
51
82.4657128
0
ARC
8
DEFAULT_255_1_234
10
21.7078777
20
0.1488691
40
0.263235
50
81.1060089
51
90.2184952
0
ARC
8
DEFAULT_255_1_234
10
21.7043076
20
0.1746924
40
0.2374236
50
89.3806855
51
105.6762551
0
ARC
8
DEFAULT_255_1_234
10
21.6859707
20
0.2413567
40
0.1682847
50
105.7981136
51
149.7388061
0
ARC
8
DEFAULT_255_1_234
10
21.7923785
20
0.177395
40
0.2924306
50
149.4208916
51
163.6286378
0
ARC
8
DEFAULT_255_1_234
10
22.0014673
20
0.113625
40
0.5110213
50
163.3763315
51
172.1410975
0
ARC
8
DEFAULT_255_1_234
10
22.3315392
20
0.0663518
40
0.8444586
50
172.0259487
51
178.0703232
0
ARC
8
DEFAULT_255_1_234
10
22.6345481
20
0.0519906
40
1.1477868
50
177.8631668
51
179.5044149
0
ARC
8
DEFAULT_255_1_234
10
22.5272886
20
-0.1794611
40
1.0404907
50
179.7995573
51
185.2460446
0
ARC
8
DEFAULT_255_1_234
10
22.1229925
20
-0.2177487
40
0.6343885
50
185.1411642
51
193.0079639
0
ARC
8
DEFAULT_255_1_234
10
21.8586398
20
-0.2802359
40
0.3627568
50
192.7897626
51
205.2507664
0
ARC
8
DEFAULT_255_1_234
10
21.7539945
20
-0.3269585
40
0.2481908
50
205.8005384
51
211.2537509
0
ARC
8
DEFAULT_255_1_234
10
21.7016385
20
-0.362042
40
0.1852521
50
210.3789793
51
238.4008143
0
ARC
8
DEFAULT_255_1_234
10
21.6996907
20
-0.3573624
40
0.1882621
50
239.6520629
51
265.9793761
0
ARC
8
DEFAULT_255_1_234
10
21.7082107
20
-0.2901573
40
0.2559272
50
265.1315437
51
270.060332
0
ARC
8
DEFAULT_255_1_234
10
21.7110886
20
-0.3225466
40
0.2235528
50
269.3314664
51
287.2178029
0
ARC
8
DEFAULT_255_1_234
10
21.7248738
20
-0.3728721
40
0.1714108
50
287.7958004
51
329.080874
0
ARC
8
DEFAULT_255_1_234
10
21.6291195
20
-0.313107
40
0.2842745
50
328.6634704
51
343.3325132
0
ARC
8
DEFAULT_255_1_234
10
21.4118215
20
-0.2454137
40
0.5118644
50
343.0499468
51
351.9393422
0
ARC
8
DEFAULT_255_1_234
10
21.0651515
20
-0.1943051
40
0.8622784
50
351.8069023
51
357.7959224
0
ARC
8
DEFAULT_255_1_234
10
20.7416071
20
-0.1775279
40
1.1862365
50
357.5871873
51
359.2677531
0
ARC
8
DEFAULT_255_2_778
10
7.7537338
20
76.1512992
40
3.0484709
50
251.6854144
51
258.6071955
0
ARC
8
DEFAULT_255_2_778
10
7.539521
20
75.0696738
40
1.9458471
50
258.4992492
51
268.3986479
0
ARC
8
DEFAULT_255_2_778
10
7.5172314
20
74.6394206
40
1.5151737
50
268.7865272
51
269.9950384
0
ARC
8
DEFAULT_255_2_778
10
7.5277432
20
74.1882355
40
1.0640417
50
269.426895
51
279.6711067
0
ARC
8
DEFAULT_255_2_778
10
7.6417753
20
73.5586746
40
0.4243233
50
278.7731084
51
300.3324923
0
ARC
8
DEFAULT_255_2_778
10
7.760746
20
73.3560552
40
0.1893587
50
300.2240287
51
1.9041213
0
ARC
8
DEFAULT_255_2_778
10
7.7452705
20
73.3652089
40
0.2047497
50
359.1991369
51
359.99965
0
ARC
8
DEFAULT_255_2_778
10
7.7523233
20
73.3660378
40
0.1976988
50
359.7594145
51
47.1793976
0
ARC
8
DEFAULT_255_2_778
10
7.6187277
20
73.217431
40
0.3975169
50
47.6144502
51
60.8366176
0
ARC
8
DEFAULT_255_2_778
10
7.0190958
20
72.2014865
40
1.5771337
50
59.799464
51
64.8885807
0
ARC
8
DEFAULT_255_2_778
10
6.0948833
20
70.2724682
40
3.7160912
50
64.6076081
51
66.8386974
0
ARC
8
DEFAULT_255_2_778
10
9.6419609
20
78.6355052
40
5.368109
50
244.3032309
51
247.1393781
0
ARC
8
DEFAULT_255_2_778
10
8.5507088
20
76.375518
40
2.8584574
50
240.2323579
51
244.3709759
0
ARC
8
DEFAULT_255_2_778
10
7.7800475
20
75.0386591
40
1.315392
50
233.2209971
51
240.4606284
0
ARC
8
DEFAULT_255_2_778
10
7.3561477
20
74.4675187
40
0.6041399
50
225.6990744
51
232.9899679
0
ARC
8
DEFAULT_255_2_778
10
7.3965073
20
74.4919214
40
0.6499005
50
178.2783416
51
224.6550883
0
ARC
8
DEFAULT_255_2_778
10
7.5059624
20
74.5252974
40
0.7591885
50
157.033673
51
181.0453383
0
ARC
8
DEFAULT_255_2_778
10
7.378439
20
74.5661396
40
0.6259551
50
124.9113017
51
155.9211516
0
ARC
8
DEFAULT_255_2_778
10
7.5960466
20
74.2575681
40
1.0035357
50
100.4079723
51
125.0168617
0
ARC
8
DEFAULT_255_2_778
10
7.6991199
20
73.7635046
40
1.5081396
50
89.6483922
51
100.8684975
0
ARC
8
DEFAULT_255_2_778
10
7.7083242
20
73.4112988
40
1.8603169
50
89.5079487
51
89.9984402
0
ARC
8
DEFAULT_255_2_778
10
7.7099573
20
73.3460694
40
1.9255311
50
83.9170631
51
89.5732113
0
ARC
8
DEFAULT_255_2_778
10
7.5071517
20
71.3384957
40
3.9433074
50
80.7325723
51
84.0779772
0
ARC
8
DEFAULT_255_2_778
10
7.0208457
20
68.315582
40
7.0050837
50
78.5086351
51
80.7886813
0
ARC
8
DEFAULT_255_2_778
10
7.6620177
20
72.9150544
40
1.9415426
50
67.135818
51
78.0934208
0
ARC
8
DEFAULT_255_2_778
10
7.7851814
20
73.4854809
40
1.3579807
50
78.2126325
51
89.7333975
0
ARC
8
DEFAULT_255_2_778
10
7.7793853
20
73.9006211
40
0.9429038
50
89.2638155
51
100.5666868
0
ARC
8
DEFAULT_255_2_778
10
7.6660949
20
74.4704419
40
0.362036
50
99.4784875
51
124.329414
0
ARC
8
DEFAULT_255_2_778
10
7.5705593
20
74.618551
40
0.1859067
50
125.7571195
51
182.2824883
0
ARC
8
DEFAULT_255_2_778
10
7.5493239
20
74.6118629
40
0.1645253
50
180.2492993
51
239.8144161
0
ARC
8
DEFAULT_255_2_778
10
7.932718
20
75.2119128
40
0.876484
50
237.8725734
51
242.8068846
0
ARC
8
DEFAULT_255_2_778
10
9.4175857
20
78.0284958
40
4.0604642
50
242.3328458
51
244.031083
0
ARC
8
DEFAULT_255_2_778
10
12.3804066
20
84.0769314
40
10.7955807
50
243.950624
51
244.8024316
0
ARC
8
DEFAULT_255_2_778
10
15.4009918
20
90.4609175
40
17.8580926
50
244.7535425
51
244.9563234
0
ARC
8
DEFAULT_255_2_778
10
5.8652927
20
69.9593264
40
4.7527588
50
62.2505456
51
65.4301556
0
ARC
8
DEFAULT_255_2_778
10
6.9275435
20
71.9674172
40
2.4810291
50
57.2951304
51
62.3684211
0
ARC
8
DEFAULT_255_2_778
10
7.6807233
20
73.1307235
40
1.0952081
50
48.7345704
51
57.5685367
0
ARC
8
DEFAULT_255_2_778
10
8.0117486
20
73.5182722
40
0.5856147
50
44.3236031
51
48.0704418
0
ARC
8
DEFAULT_255_2_778
10
7.9783002
20
73.4982468
40
0.6236013
50
1.3523843
51
43.4925744
0
ARC
8
DEFAULT_255_2_778
10
7.7103531
20
73.4653151
40
0.8926473
50
359.9763756
51
3.0599076
0
ARC
8
DEFAULT_255_2_778
10
7.8645343
20
73.4502407
40
0.7386124
50
333.0361889
51
1.1408766
0
ARC
8
DEFAULT_255_2_778
10
7.8947908
20
73.4571919
40
0.7150741
50
300.8430083
51
331.4403095
0
ARC
8
DEFAULT_255_2_778
10
7.694568
20
73.7707162
40
1.0869673
50
281.4258583
51
301.4316118
0
ARC
8
DEFAULT_255_2_778
10
7.5632666
20
74.3789414
40
1.7091691
50
270.2273513
51
281.7010805
0
ARC
8
DEFAULT_255_2_778
10
7.5453797
20
74.8556043
40
2.1859577
50
269.9983113
51
270.6466065
0
LINE
8
DEFAULT_255_2_778
10
7.5453153
20
72.6696465
11
7.5438002
21
72.669647
0
ARC
8
DEFAULT_255_2_778
10
7.5509161
20
75.8525969
40
3.1829579
50
256.2431122
51
269.871909
0
ARC
8
DEFAULT_255_2_778
10
21.7538511
20
76.0771629
40
2.9720345
50
251.5709223
51
258.7508181
0
ARC
8
DEFAULT_255_2_778
10
21.5538128
20
75.0539385
40
1.9294488
50
258.6495077
51
268.8281511
0
ARC
8
DEFAULT_255_2_778
10
21.5355488
20
74.6591193
40
1.5343723
50
269.2085037
51
269.9981866
0
ARC
8
DEFAULT_255_2_778
10
21.5473849
20
74.1907184
40
1.0660376
50
269.3612297
51
279.5899087
0
ARC
8
DEFAULT_255_2_778
10
21.6608439
20
73.5592324
40
0.424527
50
278.6895227
51
300.2363944
0
ARC
8
DEFAULT_255_2_778
10
21.7799083
20
73.3557793
40
0.188796
50
300.1108484
51
1.9024905
0
ARC
8
DEFAULT_255_2_778
10
21.7439577
20
73.3664221
40
0.2246851
50
358.8842611
51
0.0019649
0
ARC
8
DEFAULT_255_2_778
10
21.7769791
20
73.3703385
40
0.1917038
50
358.831716
51
47.0900458
0
ARC
8
DEFAULT_255_2_778
10
21.6364654
20
73.210984
40
0.4041259
50
47.8812665
51
61.174665
0
ARC
8
DEFAULT_255_2_778
10
21.0418848
20
72.1910117
40
1.5846568
50
60.1210877
51
65.1917015
0
ARC
8
DEFAULT_255_2_778
10
20.1415278
20
70.2854122
40
3.6922188
50
64.9168629
51
67.1565628
0
ARC
8
DEFAULT_255_2_778
10
23.6275467
20
78.5569888
40
5.2839333
50
244.2656926
51
247.1407051
0
ARC
8
DEFAULT_255_2_778
10
22.5594997
20
76.348765
40
2.8309849
50
240.1545061
51
244.3326325
0
ARC
8
DEFAULT_255_2_778
10
21.7856548
20
75.0127346
40
1.2870531
50
232.697515
51
240.4357497
0
ARC
8
DEFAULT_255_2_778
10
21.3705506
20
74.4617218
40
0.5972006
50
225.5850892
51
232.3393736
0
ARC
8
DEFAULT_255_2_778
10
21.4133941
20
74.4912933
40
0.6483829
50
178.7795739
51
224.7095916
0
ARC
8
DEFAULT_255_2_778
10
21.6669319
20
74.5153135
40
0.9018316
50
179.997867
51
180.6487041
0
ARC
8
DEFAULT_255_2_778
10
21.5167738
20
74.5291249
40
0.7517998
50
156.9195758
51
181.050088
0
ARC
8
DEFAULT_255_2_778
10
21.3928482
20
74.5685712
40
0.6224513
50
124.7111133
51
155.7879672
0
ARC
8
DEFAULT_255_2_778
10
21.6055459
20
74.2766942
40
0.9835402
50
101.7934503
51
125.2143527
0
ARC
8
DEFAULT_255_2_778
10
21.729848
20
73.7241326
40
1.5498677
50
89.5248728
51
102.1166783
0
ARC
8
DEFAULT_255_2_778
10
21.7283109
20
73.1705834
40
2.1034129
50
83.2889725
51
89.6080411
0
ARC
8
DEFAULT_255_2_778
10
21.529975
20
71.4027668
40
3.8823067
50
79.4764054
51
83.4308492
0
ARC
8
DEFAULT_255_2_778
10
21.2186357
20
69.6495673
40
5.6628977
50
78.2224868
51
79.6190915
0
ARC
8
DEFAULT_255_2_778
10
21.6838473
20
72.9270715
40
1.9311543
50
67.1323814
51
78.3148813
0
ARC
8
DEFAULT_255_2_778
10
21.801359
20
73.4785614
40
1.3672981
50
78.4565774
51
89.7552271
0
ARC
8
DEFAULT_255_2_778
10
21.7951366
20
73.909447
40
0.9364778
50
89.2619009
51
100.5950934
0
ARC
8
DEFAULT_255_2_778
10
21.6824182
20
74.4749169
40
0.3599879
50
99.5087086
51
124.406715
0
ARC
8
DEFAULT_255_2_778
10
21.5878565
20
74.621343
40
0.1858061
50
125.8630185
51
182.2986975
0
ARC
8
DEFAULT_255_2_778
10
21.5497296
20
74.6138047
40
0.1475296
50
179.9666559
51
180.100057
0
ARC
8
DEFAULT_255_2_778
10
21.566185
20
74.613793
40
0.163985
50
180.0859454
51
239.8819968
0
ARC
8
DEFAULT_255_2_778
10
21.9379018
20
75.2005619
40
0.8584853
50
238.072871
51
243.0442008
0
ARC
8
DEFAULT_255_2_778
10
23.4872034
20
78.1655845
40
4.2038426
50
242.5409111
51
244.1884903
0
ARC
8
DEFAULT_255_2_778
10
26.6463384
20
84.660196
40
11.4260319
50
244.1076525
51
244.9219574
0
ARC
8
DEFAULT_255_2_778
10
29.9038827
20
91.583855
40
19.0777309
50
244.8743531
51
245.066969
0
ARC
8
DEFAULT_255_2_778
10
19.8865272
20
69.9916274
40
4.7250654
50
62.0340028
51
65.293009
0
ARC
8
DEFAULT_255_2_778
10
20.9507744
20
71.9865758
40
2.464003
50
57.1127289
51
62.13736
0
ARC
8
DEFAULT_255_2_778
10
21.7037139
20
73.1402906
40
1.0863604
50
48.3695509
51
57.4197129
0
ARC
8
DEFAULT_255_2_778
10
22.0286268
20
73.5170419
40
0.5889589
50
44.472493
51
47.6467012
0
ARC
8
DEFAULT_255_2_778
10
21.9979457
20
73.4999032
40
0.6229283
50
1.2061613
51
43.6203607
0
ARC
8
DEFAULT_255_2_778
10
21.7312413
20
73.4674903
40
0.890659
50
359.9779196
51
2.9299178
0
ARC
8
DEFAULT_255_2_778
10
21.8802547
20
73.4523837
40
0.7417924
50
333.172934
51
1.140392
0
ARC
8
DEFAULT_255_2_778
10
21.9146167
20
73.4570736
40
0.7135172
50
300.9808035
51
331.5913995
0
ARC
8
DEFAULT_255_2_778
10
21.7182603
20
73.7669862
40
1.0803281
50
281.9040909
51
301.4483918
0
ARC
8
DEFAULT_255_2_778
10
21.5848425
20
74.3655518
40
1.6935565
50
270.5796874
51
282.1436175
0
ARC
8
DEFAULT_255_2_778
10
21.5636722
20
74.8604735
40
2.1887267
50
269.9959074
51
271.0027751
0
LINE
8
DEFAULT_255_2_778
10
21.5635158
20
72.6717468
11
21.5625002
21
72.671747
0
ARC
8
DEFAULT_255_2_778
10
21.5700221
20
75.8605174
40
3.1887792
50
256.2556596
51
269.8648469
0
LINE
8
DEFAULT_255_2_778
10
6.7958002
20
72.762547
11
6.7958002
21
73.257247
0
LINE
8
DEFAULT_255_2_778
10
8.4164002
20
75.180247
11
8.4164002
21
74.704047
0
LINE
8
DEFAULT_255_2_778
10
6.7940002
20
72.760947
11
6.7958002
21
72.762547
0
LINE
8
DEFAULT_255_2_778
10
8.9866002
20
75.229747
11
9.6629002
21
75.229747
0
LINE
8
DEFAULT_255_2_778
10
9.6629002
20
75.229747
11
9.6629002
21
72.722347
0
LINE
8
DEFAULT_255_2_778
10
9.6629002
20
72.722347
11
8.9866002
21
72.722347
0
LINE
8
DEFAULT_255_2_778
10
8.9866002
20
72.722347
11
8.9866002
21
75.229747
0
LINE
8
DEFAULT_255_2_778
10
10.2809002
20
72.722347
11
10.2809002
21
75.229747
0
LINE
8
DEFAULT_255_2_778
10
10.2809002
20
75.229747
11
12.0132002
21
75.229747
0
LINE
8
DEFAULT_255_2_778
10
12.0132002
20
75.229747
11
12.0132002
21
74.776047
0
LINE
8
DEFAULT_255_2_778
10
12.0132002
20
74.776047
11
10.9321002
21
74.776047
0
LINE
8
DEFAULT_255_2_778
10
10.9321002
20
74.776047
11
10.9321002
21
74.209747
0
LINE
8
DEFAULT_255_2_778
10
10.9321002
20
74.209747
11
11.8735002
21
74.209747
0
LINE
8
DEFAULT_255_2_778
10
11.8735002
20
74.209747
11
11.8735002
21
73.796247
0
LINE
8
DEFAULT_255_2_778
10
11.8735002
20
73.796247
11
10.9321002
21
73.796247
0
LINE
8
DEFAULT_255_2_778
10
10.9321002
20
73.796247
11
10.9321002
21
73.200947
0
LINE
8
DEFAULT_255_2_778
10
10.9321002
20
73.200947
11
12.0412002
21
73.200947
0
LINE
8
DEFAULT_255_2_778
10
12.0412002
20
73.200947
11
12.0412002
21
72.720747
0
LINE
8
DEFAULT_255_2_778
10
12.0412002
20
72.720747
11
10.2809002
21
72.722347
0
LINE
8
DEFAULT_255_2_778
10
12.4817002
20
72.722347
11
12.4817002
21
75.229747
0
LINE
8
DEFAULT_255_2_778
10
12.4817002
20
75.229747
11
13.3575002
21
75.229747
0
LINE
8
DEFAULT_255_2_778
10
13.3575002
20
75.229747
11
13.9671002
21
73.627447
0
LINE
8
DEFAULT_255_2_778
10
13.9671002
20
73.627447
11
14.5897002
21
75.229747
0
LINE
8
DEFAULT_255_2_778
10
14.5897002
20
75.229747
11
15.4215002
21
75.229747
0
LINE
8
DEFAULT_255_2_778
10
15.4215002
20
75.229747
11
15.4215002
21
72.722347
0
LINE
8
DEFAULT_255_2_778
10
15.4215002
20
72.722347
11
14.7812002
21
72.722347
0
LINE
8
DEFAULT_255_2_778
10
14.7812002
20
72.722347
11
14.7812002
21
74.498147
0
LINE
8
DEFAULT_255_2_778
10
14.7812002
20
74.498147
11
14.0724002
21
72.697947
0
LINE
8
DEFAULT_255_2_778
10
14.0724002
20
72.697947
11
13.6515002
21
72.697947
0
LINE
8
DEFAULT_255_2_778
10
13.6515002
20
72.697947
11
12.9559002
21
74.498147
0
LINE
8
DEFAULT_255_2_778
10
12.9559002
20
74.498147
11
12.9559002
21
72.722047
0
LINE
8
DEFAULT_255_2_778
10
12.9559002
20
72.722047
11
12.4817002
21
72.722347
0
LINE
8
DEFAULT_255_2_778
10
16.0409002
20
72.722347
11
16.0409002
21
75.229747
0
LINE
8
DEFAULT_255_2_778
10
16.0409002
20
75.229747
11
17.7731002
21
75.229747
0
LINE
8
DEFAULT_255_2_778
10
17.7731002
20
75.229747
11
17.7731002
21
74.776047
0
LINE
8
DEFAULT_255_2_778
10
17.7731002
20
74.776047
11
16.6921002
21
74.776047
0
LINE
8
DEFAULT_255_2_778
10
16.6921002
20
74.776047
11
16.6921002
21
74.209747
0
LINE
8
DEFAULT_255_2_778
10
16.6921002
20
74.209747
11
17.6334002
21
74.209747
0
LINE
8
DEFAULT_255_2_778
10
17.6334002
20
74.209747
11
17.6334002
21
73.796247
0
LINE
8
DEFAULT_255_2_778
10
17.6334002
20
73.796247
11
16.6921002
21
73.796247
0
LINE
8
DEFAULT_255_2_778
10
16.6921002
20
73.796247
11
16.6921002
21
73.200947
0
LINE
8
DEFAULT_255_2_778
10
16.6921002
20
73.200947
11
17.8030002
21
73.200947
0
LINE
8
DEFAULT_255_2_778
10
17.8030002
20
73.200947
11
17.8030002
21
72.720747
0
LINE
8
DEFAULT_255_2_778
10
17.8030002
20
72.720747
11
16.0409002
21
72.722347
0
LINE
8
DEFAULT_255_2_778
10
18.2454002
20
72.722347
11
18.2454002
21
75.229747
0
LINE
8
DEFAULT_255_2_778
10
18.2454002
20
75.229747
11
19.0283002
21
75.229747
0
LINE
8
DEFAULT_255_2_778
10
19.0283002
20
75.229747
11
19.8586002
21
73.550947
0
LINE
8
DEFAULT_255_2_778
10
19.8586002
20
73.550947
11
19.8586002
21
75.229747
0
LINE
8
DEFAULT_255_2_778
10
19.8586002
20
75.229747
11
20.3343002
21
75.229747
0
LINE
8
DEFAULT_255_2_778
10
20.3343002
20
75.229747
11
20.3343002
21
72.722347
0
LINE
8
DEFAULT_255_2_778
10
20.3343002
20
72.722347
11
19.5739002
21
72.722347
0
LINE
8
DEFAULT_255_2_778
10
19.5739002
20
72.722347
11
18.7214002
21
74.423547
0
LINE
8
DEFAULT_255_2_778
10
18.7214002
20
74.423547
11
18.7214002
21
72.722347
0
LINE
8
DEFAULT_255_2_778
10
18.7214002
20
72.722347
11
18.2454002
21
72.722347
0
LINE
8
DEFAULT_255_2_778
10
20.8143002
20
72.762747
11
20.8143002
21
73.257547
0
LINE
8
DEFAULT_255_2_778
10
22.3745002
20
75.193247
11
22.4343002
21
75.182647
0
LINE
8
DEFAULT_255_2_778
10
22.4343002
20
75.182647
11
22.4343002
21
74.706447
0
LINE
8
DEFAULT_255_2_778
10
20.8124002
20
72.763047
11
20.8143002
21
72.762747
0
LINE
8
DEFAULT_255_1_234
10
9.1330023
20
70.9980849
11
8.9779897
21
70.9980849
0
LINE
8
DEFAULT_255_1_234
10
8.2856539
20
70.5057394
11
8.4406665
21
70.5057394
0
ARC
8
DEFAULT_255_1_234
10
9.043871
20
71.8927768
40
1.252368
50
248.9199003
51
254.1439814
0
ARC
8
DEFAULT_255_1_234
10
8.8758205
20
71.4601234
40
0.788226
50
241.633709
51
249.0064503
0
ARC
8
DEFAULT_255_1_234
10
8.72296
20
71.1800317
40
0.4691427
50
230.498225
51
241.8087113
0
ARC
8
DEFAULT_255_1_234
10
8.6445174
20
71.0800906
40
0.3421437
50
227.4064532
51
229.9881192
0
ARC
8
DEFAULT_255_1_234
10
8.5957694
20
71.0325088
40
0.2741476
50
200.6781896
51
228.1763934
0
ARC
8
DEFAULT_255_1_234
10
8.6030005
20
71.0310077
40
0.2804109
50
179.5061581
51
199.8694617
0
ARC
8
DEFAULT_255_1_234
10
8.6020757
20
71.038421
40
0.2795204
50
132.4834203
51
181.0242172
0
ARC
8
DEFAULT_255_1_234
10
8.6616339
20
70.9821704
40
0.3612768
50
129.2532479
51
133.4242687
0
ARC
8
DEFAULT_255_1_234
10
8.6762789
20
70.9601965
40
0.3875675
50
101.98776
51
128.8742646
0
ARC
8
DEFAULT_255_1_234
10
8.7161399
20
70.7880741
40
0.5642249
50
89.5906553
51
102.3169264
0
ARC
8
DEFAULT_255_1_234
10
8.7231891
20
70.8199148
40
0.5323783
50
77.2360837
51
90.3248275
0
ARC
8
DEFAULT_255_1_234
10
8.7438971
20
70.91664
40
0.4334697
50
63.837784
51
77.0809408
0
ARC
8
DEFAULT_255_1_234
10
8.7716732
20
70.9683911
40
0.3747796
50
45.9864267
51
64.1607727
0
ARC
8
DEFAULT_255_1_234
10
8.7977614
20
70.9981866
40
0.3352302
50
32.2747395
51
45.6547121
0
ARC
8
DEFAULT_255_1_234
10
8.8044054
20
71.000088
40
0.328603
50
359.6507365
51
32.6130309
0
ARC
8
DEFAULT_255_1_234
10
8.710115
20
71.000566
40
0.2678863
50
359.469343
51
14.9832209
0
ARC
8
DEFAULT_255_1_234
10
8.7806212
20
71.0194539
40
0.1948938
50
14.9781179
51
48.2004265
0
ARC
8
DEFAULT_255_1_234
10
8.7641856
20
70.9987983
40
0.2212521
50
48.5927837
51
74.1241538
0
ARC
8
DEFAULT_255_1_234
10
8.7308346
20
70.8887248
40
0.3362561
50
73.7888341
51
86.6652678
0
ARC
8
DEFAULT_255_1_234
10
8.7205911
20
70.7679881
40
0.4573953
50
86.2640471
51
90.0526343
0
ARC
8
DEFAULT_255_1_234
10
8.7177624
20
70.8075192
40
0.4178709
50
89.6697524
51
99.2309573
0
ARC
8
DEFAULT_255_1_234
10
8.6935075
20
70.9519964
40
0.2713749
50
99.069534
51
113.7658566
0
ARC
8
DEFAULT_255_1_234
10
8.6661266
20
71.0165677
40
0.2012469
50
114.0401004
51
127.9850673
0
ARC
8
DEFAULT_255_1_234
10
8.642083
20
71.046173
40
0.1631167
50
127.7287463
51
176.7105154
0
ARC
8
DEFAULT_255_1_234
10
8.7099547
20
71.0360693
40
0.2315392
50
175.1779447
51
180.0581938
0
ARC
8
DEFAULT_255_1_234
10
8.6256394
20
71.0348428
40
0.1472271
50
179.6142195
51
228.1246017
0
ARC
8
DEFAULT_255_1_234
10
8.6698063
20
71.0757308
40
0.2072299
50
226.5779593
51
230.8800004
0
ARC
8
DEFAULT_255_1_234
10
8.7169141
20
71.1382636
40
0.2854818
50
231.4635071
51
241.9260842
0
ARC
8
DEFAULT_255_1_234
10
8.8366319
20
71.35858
40
0.53622
50
241.7178533
51
248.3259551
0
ARC
8
DEFAULT_255_1_234
10
8.9751691
20
71.7018064
40
0.9063478
50
248.2007737
51
252.4528373
0
ARC
8
DEFAULT_255_1_234
10
9.0955416
20
72.0739441
40
1.2974635
50
252.3391078
51
254.3469452
0
ARC
8
DEFAULT_255_1_234
10
8.3413119
20
69.3762148
40
1.5037162
50
71.0197183
51
74.4087047
0
ARC
8
DEFAULT_255_1_234
10
8.5107804
20
69.8654111
40
0.9859993
50
66.1847285
51
71.086374
0
ARC
8
DEFAULT_255_1_234
10
8.6664116
20
70.21582
40
0.6025855
50
59.3536294
51
66.2691831
0
ARC
8
DEFAULT_255_1_234
10
8.7552769
20
70.3661609
40
0.4279449
50
49.1020879
51
59.3293958
0
ARC
8
DEFAULT_255_1_234
10
8.8371509
20
70.4594834
40
0.3038015
50
32.7919921
51
49.2505539
0
ARC
8
DEFAULT_255_1_234
10
8.8692599
20
70.4823191
40
0.264448
50
31.1181161
51
32.4005348
0
ARC
8
DEFAULT_255_1_234
10
8.8604136
20
70.4787779
40
0.2738556
50
8.1116974
51
30.7958831
0
ARC
8
DEFAULT_255_1_234
10
8.7793804
20
70.4649753
40
0.3560327
50
359.8389159
51
8.4706516
0
ARC
8
DEFAULT_255_1_234
10
8.8419596
20
70.4601137
40
0.2934776
50
337.4731098
51
0.7537279
0
ARC
8
DEFAULT_255_1_234
10
8.8598291
20
70.4581387
40
0.2762607
50
307.5917067
51
336.4315538
0
ARC
8
DEFAULT_255_1_234
10
8.8138119
20
70.5094102
40
0.3449979
50
307.6551545
51
308.4529766
0
ARC
8
DEFAULT_255_1_234
10
8.7907838
20
70.544925
40
0.3871988
50
284.3734338
51
307.1424381
0
ARC
8
DEFAULT_255_1_234
10
8.7412668
20
70.7270932
40
0.5759636
50
272.4382747
51
284.646547
0
ARC
8
DEFAULT_255_1_234
10
8.7285876
20
70.9070893
40
0.7563528
50
269.9708387
51
272.8178037
0
ARC
8
DEFAULT_255_1_234
10
8.7242916
20
70.7032716
40
0.5525489
50
248.2707594
51
270.4055579
0
ARC
8
DEFAULT_255_1_234
10
8.7188657
20
70.6842192
40
0.5328452
50
246.1383403
51
248.0542782
0
ARC
8
DEFAULT_255_1_234
10
8.6770036
20
70.5962843
40
0.4355005
50
233.1670131
51
246.4950969
0
ARC
8
DEFAULT_255_1_234
10
8.6215941
20
70.5214812
40
0.3424126
50
215.3403242
51
233.0843104
0
ARC
8
DEFAULT_255_1_234
10
8.5943372
20
70.5016549
40
0.3087104
50
179.2419209
51
215.2648451
0
ARC
8
DEFAULT_255_1_234
10
8.6710966
20
70.5030666
40
0.2304457
50
179.335461
51
199.1045811
0
ARC
8
DEFAULT_255_1_234
10
8.6378643
20
70.4943766
40
0.1962176
50
199.8828939
51
232.7063202
0
ARC
8
DEFAULT_255_1_234
10
8.6850911
20
70.5537788
40
0.2720938
50
232.3738199
51
255.5136649
0
ARC
8
DEFAULT_255_1_234
10
8.7191778
20
70.6781835
40
0.4010747
50
255.2446292
51
267.5320849
0
ARC
8
DEFAULT_255_1_234
10
8.7279401
20
70.8014702
40
0.5246356
50
267.1557994
51
270.0286766
0
ARC
8
DEFAULT_255_1_234
10
8.7307173
20
70.757095
40
0.4802668
50
269.7000017
51
278.1660162
0
ARC
8
DEFAULT_255_1_234
10
8.7563178
20
70.5840515
40
0.3053425
50
278.0231263
51
290.625471
0
ARC
8
DEFAULT_255_1_234
10
8.7910865
20
70.4913025
40
0.206291
50
290.6619762
51
307.0370976
0
ARC
8
DEFAULT_255_1_234
10
8.8211254
20
70.4544504
40
0.1587906
50
306.3943566
51
355.3030547
0
ARC
8
DEFAULT_255_1_234
10
8.7699186
20
70.4621113
40
0.2104809
50
354.3660432
51
0.0698737
0
ARC
8
DEFAULT_255_1_234
10
8.7841531
20
70.4643617
40
0.1962563
50
359.417946
51
16.1971788
0
ARC
8
DEFAULT_255_1_234
10
8.8296841
20
70.4768418
40
0.149053
50
16.4723299
51
52.6262157
0
ARC
8
DEFAULT_255_1_234
10
8.7475895
20
70.3684433
40
0.2850296
50
52.7386432
51
62.4979148
0
ARC
8
DEFAULT_255_1_234
10
8.6090972
20
70.1078283
40
0.5801521
50
62.2515216
51
68.1220564
0
ARC
8
DEFAULT_255_1_234
10
8.4370883
20
69.6850872
40
1.0365451
50
68.0062803
51
71.8053402
0
ARC
8
DEFAULT_255_1_234
10
8.2575255
20
69.1465758
40
1.6042013
50
71.7183119
51
73.9258742
0
LINE
8
DEFAULT_255_1_234
10
9.4984464
20
71.3362211
11
9.4984464
21
70.1668
0
LINE
8
DEFAULT_255_1_234
10
9.4984464
20
70.1668
11
9.344237
21
70.1668
0
LINE
8
DEFAULT_255_1_234
10
9.344237
20
70.1668
11
9.344237
21
71.3362211
0
LINE
8
DEFAULT_255_1_234
10
9.344237
20
71.3362211
11
9.4984464
21
71.3362211
0
LINE
8
DEFAULT_255_1_234
10
9.7803604
20
71.3362211
11
9.9795475
21
71.3362211
0
LINE
8
DEFAULT_255_1_234
10
9.9795475
20
71.3362211
11
10.3618583
21
70.3820506
0
LINE
8
DEFAULT_255_1_234
10
10.3618583
20
70.3820506
11
10.744169
21
71.3362211
0
LINE
8
DEFAULT_255_1_234
10
10.744169
20
71.3362211
11
10.9441593
21
71.3362211
0
LINE
8
DEFAULT_255_1_234
10
10.9441593
20
71.3362211
11
10.9441593
21
70.1668
0
LINE
8
DEFAULT_255_1_234
10
10.9441593
20
70.1668
11
10.7899499
21
70.1668
0
LINE
8
DEFAULT_255_1_234
10
10.7899499
20
70.1668
11
10.7899499
21
70.6221996
0
LINE
8
DEFAULT_255_1_234
10
10.7899499
20
70.6221996
11
10.804407
21
71.1137419
0
LINE
8
DEFAULT_255_1_234
10
10.804407
20
71.1137419
11
10.4204899
21
70.1668
0
LINE
8
DEFAULT_255_1_234
10
10.4204899
20
70.1668
11
10.3024234
21
70.1668
0
LINE
8
DEFAULT_255_1_234
10
10.3024234
20
70.1668
11
9.9193095
21
71.1113324
0
LINE
8
DEFAULT_255_1_234
10
9.9193095
20
71.1113324
11
9.9345698
21
70.6221996
0
LINE
8
DEFAULT_255_1_234
10
9.9345698
20
70.6221996
11
9.9345698
21
70.1668
0
LINE
8
DEFAULT_255_1_234
10
9.9345698
20
70.1668
11
9.7803604
21
70.1668
0
LINE
8
DEFAULT_255_1_234
10
9.7803604
20
70.1668
11
9.7803604
21
71.3362211
0
LINE
8
DEFAULT_255_1_234
10
11.9882853
20
70.1668
11
11.8766441
21
70.4720061
0
LINE
8
DEFAULT_255_1_234
10
11.8766441
20
70.4720061
11
11.3867081
21
70.4720061
0
LINE
8
DEFAULT_255_1_234
10
11.3867081
20
70.4720061
11
11.2766732
21
70.1668
0
LINE
8
DEFAULT_255_1_234
10
11.2766732
20
70.1668
11
11.1176448
21
70.1668
0
LINE
8
DEFAULT_255_1_234
10
11.1176448
20
70.1668
11
11.5642095
21
71.3362211
0
LINE
8
DEFAULT_255_1_234
10
11.5642095
20
71.3362211
11
11.6991427
21
71.3362211
0
LINE
8
DEFAULT_255_1_234
10
11.6991427
20
71.3362211
11
12.1465105
21
70.1668
0
LINE
8
DEFAULT_255_1_234
10
12.1465105
20
70.1668
11
11.9882853
21
70.1668
0
LINE
8
DEFAULT_255_1_234
10
11.6316761
20
71.1458689
11
11.4332921
21
70.5989075
0
LINE
8
DEFAULT_255_1_234
10
11.4332921
20
70.5989075
11
11.8308632
21
70.5989075
0
LINE
8
DEFAULT_255_1_234
10
11.8308632
20
70.5989075
11
11.6316761
21
71.1458689
0
LINE
8
DEFAULT_255_1_234
10
13.008316
20
71.3362211
11
13.008316
21
71.2093196
0
LINE
8
DEFAULT_255_1_234
10
13.008316
20
71.2093196
11
12.6324307
21
71.2093196
0
LINE
8
DEFAULT_255_1_234
10
12.6324307
20
71.2093196
11
12.6324307
21
70.1668
0
LINE
8
DEFAULT_255_1_234
10
12.6324307
20
70.1668
11
12.4790245
21
70.1668
0
LINE
8
DEFAULT_255_1_234
10
12.4790245
20
70.1668
11
12.4790245
21
71.2093196
0
LINE
8
DEFAULT_255_1_234
10
12.4790245
20
71.2093196
11
12.1039423
21
71.2093196
0
LINE
8
DEFAULT_255_1_234
10
12.1039423
20
71.2093196
11
12.1039423
21
71.3362211
0
LINE
8
DEFAULT_255_1_234
10
12.1039423
20
71.3362211
11
13.008316
21
71.3362211
0
LINE
8
DEFAULT_255_1_234
10
13.3472554
20
71.3362211
11
13.3472554
21
70.1668
0
LINE
8
DEFAULT_255_1_234
10
13.3472554
20
70.1668
11
13.193046
21
70.1668
0
LINE
8
DEFAULT_255_1_234
10
13.193046
20
70.1668
11
13.193046
21
71.3362211
0
LINE
8
DEFAULT_255_1_234
10
13.193046
20
71.3362211
11
13.3472554
21
71.3362211
0
LINE
8
DEFAULT_255_1_234
10
14.334356
20
70.5378663
11
14.4893686
21
70.5378663
0
LINE
8
DEFAULT_255_1_234
10
13.5890107
20
70.6968947
11
13.5890107
21
70.8093391
0
LINE
8
DEFAULT_255_1_234
10
14.4893686
20
70.9603357
11
14.334356
21
70.9603357
0
LINE
8
DEFAULT_255_1_234
10
13.7440232
20
70.8053232
11
13.7440232
21
70.6920757
0
ARC
8
DEFAULT_255_1_234
10
13.9413072
20
70.5975846
40
0.5513052
50
340.1774281
51
353.7814284
0
ARC
8
DEFAULT_255_1_234
10
14.0984425
20
70.5390582
40
0.3836379
50
311.4558989
51
340.4421614
0
ARC
8
DEFAULT_255_1_234
10
14.0951093
20
70.5501528
40
0.3941894
50
282.4333181
51
310.7513653
0
ARC
8
DEFAULT_255_1_234
10
14.0511832
20
70.7316679
40
0.5809175
50
269.9358511
51
282.809604
0
ARC
8
DEFAULT_255_1_234
10
14.0459899
20
70.8774212
40
0.7266847
50
270.0021091
51
270.3581957
0
ARC
8
DEFAULT_255_1_234
10
14.0407315
20
70.6173585
40
0.4666519
50
250.7884749
51
270.6489167
0
ARC
8
DEFAULT_255_1_234
10
14.023915
20
70.5536319
40
0.4009729
50
219.3627325
51
250.0611886
0
ARC
8
DEFAULT_255_1_234
10
14.1068361
20
70.6241042
40
0.5097822
50
193.5479632
51
219.5756669
0
ARC
8
DEFAULT_255_1_234
10
14.3439982
20
70.6856919
40
0.7547848
50
181.1218675
51
193.87563
0
ARC
8
DEFAULT_255_1_234
10
14.5510163
20
70.696758
40
0.9620055
50
179.9918545
51
181.5394234
0
ARC
8
DEFAULT_255_1_234
10
14.3659265
20
70.8130788
40
0.7769248
50
169.5837241
51
180.2757934
0
ARC
8
DEFAULT_255_1_234
10
14.1822203
20
70.8470229
40
0.590109
50
155.0365899
51
169.6003176
0
ARC
8
DEFAULT_255_1_234
10
14.0686667
20
70.9017677
40
0.4640625
50
136.783148
51
155.2472683
0
ARC
8
DEFAULT_255_1_234
10
14.0297144
20
70.9348562
40
0.4130255
50
121.7633186
51
136.428115
0
ARC
8
DEFAULT_255_1_234
10
14.0432106
20
70.9099227
40
0.4413323
50
95.6459699
51
121.5490577
0
ARC
8
DEFAULT_255_1_234
10
14.0589388
20
70.7990949
40
0.55319
50
89.924208
51
96.1377933
0
ARC
8
DEFAULT_255_1_234
10
14.0639821
20
70.8109542
40
0.5413475
50
76.6779277
51
90.4563316
0
ARC
8
DEFAULT_255_1_234
10
14.1033444
20
70.9700114
40
0.3775041
50
47.485847
51
76.9287264
0
ARC
8
DEFAULT_255_1_234
10
14.0886417
20
70.9600159
40
0.3948286
50
16.5424086
51
46.8933463
0
ARC
8
DEFAULT_255_1_234
10
13.9278574
20
70.9071861
40
0.564021
50
5.4072051
51
17.0365086
0
ARC
8
DEFAULT_255_1_234
10
13.7839591
20
70.8840679
40
0.5556559
50
7.8891745
51
15.9239216
0
ARC
8
DEFAULT_255_1_234
10
13.9826605
20
70.9417631
40
0.3487515
50
15.7653144
51
27.9410532
0
ARC
8
DEFAULT_255_1_234
10
14.0930822
20
71.000879
40
0.2235026
50
27.8166557
51
46.4008329
0
ARC
8
DEFAULT_255_1_234
10
14.0980465
20
71.0003082
40
0.2205286
50
47.4371857
51
75.0698205
0
ARC
8
DEFAULT_255_1_234
10
14.067186
20
70.8928765
40
0.3322915
50
74.7008593
51
87.8124495
0
ARC
8
DEFAULT_255_1_234
10
14.0598547
20
70.7872844
40
0.4380987
50
87.3814673
51
90.0240855
0
ARC
8
DEFAULT_255_1_234
10
14.0560091
20
70.9050291
40
0.3203749
50
89.3451631
51
108.5745436
0
ARC
8
DEFAULT_255_1_234
10
14.0423196
20
70.9563908
40
0.2673494
50
109.2998449
51
143.3037509
0
ARC
8
DEFAULT_255_1_234
10
14.1185268
20
70.8977881
40
0.3634757
50
143.0753173
51
163.1916937
0
ARC
8
DEFAULT_255_1_234
10
14.3136996
20
70.8361967
40
0.5681262
50
162.9373603
51
174.6208611
0
ARC
8
DEFAULT_255_1_234
10
14.5763038
20
70.807401
40
0.8322832
50
174.3419979
51
180.1430411
0
ARC
8
DEFAULT_255_1_234
10
14.4832194
20
70.6879698
40
0.7392076
50
179.6817502
51
189.150529
0
ARC
8
DEFAULT_255_1_234
10
14.2331443
20
70.646319
40
0.4856932
50
188.9910863
51
203.5773039
0
ARC
8
DEFAULT_255_1_234
10
14.1251775
20
70.6015211
40
0.3688271
50
203.9077269
51
215.1312379
0
ARC
8
DEFAULT_255_1_234
10
14.0328869
20
70.5299941
40
0.2522457
50
213.9071664
51
263.8849284
0
ARC
8
DEFAULT_255_1_234
10
14.0454198
20
70.6084518
40
0.3316174
50
263.1758525
51
270.1031083
0
ARC
8
DEFAULT_255_1_234
10
14.048629
20
70.7331365
40
0.4563091
50
269.6719807
51
279.0609165
0
ARC
8
DEFAULT_255_1_234
10
14.0753058
20
70.5718907
40
0.2928759
50
278.8750225
51
293.6346586
0
ARC
8
DEFAULT_255_1_234
10
14.1073266
20
70.49669
40
0.2111472
50
293.8553404
51
310.0518804
0
ARC
8
DEFAULT_255_1_234
10
14.107812
20
70.4904516
40
0.2060917
50
311.0646779
51
332.0108348
0
ARC
8
DEFAULT_255_1_234
10
13.9885847
20
70.5561978
40
0.3422352
50
331.6588543
51
343.2878891
0
ARC
8
DEFAULT_255_1_234
10
13.7823362
20
70.6195798
40
0.5580003
50
343.1446044
51
351.010618
0
ARC
8
DEFAULT_255_1_234
10
13.6282008
20
70.6476871
40
0.7146438
50
350.7157277
51
351.1602153
0
LINE
8
DEFAULT_255_1_234
10
15.8828751
20
70.9980849
11
15.7278626
21
70.9980849
0
LINE
8
DEFAULT_255_1_234
10
15.0355268
20
70.5057394
11
15.1905393
21
70.5057394
0
ARC
8
DEFAULT_255_1_234
10
15.7937439
20
71.8927768
40
1.252368
50
248.9199003
51
254.1439814
0
ARC
8
DEFAULT_255_1_234
10
15.6256934
20
71.4601234
40
0.788226
50
241.633709
51
249.0064503
0
ARC
8
DEFAULT_255_1_234
10
15.4728328
20
71.1800317
40
0.4691427
50
230.498225
51
241.8087113
0
ARC
8
DEFAULT_255_1_234
10
15.3943902
20
71.0800906
40
0.3421437
50
227.4064532
51
229.9881192
0
ARC
8
DEFAULT_255_1_234
10
15.3456423
20
71.0325088
40
0.2741476
50
200.6781896
51
228.1763934
0
ARC
8
DEFAULT_255_1_234
10
15.3528734
20
71.0310077
40
0.2804109
50
179.5061581
51
199.8694617
0
ARC
8
DEFAULT_255_1_234
10
15.3519485
20
71.038421
40
0.2795204
50
132.4834203
51
181.0242172
0
ARC
8
DEFAULT_255_1_234
10
15.4115068
20
70.9821704
40
0.3612768
50
129.2532479
51
133.4242687
0
ARC
8
DEFAULT_255_1_234
10
15.4261517
20
70.9601965
40
0.3875675
50
101.98776
51
128.8742646
0
ARC
8
DEFAULT_255_1_234
10
15.4660128
20
70.7880741
40
0.5642249
50
89.5906553
51
102.3169264
0
ARC
8
DEFAULT_255_1_234
10
15.473062
20
70.8199148
40
0.5323783
50
77.2360837
51
90.3248275
0
ARC
8
DEFAULT_255_1_234
10
15.4937699
20
70.91664
40
0.4334697
50
63.837784
51
77.0809408
0
ARC
8
DEFAULT_255_1_234
10
15.5215461
20
70.9683911
40
0.3747796
50
45.9864267
51
64.1607727
0
ARC
8
DEFAULT_255_1_234
10
15.5476342
20
70.9981866
40
0.3352302
50
32.2747395
51
45.6547121
0
ARC
8
DEFAULT_255_1_234
10
15.5542783
20
71.000088
40
0.328603
50
359.6507365
51
32.6130309
0
ARC
8
DEFAULT_255_1_234
10
15.4599878
20
71.000566
40
0.2678863
50
359.469343
51
14.9832209
0
ARC
8
DEFAULT_255_1_234
10
15.5304941
20
71.0194539
40
0.1948938
50
14.9781179
51
48.2004265
0
ARC
8
DEFAULT_255_1_234
10
15.5140585
20
70.9987983
40
0.2212521
50
48.5927837
51
74.1241538
0
ARC
8
DEFAULT_255_1_234
10
15.4807074
20
70.8887248
40
0.3362561
50
73.7888341
51
86.6652678
0
ARC
8
DEFAULT_255_1_234
10
15.470464
20
70.7679881
40
0.4573953
50
86.2640471
51
90.0526343
0
ARC
8
DEFAULT_255_1_234
10
15.4676352
20
70.8075192
40
0.4178709
50
89.6697524
51
99.2309573
0
ARC
8
DEFAULT_255_1_234
10
15.4433803
20
70.9519964
40
0.2713749
50
99.069534
51
113.7658566
0
ARC
8
DEFAULT_255_1_234
10
15.4159994
20
71.0165677
40
0.2012469
50
114.0401004
51
127.9850673
0
ARC
8
DEFAULT_255_1_234
10
15.3919558
20
71.046173
40
0.1631167
50
127.7287463
51
176.7105154
0
ARC
8
DEFAULT_255_1_234
10
15.4598276
20
71.0360693
40
0.2315392
50
175.1779447
51
180.0581938
0
ARC
8
DEFAULT_255_1_234
10
15.3755123
20
71.0348428
40
0.1472271
50
179.6142195
51
228.1246017
0
ARC
8
DEFAULT_255_1_234
10
15.4196791
20
71.0757308
40
0.2072299
50
226.5779593
51
230.8800004
0
ARC
8
DEFAULT_255_1_234
10
15.466787
20
71.1382636
40
0.2854818
50
231.4635071
51
241.9260842
0
ARC
8
DEFAULT_255_1_234
10
15.5865048
20
71.35858
40
0.53622
50
241.7178533
51
248.3259551
0
ARC
8
DEFAULT_255_1_234
10
15.725042
20
71.7018064
40
0.9063478
50
248.2007737
51
252.4528373
0
ARC
8
DEFAULT_255_1_234
10
15.8454145
20
72.0739441
40
1.2974635
50
252.3391078
51
254.3469452
0
ARC
8
DEFAULT_255_1_234
10
15.0911847
20
69.3762148
40
1.5037162
50
71.0197183
51
74.4087047
0
ARC
8
DEFAULT_255_1_234
10
15.2606532
20
69.8654111
40
0.9859993
50
66.1847285
51
71.086374
0
ARC
8
DEFAULT_255_1_234
10
15.4162845
20
70.21582
40
0.6025855
50
59.3536294
51
66.2691831
0
ARC
8
DEFAULT_255_1_234
10
15.5051497
20
70.3661609
40
0.4279449
50
49.1020879
51
59.3293958
0
ARC
8
DEFAULT_255_1_234
10
15.5870237
20
70.4594834
40
0.3038015
50
32.7919921
51
49.2505539
0
ARC
8
DEFAULT_255_1_234
10
15.6191327
20
70.4823191
40
0.264448
50
31.1181161
51
32.4005348
0
ARC
8
DEFAULT_255_1_234
10
15.6102865
20
70.4787779
40
0.2738556
50
8.1116974
51
30.7958831
0
ARC
8
DEFAULT_255_1_234
10
15.5292533
20
70.4649753
40
0.3560327
50
359.8389159
51
8.4706516
0
ARC
8
DEFAULT_255_1_234
10
15.5918324
20
70.4601137
40
0.2934776
50
337.4731098
51
0.7537279
0
ARC
8
DEFAULT_255_1_234
10
15.6097019
20
70.4581387
40
0.2762607
50
307.5917067
51
336.4315538
0
ARC
8
DEFAULT_255_1_234
10
15.5636847
20
70.5094102
40
0.3449979
50
307.6551545
51
308.4529766
0
ARC
8
DEFAULT_255_1_234
10
15.5406566
20
70.544925
40
0.3871988
50
284.3734338
51
307.1424381
0
ARC
8
DEFAULT_255_1_234
10
15.4911396
20
70.7270932
40
0.5759636
50
272.4382747
51
284.646547
0
ARC
8
DEFAULT_255_1_234
10
15.4784605
20
70.9070893
40
0.7563528
50
269.9708387
51
272.8178037
0
ARC
8
DEFAULT_255_1_234
10
15.4741645
20
70.7032716
40
0.5525489
50
248.2707594
51
270.4055579
0
ARC
8
DEFAULT_255_1_234
10
15.4687386
20
70.6842192
40
0.5328452
50
246.1383403
51
248.0542782
0
ARC
8
DEFAULT_255_1_234
10
15.4268765
20
70.5962843
40
0.4355005
50
233.1670131
51
246.4950969
0
ARC
8
DEFAULT_255_1_234
10
15.371467
20
70.5214812
40
0.3424126
50
215.3403242
51
233.0843104
0
ARC
8
DEFAULT_255_1_234
10
15.3442101
20
70.5016549
40
0.3087104
50
179.2419209
51
215.2648451
0
ARC
8
DEFAULT_255_1_234
10
15.4209695
20
70.5030666
40
0.2304457
50
179.335461
51
199.1045811
0
ARC
8
DEFAULT_255_1_234
10
15.3877371
20
70.4943766
40
0.1962176
50
199.8828939
51
232.7063202
0
ARC
8
DEFAULT_255_1_234
10
15.434964
20
70.5537788
40
0.2720938
50
232.3738199
51
255.5136649
0
ARC
8
DEFAULT_255_1_234
10
15.4690506
20
70.6781835
40
0.4010747
50
255.2446292
51
267.5320849
0
ARC
8
DEFAULT_255_1_234
10
15.477813
20
70.8014702
40
0.5246356
50
267.1557994
51
270.0286766
0
ARC
8
DEFAULT_255_1_234
10
15.4805902
20
70.757095
40
0.4802668
50
269.7000017
51
278.1660162
0
ARC
8
DEFAULT_255_1_234
10
15.5061907
20
70.5840515
40
0.3053425
50
278.0231263
51
290.625471
0
ARC
8
DEFAULT_255_1_234
10
15.5409594
20
70.4913025
40
0.206291
50
290.6619762
51
307.0370976
0
ARC
8
DEFAULT_255_1_234
10
15.5709983
20
70.4544504
40
0.1587906
50
306.3943566
51
355.3030547
0
ARC
8
DEFAULT_255_1_234
10
15.5197914
20
70.4621113
40
0.2104809
50
354.3660432
51
0.0698737
0
ARC
8
DEFAULT_255_1_234
10
15.534026
20
70.4643617
40
0.1962563
50
359.417946
51
16.1971788
0
ARC
8
DEFAULT_255_1_234
10
15.579557
20
70.4768418
40
0.149053
50
16.4723299
51
52.6262157
0
ARC
8
DEFAULT_255_1_234
10
15.4974624
20
70.3684433
40
0.2850296
50
52.7386432
51
62.4979148
0
ARC
8
DEFAULT_255_1_234
10
15.3589701
20
70.1078283
40
0.5801521
50
62.2515216
51
68.1220564
0
ARC
8
DEFAULT_255_1_234
10
15.1869612
20
69.6850872
40
1.0365451
50
68.0062803
51
71.8053402
0
ARC
8
DEFAULT_255_1_234
10
15.0073983
20
69.1465758
40
1.6042013
50
71.7183119
51
73.9258742
0
LINE
8
DEFAULT_255_1_234
10
16.7992965
20
71.3362211
11
16.7992965
21
71.252691
0
LINE
8
DEFAULT_255_1_234
10
16.7992965
20
71.252691
11
16.3149827
21
70.1668
0
LINE
8
DEFAULT_255_1_234
10
16.3149827
20
70.1668
11
16.1591669
21
70.1668
0
LINE
8
DEFAULT_255_1_234
10
16.1591669
20
70.1668
11
16.6418744
21
71.2141387
0
LINE
8
DEFAULT_255_1_234
10
16.6418744
20
71.2141387
11
16.0089734
21
71.2141387
0
LINE
8
DEFAULT_255_1_234
10
16.0089734
20
71.2141387
11
16.0089734
21
71.3362211
0
LINE
8
DEFAULT_255_1_234
10
16.0089734
20
71.3362211
11
16.7992965
21
71.3362211
0
LINE
8
DEFAULT_255_1_234
10
17.2924452
20
70.7242026
11
17.2924452
21
70.6029234
0
LINE
8
DEFAULT_255_1_234
10
17.2924452
20
70.6029234
11
16.9004964
21
70.6029234
0
LINE
8
DEFAULT_255_1_234
10
16.9004964
20
70.6029234
11
16.9004964
21
70.7242026
0
LINE
8
DEFAULT_255_1_234
10
16.9004964
20
70.7242026
11
17.2924452
21
70.7242026
0
LINE
8
DEFAULT_255_1_234
10
17.63781
20
70.7025169
11
17.63781
21
70.8237962
0
LINE
8
DEFAULT_255_1_234
10
17.63781
20
70.8237962
11
17.7494511
21
70.8237962
0
LINE
8
DEFAULT_255_1_234
10
17.5590989
20
71.0294087
11
17.4105118
21
71.0294087
0
LINE
8
DEFAULT_255_1_234
10
17.4000705
20
70.4752188
11
17.5494608
21
70.4752188
0
LINE
8
DEFAULT_255_1_234
10
17.7494511
20
70.7025169
11
17.63781
21
70.7025169
0
ARC
8
DEFAULT_255_1_234
10
17.7465378
20
71.1630713
40
0.3392876
50
270.4919872
51
281.8951556
0
ARC
8
DEFAULT_255_1_234
10
17.7706639
20
71.0528702
40
0.2264817
50
281.6691735
51
301.2943132
0
ARC
8
DEFAULT_255_1_234
10
17.787685
20
71.0217304
40
0.1910381
50
301.7833094
51
311.7545298
0
ARC
8
DEFAULT_255_1_234
10
17.7968425
20
71.0115748
40
0.1773635
50
311.7323931
51
354.2802411
0
ARC
8
DEFAULT_255_1_234
10
17.7242051
20
71.0240722
40
0.2509385
50
353.0937916
51
0.1181479
0
ARC
8
DEFAULT_255_1_234
10
17.6780835
20
71.0288386
40
0.2970898
50
359.1805295
51
15.0453146
0
ARC
8
DEFAULT_255_1_234
10
17.8126672
20
71.0680992
40
0.1569564
50
13.9577229
51
77.6713066
0
ARC
8
DEFAULT_255_1_234
10
17.7740202
20
70.9295949
40
0.3006298
50
76.1116566
51
90.7026153
0
ARC
8
DEFAULT_255_1_234
10
17.768104
20
70.9569545
40
0.2732568
50
89.5324876
51
103.531937
0
ARC
8
DEFAULT_255_1_234
10
17.7480484
20
71.0368884
40
0.1908508
50
103.2931773
51
133.5619022
0
ARC
8
DEFAULT_255_1_234
10
17.7435972
20
71.0428375
40
0.1834746
50
133.8349307
51
173.5344437
0
ARC
8
DEFAULT_255_1_234
10
17.8159015
20
71.0300213
40
0.2568033
50
172.5096846
51
180.1366907
0
ARC
8
DEFAULT_255_1_234
10
17.7207909
20
71.0334622
40
0.3103056
50
155.3484492
51
180.7484736
0
ARC
8
DEFAULT_255_1_234
10
17.7158998
20
71.0305846
40
0.3070957
50
131.5744599
51
154.4798489
0
ARC
8
DEFAULT_255_1_234
10
17.7472146
20
70.998931
40
0.3515643
50
96.9875458
51
131.9690667
0
ARC
8
DEFAULT_255_1_234
10
17.7691626
20
70.8743636
40
0.4779224
50
89.8596053
51
97.7825159
0
ARC
8
DEFAULT_255_1_234
10
17.7739689
20
70.8481616
40
0.5041361
50
78.3655447
51
90.4131539
0
ARC
8
DEFAULT_255_1_234
10
17.8097607
20
71.0140887
40
0.3344039
50
56.6229102
51
78.638727
0
ARC
8
DEFAULT_255_1_234
10
17.831255
20
71.0516805
40
0.2912001
50
47.0253525
51
56.0854072
0
ARC
8
DEFAULT_255_1_234
10
17.833233
20
71.0556223
40
0.2869704
50
10.9208013
51
46.7778124
0
ARC
8
DEFAULT_255_1_234
10
17.6968397
20
71.0240857
40
0.426899
50
359.6364486
51
11.6087304
0
ARC
8
DEFAULT_255_1_234
10
17.8803241
20
71.0225752
40
0.243409
50
332.3549906
51
359.7179418
0
ARC
8
DEFAULT_255_1_234
10
17.8152842
20
71.0534142
40
0.3153459
50
325.2333722
51
332.8745602
0
ARC
8
DEFAULT_255_1_234
10
17.8305466
20
71.0427828
40
0.2967456
50
292.9802137
51
325.2392345
0
ARC
8
DEFAULT_255_1_234
10
17.803084
20
71.0961863
40
0.3566604
50
292.5402179
51
293.6924929
0
ARC
8
DEFAULT_255_1_234
10
17.8423436
20
70.4507091
40
0.3307468
50
57.6435486
51
72.8625112
0
ARC
8
DEFAULT_255_1_234
10
17.8777936
20
70.5081549
40
0.2632492
50
36.7248896
51
57.4697979
0
ARC
8
DEFAULT_255_1_234
10
17.8766568
20
70.509422
40
0.2634081
50
8.0545065
51
36.356114
0
ARC
8
DEFAULT_255_1_234
10
17.7903754
20
70.4939174
40
0.3510261
50
359.8320645
51
8.5869982
0
ARC
8
DEFAULT_255_1_234
10
17.752853
20
70.4891101
40
0.3885653
50
343.9829931
51
0.5571613
0
ARC
8
DEFAULT_255_1_234
10
17.8414727
20
70.4648438
40
0.2966924
50
311.6359546
51
343.7651759
0
ARC
8
DEFAULT_255_1_234
10
17.8036296
20
70.5075102
40
0.3537231
50
279.7829875
51
311.6255694
0
ARC
8
DEFAULT_255_1_234
10
17.7735072
20
70.651228
40
0.5004971
50
269.7286406
51
280.3856417
0
ARC
8
DEFAULT_255_1_234
10
17.7673145
20
70.6470996
40
0.4963778
50
256.6828919
51
270.4412052
0
ARC
8
DEFAULT_255_1_234
10
17.7334441
20
70.5086394
40
0.3538406
50
229.4223008
51
256.8556159
0
ARC
8
DEFAULT_255_1_234
10
17.6919834
20
70.4619736
40
0.2914296
50
181.818294
51
229.6455059
0
ARC
8
DEFAULT_255_1_234
10
17.795979
20
70.4750496
40
0.3959084
50
179.9755256
51
183.2323064
0
ARC
8
DEFAULT_255_1_234
10
17.7787536
20
70.4730037
40
0.2293034
50
179.4465117
51
196.2869258
0
ARC
8
DEFAULT_255_1_234
10
17.7299944
20
70.4596651
40
0.1787621
50
196.5661473
51
227.705904
0
ARC
8
DEFAULT_255_1_234
10
17.7464038
20
70.4780155
40
0.2033784
50
227.7652068
51
257.8762805
0
ARC
8
DEFAULT_255_1_234
10
17.7689009
20
70.5723156
40
0.3003081
50
257.4584385
51
270.426602
0
ARC
8
DEFAULT_255_1_234
10
17.7734575
20
70.6012996
40
0.329292
50
269.5962073
51
280.8789248
0
ARC
8
DEFAULT_255_1_234
10
17.7964104
20
70.4866685
40
0.2123908
50
280.6346389
51
299.8595945
0
ARC
8
DEFAULT_255_1_234
10
17.815501
20
70.4504212
40
0.171457
50
300.3576302
51
314.5517981
0
ARC
8
DEFAULT_255_1_234
10
17.807207
20
70.4564919
40
0.1816095
50
315.0728369
51
345.0431014
0
ARC
8
DEFAULT_255_1_234
10
17.7148885
20
70.4833841
40
0.2777492
50
344.5986631
51
357.9269593
0
ARC
8
DEFAULT_255_1_234
10
17.6253211
20
70.4895276
40
0.3674917
50
357.4748886
51
0.0231117
0
ARC
8
DEFAULT_255_1_234
10
17.727632
20
70.4919679
40
0.2651907
50
359.5047933
51
13.4239635
0
ARC
8
DEFAULT_255_1_234
10
17.8142964
20
70.5141478
40
0.1757509
50
12.9498199
51
48.7551375
0
ARC
8
DEFAULT_255_1_234
10
17.7960698
20
70.48924
40
0.2065134
50
49.5088623
51
72.1836453
0
ARC
8
DEFAULT_255_1_234
10
17.760285
20
70.3830291
40
0.3185836
50
71.9010081
51
84.3554254
0
ARC
8
DEFAULT_255_1_234
10
17.7441482
20
70.2469326
40
0.4556151
50
84.0193428
51
89.333121
0
LINE
8
DEFAULT_255_1_234
10
19.0787038
20
70.8583327
11
19.0787038
21
70.6655709
0
LINE
8
DEFAULT_255_1_234
10
18.3405871
20
70.6454916
11
18.3405871
21
70.8438755
0
LINE
8
DEFAULT_255_1_234
10
18.9301167
20
70.6254123
11
18.9301167
21
70.8687739
0
LINE
8
DEFAULT_255_1_234
10
18.4891742
20
70.8800184
11
18.4891742
21
70.6422789
0
ARC
8
DEFAULT_255_1_234
10
17.8539928
20
70.6606805
40
1.2247208
50
353.8441951
51
0.2287902
0
ARC
8
DEFAULT_255_1_234
10
18.3179431
20
70.6088806
40
0.7578929
50
344.4934747
51
353.9765454
0
ARC
8
DEFAULT_255_1_234
10
18.6172022
20
70.5237981
40
0.4467846
50
329.2803592
51
344.7472793
0
ARC
8
DEFAULT_255_1_234
10
18.7164846
20
70.4693018
40
0.3336173
50
324.9352394
51
328.6160465
0
ARC
8
DEFAULT_255_1_234
10
18.7541955
20
70.4429427
40
0.2876076
50
280.580143
51
324.9173126
0
ARC
8
DEFAULT_255_1_234
10
18.7140748
20
70.6100099
40
0.4592847
50
269.5977311
51
281.6734359
0
ARC
8
DEFAULT_255_1_234
10
18.7068653
20
70.5980173
40
0.4472986
50
256.6228859
51
270.51044
0
ARC
8
DEFAULT_255_1_234
10
18.6666631
20
70.4431877
40
0.2873874
50
215.8618325
51
257.2788573
0
ARC
8
DEFAULT_255_1_234
10
18.7687663
20
70.5116977
40
0.4102928
50
197.9693508
51
215.2623606
0
ARC
8
DEFAULT_255_1_234
10
19.0172778
20
70.5955709
40
0.6725652
50
187.8816417
51
198.2346507
0
ARC
8
DEFAULT_255_1_234
10
19.4130987
20
70.6527079
40
1.0724845
50
180.8976217
51
188.0055519
0
ARC
8
DEFAULT_255_1_234
10
19.6931175
20
70.6630777
40
1.3526448
50
180.7449369
51
181.1510016
0
ARC
8
DEFAULT_255_1_234
10
19.5353904
20
70.8487042
40
1.1948131
50
173.7675579
51
180.231553
0
ARC
8
DEFAULT_255_1_234
10
19.083605
20
70.8997666
40
0.7401564
50
164.3058563
51
173.9002247
0
ARC
8
DEFAULT_255_1_234
10
18.7924119
20
70.9836656
40
0.4371288
50
148.7922025
51
164.568378
0
ARC
8
DEFAULT_255_1_234
10
18.6972571
20
71.0367929
40
0.3282386
50
144.5883898
51
148.1176286
0
ARC
8
DEFAULT_255_1_234
10
18.6629469
20
71.0607315
40
0.2864044
50
101.6440918
51
144.514236
0
ARC
8
DEFAULT_255_1_234
10
18.7054536
20
70.8918069
40
0.4604934
50
89.5284041
51
102.5819763
0
ARC
8
DEFAULT_255_1_234
10
18.7133624
20
70.8879018
40
0.464401
50
77.0437873
51
90.5081339
0
ARC
8
DEFAULT_255_1_234
10
18.7535626
20
71.0521615
40
0.2953195
50
48.2778575
51
77.4994676
0
ARC
8
DEFAULT_255_1_234
10
18.7608257
20
71.0650746
40
0.2808655
50
36.3142134
51
47.6305865
0
ARC
8
DEFAULT_255_1_234
10
18.6739564
20
71.0065515
40
0.3855453
50
18.2931786
51
35.6769206
0
ARC
8
DEFAULT_255_1_234
10
18.4196323
20
70.9192593
40
0.654423
50
8.024666
51
18.5605216
0
ARC
8
DEFAULT_255_1_234
10
18.0033243
20
70.8577792
40
1.0752407
50
1.1274072
51
8.1718305
0
ARC
8
DEFAULT_255_1_234
10
17.6797433
20
70.8450885
40
1.3990231
50
0.5424119
51
1.3863029
0
ARC
8
DEFAULT_255_1_234
10
17.8618811
20
70.8723342
40
1.0682415
50
359.8090433
51
4.9407866
0
ARC
8
DEFAULT_255_1_234
10
18.2828825
20
70.9099113
40
0.6455691
50
4.8362157
51
12.2904523
0
ARC
8
DEFAULT_255_1_234
10
18.558394
20
70.9712965
40
0.3633074
50
12.0805627
51
23.8173984
0
ARC
8
DEFAULT_255_1_234
10
18.6757645
20
71.0209919
40
0.2358723
50
24.2871213
51
31.3935614
0
ARC
8
DEFAULT_255_1_234
10
18.7282342
20
71.0553233
40
0.1732111
50
30.7407893
51
82.4657128
0
ARC
8
DEFAULT_255_1_234
10
18.7102477
20
70.9669691
40
0.263235
50
81.1060089
51
90.2184952
0
ARC
8
DEFAULT_255_1_234
10
18.7066776
20
70.9927924
40
0.2374236
50
89.3806855
51
105.6762551
0
ARC
8
DEFAULT_255_1_234
10
18.6883406
20
71.0594567
40
0.1682847
50
105.7981136
51
149.7388061
0
ARC
8
DEFAULT_255_1_234
10
18.7947485
20
70.995495
40
0.2924306
50
149.4208916
51
163.6286378
0
ARC
8
DEFAULT_255_1_234
10
19.0038373
20
70.931725
40
0.5110213
50
163.3763315
51
172.1410975
0
ARC
8
DEFAULT_255_1_234
10
19.3339092
20
70.8844518
40
0.8444586
50
172.0259487
51
178.0703232
0
ARC
8
DEFAULT_255_1_234
10
19.6369181
20
70.8700906
40
1.1477868
50
177.8631668
51
179.5044149
0
ARC
8
DEFAULT_255_1_234
10
19.5296586
20
70.6386389
40
1.0404907
50
179.7995573
51
185.2460446
0
ARC
8
DEFAULT_255_1_234
10
19.1253625
20
70.6003513
40
0.6343885
50
185.1411642
51
193.0079639
0
ARC
8
DEFAULT_255_1_234
10
18.8610097
20
70.5378641
40
0.3627568
50
192.7897626
51
205.2507664
0
ARC
8
DEFAULT_255_1_234
10
18.7563644
20
70.4911415
40
0.2481908
50
205.8005384
51
211.2537509
0
ARC
8
DEFAULT_255_1_234
10
18.7040085
20
70.456058
40
0.1852521
50
210.3789793
51
238.4008143
0
ARC
8
DEFAULT_255_1_234
10
18.7020607
20
70.4607376
40
0.1882621
50
239.6520629
51
265.9793761
0
ARC
8
DEFAULT_255_1_234
10
18.7105807
20
70.5279427
40
0.2559272
50
265.1315437
51
270.060332
0
ARC
8
DEFAULT_255_1_234
10
18.7134586
20
70.4955534
40
0.2235528
50
269.3314664
51
287.2178029
0
ARC
8
DEFAULT_255_1_234
10
18.7272438
20
70.4452279
40
0.1714108
50
287.7958004
51
329.080874
0
ARC
8
DEFAULT_255_1_234
10
18.6314894
20
70.504993
40
0.2842745
50
328.6634704
51
343.3325132
0
ARC
8
DEFAULT_255_1_234
10
18.4141915
20
70.5726863
40
0.5118644
50
343.0499468
51
351.9393422
0
ARC
8
DEFAULT_255_1_234
10
18.0675215
20
70.6237949
40
0.8622784
50
351.8069023
51
357.7959224
0
ARC
8
DEFAULT_255_1_234
10
17.7439771
20
70.6405721
40
1.1862365
50
357.5871873
51
359.2677531
0
LINE
8
DEFAULT_255_1_234
10
20.0023537
20
70.8583327
11
20.0023537
21
70.6655709
0
LINE
8
DEFAULT_255_1_234
10
19.264237
20
70.6454916
11
19.264237
21
70.8438755
0
LINE
8
DEFAULT_255_1_234
10
19.8537666
20
70.6254123
11
19.8537666
21
70.8687739
0
LINE
8
DEFAULT_255_1_234
10
19.4128241
20
70.8800184
11
19.4128241
21
70.6422789
0
ARC
8
DEFAULT_255_1_234
10
18.7776427
20
70.6606805
40
1.2247208
50
353.8441951
51
0.2287902
0
ARC
8
DEFAULT_255_1_234
10
19.241593
20
70.6088806
40
0.7578929
50
344.4934747
51
353.9765454
0
ARC
8
DEFAULT_255_1_234
10
19.5408521
20
70.5237981
40
0.4467846
50
329.2803592
51
344.7472793
0
ARC
8
DEFAULT_255_1_234
10
19.6401345
20
70.4693018
40
0.3336173
50
324.9352394
51
328.6160465
0
ARC
8
DEFAULT_255_1_234
10
19.6778454
20
70.4429427
40
0.2876076
50
280.580143
51
324.9173126
0
ARC
8
DEFAULT_255_1_234
10
19.6377247
20
70.6100099
40
0.4592847
50
269.5977311
51
281.6734359
0
ARC
8
DEFAULT_255_1_234
10
19.6305152
20
70.5980173
40
0.4472986
50
256.6228859
51
270.51044
0
ARC
8
DEFAULT_255_1_234
10
19.590313
20
70.4431877
40
0.2873874
50
215.8618325
51
257.2788573
0
ARC
8
DEFAULT_255_1_234
10
19.6924162
20
70.5116977
40
0.4102928
50
197.9693508
51
215.2623606
0
ARC
8
DEFAULT_255_1_234
10
19.9409277
20
70.5955709
40
0.6725652
50
187.8816417
51
198.2346507
0
ARC
8
DEFAULT_255_1_234
10
20.3367486
20
70.6527079
40
1.0724845
50
180.8976217
51
188.0055519
0
ARC
8
DEFAULT_255_1_234
10
20.6167674
20
70.6630777
40
1.3526448
50
180.7449369
51
181.1510016
0
ARC
8
DEFAULT_255_1_234
10
20.4590403
20
70.8487042
40
1.1948131
50
173.7675579
51
180.231553
0
ARC
8
DEFAULT_255_1_234
10
20.0072549
20
70.8997666
40
0.7401564
50
164.3058563
51
173.9002247
0
ARC
8
DEFAULT_255_1_234
10
19.7160618
20
70.9836656
40
0.4371288
50
148.7922025
51
164.568378
0
ARC
8
DEFAULT_255_1_234
10
19.620907
20
71.0367929
40
0.3282386
50
144.5883898
51
148.1176286
0
ARC
8
DEFAULT_255_1_234
10
19.5865968
20
71.0607315
40
0.2864044
50
101.6440918
51
144.514236
0
ARC
8
DEFAULT_255_1_234
10
19.6291035
20
70.8918069
40
0.4604934
50
89.5284041
51
102.5819763
0
ARC
8
DEFAULT_255_1_234
10
19.6370123
20
70.8879018
40
0.464401
50
77.0437873
51
90.5081339
0
ARC
8
DEFAULT_255_1_234
10
19.6772125
20
71.0521615
40
0.2953195
50
48.2778575
51
77.4994676
0
ARC
8
DEFAULT_255_1_234
10
19.6844756
20
71.0650746
40
0.2808655
50
36.3142134
51
47.6305865
0
ARC
8
DEFAULT_255_1_234
10
19.5976063
20
71.0065515
40
0.3855453
50
18.2931786
51
35.6769206
0
ARC
8
DEFAULT_255_1_234
10
19.3432822
20
70.9192593
40
0.654423
50
8.024666
51
18.5605216
0
ARC
8
DEFAULT_255_1_234
10
18.9269742
20
70.8577792
40
1.0752407
50
1.1274072
51
8.1718305
0
ARC
8
DEFAULT_255_1_234
10
18.6033932
20
70.8450885
40
1.3990231
50
0.5424119
51
1.3863029
0
ARC
8
DEFAULT_255_1_234
10
18.785531
20
70.8723342
40
1.0682415
50
359.8090433
51
4.9407866
0
ARC
8
DEFAULT_255_1_234
10
19.2065324
20
70.9099113
40
0.6455691
50
4.8362157
51
12.2904523
0
ARC
8
DEFAULT_255_1_234
10
19.4820439
20
70.9712965
40
0.3633074
50
12.0805627
51
23.8173984
0
ARC
8
DEFAULT_255_1_234
10
19.5994144
20
71.0209919
40
0.2358723
50
24.2871213
51
31.3935614
0
ARC
8
DEFAULT_255_1_234
10
19.6518841
20
71.0553233
40
0.1732111
50
30.7407893
51
82.4657128
0
ARC
8
DEFAULT_255_1_234
10
19.6338976
20
70.9669691
40
0.263235
50
81.1060089
51
90.2184952
0
ARC
8
DEFAULT_255_1_234
10
19.6303275
20
70.9927924
40
0.2374236
50
89.3806855
51
105.6762551
0
ARC
8
DEFAULT_255_1_234
10
19.6119905
20
71.0594567
40
0.1682847
50
105.7981136
51
149.7388061
0
ARC
8
DEFAULT_255_1_234
10
19.7183984
20
70.995495
40
0.2924306
50
149.4208916
51
163.6286378
0
ARC
8
DEFAULT_255_1_234
10
19.9274872
20
70.931725
40
0.5110213
50
163.3763315
51
172.1410975
0
ARC
8
DEFAULT_255_1_234
10
20.2575591
20
70.8844518
40
0.8444586
50
172.0259487
51
178.0703232
0
ARC
8
DEFAULT_255_1_234
10
20.560568
20
70.8700906
40
1.1477868
50
177.8631668
51
179.5044149
0
ARC
8
DEFAULT_255_1_234
10
20.4533085
20
70.6386389
40
1.0404907
50
179.7995573
51
185.2460446
0
ARC
8
DEFAULT_255_1_234
10
20.0490124
20
70.6003513
40
0.6343885
50
185.1411642
51
193.0079639
0
ARC
8
DEFAULT_255_1_234
10
19.7846596
20
70.5378641
40
0.3627568
50
192.7897626
51
205.2507664
0
ARC
8
DEFAULT_255_1_234
10
19.6800143
20
70.4911415
40
0.2481908
50
205.8005384
51
211.2537509
0
ARC
8
DEFAULT_255_1_234
10
19.6276584
20
70.456058
40
0.1852521
50
210.3789793
51
238.4008143
0
ARC
8
DEFAULT_255_1_234
10
19.6257106
20
70.4607376
40
0.1882621
50
239.6520629
51
265.9793761
0
ARC
8
DEFAULT_255_1_234
10
19.6342306
20
70.5279427
40
0.2559272
50
265.1315437
51
270.060332
0
ARC
8
DEFAULT_255_1_234
10
19.6371085
20
70.4955534
40
0.2235528
50
269.3314664
51
287.2178029
0
ARC
8
DEFAULT_255_1_234
10
19.6508937
20
70.4452279
40
0.1714108
50
287.7958004
51
329.080874
0
ARC
8
DEFAULT_255_1_234
10
19.5551394
20
70.504993
40
0.2842745
50
328.6634704
51
343.3325132
0
ARC
8
DEFAULT_255_1_234
10
19.3378414
20
70.5726863
40
0.5118644
50
343.0499468
51
351.9393422
0
ARC
8
DEFAULT_255_1_234
10
18.9911714
20
70.6237949
40
0.8622784
50
351.8069023
51
357.7959224
0
ARC
8
DEFAULT_255_1_234
10
18.667627
20
70.6405721
40
1.1862365
50
357.5871873
51
359.2677531
0
LINE
8
DEFAULT_255_2_778
10
9.3926834
20
35.6285333
11
12.0384834
21
35.6285333
0
LINE
8
DEFAULT_255_2_778
10
12.0384834
20
35.6285333
11
12.0384834
21
30.3368333
0
LINE
8
DEFAULT_255_2_778
10
12.0384834
20
30.3368333
11
9.3926834
21
30.3368333
0
LINE
8
DEFAULT_255_2_778
10
9.3926834
20
30.3368333
11
9.3926834
21
35.6285333
0
LINE
8
DEFAULT_255_2_778
10
10.1865
20
30.8660666
11
10.1865
21
35.0993666
0
LINE
8
DEFAULT_255_2_778
10
9.9219167
20
34.305675
11
10.1865167
21
35.099375
0
LINE
8
DEFAULT_255_2_778
10
10.1865167
20
35.099375
11
10.4511167
21
34.305675
0
LINE
8
DEFAULT_255_2_778
10
10.4511167
20
34.305675
11
9.9219167
21
34.305675
0
LINE
8
DEFAULT_255_2_778
10
11.2448
20
35.0993666
11
11.2448
21
30.8660666
0
LINE
8
DEFAULT_255_2_778
10
10.9802167
20
31.659775
11
11.2448167
21
30.866075
0
LINE
8
DEFAULT_255_2_778
10
11.2448167
20
30.866075
11
11.5094167
21
31.659775
0
LINE
8
DEFAULT_255_2_778
10
11.5094167
20
31.659775
11
10.9802167
21
31.659775
0
LINE
8
DEFAULT_255_2_778
10
9.3927417
20
60.7639492
11
10.7156417
21
60.7639492
0
LINE
8
DEFAULT_255_2_778
10
10.7156417
20
60.7639492
11
10.7156417
21
35.6285492
0
LINE
8
DEFAULT_255_2_778
10
10.7156417
20
30.3368492
11
10.7156417
21
5.2014492
0
LINE
8
DEFAULT_255_2_778
10
10.7156417
20
5.2014492
11
9.3927417
21
5.2014492
0
LINE
8
DEFAULT_255_1_234
10
4.2454489
20
69.3098211
11
4.2454489
21
68.2664983
0
LINE
8
DEFAULT_255_1_234
10
4.2454489
20
68.2664983
11
4.7996389
21
68.2664983
0
LINE
8
DEFAULT_255_1_234
10
4.7996389
20
68.2664983
11
4.7996389
21
68.1404
0
LINE
8
DEFAULT_255_1_234
10
4.7996389
20
68.1404
11
4.0904364
21
68.1404
0
LINE
8
DEFAULT_255_1_234
10
4.0904364
20
68.1404
11
4.0904364
21
69.3098211
0
LINE
8
DEFAULT_255_1_234
10
4.0904364
20
69.3098211
11
4.2454489
21
69.3098211
0
LINE
8
DEFAULT_255_1_234
10
5.377924
20
69.1090276
11
5.377924
21
68.7676788
0
LINE
8
DEFAULT_255_1_234
10
5.377924
20
68.7676788
11
5.7040126
21
68.7676788
0
LINE
8
DEFAULT_255_1_234
10
5.7040126
20
68.7676788
11
5.7040126
21
68.6271233
0
LINE
8
DEFAULT_255_1_234
10
5.7040126
20
68.6271233
11
5.377924
21
68.6271233
0
LINE
8
DEFAULT_255_1_234
10
5.377924
20
68.6271233
11
5.377924
21
68.2576634
0
LINE
8
DEFAULT_255_1_234
10
5.377924
20
68.2576634
11
5.2285337
21
68.2576634
0
LINE
8
DEFAULT_255_1_234
10
5.2285337
20
68.2576634
11
5.2285337
21
68.6271233
0
LINE
8
DEFAULT_255_1_234
10
5.2285337
20
68.6271233
11
4.9024451
21
68.6271233
0
LINE
8
DEFAULT_255_1_234
10
4.9024451
20
68.6271233
11
4.9024451
21
68.7676788
0
LINE
8
DEFAULT_255_1_234
10
4.9024451
20
68.7676788
11
5.2285337
21
68.7676788
0
LINE
8
DEFAULT_255_1_234
10
5.2285337
20
68.7676788
11
5.2285337
21
69.1090276
0
LINE
8
DEFAULT_255_1_234
10
5.2285337
20
69.1090276
11
5.377924
21
69.1090276
0
LINE
8
DEFAULT_255_1_234
10
4.8204817
20
5.3319327
11
4.8204817
21
5.1391709
0
LINE
8
DEFAULT_255_1_234
10
4.082365
20
5.1190916
11
4.082365
21
5.3174755
0
LINE
8
DEFAULT_255_1_234
10
4.6718946
20
5.0990123
11
4.6718946
21
5.3423739
0
LINE
8
DEFAULT_255_1_234
10
4.2309521
20
5.3536184
11
4.2309521
21
5.1158789
0
ARC
8
DEFAULT_255_1_234
10
3.5957707
20
5.1342805
40
1.2247208
50
353.8441951
51
0.2287902
0
ARC
8
DEFAULT_255_1_234
10
4.0597211
20
5.0824806
40
0.7578929
50
344.4934747
51
353.9765454
0
ARC
8
DEFAULT_255_1_234
10
4.3589801
20
4.9973981
40
0.4467846
50
329.2803592
51
344.7472793
0
ARC
8
DEFAULT_255_1_234
10
4.4582626
20
4.9429018
40
0.3336173
50
324.9352394
51
328.6160465
0
ARC
8
DEFAULT_255_1_234
10
4.4959734
20
4.9165427
40
0.2876076
50
280.580143
51
324.9173126
0
ARC
8
DEFAULT_255_1_234
10
4.4558527
20
5.0836099
40
0.4592847
50
269.5977311
51
281.6734359
0
ARC
8
DEFAULT_255_1_234
10
4.4486433
20
5.0716173
40
0.4472986
50
256.6228859
51
270.51044
0
ARC
8
DEFAULT_255_1_234
10
4.408441
20
4.9167877
40
0.2873874
50
215.8618325
51
257.2788573
0
ARC
8
DEFAULT_255_1_234
10
4.5105442
20
4.9852977
40
0.4102928
50
197.9693508
51
215.2623606
0
ARC
8
DEFAULT_255_1_234
10
4.7590558
20
5.0691709
40
0.6725652
50
187.8816417
51
198.2346507
0
ARC
8
DEFAULT_255_1_234
10
5.1548766
20
5.1263079
40
1.0724845
50
180.8976217
51
188.0055519
0
ARC
8
DEFAULT_255_1_234
10
5.4348954
20
5.1366777
40
1.3526448
50
180.7449369
51
181.1510016
0
ARC
8
DEFAULT_255_1_234
10
5.2771683
20
5.3223042
40
1.1948131
50
173.7675579
51
180.231553
0
ARC
8
DEFAULT_255_1_234
10
4.825383
20
5.3733666
40
0.7401564
50
164.3058563
51
173.9002247
0
ARC
8
DEFAULT_255_1_234
10
4.5341899
20
5.4572656
40
0.4371288
50
148.7922025
51
164.568378
0
ARC
8
DEFAULT_255_1_234
10
4.4390351
20
5.5103929
40
0.3282386
50
144.5883898
51
148.1176286
0
ARC
8
DEFAULT_255_1_234
10
4.4047249
20
5.5343315
40
0.2864044
50
101.6440918
51
144.514236
0
ARC
8
DEFAULT_255_1_234
10
4.4472315
20
5.3654069
40
0.4604934
50
89.5284041
51
102.5819763
0
ARC
8
DEFAULT_255_1_234
10
4.4551403
20
5.3615018
40
0.464401
50
77.0437873
51
90.5081339
0
ARC
8
DEFAULT_255_1_234
10
4.4953405
20
5.5257615
40
0.2953195
50
48.2778575
51
77.4994676
0
ARC
8
DEFAULT_255_1_234
10
4.5026036
20
5.5386746
40
0.2808655
50
36.3142134
51
47.6305865
0
ARC
8
DEFAULT_255_1_234
10
4.4157343
20
5.4801515
40
0.3855453
50
18.2931786
51
35.6769206
0
ARC
8
DEFAULT_255_1_234
10
4.1614102
20
5.3928593
40
0.654423
50
8.024666
51
18.5605216
0
ARC
8
DEFAULT_255_1_234
10
3.7451022
20
5.3313792
40
1.0752407
50
1.1274072
51
8.1718305
0
ARC
8
DEFAULT_255_1_234
10
3.4215213
20
5.3186885
40
1.3990231
50
0.5424119
51
1.3863029
0
ARC
8
DEFAULT_255_1_234
10
3.603659
20
5.3459342
40
1.0682415
50
359.8090433
51
4.9407866
0
ARC
8
DEFAULT_255_1_234
10
4.0246604
20
5.3835113
40
0.6455691
50
4.8362157
51
12.2904523
0
ARC
8
DEFAULT_255_1_234
10
4.3001719
20
5.4448965
40
0.3633074
50
12.0805627
51
23.8173984
0
ARC
8
DEFAULT_255_1_234
10
4.4175425
20
5.4945919
40
0.2358723
50
24.2871213
51
31.3935614
0
ARC
8
DEFAULT_255_1_234
10
4.4700122
20
5.5289233
40
0.1732111
50
30.7407893
51
82.4657128
0
ARC
8
DEFAULT_255_1_234
10
4.4520256
20
5.4405691
40
0.263235
50
81.1060089
51
90.2184952
0
ARC
8
DEFAULT_255_1_234
10
4.4484555
20
5.4663924
40
0.2374236
50
89.3806855
51
105.6762551
0
ARC
8
DEFAULT_255_1_234
10
4.4301186
20
5.5330567
40
0.1682847
50
105.7981136
51
149.7388061
0
ARC
8
DEFAULT_255_1_234
10
4.5365264
20
5.469095
40
0.2924306
50
149.4208916
51
163.6286378
0
ARC
8
DEFAULT_255_1_234
10
4.7456152
20
5.405325
40
0.5110213
50
163.3763315
51
172.1410975
0
ARC
8
DEFAULT_255_1_234
10
5.0756871
20
5.3580518
40
0.8444586
50
172.0259487
51
178.0703232
0
ARC
8
DEFAULT_255_1_234
10
5.378696
20
5.3436906
40
1.1477868
50
177.8631668
51
179.5044149
0
ARC
8
DEFAULT_255_1_234
10
5.2714365
20
5.1122389
40
1.0404907
50
179.7995573
51
185.2460446
0
ARC
8
DEFAULT_255_1_234
10
4.8671404
20
5.0739513
40
0.6343885
50
185.1411642
51
193.0079639
0
ARC
8
DEFAULT_255_1_234
10
4.6027877
20
5.0114641
40
0.3627568
50
192.7897626
51
205.2507664
0
ARC
8
DEFAULT_255_1_234
10
4.4981424
20
4.9647415
40
0.2481908
50
205.8005384
51
211.2537509
0
ARC
8
DEFAULT_255_1_234
10
4.4457864
20
4.929658
40
0.1852521
50
210.3789793
51
238.4008143
0
ARC
8
DEFAULT_255_1_234
10
4.4438386
20
4.9343376
40
0.1882621
50
239.6520629
51
265.9793761
0
ARC
8
DEFAULT_255_1_234
10
4.4523586
20
5.0015427
40
0.2559272
50
265.1315437
51
270.060332
0
ARC
8
DEFAULT_255_1_234
10
4.4552365
20
4.9691534
40
0.2235528
50
269.3314664
51
287.2178029
0
ARC
8
DEFAULT_255_1_234
10
4.4690217
20
4.9188279
40
0.1714108
50
287.7958004
51
329.080874
0
ARC
8
DEFAULT_255_1_234
10
4.3732674
20
4.978593
40
0.2842745
50
328.6634704
51
343.3325132
0
ARC
8
DEFAULT_255_1_234
10
4.1559694
20
5.0462863
40
0.5118644
50
343.0499468
51
351.9393422
0
ARC
8
DEFAULT_255_1_234
10
3.8092994
20
5.0973949
40
0.8622784
50
351.8069023
51
357.7959224
0
ARC
8
DEFAULT_255_1_234
10
3.485755
20
5.1141721
40
1.1862365
50
357.5871873
51
359.2677531
0
ARC
8
DEFAULT_255_1_234
10
5.1363384
20
4.7192565
40
0.1070357
50
163.5417914
51
180.5078233
0
ARC
8
DEFAULT_255_1_234
10
5.1171202
20
4.7244421
40
0.0871371
50
138.1647447
51
163.2316401
0
ARC
8
DEFAULT_255_1_234
10
5.1058981
20
4.7339534
40
0.0724329
50
105.6856465
51
137.8494928
0
ARC
8
DEFAULT_255_1_234
10
5.1177413
20
4.6955129
40
0.1126485
50
92.6088068
51
106.1990587
0
ARC
8
DEFAULT_255_1_234
10
5.1207786
20
4.6559774
40
0.1522861
50
89.9660831
51
93.0733434
0
ARC
8
DEFAULT_255_1_234
10
5.1218481
20
4.678132
40
0.130135
50
78.4379222
51
90.4311858
0
ARC
8
DEFAULT_255_1_234
10
5.1315061
20
4.7231588
40
0.0840873
50
56.8960528
51
78.7359558
0
ARC
8
DEFAULT_255_1_234
10
5.1378288
20
4.7341877
40
0.0713991
50
42.6499553
51
56.3125067
0
ARC
8
DEFAULT_255_1_234
10
5.1250175
20
4.7224146
40
0.0887984
50
3.8142714
51
42.6365749
0
ARC
8
DEFAULT_255_1_234
10
5.0963976
20
4.7184153
40
0.1176392
50
359.9476902
51
4.8305927
0
ARC
8
DEFAULT_255_1_234
10
5.1190135
20
4.7173541
40
0.0950282
50
340.9376387
51
0.5750546
0
ARC
8
DEFAULT_255_1_234
10
5.1302631
20
4.7143192
40
0.0834082
50
316.0805399
51
340.3842391
0
ARC
8
DEFAULT_255_1_234
10
5.136071
20
4.7089809
40
0.0755219
50
285.8514865
51
315.9414755
0
ARC
8
DEFAULT_255_1_234
10
5.1243281
20
4.7469349
40
0.115244
50
273.1292529
51
286.3135479
0
ARC
8
DEFAULT_255_1_234
10
5.120998
20
4.7871049
40
0.1555398
50
269.9524064
51
273.5463789
0
ARC
8
DEFAULT_255_1_234
10
5.1198932
20
4.7652792
40
0.1337177
50
259.0490813
51
270.4180302
0
ARC
8
DEFAULT_255_1_234
10
5.1102595
20
4.7175393
40
0.0850178
50
239.7587791
51
259.311372
0
ARC
8
DEFAULT_255_1_234
10
5.1021626
20
4.7024482
40
0.0679053
50
222.6244131
51
239.247817
0
ARC
8
DEFAULT_255_1_234
10
5.1156001
20
4.7147619
40
0.0861314
50
182.9227855
51
222.598345
0
ARC
8
DEFAULT_255_1_234
10
5.142462
20
4.7182373
40
0.113155
50
179.9642935
51
183.9868025
0
LINE
8
DEFAULT_255_1_234
10
6.198728
20
5.8098211
11
6.198728
21
5.726291
0
LINE
8
DEFAULT_255_1_234
10
6.198728
20
5.726291
11
5.7144142
21
4.6404
0
LINE
8
DEFAULT_255_1_234
10
5.7144142
20
4.6404
11
5.5585985
21
4.6404
0
LINE
8
DEFAULT_255_1_234
10
5.5585985
20
4.6404
11
6.041306
21
5.6877387
0
LINE
8
DEFAULT_255_1_234
10
6.041306
20
5.6877387
11
5.408405
21
5.6877387
0
LINE
8
DEFAULT_255_1_234
10
5.408405
20
5.6877387
11
5.408405
21
5.8098211
0
LINE
8
DEFAULT_255_1_234
10
5.408405
20
5.8098211
11
6.198728
21
5.8098211
0
LINE
8
DEFAULT_255_1_234
10
4.8204817
20
13.2694327
11
4.8204817
21
13.0766709
0
LINE
8
DEFAULT_255_1_234
10
4.082365
20
13.0565916
11
4.082365
21
13.2549755
0
LINE
8
DEFAULT_255_1_234
10
4.6718946
20
13.0365123
11
4.6718946
21
13.2798739
0
LINE
8
DEFAULT_255_1_234
10
4.2309521
20
13.2911184
11
4.2309521
21
13.0533789
0
ARC
8
DEFAULT_255_1_234
10
3.5957707
20
13.0717805
40
1.2247208
50
353.8441951
51
0.2287902
0
ARC
8
DEFAULT_255_1_234
10
4.0597211
20
13.0199806
40
0.7578929
50
344.4934747
51
353.9765454
0
ARC
8
DEFAULT_255_1_234
10
4.3589801
20
12.9348981
40
0.4467846
50
329.2803592
51
344.7472793
0
ARC
8
DEFAULT_255_1_234
10
4.4582626
20
12.8804018
40
0.3336173
50
324.9352394
51
328.6160465
0
ARC
8
DEFAULT_255_1_234
10
4.4959734
20
12.8540427
40
0.2876076
50
280.580143
51
324.9173126
0
ARC
8
DEFAULT_255_1_234
10
4.4558527
20
13.0211099
40
0.4592847
50
269.5977311
51
281.6734359
0
ARC
8
DEFAULT_255_1_234
10
4.4486433
20
13.0091173
40
0.4472986
50
256.6228859
51
270.51044
0
ARC
8
DEFAULT_255_1_234
10
4.408441
20
12.8542877
40
0.2873874
50
215.8618325
51
257.2788573
0
ARC
8
DEFAULT_255_1_234
10
4.5105442
20
12.9227977
40
0.4102928
50
197.9693508
51
215.2623606
0
ARC
8
DEFAULT_255_1_234
10
4.7590558
20
13.0066709
40
0.6725652
50
187.8816417
51
198.2346507
0
ARC
8
DEFAULT_255_1_234
10
5.1548766
20
13.0638079
40
1.0724845
50
180.8976217
51
188.0055519
0
ARC
8
DEFAULT_255_1_234
10
5.4348954
20
13.0741777
40
1.3526448
50
180.7449369
51
181.1510016
0
ARC
8
DEFAULT_255_1_234
10
5.2771683
20
13.2598042
40
1.1948131
50
173.7675579
51
180.231553
0
ARC
8
DEFAULT_255_1_234
10
4.825383
20
13.3108666
40
0.7401564
50
164.3058563
51
173.9002247
0
ARC
8
DEFAULT_255_1_234
10
4.5341899
20
13.3947656
40
0.4371288
50
148.7922025
51
164.568378
0
ARC
8
DEFAULT_255_1_234
10
4.4390351
20
13.4478929
40
0.3282386
50
144.5883898
51
148.1176286
0
ARC
8
DEFAULT_255_1_234
10
4.4047249
20
13.4718315
40
0.2864044
50
101.6440918
51
144.514236
0
ARC
8
DEFAULT_255_1_234
10
4.4472315
20
13.3029069
40
0.4604934
50
89.5284041
51
102.5819763
0
ARC
8
DEFAULT_255_1_234
10
4.4551403
20
13.2990018
40
0.464401
50
77.0437873
51
90.5081339
0
ARC
8
DEFAULT_255_1_234
10
4.4953405
20
13.4632615
40
0.2953195
50
48.2778575
51
77.4994676
0
ARC
8
DEFAULT_255_1_234
10
4.5026036
20
13.4761746
40
0.2808655
50
36.3142134
51
47.6305865
0
ARC
8
DEFAULT_255_1_234
10
4.4157343
20
13.4176515
40
0.3855453
50
18.2931786
51
35.6769206
0
ARC
8
DEFAULT_255_1_234
10
4.1614102
20
13.3303593
40
0.654423
50
8.024666
51
18.5605216
0
ARC
8
DEFAULT_255_1_234
10
3.7451022
20
13.2688792
40
1.0752407
50
1.1274072
51
8.1718305
0
ARC
8
DEFAULT_255_1_234
10
3.4215213
20
13.2561885
40
1.3990231
50
0.5424119
51
1.3863029
0
ARC
8
DEFAULT_255_1_234
10
3.603659
20
13.2834342
40
1.0682415
50
359.8090433
51
4.9407866
0
ARC
8
DEFAULT_255_1_234
10
4.0246604
20
13.3210113
40
0.6455691
50
4.8362157
51
12.2904523
0
ARC
8
DEFAULT_255_1_234
10
4.3001719
20
13.3823965
40
0.3633074
50
12.0805627
51
23.8173984
0
ARC
8
DEFAULT_255_1_234
10
4.4175425
20
13.4320919
40
0.2358723
50
24.2871213
51
31.3935614
0
ARC
8
DEFAULT_255_1_234
10
4.4700122
20
13.4664233
40
0.1732111
50
30.7407893
51
82.4657128
0
ARC
8
DEFAULT_255_1_234
10
4.4520256
20
13.3780691
40
0.263235
50
81.1060089
51
90.2184952
0
ARC
8
DEFAULT_255_1_234
10
4.4484555
20
13.4038924
40
0.2374236
50
89.3806855
51
105.6762551
0
ARC
8
DEFAULT_255_1_234
10
4.4301186
20
13.4705567
40
0.1682847
50
105.7981136
51
149.7388061
0
ARC
8
DEFAULT_255_1_234
10
4.5365264
20
13.406595
40
0.2924306
50
149.4208916
51
163.6286378
0
ARC
8
DEFAULT_255_1_234
10
4.7456152
20
13.342825
40
0.5110213
50
163.3763315
51
172.1410975
0
ARC
8
DEFAULT_255_1_234
10
5.0756871
20
13.2955518
40
0.8444586
50
172.0259487
51
178.0703232
0
ARC
8
DEFAULT_255_1_234
10
5.378696
20
13.2811906
40
1.1477868
50
177.8631668
51
179.5044149
0
ARC
8
DEFAULT_255_1_234
10
5.2714365
20
13.0497389
40
1.0404907
50
179.7995573
51
185.2460446
0
ARC
8
DEFAULT_255_1_234
10
4.8671404
20
13.0114513
40
0.6343885
50
185.1411642
51
193.0079639
0
ARC
8
DEFAULT_255_1_234
10
4.6027877
20
12.9489641
40
0.3627568
50
192.7897626
51
205.2507664
0
ARC
8
DEFAULT_255_1_234
10
4.4981424
20
12.9022415
40
0.2481908
50
205.8005384
51
211.2537509
0
ARC
8
DEFAULT_255_1_234
10
4.4457864
20
12.867158
40
0.1852521
50
210.3789793
51
238.4008143
0
ARC
8
DEFAULT_255_1_234
10
4.4438386
20
12.8718376
40
0.1882621
50
239.6520629
51
265.9793761
0
ARC
8
DEFAULT_255_1_234
10
4.4523586
20
12.9390427
40
0.2559272
50
265.1315437
51
270.060332
0
ARC
8
DEFAULT_255_1_234
10
4.4552365
20
12.9066534
40
0.2235528
50
269.3314664
51
287.2178029
0
ARC
8
DEFAULT_255_1_234
10
4.4690217
20
12.8563279
40
0.1714108
50
287.7958004
51
329.080874
0
ARC
8
DEFAULT_255_1_234
10
4.3732674
20
12.916093
40
0.2842745
50
328.6634704
51
343.3325132
0
ARC
8
DEFAULT_255_1_234
10
4.1559694
20
12.9837863
40
0.5118644
50
343.0499468
51
351.9393422
0
ARC
8
DEFAULT_255_1_234
10
3.8092994
20
13.0348949
40
0.8622784
50
351.8069023
51
357.7959224
0
ARC
8
DEFAULT_255_1_234
10
3.485755
20
13.0516721
40
1.1862365
50
357.5871873
51
359.2677531
0
ARC
8
DEFAULT_255_1_234
10
5.1363384
20
12.6567565
40
0.1070357
50
163.5417914
51
180.5078233
0
ARC
8
DEFAULT_255_1_234
10
5.1171202
20
12.6619421
40
0.0871371
50
138.1647447
51
163.2316401
0
ARC
8
DEFAULT_255_1_234
10
5.1058981
20
12.6714534
40
0.0724329
50
105.6856465
51
137.8494928
0
ARC
8
DEFAULT_255_1_234
10
5.1177413
20
12.6330129
40
0.1126485
50
92.6088068
51
106.1990587
0
ARC
8
DEFAULT_255_1_234
10
5.1207786
20
12.5934774
40
0.1522861
50
89.9660831
51
93.0733434
0
ARC
8
DEFAULT_255_1_234
10
5.1218481
20
12.615632
40
0.130135
50
78.4379222
51
90.4311858
0
ARC
8
DEFAULT_255_1_234
10
5.1315061
20
12.6606588
40
0.0840873
50
56.8960528
51
78.7359558
0
ARC
8
DEFAULT_255_1_234
10
5.1378288
20
12.6716877
40
0.0713991
50
42.6499553
51
56.3125067
0
ARC
8
DEFAULT_255_1_234
10
5.1250175
20
12.6599146
40
0.0887984
50
3.8142714
51
42.6365749
0
ARC
8
DEFAULT_255_1_234
10
5.0963976
20
12.6559153
40
0.1176392
50
359.9476902
51
4.8305927
0
ARC
8
DEFAULT_255_1_234
10
5.1190135
20
12.6548541
40
0.0950282
50
340.9376387
51
0.5750546
0
ARC
8
DEFAULT_255_1_234
10
5.1302631
20
12.6518192
40
0.0834082
50
316.0805399
51
340.3842391
0
ARC
8
DEFAULT_255_1_234
10
5.136071
20
12.6464809
40
0.0755219
50
285.8514865
51
315.9414755
0
ARC
8
DEFAULT_255_1_234
10
5.1243281
20
12.6844349
40
0.115244
50
273.1292529
51
286.3135479
0
ARC
8
DEFAULT_255_1_234
10
5.120998
20
12.7246049
40
0.1555398
50
269.9524064
51
273.5463789
0
ARC
8
DEFAULT_255_1_234
10
5.1198932
20
12.7027792
40
0.1337177
50
259.0490813
51
270.4180302
0
ARC
8
DEFAULT_255_1_234
10
5.1102595
20
12.6550393
40
0.0850178
50
239.7587791
51
259.311372
0
ARC
8
DEFAULT_255_1_234
10
5.1021626
20
12.6399482
40
0.0679053
50
222.6244131
51
239.247817
0
ARC
8
DEFAULT_255_1_234
10
5.1156001
20
12.6522619
40
0.0861314
50
182.9227855
51
222.598345
0
ARC
8
DEFAULT_255_1_234
10
5.142462
20
12.6557373
40
0.113155
50
179.9642935
51
183.9868025
0
LINE
8
DEFAULT_255_1_234
10
6.0003441
20
13.7481243
11
6.0268488
21
13.7481243
0
LINE
8
DEFAULT_255_1_234
10
6.0268488
20
13.7481243
11
6.0268488
21
13.622026
0
LINE
8
DEFAULT_255_1_234
10
6.0268488
20
13.622026
11
5.9995409
21
13.622026
0
LINE
8
DEFAULT_255_1_234
10
5.4525795
20
13.0228583
11
5.4525795
21
13.0798836
0
LINE
8
DEFAULT_255_1_234
10
5.6019699
20
13.0606075
11
5.6019699
21
13.0059917
0
ARC
8
DEFAULT_255_1_234
10
6.0047757
20
13.1222455
40
0.4998079
50
90.6001036
51
104.514704
0
ARC
8
DEFAULT_255_1_234
10
5.9659273
20
13.2667131
40
0.3502176
50
104.2855254
51
133.862935
0
ARC
8
DEFAULT_255_1_234
10
5.982303
20
13.255883
40
0.3693984
50
134.5302688
51
161.6210873
0
ARC
8
DEFAULT_255_1_234
10
6.1476219
20
13.1975895
40
0.5446739
50
161.2849839
51
174.2076652
0
ARC
8
DEFAULT_255_1_234
10
6.2883156
20
13.1781787
40
0.6866274
50
173.7810589
51
174.9254635
0
ARC
8
DEFAULT_255_1_234
10
5.8332988
20
13.0398839
40
0.3033419
50
95.8330959
51
138.9954921
0
ARC
8
DEFAULT_255_1_234
10
5.8556344
20
12.9120375
40
0.4328947
50
89.8753725
51
97.0544009
0
ARC
8
DEFAULT_255_1_234
10
5.860381
20
12.9955748
40
0.3493769
50
71.6407809
51
90.6240094
0
ARC
8
DEFAULT_255_1_234
10
5.8754383
20
13.0510082
40
0.2920396
50
39.6367836
51
71.019018
0
ARC
8
DEFAULT_255_1_234
10
5.8117856
20
12.9959998
40
0.3761538
50
10.658731
51
39.9043955
0
ARC
8
DEFAULT_255_1_234
10
5.6569939
20
12.9623686
40
0.5345136
50
359.682601
51
11.132623
0
ARC
8
DEFAULT_255_1_234
10
5.653007
20
12.955301
40
0.5385081
50
347.2486944
51
0.4369317
0
ARC
8
DEFAULT_255_1_234
10
5.8197547
20
12.9151807
40
0.3670249
50
318.1409698
51
347.6118597
0
ARC
8
DEFAULT_255_1_234
10
5.852254
20
12.8884702
40
0.3250007
50
275.6342139
51
317.8248465
0
ARC
8
DEFAULT_255_1_234
10
5.8301651
20
13.0184219
40
0.4565864
50
269.8874292
51
276.7917694
0
ARC
8
DEFAULT_255_1_234
10
5.8246722
20
12.9158743
40
0.3540676
50
246.9140195
51
270.7437342
0
ARC
8
DEFAULT_255_1_234
10
5.8253112
20
12.9016384
40
0.3412781
50
218.1665114
51
245.878116
0
ARC
8
DEFAULT_255_1_234
10
5.9132573
20
12.9752279
40
0.455911
50
191.4115814
51
218.6077802
0
ARC
8
DEFAULT_255_1_234
10
6.1070662
20
13.0186833
40
0.6545001
50
179.6345085
51
191.7836486
0
ARC
8
DEFAULT_255_1_234
10
6.6652999
20
13.0865697
40
1.2127388
50
171.4525249
51
180.3158839
0
ARC
8
DEFAULT_255_1_234
10
6.2257875
20
13.1549608
40
0.7679464
50
157.9802646
51
171.6246686
0
ARC
8
DEFAULT_255_1_234
10
6.0043896
20
13.2432421
40
0.5296008
50
141.4298019
51
157.854097
0
ARC
8
DEFAULT_255_1_234
10
5.9402216
20
13.2886381
40
0.4511509
50
102.8715806
51
140.8564722
0
ARC
8
DEFAULT_255_1_234
10
6.0049832
20
13.0446552
40
0.7034845
50
90.3778349
51
103.5869322
0
ARC
8
DEFAULT_255_1_234
10
5.8311608
20
12.984173
40
0.2370698
50
89.8751008
51
126.2071704
0
ARC
8
DEFAULT_255_1_234
10
5.8357398
20
12.9687303
40
0.2522934
50
124.9745049
51
144.895901
0
ARC
8
DEFAULT_255_1_234
10
5.8181588
20
12.983056
40
0.2296779
50
145.2974905
51
160.2660252
0
ARC
8
DEFAULT_255_1_234
10
6.1254127
20
13.0028071
40
0.5234525
50
179.6514266
51
190.2855912
0
ARC
8
DEFAULT_255_1_234
10
5.9560264
20
12.9708786
40
0.3510893
50
190.0945431
51
207.5098196
0
ARC
8
DEFAULT_255_1_234
10
5.8994534
20
12.9439623
40
0.288489
50
207.9583163
51
216.3251085
0
ARC
8
DEFAULT_255_1_234
10
5.8654642
20
12.9160105
40
0.2445587
50
215.7661442
51
232.5456785
0
ARC
8
DEFAULT_255_1_234
10
5.8271625
20
12.8673482
40
0.1826382
50
232.8005391
51
270.6605633
0
ARC
8
DEFAULT_255_1_234
10
5.8317326
20
12.9037612
40
0.2190529
50
269.35537
51
288.4744281
0
ARC
8
DEFAULT_255_1_234
10
5.8410223
20
12.8688118
40
0.1829749
50
289.1833337
51
322.9683818
0
ARC
8
DEFAULT_255_1_234
10
5.7798745
20
12.9170391
40
0.2608399
50
322.6007884
51
346.5182367
0
ARC
8
DEFAULT_255_1_234
10
5.6641341
20
12.9465616
40
0.3802777
50
346.2582162
51
358.7741648
0
ARC
8
DEFAULT_255_1_234
10
5.562301
20
12.9520965
40
0.4822176
50
358.3755224
51
0.0098023
0
ARC
8
DEFAULT_255_1_234
10
5.6379197
20
12.9548657
40
0.4066078
50
359.6214041
51
11.2839074
0
ARC
8
DEFAULT_255_1_234
10
5.7656344
20
12.9815066
40
0.2761514
50
11.0482309
51
31.8146458
0
ARC
8
DEFAULT_255_1_234
10
5.7965387
20
12.9982584
40
0.2410679
50
32.3035391
51
38.082671
0
ARC
8
DEFAULT_255_1_234
10
5.8386047
20
13.0363662
40
0.1844966
50
36.825067
51
85.7415724
0
ARC
8
DEFAULT_255_1_234
10
5.831888
20
12.9863301
40
0.2349122
50
85.0140713
51
90.0513278
0
LINE
8
DEFAULT_255_1_234
10
4.8204817
20
21.2069327
11
4.8204817
21
21.0141709
0
LINE
8
DEFAULT_255_1_234
10
4.082365
20
20.9940916
11
4.082365
21
21.1924755
0
LINE
8
DEFAULT_255_1_234
10
4.6718946
20
20.9740123
11
4.6718946
21
21.2173739
0
LINE
8
DEFAULT_255_1_234
10
4.2309521
20
21.2286184
11
4.2309521
21
20.9908789
0
ARC
8
DEFAULT_255_1_234
10
3.5957707
20
21.0092805
40
1.2247208
50
353.8441951
51
0.2287902
0
ARC
8
DEFAULT_255_1_234
10
4.0597211
20
20.9574806
40
0.7578929
50
344.4934747
51
353.9765454
0
ARC
8
DEFAULT_255_1_234
10
4.3589801
20
20.8723981
40
0.4467846
50
329.2803592
51
344.7472793
0
ARC
8
DEFAULT_255_1_234
10
4.4582626
20
20.8179018
40
0.3336173
50
324.9352394
51
328.6160465
0
ARC
8
DEFAULT_255_1_234
10
4.4959734
20
20.7915427
40
0.2876076
50
280.580143
51
324.9173126
0
ARC
8
DEFAULT_255_1_234
10
4.4558527
20
20.9586099
40
0.4592847
50
269.5977311
51
281.6734359
0
ARC
8
DEFAULT_255_1_234
10
4.4486433
20
20.9466173
40
0.4472986
50
256.6228859
51
270.51044
0
ARC
8
DEFAULT_255_1_234
10
4.408441
20
20.7917877
40
0.2873874
50
215.8618325
51
257.2788573
0
ARC
8
DEFAULT_255_1_234
10
4.5105442
20
20.8602977
40
0.4102928
50
197.9693508
51
215.2623606
0
ARC
8
DEFAULT_255_1_234
10
4.7590558
20
20.9441709
40
0.6725652
50
187.8816417
51
198.2346507
0
ARC
8
DEFAULT_255_1_234
10
5.1548766
20
21.0013079
40
1.0724845
50
180.8976217
51
188.0055519
0
ARC
8
DEFAULT_255_1_234
10
5.4348954
20
21.0116777
40
1.3526448
50
180.7449369
51
181.1510016
0
ARC
8
DEFAULT_255_1_234
10
5.2771683
20
21.1973042
40
1.1948131
50
173.7675579
51
180.231553
0
ARC
8
DEFAULT_255_1_234
10
4.825383
20
21.2483666
40
0.7401564
50
164.3058563
51
173.9002247
0
ARC
8
DEFAULT_255_1_234
10
4.5341899
20
21.3322656
40
0.4371288
50
148.7922025
51
164.568378
0
ARC
8
DEFAULT_255_1_234
10
4.4390351
20
21.3853929
40
0.3282386
50
144.5883898
51
148.1176286
0
ARC
8
DEFAULT_255_1_234
10
4.4047249
20
21.4093315
40
0.2864044
50
101.6440918
51
144.514236
0
ARC
8
DEFAULT_255_1_234
10
4.4472315
20
21.2404069
40
0.4604934
50
89.5284041
51
102.5819763
0
ARC
8
DEFAULT_255_1_234
10
4.4551403
20
21.2365018
40
0.464401
50
77.0437873
51
90.5081339
0
ARC
8
DEFAULT_255_1_234
10
4.4953405
20
21.4007615
40
0.2953195
50
48.2778575
51
77.4994676
0
ARC
8
DEFAULT_255_1_234
10
4.5026036
20
21.4136746
40
0.2808655
50
36.3142134
51
47.6305865
0
ARC
8
DEFAULT_255_1_234
10
4.4157343
20
21.3551515
40
0.3855453
50
18.2931786
51
35.6769206
0
ARC
8
DEFAULT_255_1_234
10
4.1614102
20
21.2678593
40
0.654423
50
8.024666
51
18.5605216
0
ARC
8
DEFAULT_255_1_234
10
3.7451022
20
21.2063792
40
1.0752407
50
1.1274072
51
8.1718305
0
ARC
8
DEFAULT_255_1_234
10
3.4215213
20
21.1936885
40
1.3990231
50
0.5424119
51
1.3863029
0
ARC
8
DEFAULT_255_1_234
10
3.603659
20
21.2209342
40
1.0682415
50
359.8090433
51
4.9407866
0
ARC
8
DEFAULT_255_1_234
10
4.0246604
20
21.2585113
40
0.6455691
50
4.8362157
51
12.2904523
0
ARC
8
DEFAULT_255_1_234
10
4.3001719
20
21.3198965
40
0.3633074
50
12.0805627
51
23.8173984
0
ARC
8
DEFAULT_255_1_234
10
4.4175425
20
21.3695919
40
0.2358723
50
24.2871213
51
31.3935614
0
ARC
8
DEFAULT_255_1_234
10
4.4700122
20
21.4039233
40
0.1732111
50
30.7407893
51
82.4657128
0
ARC
8
DEFAULT_255_1_234
10
4.4520256
20
21.3155691
40
0.263235
50
81.1060089
51
90.2184952
0
ARC
8
DEFAULT_255_1_234
10
4.4484555
20
21.3413924
40
0.2374236
50
89.3806855
51
105.6762551
0
ARC
8
DEFAULT_255_1_234
10
4.4301186
20
21.4080567
40
0.1682847
50
105.7981136
51
149.7388061
0
ARC
8
DEFAULT_255_1_234
10
4.5365264
20
21.344095
40
0.2924306
50
149.4208916
51
163.6286378
0
ARC
8
DEFAULT_255_1_234
10
4.7456152
20
21.280325
40
0.5110213
50
163.3763315
51
172.1410975
0
ARC
8
DEFAULT_255_1_234
10
5.0756871
20
21.2330518
40
0.8444586
50
172.0259487
51
178.0703232
0
ARC
8
DEFAULT_255_1_234
10
5.378696
20
21.2186906
40
1.1477868
50
177.8631668
51
179.5044149
0
ARC
8
DEFAULT_255_1_234
10
5.2714365
20
20.9872389
40
1.0404907
50
179.7995573
51
185.2460446
0
ARC
8
DEFAULT_255_1_234
10
4.8671404
20
20.9489513
40
0.6343885
50
185.1411642
51
193.0079639
0
ARC
8
DEFAULT_255_1_234
10
4.6027877
20
20.8864641
40
0.3627568
50
192.7897626
51
205.2507664
0
ARC
8
DEFAULT_255_1_234
10
4.4981424
20
20.8397415
40
0.2481908
50
205.8005384
51
211.2537509
0
ARC
8
DEFAULT_255_1_234
10
4.4457864
20
20.804658
40
0.1852521
50
210.3789793
51
238.4008143
0
ARC
8
DEFAULT_255_1_234
10
4.4438386
20
20.8093376
40
0.1882621
50
239.6520629
51
265.9793761
0
ARC
8
DEFAULT_255_1_234
10
4.4523586
20
20.8765427
40
0.2559272
50
265.1315437
51
270.060332
0
ARC
8
DEFAULT_255_1_234
10
4.4552365
20
20.8441534
40
0.2235528
50
269.3314664
51
287.2178029
0
ARC
8
DEFAULT_255_1_234
10
4.4690217
20
20.7938279
40
0.1714108
50
287.7958004
51
329.080874
0
ARC
8
DEFAULT_255_1_234
10
4.3732674
20
20.853593
40
0.2842745
50
328.6634704
51
343.3325132
0
ARC
8
DEFAULT_255_1_234
10
4.1559694
20
20.9212863
40
0.5118644
50
343.0499468
51
351.9393422
0
ARC
8
DEFAULT_255_1_234
10
3.8092994
20
20.9723949
40
0.8622784
50
351.8069023
51
357.7959224
0
ARC
8
DEFAULT_255_1_234
10
3.485755
20
20.9891721
40
1.1862365
50
357.5871873
51
359.2677531
0
ARC
8
DEFAULT_255_1_234
10
5.1363384
20
20.5942565
40
0.1070357
50
163.5417914
51
180.5078233
0
ARC
8
DEFAULT_255_1_234
10
5.1171202
20
20.5994421
40
0.0871371
50
138.1647447
51
163.2316401
0
ARC
8
DEFAULT_255_1_234
10
5.1058981
20
20.6089534
40
0.0724329
50
105.6856465
51
137.8494928
0
ARC
8
DEFAULT_255_1_234
10
5.1177413
20
20.5705129
40
0.1126485
50
92.6088068
51
106.1990587
0
ARC
8
DEFAULT_255_1_234
10
5.1207786
20
20.5309774
40
0.1522861
50
89.9660831
51
93.0733434
0
ARC
8
DEFAULT_255_1_234
10
5.1218481
20
20.553132
40
0.130135
50
78.4379222
51
90.4311858
0
ARC
8
DEFAULT_255_1_234
10
5.1315061
20
20.5981588
40
0.0840873
50
56.8960528
51
78.7359558
0
ARC
8
DEFAULT_255_1_234
10
5.1378288
20
20.6091877
40
0.0713991
50
42.6499553
51
56.3125067
0
ARC
8
DEFAULT_255_1_234
10
5.1250175
20
20.5974146
40
0.0887984
50
3.8142714
51
42.6365749
0
ARC
8
DEFAULT_255_1_234
10
5.0963976
20
20.5934153
40
0.1176392
50
359.9476902
51
4.8305927
0
ARC
8
DEFAULT_255_1_234
10
5.1190135
20
20.5923541
40
0.0950282
50
340.9376387
51
0.5750546
0
ARC
8
DEFAULT_255_1_234
10
5.1302631
20
20.5893192
40
0.0834082
50
316.0805399
51
340.3842391
0
ARC
8
DEFAULT_255_1_234
10
5.136071
20
20.5839809
40
0.0755219
50
285.8514865
51
315.9414755
0
ARC
8
DEFAULT_255_1_234
10
5.1243281
20
20.6219349
40
0.115244
50
273.1292529
51
286.3135479
0
ARC
8
DEFAULT_255_1_234
10
5.120998
20
20.6621049
40
0.1555398
50
269.9524064
51
273.5463789
0
ARC
8
DEFAULT_255_1_234
10
5.1198932
20
20.6402792
40
0.1337177
50
259.0490813
51
270.4180302
0
ARC
8
DEFAULT_255_1_234
10
5.1102595
20
20.5925393
40
0.0850178
50
239.7587791
51
259.311372
0
ARC
8
DEFAULT_255_1_234
10
5.1021626
20
20.5774482
40
0.0679053
50
222.6244131
51
239.247817
0
ARC
8
DEFAULT_255_1_234
10
5.1156001
20
20.5897619
40
0.0861314
50
182.9227855
51
222.598345
0
ARC
8
DEFAULT_255_1_234
10
5.142462
20
20.5932373
40
0.113155
50
179.9642935
51
183.9868025
0
LINE
8
DEFAULT_255_1_234
10
5.6308841
20
21.0711963
11
5.5120144
21
21.1017169
0
LINE
8
DEFAULT_255_1_234
10
5.5120144
20
21.1017169
11
5.5714493
21
21.6848211
0
LINE
8
DEFAULT_255_1_234
10
5.5714493
20
21.6848211
11
6.1706169
21
21.6848211
0
LINE
8
DEFAULT_255_1_234
10
6.1706169
20
21.6848211
11
6.1706169
21
21.5474784
0
LINE
8
DEFAULT_255_1_234
10
6.1706169
20
21.5474784
11
5.6975476
21
21.5474784
0
LINE
8
DEFAULT_255_1_234
10
5.6975476
20
21.5474784
11
5.6622079
21
21.2286184
0
LINE
8
DEFAULT_255_1_234
10
5.4702494
20
20.8230156
11
5.6108048
21
20.8230156
0
LINE
8
DEFAULT_255_1_234
10
5.6702396
20
21.1033232
11
5.6308841
21
21.0711963
0
ARC
8
DEFAULT_255_1_234
10
5.8476863
20
20.910623
40
0.3681349
50
93.7182161
51
120.2538958
0
ARC
8
DEFAULT_255_1_234
10
5.8571126
20
20.8298394
40
0.449379
50
89.9660152
51
94.2496022
0
ARC
8
DEFAULT_255_1_234
10
5.861186
20
20.8887549
40
0.390482
50
73.8043271
51
90.5585896
0
ARC
8
DEFAULT_255_1_234
10
5.8846757
20
20.9745602
40
0.3015334
50
41.3071453
51
73.5430202
0
ARC
8
DEFAULT_255_1_234
10
5.8430584
20
20.9387324
40
0.3564457
50
13.5075983
51
41.2174222
0
ARC
8
DEFAULT_255_1_234
10
5.6788788
20
20.8957486
40
0.5261351
50
1.1331335
51
13.8829381
0
ARC
8
DEFAULT_255_1_234
10
5.5377157
20
20.8881665
40
0.6674378
50
359.9919444
51
1.544251
0
ARC
8
DEFAULT_255_1_234
10
5.6653983
20
20.884028
40
0.5397702
50
347.8572367
51
0.4293338
0
ARC
8
DEFAULT_255_1_234
10
5.8404301
20
20.8443736
40
0.3603188
50
323.673004
51
348.1672506
0
ARC
8
DEFAULT_255_1_234
10
5.8698809
20
20.8264168
40
0.3259678
50
316.8171152
51
323.1492751
0
ARC
8
DEFAULT_255_1_234
10
5.8759998
20
20.822746
40
0.3189975
50
281.8396411
51
316.5457803
0
ARC
8
DEFAULT_255_1_234
10
5.8384262
20
20.9782762
40
0.4789527
50
269.5770101
51
282.4214771
0
ARC
8
DEFAULT_255_1_234
10
5.8313073
20
20.9569125
40
0.45759
50
256.2427136
51
270.4486331
0
ARC
8
DEFAULT_255_1_234
10
5.8013975
20
20.8369229
40
0.3339303
50
228.9023911
51
256.3314342
0
ARC
8
DEFAULT_255_1_234
10
5.7940208
20
20.8252746
40
0.32031
50
193.753695
51
228.5271154
0
ARC
8
DEFAULT_255_1_234
10
5.9178162
20
20.86158
40
0.4492253
50
184.924711
51
194.497588
0
ARC
8
DEFAULT_255_1_234
10
5.9370729
20
20.8651591
40
0.3289787
50
187.3600538
51
198.6732863
0
ARC
8
DEFAULT_255_1_234
10
5.8321023
20
20.8287674
40
0.217884
50
198.4451669
51
217.794479
0
ARC
8
DEFAULT_255_1_234
10
5.8025198
20
20.8078085
40
0.1816698
50
218.2887171
51
228.5612368
0
ARC
8
DEFAULT_255_1_234
10
5.8122985
20
20.8209963
40
0.1980329
50
228.9654866
51
258.1234728
0
ARC
8
DEFAULT_255_1_234
10
5.8328695
20
20.9090833
40
0.2884748
50
257.7258293
51
270.401361
0
ARC
8
DEFAULT_255_1_234
10
5.8373581
20
20.8645821
40
0.2439788
50
269.4204404
51
286.4209037
0
ARC
8
DEFAULT_255_1_234
10
5.8522069
20
20.8106657
40
0.1880666
50
286.7251356
51
320.600362
0
ARC
8
DEFAULT_255_1_234
10
5.8138894
20
20.8417595
40
0.2374121
50
320.6712579
51
344.5441685
0
ARC
8
DEFAULT_255_1_234
10
5.698222
20
20.8757045
40
0.3579479
50
344.2412205
51
356.7357071
0
ARC
8
DEFAULT_255_1_234
10
5.5733369
20
20.8860444
40
0.4832297
50
356.3548756
51
0.0500261
0
ARC
8
DEFAULT_255_1_234
10
5.7069878
20
20.889165
40
0.3495889
50
359.5576869
51
12.953486
0
ARC
8
DEFAULT_255_1_234
10
5.8124775
20
20.9147434
40
0.2410532
50
12.6490276
51
41.6081334
0
ARC
8
DEFAULT_255_1_234
10
5.8355146
20
20.9343321
40
0.2108218
50
41.7850273
51
85.9892764
0
ARC
8
DEFAULT_255_1_234
10
5.8231883
20
20.8530462
40
0.2928454
50
84.6957577
51
90.0676183
0
ARC
8
DEFAULT_255_1_234
10
5.8208367
20
20.7861716
40
0.3597255
50
89.6804936
51
99.1614436
0
ARC
8
DEFAULT_255_1_234
10
5.8002998
20
20.9089131
40
0.235281
50
98.9830931
51
113.8908934
0
ARC
8
DEFAULT_255_1_234
10
5.7773408
20
20.9630587
40
0.176479
50
114.1950727
51
127.3641004
0
LINE
8
DEFAULT_255_1_234
10
4.9262817
20
29.1444327
11
4.9262817
21
28.9516709
0
LINE
8
DEFAULT_255_1_234
10
4.188165
20
28.9315916
11
4.188165
21
29.1299755
0
LINE
8
DEFAULT_255_1_234
10
4.7776946
20
28.9115123
11
4.7776946
21
29.1548739
0
LINE
8
DEFAULT_255_1_234
10
4.3367521
20
29.1661184
11
4.3367521
21
28.9283789
0
ARC
8
DEFAULT_255_1_234
10
3.7015707
20
28.9467805
40
1.2247208
50
353.8441951
51
0.2287902
0
ARC
8
DEFAULT_255_1_234
10
4.1655211
20
28.8949806
40
0.7578929
50
344.4934747
51
353.9765454
0
ARC
8
DEFAULT_255_1_234
10
4.4647801
20
28.8098981
40
0.4467846
50
329.2803592
51
344.7472793
0
ARC
8
DEFAULT_255_1_234
10
4.5640626
20
28.7554018
40
0.3336173
50
324.9352394
51
328.6160465
0
ARC
8
DEFAULT_255_1_234
10
4.6017734
20
28.7290427
40
0.2876076
50
280.580143
51
324.9173126
0
ARC
8
DEFAULT_255_1_234
10
4.5616527
20
28.8961099
40
0.4592847
50
269.5977311
51
281.6734359
0
ARC
8
DEFAULT_255_1_234
10
4.5544433
20
28.8841173
40
0.4472986
50
256.6228859
51
270.51044
0
ARC
8
DEFAULT_255_1_234
10
4.514241
20
28.7292877
40
0.2873874
50
215.8618325
51
257.2788573
0
ARC
8
DEFAULT_255_1_234
10
4.6163442
20
28.7977977
40
0.4102928
50
197.9693508
51
215.2623606
0
ARC
8
DEFAULT_255_1_234
10
4.8648558
20
28.8816709
40
0.6725652
50
187.8816417
51
198.2346507
0
ARC
8
DEFAULT_255_1_234
10
5.2606766
20
28.9388079
40
1.0724845
50
180.8976217
51
188.0055519
0
ARC
8
DEFAULT_255_1_234
10
5.5406954
20
28.9491777
40
1.3526448
50
180.7449369
51
181.1510016
0
ARC
8
DEFAULT_255_1_234
10
5.3829683
20
29.1348042
40
1.1948131
50
173.7675579
51
180.231553
0
ARC
8
DEFAULT_255_1_234
10
4.931183
20
29.1858666
40
0.7401564
50
164.3058563
51
173.9002247
0
ARC
8
DEFAULT_255_1_234
10
4.6399899
20
29.2697656
40
0.4371288
50
148.7922025
51
164.568378
0
ARC
8
DEFAULT_255_1_234
10
4.5448351
20
29.3228929
40
0.3282386
50
144.5883898
51
148.1176286
0
ARC
8
DEFAULT_255_1_234
10
4.5105249
20
29.3468315
40
0.2864044
50
101.6440918
51
144.514236
0
ARC
8
DEFAULT_255_1_234
10
4.5530315
20
29.1779069
40
0.4604934
50
89.5284041
51
102.5819763
0
ARC
8
DEFAULT_255_1_234
10
4.5609403
20
29.1740018
40
0.464401
50
77.0437873
51
90.5081339
0
ARC
8
DEFAULT_255_1_234
10
4.6011405
20
29.3382615
40
0.2953195
50
48.2778575
51
77.4994676
0
ARC
8
DEFAULT_255_1_234
10
4.6084036
20
29.3511746
40
0.2808655
50
36.3142134
51
47.6305865
0
ARC
8
DEFAULT_255_1_234
10
4.5215343
20
29.2926515
40
0.3855453
50
18.2931786
51
35.6769206
0
ARC
8
DEFAULT_255_1_234
10
4.2672102
20
29.2053593
40
0.654423
50
8.024666
51
18.5605216
0
ARC
8
DEFAULT_255_1_234
10
3.8509022
20
29.1438792
40
1.0752407
50
1.1274072
51
8.1718305
0
ARC
8
DEFAULT_255_1_234
10
3.5273213
20
29.1311885
40
1.3990231
50
0.5424119
51
1.3863029
0
ARC
8
DEFAULT_255_1_234
10
3.709459
20
29.1584342
40
1.0682415
50
359.8090433
51
4.9407866
0
ARC
8
DEFAULT_255_1_234
10
4.1304604
20
29.1960113
40
0.6455691
50
4.8362157
51
12.2904523
0
ARC
8
DEFAULT_255_1_234
10
4.4059719
20
29.2573965
40
0.3633074
50
12.0805627
51
23.8173984
0
ARC
8
DEFAULT_255_1_234
10
4.5233425
20
29.3070919
40
0.2358723
50
24.2871213
51
31.3935614
0
ARC
8
DEFAULT_255_1_234
10
4.5758122
20
29.3414233
40
0.1732111
50
30.7407893
51
82.4657128
0
ARC
8
DEFAULT_255_1_234
10
4.5578256
20
29.2530691
40
0.263235
50
81.1060089
51
90.2184952
0
ARC
8
DEFAULT_255_1_234
10
4.5542555
20
29.2788924
40
0.2374236
50
89.3806855
51
105.6762551
0
ARC
8
DEFAULT_255_1_234
10
4.5359186
20
29.3455567
40
0.1682847
50
105.7981136
51
149.7388061
0
ARC
8
DEFAULT_255_1_234
10
4.6423264
20
29.281595
40
0.2924306
50
149.4208916
51
163.6286378
0
ARC
8
DEFAULT_255_1_234
10
4.8514152
20
29.217825
40
0.5110213
50
163.3763315
51
172.1410975
0
ARC
8
DEFAULT_255_1_234
10
5.1814871
20
29.1705518
40
0.8444586
50
172.0259487
51
178.0703232
0
ARC
8
DEFAULT_255_1_234
10
5.484496
20
29.1561906
40
1.1477868
50
177.8631668
51
179.5044149
0
ARC
8
DEFAULT_255_1_234
10
5.3772365
20
28.9247389
40
1.0404907
50
179.7995573
51
185.2460446
0
ARC
8
DEFAULT_255_1_234
10
4.9729404
20
28.8864513
40
0.6343885
50
185.1411642
51
193.0079639
0
ARC
8
DEFAULT_255_1_234
10
4.7085877
20
28.8239641
40
0.3627568
50
192.7897626
51
205.2507664
0
ARC
8
DEFAULT_255_1_234
10
4.6039424
20
28.7772415
40
0.2481908
50
205.8005384
51
211.2537509
0
ARC
8
DEFAULT_255_1_234
10
4.5515864
20
28.742158
40
0.1852521
50
210.3789793
51
238.4008143
0
ARC
8
DEFAULT_255_1_234
10
4.5496386
20
28.7468376
40
0.1882621
50
239.6520629
51
265.9793761
0
ARC
8
DEFAULT_255_1_234
10
4.5581586
20
28.8140427
40
0.2559272
50
265.1315437
51
270.060332
0
ARC
8
DEFAULT_255_1_234
10
4.5610365
20
28.7816534
40
0.2235528
50
269.3314664
51
287.2178029
0
ARC
8
DEFAULT_255_1_234
10
4.5748217
20
28.7313279
40
0.1714108
50
287.7958004
51
329.080874
0
ARC
8
DEFAULT_255_1_234
10
4.4790674
20
28.791093
40
0.2842745
50
328.6634704
51
343.3325132
0
ARC
8
DEFAULT_255_1_234
10
4.2617694
20
28.8587863
40
0.5118644
50
343.0499468
51
351.9393422
0
ARC
8
DEFAULT_255_1_234
10
3.9150994
20
28.9098949
40
0.8622784
50
351.8069023
51
357.7959224
0
ARC
8
DEFAULT_255_1_234
10
3.591555
20
28.9266721
40
1.1862365
50
357.5871873
51
359.2677531
0
ARC
8
DEFAULT_255_1_234
10
5.2421384
20
28.5317565
40
0.1070357
50
163.5417914
51
180.5078233
0
ARC
8
DEFAULT_255_1_234
10
5.2229202
20
28.5369421
40
0.0871371
50
138.1647447
51
163.2316401
0
ARC
8
DEFAULT_255_1_234
10
5.2116981
20
28.5464534
40
0.0724329
50
105.6856465
51
137.8494928
0
ARC
8
DEFAULT_255_1_234
10
5.2235413
20
28.5080129
40
0.1126485
50
92.6088068
51
106.1990587
0
ARC
8
DEFAULT_255_1_234
10
5.2265786
20
28.4684774
40
0.1522861
50
89.9660831
51
93.0733434
0
ARC
8
DEFAULT_255_1_234
10
5.2276481
20
28.490632
40
0.130135
50
78.4379222
51
90.4311858
0
ARC
8
DEFAULT_255_1_234
10
5.2373061
20
28.5356588
40
0.0840873
50
56.8960528
51
78.7359558
0
ARC
8
DEFAULT_255_1_234
10
5.2436288
20
28.5466877
40
0.0713991
50
42.6499553
51
56.3125067
0
ARC
8
DEFAULT_255_1_234
10
5.2308175
20
28.5349146
40
0.0887984
50
3.8142714
51
42.6365749
0
ARC
8
DEFAULT_255_1_234
10
5.2021976
20
28.5309153
40
0.1176392
50
359.9476902
51
4.8305927
0
ARC
8
DEFAULT_255_1_234
10
5.2248135
20
28.5298541
40
0.0950282
50
340.9376387
51
0.5750546
0
ARC
8
DEFAULT_255_1_234
10
5.2360631
20
28.5268192
40
0.0834082
50
316.0805399
51
340.3842391
0
ARC
8
DEFAULT_255_1_234
10
5.241871
20
28.5214809
40
0.0755219
50
285.8514865
51
315.9414755
0
ARC
8
DEFAULT_255_1_234
10
5.2301281
20
28.5594349
40
0.115244
50
273.1292529
51
286.3135479
0
ARC
8
DEFAULT_255_1_234
10
5.226798
20
28.5996049
40
0.1555398
50
269.9524064
51
273.5463789
0
ARC
8
DEFAULT_255_1_234
10
5.2256932
20
28.5777792
40
0.1337177
50
259.0490813
51
270.4180302
0
ARC
8
DEFAULT_255_1_234
10
5.2160595
20
28.5300393
40
0.0850178
50
239.7587791
51
259.311372
0
ARC
8
DEFAULT_255_1_234
10
5.2079626
20
28.5149482
40
0.0679053
50
222.6244131
51
239.247817
0
ARC
8
DEFAULT_255_1_234
10
5.2214001
20
28.5272619
40
0.0861314
50
182.9227855
51
222.598345
0
ARC
8
DEFAULT_255_1_234
10
5.248262
20
28.5307373
40
0.113155
50
179.9642935
51
183.9868025
0
LINE
8
DEFAULT_255_1_234
10
6.1768234
20
29.6223211
11
6.1768234
21
28.845652
0
LINE
8
DEFAULT_255_1_234
10
6.1768234
20
28.845652
11
6.3390645
21
28.845652
0
LINE
8
DEFAULT_255_1_234
10
6.3390645
20
28.845652
11
6.3390645
21
28.7243728
0
LINE
8
DEFAULT_255_1_234
10
6.3390645
20
28.7243728
11
6.1768234
21
28.7243728
0
LINE
8
DEFAULT_255_1_234
10
6.1768234
20
28.7243728
11
6.1768234
21
28.4529
0
LINE
8
DEFAULT_255_1_234
10
6.1768234
20
28.4529
11
6.0274331
21
28.4529
0
LINE
8
DEFAULT_255_1_234
10
6.0274331
20
28.4529
11
6.0274331
21
28.7243728
0
LINE
8
DEFAULT_255_1_234
10
6.0274331
20
28.7243728
11
5.4949288
21
28.7243728
0
LINE
8
DEFAULT_255_1_234
10
5.4949288
20
28.7243728
11
5.4949288
21
28.8119187
0
LINE
8
DEFAULT_255_1_234
10
5.4949288
20
28.8119187
11
6.0185981
21
29.6223211
0
LINE
8
DEFAULT_255_1_234
10
6.0185981
20
29.6223211
11
6.1768234
21
29.6223211
0
LINE
8
DEFAULT_255_1_234
10
6.0097632
20
29.3869912
11
5.6635953
21
28.845652
0
LINE
8
DEFAULT_255_1_234
10
5.6635953
20
28.845652
11
6.0274331
21
28.845652
0
LINE
8
DEFAULT_255_1_234
10
6.0274331
20
28.845652
11
6.0274331
21
29.4191181
0
LINE
8
DEFAULT_255_1_234
10
6.0274331
20
29.4191181
11
6.0097632
21
29.3869912
0
LINE
8
DEFAULT_255_1_234
10
4.8204817
20
37.0819327
11
4.8204817
21
36.8891709
0
LINE
8
DEFAULT_255_1_234
10
4.082365
20
36.8690916
11
4.082365
21
37.0674755
0
LINE
8
DEFAULT_255_1_234
10
4.6718946
20
36.8490123
11
4.6718946
21
37.0923739
0
LINE
8
DEFAULT_255_1_234
10
4.2309521
20
37.1036184
11
4.2309521
21
36.8658789
0
ARC
8
DEFAULT_255_1_234
10
3.5957707
20
36.8842805
40
1.2247208
50
353.8441951
51
0.2287902
0
ARC
8
DEFAULT_255_1_234
10
4.0597211
20
36.8324806
40
0.7578929
50
344.4934747
51
353.9765454
0
ARC
8
DEFAULT_255_1_234
10
4.3589801
20
36.7473981
40
0.4467846
50
329.2803592
51
344.7472793
0
ARC
8
DEFAULT_255_1_234
10
4.4582626
20
36.6929018
40
0.3336173
50
324.9352394
51
328.6160465
0
ARC
8
DEFAULT_255_1_234
10
4.4959734
20
36.6665427
40
0.2876076
50
280.580143
51
324.9173126
0
ARC
8
DEFAULT_255_1_234
10
4.4558527
20
36.8336099
40
0.4592847
50
269.5977311
51
281.6734359
0
ARC
8
DEFAULT_255_1_234
10
4.4486433
20
36.8216173
40
0.4472986
50
256.6228859
51
270.51044
0
ARC
8
DEFAULT_255_1_234
10
4.408441
20
36.6667877
40
0.2873874
50
215.8618325
51
257.2788573
0
ARC
8
DEFAULT_255_1_234
10
4.5105442
20
36.7352977
40
0.4102928
50
197.9693508
51
215.2623606
0
ARC
8
DEFAULT_255_1_234
10
4.7590558
20
36.8191709
40
0.6725652
50
187.8816417
51
198.2346507
0
ARC
8
DEFAULT_255_1_234
10
5.1548766
20
36.8763079
40
1.0724845
50
180.8976217
51
188.0055519
0
ARC
8
DEFAULT_255_1_234
10
5.4348954
20
36.8866777
40
1.3526448
50
180.7449369
51
181.1510016
0
ARC
8
DEFAULT_255_1_234
10
5.2771683
20
37.0723042
40
1.1948131
50
173.7675579
51
180.231553
0
ARC
8
DEFAULT_255_1_234
10
4.825383
20
37.1233666
40
0.7401564
50
164.3058563
51
173.9002247
0
ARC
8
DEFAULT_255_1_234
10
4.5341899
20
37.2072656
40
0.4371288
50
148.7922025
51
164.568378
0
ARC
8
DEFAULT_255_1_234
10
4.4390351
20
37.2603929
40
0.3282386
50
144.5883898
51
148.1176286
0
ARC
8
DEFAULT_255_1_234
10
4.4047249
20
37.2843315
40
0.2864044
50
101.6440918
51
144.514236
0
ARC
8
DEFAULT_255_1_234
10
4.4472315
20
37.1154069
40
0.4604934
50
89.5284041
51
102.5819763
0
ARC
8
DEFAULT_255_1_234
10
4.4551403
20
37.1115018
40
0.464401
50
77.0437873
51
90.5081339
0
ARC
8
DEFAULT_255_1_234
10
4.4953405
20
37.2757615
40
0.2953195
50
48.2778575
51
77.4994676
0
ARC
8
DEFAULT_255_1_234
10
4.5026036
20
37.2886746
40
0.2808655
50
36.3142134
51
47.6305865
0
ARC
8
DEFAULT_255_1_234
10
4.4157343
20
37.2301515
40
0.3855453
50
18.2931786
51
35.6769206
0
ARC
8
DEFAULT_255_1_234
10
4.1614102
20
37.1428593
40
0.654423
50
8.024666
51
18.5605216
0
ARC
8
DEFAULT_255_1_234
10
3.7451022
20
37.0813792
40
1.0752407
50
1.1274072
51
8.1718305
0
ARC
8
DEFAULT_255_1_234
10
3.4215213
20
37.0686885
40
1.3990231
50
0.5424119
51
1.3863029
0
ARC
8
DEFAULT_255_1_234
10
3.603659
20
37.0959342
40
1.0682415
50
359.8090433
51
4.9407866
0
ARC
8
DEFAULT_255_1_234
10
4.0246604
20
37.1335113
40
0.6455691
50
4.8362157
51
12.2904523
0
ARC
8
DEFAULT_255_1_234
10
4.3001719
20
37.1948965
40
0.3633074
50
12.0805627
51
23.8173984
0
ARC
8
DEFAULT_255_1_234
10
4.4175425
20
37.2445919
40
0.2358723
50
24.2871213
51
31.3935614
0
ARC
8
DEFAULT_255_1_234
10
4.4700122
20
37.2789233
40
0.1732111
50
30.7407893
51
82.4657128
0
ARC
8
DEFAULT_255_1_234
10
4.4520256
20
37.1905691
40
0.263235
50
81.1060089
51
90.2184952
0
ARC
8
DEFAULT_255_1_234
10
4.4484555
20
37.2163924
40
0.2374236
50
89.3806855
51
105.6762551
0
ARC
8
DEFAULT_255_1_234
10
4.4301186
20
37.2830567
40
0.1682847
50
105.7981136
51
149.7388061
0
ARC
8
DEFAULT_255_1_234
10
4.5365264
20
37.219095
40
0.2924306
50
149.4208916
51
163.6286378
0
ARC
8
DEFAULT_255_1_234
10
4.7456152
20
37.155325
40
0.5110213
50
163.3763315
51
172.1410975
0
ARC
8
DEFAULT_255_1_234
10
5.0756871
20
37.1080518
40
0.8444586
50
172.0259487
51
178.0703232
0
ARC
8
DEFAULT_255_1_234
10
5.378696
20
37.0936906
40
1.1477868
50
177.8631668
51
179.5044149
0
ARC
8
DEFAULT_255_1_234
10
5.2714365
20
36.8622389
40
1.0404907
50
179.7995573
51
185.2460446
0
ARC
8
DEFAULT_255_1_234
10
4.8671404
20
36.8239513
40
0.6343885
50
185.1411642
51
193.0079639
0
ARC
8
DEFAULT_255_1_234
10
4.6027877
20
36.7614641
40
0.3627568
50
192.7897626
51
205.2507664
0
ARC
8
DEFAULT_255_1_234
10
4.4981424
20
36.7147415
40
0.2481908
50
205.8005384
51
211.2537509
0
ARC
8
DEFAULT_255_1_234
10
4.4457864
20
36.679658
40
0.1852521
50
210.3789793
51
238.4008143
0
ARC
8
DEFAULT_255_1_234
10
4.4438386
20
36.6843376
40
0.1882621
50
239.6520629
51
265.9793761
0
ARC
8
DEFAULT_255_1_234
10
4.4523586
20
36.7515427
40
0.2559272
50
265.1315437
51
270.060332
0
ARC
8
DEFAULT_255_1_234
10
4.4552365
20
36.7191534
40
0.2235528
50
269.3314664
51
287.2178029
0
ARC
8
DEFAULT_255_1_234
10
4.4690217
20
36.6688279
40
0.1714108
50
287.7958004
51
329.080874
0
ARC
8
DEFAULT_255_1_234
10
4.3732674
20
36.728593
40
0.2842745
50
328.6634704
51
343.3325132
0
ARC
8
DEFAULT_255_1_234
10
4.1559694
20
36.7962863
40
0.5118644
50
343.0499468
51
351.9393422
0
ARC
8
DEFAULT_255_1_234
10
3.8092994
20
36.8473949
40
0.8622784
50
351.8069023
51
357.7959224
0
ARC
8
DEFAULT_255_1_234
10
3.485755
20
36.8641721
40
1.1862365
50
357.5871873
51
359.2677531
0
ARC
8
DEFAULT_255_1_234
10
5.1363384
20
36.4692565
40
0.1070357
50
163.5417914
51
180.5078233
0
ARC
8
DEFAULT_255_1_234
10
5.1171202
20
36.4744421
40
0.0871371
50
138.1647447
51
163.2316401
0
ARC
8
DEFAULT_255_1_234
10
5.1058981
20
36.4839534
40
0.0724329
50
105.6856465
51
137.8494928
0
ARC
8
DEFAULT_255_1_234
10
5.1177413
20
36.4455129
40
0.1126485
50
92.6088068
51
106.1990587
0
ARC
8
DEFAULT_255_1_234
10
5.1207786
20
36.4059774
40
0.1522861
50
89.9660831
51
93.0733434
0
ARC
8
DEFAULT_255_1_234
10
5.1218481
20
36.428132
40
0.130135
50
78.4379222
51
90.4311858
0
ARC
8
DEFAULT_255_1_234
10
5.1315061
20
36.4731588
40
0.0840873
50
56.8960528
51
78.7359558
0
ARC
8
DEFAULT_255_1_234
10
5.1378288
20
36.4841877
40
0.0713991
50
42.6499553
51
56.3125067
0
ARC
8
DEFAULT_255_1_234
10
5.1250175
20
36.4724146
40
0.0887984
50
3.8142714
51
42.6365749
0
ARC
8
DEFAULT_255_1_234
10
5.0963976
20
36.4684153
40
0.1176392
50
359.9476902
51
4.8305927
0
ARC
8
DEFAULT_255_1_234
10
5.1190135
20
36.4673541
40
0.0950282
50
340.9376387
51
0.5750546
0
ARC
8
DEFAULT_255_1_234
10
5.1302631
20
36.4643192
40
0.0834082
50
316.0805399
51
340.3842391
0
ARC
8
DEFAULT_255_1_234
10
5.136071
20
36.4589809
40
0.0755219
50
285.8514865
51
315.9414755
0
ARC
8
DEFAULT_255_1_234
10
5.1243281
20
36.4969349
40
0.115244
50
273.1292529
51
286.3135479
0
ARC
8
DEFAULT_255_1_234
10
5.120998
20
36.5371049
40
0.1555398
50
269.9524064
51
273.5463789
0
ARC
8
DEFAULT_255_1_234
10
5.1198932
20
36.5152792
40
0.1337177
50
259.0490813
51
270.4180302
0
ARC
8
DEFAULT_255_1_234
10
5.1102595
20
36.4675393
40
0.0850178
50
239.7587791
51
259.311372
0
ARC
8
DEFAULT_255_1_234
10
5.1021626
20
36.4524482
40
0.0679053
50
222.6244131
51
239.247817
0
ARC
8
DEFAULT_255_1_234
10
5.1156001
20
36.4647619
40
0.0861314
50
182.9227855
51
222.598345
0
ARC
8
DEFAULT_255_1_234
10
5.142462
20
36.4682373
40
0.113155
50
179.9642935
51
183.9868025
0
LINE
8
DEFAULT_255_1_234
10
5.6597984
20
36.9261169
11
5.6597984
21
37.0473962
0
LINE
8
DEFAULT_255_1_234
10
5.6597984
20
37.0473962
11
5.7714396
21
37.0473962
0
LINE
8
DEFAULT_255_1_234
10
5.5810874
20
37.2530087
11
5.4325002
21
37.2530087
0
LINE
8
DEFAULT_255_1_234
10
5.4220589
20
36.6988188
11
5.5714493
21
36.6988188
0
LINE
8
DEFAULT_255_1_234
10
5.7714396
20
36.9261169
11
5.6597984
21
36.9261169
0
ARC
8
DEFAULT_255_1_234
10
5.7685262
20
37.3866713
40
0.3392876
50
270.4919872
51
281.8951556
0
ARC
8
DEFAULT_255_1_234
10
5.7926524
20
37.2764702
40
0.2264817
50
281.6691735
51
301.2943132
0
ARC
8
DEFAULT_255_1_234
10
5.8096734
20
37.2453304
40
0.1910381
50
301.7833094
51
311.7545298
0
ARC
8
DEFAULT_255_1_234
10
5.818831
20
37.2351748
40
0.1773635
50
311.7323931
51
354.2802411
0
ARC
8
DEFAULT_255_1_234
10
5.7461935
20
37.2476722
40
0.2509385
50
353.0937916
51
0.1181479
0
ARC
8
DEFAULT_255_1_234
10
5.700072
20
37.2524386
40
0.2970898
50
359.1805295
51
15.0453146
0
ARC
8
DEFAULT_255_1_234
10
5.8346557
20
37.2916992
40
0.1569564
50
13.9577229
51
77.6713066
0
ARC
8
DEFAULT_255_1_234
10
5.7960086
20
37.1531949
40
0.3006298
50
76.1116566
51
90.7026153
0
ARC
8
DEFAULT_255_1_234
10
5.7900924
20
37.1805545
40
0.2732568
50
89.5324876
51
103.531937
0
ARC
8
DEFAULT_255_1_234
10
5.7700368
20
37.2604884
40
0.1908508
50
103.2931773
51
133.5619022
0
ARC
8
DEFAULT_255_1_234
10
5.7655857
20
37.2664375
40
0.1834746
50
133.8349307
51
173.5344437
0
ARC
8
DEFAULT_255_1_234
10
5.83789
20
37.2536213
40
0.2568033
50
172.5096846
51
180.1366907
0
ARC
8
DEFAULT_255_1_234
10
5.7427794
20
37.2570622
40
0.3103056
50
155.3484492
51
180.7484736
0
ARC
8
DEFAULT_255_1_234
10
5.7378883
20
37.2541846
40
0.3070957
50
131.5744599
51
154.4798489
0
ARC
8
DEFAULT_255_1_234
10
5.769203
20
37.222531
40
0.3515643
50
96.9875458
51
131.9690667
0
ARC
8
DEFAULT_255_1_234
10
5.791151
20
37.0979636
40
0.4779224
50
89.8596053
51
97.7825159
0
ARC
8
DEFAULT_255_1_234
10
5.7959573
20
37.0717616
40
0.5041361
50
78.3655447
51
90.4131539
0
ARC
8
DEFAULT_255_1_234
10
5.8317491
20
37.2376887
40
0.3344039
50
56.6229102
51
78.638727
0
ARC
8
DEFAULT_255_1_234
10
5.8532435
20
37.2752805
40
0.2912001
50
47.0253525
51
56.0854072
0
ARC
8
DEFAULT_255_1_234
10
5.8552215
20
37.2792223
40
0.2869704
50
10.9208013
51
46.7778124
0
ARC
8
DEFAULT_255_1_234
10
5.7188281
20
37.2476857
40
0.426899
50
359.6364486
51
11.6087304
0
ARC
8
DEFAULT_255_1_234
10
5.9023125
20
37.2461752
40
0.243409
50
332.3549906
51
359.7179418
0
ARC
8
DEFAULT_255_1_234
10
5.8372727
20
37.2770142
40
0.3153459
50
325.2333722
51
332.8745602
0
ARC
8
DEFAULT_255_1_234
10
5.852535
20
37.2663828
40
0.2967456
50
292.9802137
51
325.2392345
0
ARC
8
DEFAULT_255_1_234
10
5.8250724
20
37.3197863
40
0.3566604
50
292.5402179
51
293.6924929
0
ARC
8
DEFAULT_255_1_234
10
5.864332
20
36.6743091
40
0.3307468
50
57.6435486
51
72.8625112
0
ARC
8
DEFAULT_255_1_234
10
5.899782
20
36.7317549
40
0.2632492
50
36.7248896
51
57.4697979
0
ARC
8
DEFAULT_255_1_234
10
5.8986452
20
36.733022
40
0.2634081
50
8.0545065
51
36.356114
0
ARC
8
DEFAULT_255_1_234
10
5.8123638
20
36.7175174
40
0.3510261
50
359.8320645
51
8.5869982
0
ARC
8
DEFAULT_255_1_234
10
5.7748414
20
36.7127101
40
0.3885653
50
343.9829931
51
0.5571613
0
ARC
8
DEFAULT_255_1_234
10
5.8634611
20
36.6884438
40
0.2966924
50
311.6359546
51
343.7651759
0
ARC
8
DEFAULT_255_1_234
10
5.825618
20
36.7311102
40
0.3537231
50
279.7829875
51
311.6255694
0
ARC
8
DEFAULT_255_1_234
10
5.7954956
20
36.874828
40
0.5004971
50
269.7286406
51
280.3856417
0
ARC
8
DEFAULT_255_1_234
10
5.7893029
20
36.8706996
40
0.4963778
50
256.6828919
51
270.4412052
0
ARC
8
DEFAULT_255_1_234
10
5.7554325
20
36.7322394
40
0.3538406
50
229.4223008
51
256.8556159
0
ARC
8
DEFAULT_255_1_234
10
5.7139718
20
36.6855736
40
0.2914296
50
181.818294
51
229.6455059
0
ARC
8
DEFAULT_255_1_234
10
5.8179674
20
36.6986496
40
0.3959084
50
179.9755256
51
183.2323064
0
ARC
8
DEFAULT_255_1_234
10
5.800742
20
36.6966037
40
0.2293034
50
179.4465117
51
196.2869258
0
ARC
8
DEFAULT_255_1_234
10
5.7519828
20
36.6832651
40
0.1787621
50
196.5661473
51
227.705904
0
ARC
8
DEFAULT_255_1_234
10
5.7683923
20
36.7016155
40
0.2033784
50
227.7652068
51
257.8762805
0
ARC
8
DEFAULT_255_1_234
10
5.7908893
20
36.7959156
40
0.3003081
50
257.4584385
51
270.426602
0
ARC
8
DEFAULT_255_1_234
10
5.7954459
20
36.8248996
40
0.329292
50
269.5962073
51
280.8789248
0
ARC
8
DEFAULT_255_1_234
10
5.8183988
20
36.7102685
40
0.2123908
50
280.6346389
51
299.8595945
0
ARC
8
DEFAULT_255_1_234
10
5.8374894
20
36.6740212
40
0.171457
50
300.3576302
51
314.5517981
0
ARC
8
DEFAULT_255_1_234
10
5.8291955
20
36.6800919
40
0.1816095
50
315.0728369
51
345.0431014
0
ARC
8
DEFAULT_255_1_234
10
5.7368769
20
36.7069841
40
0.2777492
50
344.5986631
51
357.9269593
0
ARC
8
DEFAULT_255_1_234
10
5.6473095
20
36.7131276
40
0.3674917
50
357.4748886
51
0.0231117
0
ARC
8
DEFAULT_255_1_234
10
5.7496205
20
36.7155679
40
0.2651907
50
359.5047933
51
13.4239635
0
ARC
8
DEFAULT_255_1_234
10
5.8362848
20
36.7377478
40
0.1757509
50
12.9498199
51
48.7551375
0
ARC
8
DEFAULT_255_1_234
10
5.8180582
20
36.71284
40
0.2065134
50
49.5088623
51
72.1836453
0
ARC
8
DEFAULT_255_1_234
10
5.7822735
20
36.6066291
40
0.3185836
50
71.9010081
51
84.3554254
0
ARC
8
DEFAULT_255_1_234
10
5.7661367
20
36.4705326
40
0.4556151
50
84.0193428
51
89.333121
0
LINE
8
DEFAULT_255_1_234
10
4.8204817
20
45.0194327
11
4.8204817
21
44.8266709
0
LINE
8
DEFAULT_255_1_234
10
4.082365
20
44.8065916
11
4.082365
21
45.0049755
0
LINE
8
DEFAULT_255_1_234
10
4.6718946
20
44.7865123
11
4.6718946
21
45.0298739
0
LINE
8
DEFAULT_255_1_234
10
4.2309521
20
45.0411184
11
4.2309521
21
44.8033789
0
ARC
8
DEFAULT_255_1_234
10
3.5957707
20
44.8217805
40
1.2247208
50
353.8441951
51
0.2287902
0
ARC
8
DEFAULT_255_1_234
10
4.0597211
20
44.7699806
40
0.7578929
50
344.4934747
51
353.9765454
0
ARC
8
DEFAULT_255_1_234
10
4.3589801
20
44.6848981
40
0.4467846
50
329.2803592
51
344.7472793
0
ARC
8
DEFAULT_255_1_234
10
4.4582626
20
44.6304018
40
0.3336173
50
324.9352394
51
328.6160465
0
ARC
8
DEFAULT_255_1_234
10
4.4959734
20
44.6040427
40
0.2876076
50
280.580143
51
324.9173126
0
ARC
8
DEFAULT_255_1_234
10
4.4558527
20
44.7711099
40
0.4592847
50
269.5977311
51
281.6734359
0
ARC
8
DEFAULT_255_1_234
10
4.4486433
20
44.7591173
40
0.4472986
50
256.6228859
51
270.51044
0
ARC
8
DEFAULT_255_1_234
10
4.408441
20
44.6042877
40
0.2873874
50
215.8618325
51
257.2788573
0
ARC
8
DEFAULT_255_1_234
10
4.5105442
20
44.6727977
40
0.4102928
50
197.9693508
51
215.2623606
0
ARC
8
DEFAULT_255_1_234
10
4.7590558
20
44.7566709
40
0.6725652
50
187.8816417
51
198.2346507
0
ARC
8
DEFAULT_255_1_234
10
5.1548766
20
44.8138079
40
1.0724845
50
180.8976217
51
188.0055519
0
ARC
8
DEFAULT_255_1_234
10
5.4348954
20
44.8241777
40
1.3526448
50
180.7449369
51
181.1510016
0
ARC
8
DEFAULT_255_1_234
10
5.2771683
20
45.0098042
40
1.1948131
50
173.7675579
51
180.231553
0
ARC
8
DEFAULT_255_1_234
10
4.825383
20
45.0608666
40
0.7401564
50
164.3058563
51
173.9002247
0
ARC
8
DEFAULT_255_1_234
10
4.5341899
20
45.1447656
40
0.4371288
50
148.7922025
51
164.568378
0
ARC
8
DEFAULT_255_1_234
10
4.4390351
20
45.1978929
40
0.3282386
50
144.5883898
51
148.1176286
0
ARC
8
DEFAULT_255_1_234
10
4.4047249
20
45.2218315
40
0.2864044
50
101.6440918
51
144.514236
0
ARC
8
DEFAULT_255_1_234
10
4.4472315
20
45.0529069
40
0.4604934
50
89.5284041
51
102.5819763
0
ARC
8
DEFAULT_255_1_234
10
4.4551403
20
45.0490018
40
0.464401
50
77.0437873
51
90.5081339
0
ARC
8
DEFAULT_255_1_234
10
4.4953405
20
45.2132615
40
0.2953195
50
48.2778575
51
77.4994676
0
ARC
8
DEFAULT_255_1_234
10
4.5026036
20
45.2261746
40
0.2808655
50
36.3142134
51
47.6305865
0
ARC
8
DEFAULT_255_1_234
10
4.4157343
20
45.1676515
40
0.3855453
50
18.2931786
51
35.6769206
0
ARC
8
DEFAULT_255_1_234
10
4.1614102
20
45.0803593
40
0.654423
50
8.024666
51
18.5605216
0
ARC
8
DEFAULT_255_1_234
10
3.7451022
20
45.0188792
40
1.0752407
50
1.1274072
51
8.1718305
0
ARC
8
DEFAULT_255_1_234
10
3.4215213
20
45.0061885
40
1.3990231
50
0.5424119
51
1.3863029
0
ARC
8
DEFAULT_255_1_234
10
3.603659
20
45.0334342
40
1.0682415
50
359.8090433
51
4.9407866
0
ARC
8
DEFAULT_255_1_234
10
4.0246604
20
45.0710113
40
0.6455691
50
4.8362157
51
12.2904523
0
ARC
8
DEFAULT_255_1_234
10
4.3001719
20
45.1323965
40
0.3633074
50
12.0805627
51
23.8173984
0
ARC
8
DEFAULT_255_1_234
10
4.4175425
20
45.1820919
40
0.2358723
50
24.2871213
51
31.3935614
0
ARC
8
DEFAULT_255_1_234
10
4.4700122
20
45.2164233
40
0.1732111
50
30.7407893
51
82.4657128
0
ARC
8
DEFAULT_255_1_234
10
4.4520256
20
45.1280691
40
0.263235
50
81.1060089
51
90.2184952
0
ARC
8
DEFAULT_255_1_234
10
4.4484555
20
45.1538924
40
0.2374236
50
89.3806855
51
105.6762551
0
ARC
8
DEFAULT_255_1_234
10
4.4301186
20
45.2205567
40
0.1682847
50
105.7981136
51
149.7388061
0
ARC
8
DEFAULT_255_1_234
10
4.5365264
20
45.156595
40
0.2924306
50
149.4208916
51
163.6286378
0
ARC
8
DEFAULT_255_1_234
10
4.7456152
20
45.092825
40
0.5110213
50
163.3763315
51
172.1410975
0
ARC
8
DEFAULT_255_1_234
10
5.0756871
20
45.0455518
40
0.8444586
50
172.0259487
51
178.0703232
0
ARC
8
DEFAULT_255_1_234
10
5.378696
20
45.0311906
40
1.1477868
50
177.8631668
51
179.5044149
0
ARC
8
DEFAULT_255_1_234
10
5.2714365
20
44.7997389
40
1.0404907
50
179.7995573
51
185.2460446
0
ARC
8
DEFAULT_255_1_234
10
4.8671404
20
44.7614513
40
0.6343885
50
185.1411642
51
193.0079639
0
ARC
8
DEFAULT_255_1_234
10
4.6027877
20
44.6989641
40
0.3627568
50
192.7897626
51
205.2507664
0
ARC
8
DEFAULT_255_1_234
10
4.4981424
20
44.6522415
40
0.2481908
50
205.8005384
51
211.2537509
0
ARC
8
DEFAULT_255_1_234
10
4.4457864
20
44.617158
40
0.1852521
50
210.3789793
51
238.4008143
0
ARC
8
DEFAULT_255_1_234
10
4.4438386
20
44.6218376
40
0.1882621
50
239.6520629
51
265.9793761
0
ARC
8
DEFAULT_255_1_234
10
4.4523586
20
44.6890427
40
0.2559272
50
265.1315437
51
270.060332
0
ARC
8
DEFAULT_255_1_234
10
4.4552365
20
44.6566534
40
0.2235528
50
269.3314664
51
287.2178029
0
ARC
8
DEFAULT_255_1_234
10
4.4690217
20
44.6063279
40
0.1714108
50
287.7958004
51
329.080874
0
ARC
8
DEFAULT_255_1_234
10
4.3732674
20
44.666093
40
0.2842745
50
328.6634704
51
343.3325132
0
ARC
8
DEFAULT_255_1_234
10
4.1559694
20
44.7337863
40
0.5118644
50
343.0499468
51
351.9393422
0
ARC
8
DEFAULT_255_1_234
10
3.8092994
20
44.7848949
40
0.8622784
50
351.8069023
51
357.7959224
0
ARC
8
DEFAULT_255_1_234
10
3.485755
20
44.8016721
40
1.1862365
50
357.5871873
51
359.2677531
0
ARC
8
DEFAULT_255_1_234
10
5.1363384
20
44.4067565
40
0.1070357
50
163.5417914
51
180.5078233
0
ARC
8
DEFAULT_255_1_234
10
5.1171202
20
44.4119421
40
0.0871371
50
138.1647447
51
163.2316401
0
ARC
8
DEFAULT_255_1_234
10
5.1058981
20
44.4214534
40
0.0724329
50
105.6856465
51
137.8494928
0
ARC
8
DEFAULT_255_1_234
10
5.1177413
20
44.3830129
40
0.1126485
50
92.6088068
51
106.1990587
0
ARC
8
DEFAULT_255_1_234
10
5.1207786
20
44.3434774
40
0.1522861
50
89.9660831
51
93.0733434
0
ARC
8
DEFAULT_255_1_234
10
5.1218481
20
44.365632
40
0.130135
50
78.4379222
51
90.4311858
0
ARC
8
DEFAULT_255_1_234
10
5.1315061
20
44.4106588
40
0.0840873
50
56.8960528
51
78.7359558
0
ARC
8
DEFAULT_255_1_234
10
5.1378288
20
44.4216877
40
0.0713991
50
42.6499553
51
56.3125067
0
ARC
8
DEFAULT_255_1_234
10
5.1250175
20
44.4099146
40
0.0887984
50
3.8142714
51
42.6365749
0
ARC
8
DEFAULT_255_1_234
10
5.0963976
20
44.4059153
40
0.1176392
50
359.9476902
51
4.8305927
0
ARC
8
DEFAULT_255_1_234
10
5.1190135
20
44.4048541
40
0.0950282
50
340.9376387
51
0.5750546
0
ARC
8
DEFAULT_255_1_234
10
5.1302631
20
44.4018192
40
0.0834082
50
316.0805399
51
340.3842391
0
ARC
8
DEFAULT_255_1_234
10
5.136071
20
44.3964809
40
0.0755219
50
285.8514865
51
315.9414755
0
ARC
8
DEFAULT_255_1_234
10
5.1243281
20
44.4344349
40
0.115244
50
273.1292529
51
286.3135479
0
ARC
8
DEFAULT_255_1_234
10
5.120998
20
44.4746049
40
0.1555398
50
269.9524064
51
273.5463789
0
ARC
8
DEFAULT_255_1_234
10
5.1198932
20
44.4527792
40
0.1337177
50
259.0490813
51
270.4180302
0
ARC
8
DEFAULT_255_1_234
10
5.1102595
20
44.4050393
40
0.0850178
50
239.7587791
51
259.311372
0
ARC
8
DEFAULT_255_1_234
10
5.1021626
20
44.3899482
40
0.0679053
50
222.6244131
51
239.247817
0
ARC
8
DEFAULT_255_1_234
10
5.1156001
20
44.4022619
40
0.0861314
50
182.9227855
51
222.598345
0
ARC
8
DEFAULT_255_1_234
10
5.142462
20
44.4057373
40
0.113155
50
179.9642935
51
183.9868025
0
LINE
8
DEFAULT_255_1_234
10
6.2099725
20
44.4491792
11
6.2099725
21
44.3279
0
LINE
8
DEFAULT_255_1_234
10
6.2099725
20
44.3279
11
5.4437446
21
44.3279
0
LINE
8
DEFAULT_255_1_234
10
5.4437446
20
44.3279
11
5.4437446
21
44.4347221
0
LINE
8
DEFAULT_255_1_234
10
5.4437446
20
44.4347221
11
5.8485442
21
44.8844995
0
LINE
8
DEFAULT_255_1_234
10
5.5698429
20
45.1527595
11
5.4212558
21
45.1527595
0
LINE
8
DEFAULT_255_1_234
10
5.9360902
20
44.7889218
11
5.6228524
21
44.4491792
0
LINE
8
DEFAULT_255_1_234
10
5.6228524
20
44.4491792
11
6.2099725
21
44.4491792
0
ARC
8
DEFAULT_255_1_234
10
4.4995276
20
46.0774527
40
1.8008286
50
318.5132453
51
320.7828378
0
ARC
8
DEFAULT_255_1_234
10
5.028225
20
45.6471426
40
1.1191493
50
320.7372736
51
323.9737074
0
ARC
8
DEFAULT_255_1_234
10
5.4202106
20
45.3631361
40
0.6350923
50
323.8961724
51
328.6421089
0
ARC
8
DEFAULT_255_1_234
10
5.6248702
20
45.2369031
40
0.3946393
50
328.8299013
51
331.789948
0
ARC
8
DEFAULT_255_1_234
10
5.724588
20
45.1854509
40
0.2824501
50
331.4255242
51
352.9364833
0
ARC
8
DEFAULT_255_1_234
10
5.7382381
20
45.1823976
40
0.2685315
50
353.2248685
51
0.0169286
0
ARC
8
DEFAULT_255_1_234
10
5.7592258
20
45.184695
40
0.2475536
50
359.4866256
51
15.9339782
0
ARC
8
DEFAULT_255_1_234
10
5.8099243
20
45.1983286
40
0.1950618
50
16.1714718
51
43.5284424
0
ARC
8
DEFAULT_255_1_234
10
5.8176552
20
45.2060573
40
0.184134
50
43.4415429
51
83.1661404
0
ARC
8
DEFAULT_255_1_234
10
5.804247
20
45.1323771
40
0.258926
50
82.160215
51
90.1505798
0
ARC
8
DEFAULT_255_1_234
10
5.8010897
20
45.0786865
40
0.3126255
50
89.5460705
51
102.5418777
0
ARC
8
DEFAULT_255_1_234
10
5.7767983
20
45.1817665
40
0.2067346
50
102.1739365
51
129.2061916
0
ARC
8
DEFAULT_255_1_234
10
5.7689055
20
45.1942094
40
0.1921118
50
129.7279328
51
135.7542026
0
ARC
8
DEFAULT_255_1_234
10
5.7810583
20
45.1845045
40
0.2075944
50
136.175737
51
166.3674722
0
ARC
8
DEFAULT_255_1_234
10
5.8817502
20
45.1575182
40
0.3118201
50
165.9092917
51
178.8683903
0
ARC
8
DEFAULT_255_1_234
10
5.9682363
20
45.1528179
40
0.3983935
50
178.438168
51
180.0083905
0
ARC
8
DEFAULT_255_1_234
10
5.8280965
20
45.1567231
40
0.4068601
50
163.2878735
51
180.5581814
0
ARC
8
DEFAULT_255_1_234
10
5.7479227
20
45.178784
40
0.3237344
50
133.454115
51
162.9470031
0
ARC
8
DEFAULT_255_1_234
10
5.7657768
20
45.1598
40
0.349795
50
100.7869394
51
133.4384016
0
ARC
8
DEFAULT_255_1_234
10
5.800554
20
45.0049319
40
0.5084616
50
89.6605301
51
101.3704185
0
ARC
8
DEFAULT_255_1_234
10
5.8071878
20
45.0110496
40
0.502348
50
78.2171172
51
90.4130393
0
ARC
8
DEFAULT_255_1_234
10
5.8426957
20
45.1734637
40
0.3361092
50
55.9268222
51
78.4888551
0
ARC
8
DEFAULT_255_1_234
10
5.8623397
20
45.2073324
40
0.2970617
50
47.9292255
51
55.4054003
0
ARC
8
DEFAULT_255_1_234
10
5.8724957
20
45.2176502
40
0.2825983
50
4.3347696
51
48.0560701
0
ARC
8
DEFAULT_255_1_234
10
5.7629351
20
45.2006601
40
0.393225
50
359.925209
51
5.5967654
0
ARC
8
DEFAULT_255_1_234
10
5.8058243
20
45.2062816
40
0.3503892
50
337.8914096
51
358.9967724
0
ARC
8
DEFAULT_255_1_234
10
5.5344655
20
45.3109706
40
0.6412172
50
326.9135351
51
338.3505194
0
ARC
8
DEFAULT_255_1_234
10
5.1358959
20
45.5664284
40
1.1146189
50
319.6472867
51
327.095818
0
ARC
8
DEFAULT_255_1_234
10
4.7525962
20
45.8826
40
1.6114559
50
317.2586784
51
319.9046139
0
LINE
8
DEFAULT_255_1_234
10
4.8124817
20
52.9569327
11
4.8124817
21
52.7641709
0
LINE
8
DEFAULT_255_1_234
10
4.074365
20
52.7440916
11
4.074365
21
52.9424755
0
LINE
8
DEFAULT_255_1_234
10
4.6638946
20
52.7240123
11
4.6638946
21
52.9673739
0
LINE
8
DEFAULT_255_1_234
10
4.2229521
20
52.9786184
11
4.2229521
21
52.7408789
0
ARC
8
DEFAULT_255_1_234
10
3.5877707
20
52.7592805
40
1.2247208
50
353.8441951
51
0.2287902
0
ARC
8
DEFAULT_255_1_234
10
4.0517211
20
52.7074806
40
0.7578929
50
344.4934747
51
353.9765454
0
ARC
8
DEFAULT_255_1_234
10
4.3509801
20
52.6223981
40
0.4467846
50
329.2803592
51
344.7472793
0
ARC
8
DEFAULT_255_1_234
10
4.4502626
20
52.5679018
40
0.3336173
50
324.9352394
51
328.6160465
0
ARC
8
DEFAULT_255_1_234
10
4.4879734
20
52.5415427
40
0.2876076
50
280.580143
51
324.9173126
0
ARC
8
DEFAULT_255_1_234
10
4.4478527
20
52.7086099
40
0.4592847
50
269.5977311
51
281.6734359
0
ARC
8
DEFAULT_255_1_234
10
4.4406433
20
52.6966173
40
0.4472986
50
256.6228859
51
270.51044
0
ARC
8
DEFAULT_255_1_234
10
4.400441
20
52.5417877
40
0.2873874
50
215.8618325
51
257.2788573
0
ARC
8
DEFAULT_255_1_234
10
4.5025442
20
52.6102977
40
0.4102928
50
197.9693508
51
215.2623606
0
ARC
8
DEFAULT_255_1_234
10
4.7510558
20
52.6941709
40
0.6725652
50
187.8816417
51
198.2346507
0
ARC
8
DEFAULT_255_1_234
10
5.1468766
20
52.7513079
40
1.0724845
50
180.8976217
51
188.0055519
0
ARC
8
DEFAULT_255_1_234
10
5.4268954
20
52.7616777
40
1.3526448
50
180.7449369
51
181.1510016
0
ARC
8
DEFAULT_255_1_234
10
5.2691683
20
52.9473042
40
1.1948131
50
173.7675579
51
180.231553
0
ARC
8
DEFAULT_255_1_234
10
4.817383
20
52.9983666
40
0.7401564
50
164.3058563
51
173.9002247
0
ARC
8
DEFAULT_255_1_234
10
4.5261899
20
53.0822656
40
0.4371288
50
148.7922025
51
164.568378
0
ARC
8
DEFAULT_255_1_234
10
4.4310351
20
53.1353929
40
0.3282386
50
144.5883898
51
148.1176286
0
ARC
8
DEFAULT_255_1_234
10
4.3967249
20
53.1593315
40
0.2864044
50
101.6440918
51
144.514236
0
ARC
8
DEFAULT_255_1_234
10
4.4392315
20
52.9904069
40
0.4604934
50
89.5284041
51
102.5819763
0
ARC
8
DEFAULT_255_1_234
10
4.4471403
20
52.9865018
40
0.464401
50
77.0437873
51
90.5081339
0
ARC
8
DEFAULT_255_1_234
10
4.4873405
20
53.1507615
40
0.2953195
50
48.2778575
51
77.4994676
0
ARC
8
DEFAULT_255_1_234
10
4.4946036
20
53.1636746
40
0.2808655
50
36.3142134
51
47.6305865
0
ARC
8
DEFAULT_255_1_234
10
4.4077343
20
53.1051515
40
0.3855453
50
18.2931786
51
35.6769206
0
ARC
8
DEFAULT_255_1_234
10
4.1534102
20
53.0178593
40
0.654423
50
8.024666
51
18.5605216
0
ARC
8
DEFAULT_255_1_234
10
3.7371022
20
52.9563792
40
1.0752407
50
1.1274072
51
8.1718305
0
ARC
8
DEFAULT_255_1_234
10
3.4135213
20
52.9436885
40
1.3990231
50
0.5424119
51
1.3863029
0
ARC
8
DEFAULT_255_1_234
10
3.595659
20
52.9709342
40
1.0682415
50
359.8090433
51
4.9407866
0
ARC
8
DEFAULT_255_1_234
10
4.0166604
20
53.0085113
40
0.6455691
50
4.8362157
51
12.2904523
0
ARC
8
DEFAULT_255_1_234
10
4.2921719
20
53.0698965
40
0.3633074
50
12.0805627
51
23.8173984
0
ARC
8
DEFAULT_255_1_234
10
4.4095425
20
53.1195919
40
0.2358723
50
24.2871213
51
31.3935614
0
ARC
8
DEFAULT_255_1_234
10
4.4620122
20
53.1539233
40
0.1732111
50
30.7407893
51
82.4657128
0
ARC
8
DEFAULT_255_1_234
10
4.4440256
20
53.0655691
40
0.263235
50
81.1060089
51
90.2184952
0
ARC
8
DEFAULT_255_1_234
10
4.4404555
20
53.0913924
40
0.2374236
50
89.3806855
51
105.6762551
0
ARC
8
DEFAULT_255_1_234
10
4.4221186
20
53.1580567
40
0.1682847
50
105.7981136
51
149.7388061
0
ARC
8
DEFAULT_255_1_234
10
4.5285264
20
53.094095
40
0.2924306
50
149.4208916
51
163.6286378
0
ARC
8
DEFAULT_255_1_234
10
4.7376152
20
53.030325
40
0.5110213
50
163.3763315
51
172.1410975
0
ARC
8
DEFAULT_255_1_234
10
5.0676871
20
52.9830518
40
0.8444586
50
172.0259487
51
178.0703232
0
ARC
8
DEFAULT_255_1_234
10
5.370696
20
52.9686906
40
1.1477868
50
177.8631668
51
179.5044149
0
ARC
8
DEFAULT_255_1_234
10
5.2634365
20
52.7372389
40
1.0404907
50
179.7995573
51
185.2460446
0
ARC
8
DEFAULT_255_1_234
10
4.8591404
20
52.6989513
40
0.6343885
50
185.1411642
51
193.0079639
0
ARC
8
DEFAULT_255_1_234
10
4.5947877
20
52.6364641
40
0.3627568
50
192.7897626
51
205.2507664
0
ARC
8
DEFAULT_255_1_234
10
4.4901424
20
52.5897415
40
0.2481908
50
205.8005384
51
211.2537509
0
ARC
8
DEFAULT_255_1_234
10
4.4377864
20
52.554658
40
0.1852521
50
210.3789793
51
238.4008143
0
ARC
8
DEFAULT_255_1_234
10
4.4358386
20
52.5593376
40
0.1882621
50
239.6520629
51
265.9793761
0
ARC
8
DEFAULT_255_1_234
10
4.4443586
20
52.6265427
40
0.2559272
50
265.1315437
51
270.060332
0
ARC
8
DEFAULT_255_1_234
10
4.4472365
20
52.5941534
40
0.2235528
50
269.3314664
51
287.2178029
0
ARC
8
DEFAULT_255_1_234
10
4.4610217
20
52.5438279
40
0.1714108
50
287.7958004
51
329.080874
0
ARC
8
DEFAULT_255_1_234
10
4.3652674
20
52.603593
40
0.2842745
50
328.6634704
51
343.3325132
0
ARC
8
DEFAULT_255_1_234
10
4.1479694
20
52.6712863
40
0.5118644
50
343.0499468
51
351.9393422
0
ARC
8
DEFAULT_255_1_234
10
3.8012994
20
52.7223949
40
0.8622784
50
351.8069023
51
357.7959224
0
ARC
8
DEFAULT_255_1_234
10
3.477755
20
52.7391721
40
1.1862365
50
357.5871873
51
359.2677531
0
ARC
8
DEFAULT_255_1_234
10
5.1283384
20
52.3442565
40
0.1070357
50
163.5417914
51
180.5078233
0
ARC
8
DEFAULT_255_1_234
10
5.1091202
20
52.3494421
40
0.0871371
50
138.1647447
51
163.2316401
0
ARC
8
DEFAULT_255_1_234
10
5.0978981
20
52.3589534
40
0.0724329
50
105.6856465
51
137.8494928
0
ARC
8
DEFAULT_255_1_234
10
5.1097413
20
52.3205129
40
0.1126485
50
92.6088068
51
106.1990587
0
ARC
8
DEFAULT_255_1_234
10
5.1127786
20
52.2809774
40
0.1522861
50
89.9660831
51
93.0733434
0
ARC
8
DEFAULT_255_1_234
10
5.1138481
20
52.303132
40
0.130135
50
78.4379222
51
90.4311858
0
ARC
8
DEFAULT_255_1_234
10
5.1235061
20
52.3481588
40
0.0840873
50
56.8960528
51
78.7359558
0
ARC
8
DEFAULT_255_1_234
10
5.1298288
20
52.3591877
40
0.0713991
50
42.6499553
51
56.3125067
0
ARC
8
DEFAULT_255_1_234
10
5.1170175
20
52.3474146
40
0.0887984
50
3.8142714
51
42.6365749
0
ARC
8
DEFAULT_255_1_234
10
5.0883976
20
52.3434153
40
0.1176392
50
359.9476902
51
4.8305927
0
ARC
8
DEFAULT_255_1_234
10
5.1110135
20
52.3423541
40
0.0950282
50
340.9376387
51
0.5750546
0
ARC
8
DEFAULT_255_1_234
10
5.1222631
20
52.3393192
40
0.0834082
50
316.0805399
51
340.3842391
0
ARC
8
DEFAULT_255_1_234
10
5.128071
20
52.3339809
40
0.0755219
50
285.8514865
51
315.9414755
0
ARC
8
DEFAULT_255_1_234
10
5.1163281
20
52.3719349
40
0.115244
50
273.1292529
51
286.3135479
0
ARC
8
DEFAULT_255_1_234
10
5.112998
20
52.4121049
40
0.1555398
50
269.9524064
51
273.5463789
0
ARC
8
DEFAULT_255_1_234
10
5.1118932
20
52.3902792
40
0.1337177
50
259.0490813
51
270.4180302
0
ARC
8
DEFAULT_255_1_234
10
5.1022595
20
52.3425393
40
0.0850178
50
239.7587791
51
259.311372
0
ARC
8
DEFAULT_255_1_234
10
5.0941626
20
52.3274482
40
0.0679053
50
222.6244131
51
239.247817
0
ARC
8
DEFAULT_255_1_234
10
5.1076001
20
52.3397619
40
0.0861314
50
182.9227855
51
222.598345
0
ARC
8
DEFAULT_255_1_234
10
5.134462
20
52.3432373
40
0.113155
50
179.9642935
51
183.9868025
0
LINE
8
DEFAULT_255_1_234
10
5.9240743
20
53.4404433
11
5.9240743
21
52.2654
0
LINE
8
DEFAULT_255_1_234
10
5.9240743
20
52.2654
11
5.774684
21
52.2654
0
LINE
8
DEFAULT_255_1_234
10
5.774684
20
52.2654
11
5.774684
21
53.2557133
0
LINE
8
DEFAULT_255_1_234
10
5.774684
20
53.2557133
11
5.4751001
21
53.1456785
0
LINE
8
DEFAULT_255_1_234
10
5.4751001
20
53.1456785
11
5.4751001
21
53.2806117
0
LINE
8
DEFAULT_255_1_234
10
5.4751001
20
53.2806117
11
5.9007823
21
53.4404433
0
LINE
8
DEFAULT_255_1_234
10
5.9007823
20
53.4404433
11
5.9240743
21
53.4404433
0
LINE
8
DEFAULT_255_1_234
10
4.8204817
20
60.8944327
11
4.8204817
21
60.7016709
0
LINE
8
DEFAULT_255_1_234
10
4.082365
20
60.6815916
11
4.082365
21
60.8799755
0
LINE
8
DEFAULT_255_1_234
10
4.6718946
20
60.6615123
11
4.6718946
21
60.9048739
0
LINE
8
DEFAULT_255_1_234
10
4.2309521
20
60.9161184
11
4.2309521
21
60.6783789
0
ARC
8
DEFAULT_255_1_234
10
3.5957707
20
60.6967805
40
1.2247208
50
353.8441951
51
0.2287902
0
ARC
8
DEFAULT_255_1_234
10
4.0597211
20
60.6449806
40
0.7578929
50
344.4934747
51
353.9765454
0
ARC
8
DEFAULT_255_1_234
10
4.3589801
20
60.5598981
40
0.4467846
50
329.2803592
51
344.7472793
0
ARC
8
DEFAULT_255_1_234
10
4.4582626
20
60.5054018
40
0.3336173
50
324.9352394
51
328.6160465
0
ARC
8
DEFAULT_255_1_234
10
4.4959734
20
60.4790427
40
0.2876076
50
280.580143
51
324.9173126
0
ARC
8
DEFAULT_255_1_234
10
4.4558527
20
60.6461099
40
0.4592847
50
269.5977311
51
281.6734359
0
ARC
8
DEFAULT_255_1_234
10
4.4486433
20
60.6341173
40
0.4472986
50
256.6228859
51
270.51044
0
ARC
8
DEFAULT_255_1_234
10
4.408441
20
60.4792877
40
0.2873874
50
215.8618325
51
257.2788573
0
ARC
8
DEFAULT_255_1_234
10
4.5105442
20
60.5477977
40
0.4102928
50
197.9693508
51
215.2623606
0
ARC
8
DEFAULT_255_1_234
10
4.7590558
20
60.6316709
40
0.6725652
50
187.8816417
51
198.2346507
0
ARC
8
DEFAULT_255_1_234
10
5.1548766
20
60.6888079
40
1.0724845
50
180.8976217
51
188.0055519
0
ARC
8
DEFAULT_255_1_234
10
5.4348954
20
60.6991777
40
1.3526448
50
180.7449369
51
181.1510016
0
ARC
8
DEFAULT_255_1_234
10
5.2771683
20
60.8848042
40
1.1948131
50
173.7675579
51
180.231553
0
ARC
8
DEFAULT_255_1_234
10
4.825383
20
60.9358666
40
0.7401564
50
164.3058563
51
173.9002247
0
ARC
8
DEFAULT_255_1_234
10
4.5341899
20
61.0197656
40
0.4371288
50
148.7922025
51
164.568378
0
ARC
8
DEFAULT_255_1_234
10
4.4390351
20
61.0728929
40
0.3282386
50
144.5883898
51
148.1176286
0
ARC
8
DEFAULT_255_1_234
10
4.4047249
20
61.0968315
40
0.2864044
50
101.6440918
51
144.514236
0
ARC
8
DEFAULT_255_1_234
10
4.4472315
20
60.9279069
40
0.4604934
50
89.5284041
51
102.5819763
0
ARC
8
DEFAULT_255_1_234
10
4.4551403
20
60.9240018
40
0.464401
50
77.0437873
51
90.5081339
0
ARC
8
DEFAULT_255_1_234
10
4.4953405
20
61.0882615
40
0.2953195
50
48.2778575
51
77.4994676
0
ARC
8
DEFAULT_255_1_234
10
4.5026036
20
61.1011746
40
0.2808655
50
36.3142134
51
47.6305865
0
ARC
8
DEFAULT_255_1_234
10
4.4157343
20
61.0426515
40
0.3855453
50
18.2931786
51
35.6769206
0
ARC
8
DEFAULT_255_1_234
10
4.1614102
20
60.9553593
40
0.654423
50
8.024666
51
18.5605216
0
ARC
8
DEFAULT_255_1_234
10
3.7451022
20
60.8938792
40
1.0752407
50
1.1274072
51
8.1718305
0
ARC
8
DEFAULT_255_1_234
10
3.4215213
20
60.8811885
40
1.3990231
50
0.5424119
51
1.3863029
0
ARC
8
DEFAULT_255_1_234
10
3.603659
20
60.9084342
40
1.0682415
50
359.8090433
51
4.9407866
0
ARC
8
DEFAULT_255_1_234
10
4.0246604
20
60.9460113
40
0.6455691
50
4.8362157
51
12.2904523
0
ARC
8
DEFAULT_255_1_234
10
4.3001719
20
61.0073965
40
0.3633074
50
12.0805627
51
23.8173984
0
ARC
8
DEFAULT_255_1_234
10
4.4175425
20
61.0570919
40
0.2358723
50
24.2871213
51
31.3935614
0
ARC
8
DEFAULT_255_1_234
10
4.4700122
20
61.0914233
40
0.1732111
50
30.7407893
51
82.4657128
0
ARC
8
DEFAULT_255_1_234
10
4.4520256
20
61.0030691
40
0.263235
50
81.1060089
51
90.2184952
0
ARC
8
DEFAULT_255_1_234
10
4.4484555
20
61.0288924
40
0.2374236
50
89.3806855
51
105.6762551
0
ARC
8
DEFAULT_255_1_234
10
4.4301186
20
61.0955567
40
0.1682847
50
105.7981136
51
149.7388061
0
ARC
8
DEFAULT_255_1_234
10
4.5365264
20
61.031595
40
0.2924306
50
149.4208916
51
163.6286378
0
ARC
8
DEFAULT_255_1_234
10
4.7456152
20
60.967825
40
0.5110213
50
163.3763315
51
172.1410975
0
ARC
8
DEFAULT_255_1_234
10
5.0756871
20
60.9205518
40
0.8444586
50
172.0259487
51
178.0703232
0
ARC
8
DEFAULT_255_1_234
10
5.378696
20
60.9061906
40
1.1477868
50
177.8631668
51
179.5044149
0
ARC
8
DEFAULT_255_1_234
10
5.2714365
20
60.6747389
40
1.0404907
50
179.7995573
51
185.2460446
0
ARC
8
DEFAULT_255_1_234
10
4.8671404
20
60.6364513
40
0.6343885
50
185.1411642
51
193.0079639
0
ARC
8
DEFAULT_255_1_234
10
4.6027877
20
60.5739641
40
0.3627568
50
192.7897626
51
205.2507664
0
ARC
8
DEFAULT_255_1_234
10
4.4981424
20
60.5272415
40
0.2481908
50
205.8005384
51
211.2537509
0
ARC
8
DEFAULT_255_1_234
10
4.4457864
20
60.492158
40
0.1852521
50
210.3789793
51
238.4008143
0
ARC
8
DEFAULT_255_1_234
10
4.4438386
20
60.4968376
40
0.1882621
50
239.6520629
51
265.9793761
0
ARC
8
DEFAULT_255_1_234
10
4.4523586
20
60.5640427
40
0.2559272
50
265.1315437
51
270.060332
0
ARC
8
DEFAULT_255_1_234
10
4.4552365
20
60.5316534
40
0.2235528
50
269.3314664
51
287.2178029
0
ARC
8
DEFAULT_255_1_234
10
4.4690217
20
60.4813279
40
0.1714108
50
287.7958004
51
329.080874
0
ARC
8
DEFAULT_255_1_234
10
4.3732674
20
60.541093
40
0.2842745
50
328.6634704
51
343.3325132
0
ARC
8
DEFAULT_255_1_234
10
4.1559694
20
60.6087863
40
0.5118644
50
343.0499468
51
351.9393422
0
ARC
8
DEFAULT_255_1_234
10
3.8092994
20
60.6598949
40
0.8622784
50
351.8069023
51
357.7959224
0
ARC
8
DEFAULT_255_1_234
10
3.485755
20
60.6766721
40
1.1862365
50
357.5871873
51
359.2677531
0
ARC
8
DEFAULT_255_1_234
10
5.1363384
20
60.2817565
40
0.1070357
50
163.5417914
51
180.5078233
0
ARC
8
DEFAULT_255_1_234
10
5.1171202
20
60.2869421
40
0.0871371
50
138.1647447
51
163.2316401
0
ARC
8
DEFAULT_255_1_234
10
5.1058981
20
60.2964534
40
0.0724329
50
105.6856465
51
137.8494928
0
ARC
8
DEFAULT_255_1_234
10
5.1177413
20
60.2580129
40
0.1126485
50
92.6088068
51
106.1990587
0
ARC
8
DEFAULT_255_1_234
10
5.1207786
20
60.2184774
40
0.1522861
50
89.9660831
51
93.0733434
0
ARC
8
DEFAULT_255_1_234
10
5.1218481
20
60.240632
40
0.130135
50
78.4379222
51
90.4311858
0
ARC
8
DEFAULT_255_1_234
10
5.1315061
20
60.2856588
40
0.0840873
50
56.8960528
51
78.7359558
0
ARC
8
DEFAULT_255_1_234
10
5.1378288
20
60.2966877
40
0.0713991
50
42.6499553
51
56.3125067
0
ARC
8
DEFAULT_255_1_234
10
5.1250175
20
60.2849146
40
0.0887984
50
3.8142714
51
42.6365749
0
ARC
8
DEFAULT_255_1_234
10
5.0963976
20
60.2809153
40
0.1176392
50
359.9476902
51
4.8305927
0
ARC
8
DEFAULT_255_1_234
10
5.1190135
20
60.2798541
40
0.0950282
50
340.9376387
51
0.5750546
0
ARC
8
DEFAULT_255_1_234
10
5.1302631
20
60.2768192
40
0.0834082
50
316.0805399
51
340.3842391
0
ARC
8
DEFAULT_255_1_234
10
5.136071
20
60.2714809
40
0.0755219
50
285.8514865
51
315.9414755
0
ARC
8
DEFAULT_255_1_234
10
5.1243281
20
60.3094349
40
0.115244
50
273.1292529
51
286.3135479
0
ARC
8
DEFAULT_255_1_234
10
5.120998
20
60.3496049
40
0.1555398
50
269.9524064
51
273.5463789
0
ARC
8
DEFAULT_255_1_234
10
5.1198932
20
60.3277792
40
0.1337177
50
259.0490813
51
270.4180302
0
ARC
8
DEFAULT_255_1_234
10
5.1102595
20
60.2800393
40
0.0850178
50
239.7587791
51
259.311372
0
ARC
8
DEFAULT_255_1_234
10
5.1021626
20
60.2649482
40
0.0679053
50
222.6244131
51
239.247817
0
ARC
8
DEFAULT_255_1_234
10
5.1156001
20
60.2772619
40
0.0861314
50
182.9227855
51
222.598345
0
ARC
8
DEFAULT_255_1_234
10
5.142462
20
60.2807373
40
0.113155
50
179.9642935
51
183.9868025
0
LINE
8
DEFAULT_255_1_234
10
6.1770423
20
60.8944327
11
6.1770423
21
60.7016709
0
LINE
8
DEFAULT_255_1_234
10
5.4389256
20
60.6815916
11
5.4389256
21
60.8799755
0
LINE
8
DEFAULT_255_1_234
10
6.0284552
20
60.6615123
11
6.0284552
21
60.9048739
0
LINE
8
DEFAULT_255_1_234
10
5.5875127
20
60.9161184
11
5.5875127
21
60.6783789
0
ARC
8
DEFAULT_255_1_234
10
4.9523313
20
60.6967805
40
1.2247208
50
353.8441951
51
0.2287902
0
ARC
8
DEFAULT_255_1_234
10
5.4162817
20
60.6449806
40
0.7578929
50
344.4934747
51
353.9765454
0
ARC
8
DEFAULT_255_1_234
10
5.7155407
20
60.5598981
40
0.4467846
50
329.2803592
51
344.7472793
0
ARC
8
DEFAULT_255_1_234
10
5.8148232
20
60.5054018
40
0.3336173
50
324.9352394
51
328.6160465
0
ARC
8
DEFAULT_255_1_234
10
5.852534
20
60.4790427
40
0.2876076
50
280.580143
51
324.9173126
0
ARC
8
DEFAULT_255_1_234
10
5.8124133
20
60.6461099
40
0.4592847
50
269.5977311
51
281.6734359
0
ARC
8
DEFAULT_255_1_234
10
5.8052039
20
60.6341173
40
0.4472986
50
256.6228859
51
270.51044
0
ARC
8
DEFAULT_255_1_234
10
5.7650016
20
60.4792877
40
0.2873874
50
215.8618325
51
257.2788573
0
ARC
8
DEFAULT_255_1_234
10
5.8671048
20
60.5477977
40
0.4102928
50
197.9693508
51
215.2623606
0
ARC
8
DEFAULT_255_1_234
10
6.1156164
20
60.6316709
40
0.6725652
50
187.8816417
51
198.2346507
0
ARC
8
DEFAULT_255_1_234
10
6.5114372
20
60.6888079
40
1.0724845
50
180.8976217
51
188.0055519
0
ARC
8
DEFAULT_255_1_234
10
6.791456
20
60.6991777
40
1.3526448
50
180.7449369
51
181.1510016
0
ARC
8
DEFAULT_255_1_234
10
6.6337289
20
60.8848042
40
1.1948131
50
173.7675579
51
180.231553
0
ARC
8
DEFAULT_255_1_234
10
6.1819436
20
60.9358666
40
0.7401564
50
164.3058563
51
173.9002247
0
ARC
8
DEFAULT_255_1_234
10
5.8907505
20
61.0197656
40
0.4371288
50
148.7922025
51
164.568378
0
ARC
8
DEFAULT_255_1_234
10
5.7955957
20
61.0728929
40
0.3282386
50
144.5883898
51
148.1176286
0
ARC
8
DEFAULT_255_1_234
10
5.7612855
20
61.0968315
40
0.2864044
50
101.6440918
51
144.514236
0
ARC
8
DEFAULT_255_1_234
10
5.8037921
20
60.9279069
40
0.4604934
50
89.5284041
51
102.5819763
0
ARC
8
DEFAULT_255_1_234
10
5.8117009
20
60.9240018
40
0.464401
50
77.0437873
51
90.5081339
0
ARC
8
DEFAULT_255_1_234
10
5.8519011
20
61.0882615
40
0.2953195
50
48.2778575
51
77.4994676
0
ARC
8
DEFAULT_255_1_234
10
5.8591642
20
61.1011746
40
0.2808655
50
36.3142134
51
47.6305865
0
ARC
8
DEFAULT_255_1_234
10
5.7722949
20
61.0426515
40
0.3855453
50
18.2931786
51
35.6769206
0
ARC
8
DEFAULT_255_1_234
10
5.5179708
20
60.9553593
40
0.654423
50
8.024666
51
18.5605216
0
ARC
8
DEFAULT_255_1_234
10
5.1016628
20
60.8938792
40
1.0752407
50
1.1274072
51
8.1718305
0
ARC
8
DEFAULT_255_1_234
10
4.7780818
20
60.8811885
40
1.3990231
50
0.5424119
51
1.3863029
0
ARC
8
DEFAULT_255_1_234
10
4.9602196
20
60.9084342
40
1.0682415
50
359.8090433
51
4.9407866
0
ARC
8
DEFAULT_255_1_234
10
5.381221
20
60.9460113
40
0.6455691
50
4.8362157
51
12.2904523
0
ARC
8
DEFAULT_255_1_234
10
5.6567325
20
61.0073965
40
0.3633074
50
12.0805627
51
23.8173984
0
ARC
8
DEFAULT_255_1_234
10
5.774103
20
61.0570919
40
0.2358723
50
24.2871213
51
31.3935614
0
ARC
8
DEFAULT_255_1_234
10
5.8265728
20
61.0914233
40
0.1732111
50
30.7407893
51
82.4657128
0
ARC
8
DEFAULT_255_1_234
10
5.8085862
20
61.0030691
40
0.263235
50
81.1060089
51
90.2184952
0
ARC
8
DEFAULT_255_1_234
10
5.8050161
20
61.0288924
40
0.2374236
50
89.3806855
51
105.6762551
0
ARC
8
DEFAULT_255_1_234
10
5.7866792
20
61.0955567
40
0.1682847
50
105.7981136
51
149.7388061
0
ARC
8
DEFAULT_255_1_234
10
5.893087
20
61.031595
40
0.2924306
50
149.4208916
51
163.6286378
0
ARC
8
DEFAULT_255_1_234
10
6.1021758
20
60.967825
40
0.5110213
50
163.3763315
51
172.1410975
0
ARC
8
DEFAULT_255_1_234
10
6.4322477
20
60.9205518
40
0.8444586
50
172.0259487
51
178.0703232
0
ARC
8
DEFAULT_255_1_234
10
6.7352566
20
60.9061906
40
1.1477868
50
177.8631668
51
179.5044149
0
ARC
8
DEFAULT_255_1_234
10
6.6279971
20
60.6747389
40
1.0404907
50
179.7995573
51
185.2460446
0
ARC
8
DEFAULT_255_1_234
10
6.223701
20
60.6364513
40
0.6343885
50
185.1411642
51
193.0079639
0
ARC
8
DEFAULT_255_1_234
10
5.9593483
20
60.5739641
40
0.3627568
50
192.7897626
51
205.2507664
0
ARC
8
DEFAULT_255_1_234
10
5.854703
20
60.5272415
40
0.2481908
50
205.8005384
51
211.2537509
0
ARC
8
DEFAULT_255_1_234
10
5.802347
20
60.492158
40
0.1852521
50
210.3789793
51
238.4008143
0
ARC
8
DEFAULT_255_1_234
10
5.8003992
20
60.4968376
40
0.1882621
50
239.6520629
51
265.9793761
0
ARC
8
DEFAULT_255_1_234
10
5.8089192
20
60.5640427
40
0.2559272
50
265.1315437
51
270.060332
0
ARC
8
DEFAULT_255_1_234
10
5.8117971
20
60.5316534
40
0.2235528
50
269.3314664
51
287.2178029
0
ARC
8
DEFAULT_255_1_234
10
5.8255823
20
60.4813279
40
0.1714108
50
287.7958004
51
329.080874
0
ARC
8
DEFAULT_255_1_234
10
5.729828
20
60.541093
40
0.2842745
50
328.6634704
51
343.3325132
0
ARC
8
DEFAULT_255_1_234
10
5.51253
20
60.6087863
40
0.5118644
50
343.0499468
51
351.9393422
0
ARC
8
DEFAULT_255_1_234
10
5.16586
20
60.6598949
40
0.8622784
50
351.8069023
51
357.7959224
0
ARC
8
DEFAULT_255_1_234
10
4.8423156
20
60.6766721
40
1.1862365
50
357.5871873
51
359.2677531
0
LINE
8
DEFAULT_255_1_234
10
23.0448364
20
69.3098211
11
23.2440235
21
69.3098211
0
LINE
8
DEFAULT_255_1_234
10
23.2440235
20
69.3098211
11
23.6263342
21
68.3556506
0
LINE
8
DEFAULT_255_1_234
10
23.6263342
20
68.3556506
11
24.008645
21
69.3098211
0
LINE
8
DEFAULT_255_1_234
10
24.008645
20
69.3098211
11
24.2086353
21
69.3098211
0
LINE
8
DEFAULT_255_1_234
10
24.2086353
20
69.3098211
11
24.2086353
21
68.1404
0
LINE
8
DEFAULT_255_1_234
10
24.2086353
20
68.1404
11
24.0544259
21
68.1404
0
LINE
8
DEFAULT_255_1_234
10
24.0544259
20
68.1404
11
24.0544259
21
68.5957996
0
LINE
8
DEFAULT_255_1_234
10
24.0544259
20
68.5957996
11
24.068883
21
69.0873419
0
LINE
8
DEFAULT_255_1_234
10
24.068883
20
69.0873419
11
23.6849659
21
68.1404
0
LINE
8
DEFAULT_255_1_234
10
23.6849659
20
68.1404
11
23.5668994
21
68.1404
0
LINE
8
DEFAULT_255_1_234
10
23.5668994
20
68.1404
11
23.1837854
21
69.0849324
0
LINE
8
DEFAULT_255_1_234
10
23.1837854
20
69.0849324
11
23.1990458
21
68.5957996
0
LINE
8
DEFAULT_255_1_234
10
23.1990458
20
68.5957996
11
23.1990458
21
68.1404
0
LINE
8
DEFAULT_255_1_234
10
23.1990458
20
68.1404
11
23.0448364
21
68.1404
0
LINE
8
DEFAULT_255_1_234
10
23.0448364
20
68.1404
11
23.0448364
21
69.3098211
0
ENDSEC
0
EOF