0
SECTION
2
HEADER
9
$MEASUREMENT
70
1
0
ENDSEC
0
SECTION
2
TABLES
0
TABLE
2
LTYPE
0
LTYPE
72
65
70
64
2
CONTINUOUS
3
______
73
0
40
0
0
ENDTAB
0
TABLE
2
LAYER
0
LAYER
2
DEFAULT_255_2_778
70
0
62
255
6
CONTINUOUS
0
ENDTAB
0
ENDSEC
0
SECTION
2
ENTITIES
0
LINE
8
DEFAULT_255_2_778
10
2.740638
20
-0.2061944
11
2.740638
21
2.0938056
0
LINE
8
DEFAULT_255_2_778
10
2.740638
20
2.0938056
11
9.840738
21
2.0938056
0
LINE
8
DEFAULT_255_2_778
10
9.840738
20
2.0938056
11
9.840738
21
122.4938056
0
LINE
8
DEFAULT_255_2_778
10
9.840738
20
122.4938056
11
2.740638
21
122.4938056
0
LINE
8
DEFAULT_255_2_778
10
2.740638
20
122.4938056
11
2.740638
21
124.7938056
0
LINE
8
DEFAULT_255_2_778
10
29.044438
20
18.8943056
11
29.090538
21
18.9742056
0
LINE
8
DEFAULT_255_2_778
10
40.240538
20
2.1938056
11
31.140438
21
2.1938056
0
LINE
8
DEFAULT_255_2_778
10
31.140438
20
2.1938056
11
31.140438
21
121.8937056
0
LINE
8
DEFAULT_255_2_778
10
31.140438
20
121.8937056
11
39.240438
21
121.8937056
0
LINE
8
DEFAULT_255_2_778
10
40.140538
20
-0.2061944
11
40.240538
21
-0.2061944
0
LINE
8
DEFAULT_255_2_778
10
40.240538
20
-0.2061944
11
40.240538
21
2.5767056
0
LINE
8
DEFAULT_255_2_778
10
6.6038844
20
102.3263718
11
6.7821844
21
102.3263718
0
LINE
8
DEFAULT_255_2_778
10
6.7821844
20
102.3263718
11
7.0200844
21
102.2668718
0
LINE
8
DEFAULT_255_2_778
10
7.0200844
20
102.2668718
11
7.1983844
21
102.1480718
0
LINE
8
DEFAULT_255_2_778
10
7.1983844
20
102.1480718
11
7.3171844
21
101.9101718
0
LINE
8
DEFAULT_255_2_778
10
7.3171844
20
101.9101718
11
7.3171844
21
101.6127718
0
LINE
8
DEFAULT_255_2_778
10
7.3171844
20
101.6127718
11
7.1983844
21
101.3153718
0
LINE
8
DEFAULT_255_2_778
10
7.1983844
20
101.3153718
11
7.0795844
21
101.1370718
0
LINE
8
DEFAULT_255_2_778
10
7.0795844
20
101.1370718
11
6.3659844
21
100.4234718
0
LINE
8
DEFAULT_255_2_778
10
6.3659844
20
100.4234718
11
7.3766844
21
100.4234718
0
LINE
8
DEFAULT_255_2_778
10
7.3766844
20
100.4234718
11
7.3766844
21
100.1856718
0
LINE
8
DEFAULT_255_2_778
10
7.3766844
20
100.1856718
11
6.0090844
21
100.1856718
0
LINE
8
DEFAULT_255_2_778
10
6.0090844
20
100.1856718
11
6.0090844
21
100.4829718
0
LINE
8
DEFAULT_255_2_778
10
6.0090844
20
100.4829718
11
6.8414844
21
101.3153718
0
LINE
8
DEFAULT_255_2_778
10
6.8414844
20
101.3153718
11
6.9602844
21
101.4937718
0
LINE
8
DEFAULT_255_2_778
10
6.9602844
20
101.4937718
11
7.0197844
21
101.6720718
0
LINE
8
DEFAULT_255_2_778
10
7.0197844
20
101.6720718
11
7.0197844
21
101.8503718
0
LINE
8
DEFAULT_255_2_778
10
7.0197844
20
101.8503718
11
6.9009844
21
102.0286718
0
LINE
8
DEFAULT_255_2_778
10
6.9009844
20
102.0286718
11
6.7821844
21
102.0882718
0
LINE
8
DEFAULT_255_2_778
10
6.7821844
20
102.0882718
11
6.6038844
21
102.0882718
0
LINE
8
DEFAULT_255_2_778
10
6.6038844
20
102.0882718
11
6.4850844
21
102.0286718
0
LINE
8
DEFAULT_255_2_778
10
6.4850844
20
102.0286718
11
6.4255844
21
101.9691718
0
LINE
8
DEFAULT_255_2_778
10
6.4255844
20
101.9691718
11
6.3659844
21
101.8503718
0
LINE
8
DEFAULT_255_2_778
10
6.3659844
20
101.8503718
11
6.3659844
21
101.7315718
0
LINE
8
DEFAULT_255_2_778
10
6.3659844
20
101.7315718
11
6.0093844
21
101.7315718
0
LINE
8
DEFAULT_255_2_778
10
6.0093844
20
101.7315718
11
6.0688844
21
101.9694718
0
LINE
8
DEFAULT_255_2_778
10
6.0688844
20
101.9694718
11
6.1876844
21
102.1477718
0
LINE
8
DEFAULT_255_2_778
10
6.1876844
20
102.1477718
11
6.3659844
21
102.2665718
0
LINE
8
DEFAULT_255_2_778
10
6.3659844
20
102.2665718
11
6.6038844
21
102.3260718
0
LINE
8
DEFAULT_255_2_778
10
6.0000844
20
76.3263718
11
7.3676844
21
76.3263718
0
LINE
8
DEFAULT_255_2_778
10
7.3676844
20
76.3263718
11
7.3676844
21
76.0289718
0
LINE
8
DEFAULT_255_2_778
10
7.3676844
20
76.0289718
11
6.5948844
21
74.1856718
0
LINE
8
DEFAULT_255_2_778
10
6.5948844
20
74.1856718
11
6.2974844
21
74.1856718
0
LINE
8
DEFAULT_255_2_778
10
6.2974844
20
74.1856718
11
7.0702844
21
76.0289718
0
LINE
8
DEFAULT_255_2_778
10
7.0702844
20
76.0289718
11
6.0000844
21
76.0289718
0
LINE
8
DEFAULT_255_2_778
10
6.0000844
20
76.0289718
11
6.0000844
21
76.3263718
0
LINE
8
DEFAULT_255_2_778
10
6.6636438
20
107.5265396
11
6.9610438
21
107.5265396
0
LINE
8
DEFAULT_255_2_778
10
6.9610438
20
107.5265396
11
6.9610438
21
105.3860396
0
LINE
8
DEFAULT_255_2_778
10
6.9610438
20
105.3860396
11
6.6636438
21
105.3860396
0
LINE
8
DEFAULT_255_2_778
10
6.6636438
20
105.3860396
11
6.6636438
21
107.1698396
0
LINE
8
DEFAULT_255_2_778
10
6.6636438
20
107.1698396
11
6.4258438
21
106.9915396
0
LINE
8
DEFAULT_255_2_778
10
6.4258438
20
106.9915396
11
6.1879438
21
106.8727396
0
LINE
8
DEFAULT_255_2_778
10
6.1879438
20
106.8727396
11
6.1879438
21
107.1698396
0
LINE
8
DEFAULT_255_2_778
10
6.1879438
20
107.1698396
11
6.3662438
21
107.2886396
0
LINE
8
DEFAULT_255_2_778
10
6.3662438
20
107.2886396
11
6.6041438
21
107.4670396
0
LINE
8
DEFAULT_255_2_778
10
6.6041438
20
107.4670396
11
6.6636438
21
107.5265396
0
LINE
8
DEFAULT_255_2_778
10
6.5446188
20
97.1263052
11
6.3067188
21
97.0668052
0
LINE
8
DEFAULT_255_2_778
10
6.3067188
20
97.0668052
11
6.1284188
21
96.9480052
0
LINE
8
DEFAULT_255_2_778
10
6.1284188
20
96.9480052
11
6.0096188
21
96.7101052
0
LINE
8
DEFAULT_255_2_778
10
6.0096188
20
96.7101052
11
6.0096188
21
96.5913052
0
LINE
8
DEFAULT_255_2_778
10
6.0096188
20
96.5913052
11
6.3070188
21
96.5913052
0
LINE
8
DEFAULT_255_2_778
10
6.3070188
20
96.5913052
11
6.3665188
21
96.7696052
0
LINE
8
DEFAULT_255_2_778
10
6.3665188
20
96.7696052
11
6.4260188
21
96.8292052
0
LINE
8
DEFAULT_255_2_778
10
6.4260188
20
96.8292052
11
6.5448188
21
96.8887052
0
LINE
8
DEFAULT_255_2_778
10
6.5448188
20
96.8887052
11
6.7827188
21
96.8887052
0
LINE
8
DEFAULT_255_2_778
10
6.7827188
20
96.8887052
11
6.9015188
21
96.8292052
0
LINE
8
DEFAULT_255_2_778
10
6.9015188
20
96.8292052
11
7.0203188
21
96.6509052
0
LINE
8
DEFAULT_255_2_778
10
7.0203188
20
96.6509052
11
7.0203188
21
96.4130052
0
LINE
8
DEFAULT_255_2_778
10
7.0203188
20
96.4130052
11
6.9607188
21
96.2942052
0
LINE
8
DEFAULT_255_2_778
10
6.9607188
20
96.2942052
11
6.8419188
21
96.2347052
0
LINE
8
DEFAULT_255_2_778
10
6.8419188
20
96.2347052
11
6.6636188
21
96.1751052
0
LINE
8
DEFAULT_255_2_778
10
6.6636188
20
96.1751052
11
6.4853188
21
96.1751052
0
LINE
8
DEFAULT_255_2_778
10
6.4853188
20
96.1751052
11
6.4853188
21
95.9373052
0
LINE
8
DEFAULT_255_2_778
10
6.4853188
20
95.9373052
11
6.7231188
21
95.9373052
0
LINE
8
DEFAULT_255_2_778
10
6.7231188
20
95.9373052
11
6.9015188
21
95.8777052
0
LINE
8
DEFAULT_255_2_778
10
6.9015188
20
95.8777052
11
7.0203188
21
95.7589052
0
LINE
8
DEFAULT_255_2_778
10
7.0203188
20
95.7589052
11
7.0798188
21
95.6401052
0
LINE
8
DEFAULT_255_2_778
10
7.0798188
20
95.6401052
11
7.0798188
21
95.4618052
0
LINE
8
DEFAULT_255_2_778
10
7.0798188
20
95.4618052
11
6.9610188
21
95.2835052
0
LINE
8
DEFAULT_255_2_778
10
6.9610188
20
95.2835052
11
6.7827188
21
95.1647052
0
LINE
8
DEFAULT_255_2_778
10
6.7827188
20
95.1647052
11
6.5448188
21
95.1647052
0
LINE
8
DEFAULT_255_2_778
10
6.5448188
20
95.1647052
11
6.3665188
21
95.2242052
0
LINE
8
DEFAULT_255_2_778
10
6.3665188
20
95.2242052
11
6.2477188
21
95.4025052
0
LINE
8
DEFAULT_255_2_778
10
6.2477188
20
95.4025052
11
6.2477188
21
95.5213052
0
LINE
8
DEFAULT_255_2_778
10
6.2477188
20
95.5213052
11
5.9503188
21
95.5213052
0
LINE
8
DEFAULT_255_2_778
10
5.9503188
20
95.5213052
11
5.9503188
21
95.4025052
0
LINE
8
DEFAULT_255_2_778
10
5.9503188
20
95.4025052
11
6.0098188
21
95.2242052
0
LINE
8
DEFAULT_255_2_778
10
6.0098188
20
95.2242052
11
6.1286188
21
95.1054052
0
LINE
8
DEFAULT_255_2_778
10
6.1286188
20
95.1054052
11
6.3070188
21
94.9866052
0
LINE
8
DEFAULT_255_2_778
10
6.3070188
20
94.9866052
11
6.5448188
21
94.9271052
0
LINE
8
DEFAULT_255_2_778
10
6.5448188
20
94.9271052
11
6.7827188
21
94.9271052
0
LINE
8
DEFAULT_255_2_778
10
6.7827188
20
94.9271052
11
7.0801188
21
95.0459052
0
LINE
8
DEFAULT_255_2_778
10
7.0801188
20
95.0459052
11
7.3179188
21
95.2837052
0
LINE
8
DEFAULT_255_2_778
10
7.3179188
20
95.2837052
11
7.3775188
21
95.4621052
0
LINE
8
DEFAULT_255_2_778
10
7.3775188
20
95.4621052
11
7.3775188
21
95.6999052
0
LINE
8
DEFAULT_255_2_778
10
7.3775188
20
95.6999052
11
7.2587188
21
95.9378052
0
LINE
8
DEFAULT_255_2_778
10
7.2587188
20
95.9378052
11
7.1399188
21
95.9973052
0
LINE
8
DEFAULT_255_2_778
10
7.1399188
20
95.9973052
11
6.9615188
21
96.0569052
0
LINE
8
DEFAULT_255_2_778
10
6.9615188
20
96.0569052
11
7.0803188
21
96.1164052
0
LINE
8
DEFAULT_255_2_778
10
7.0803188
20
96.1164052
11
7.2587188
21
96.2947052
0
LINE
8
DEFAULT_255_2_778
10
7.2587188
20
96.2947052
11
7.3182188
21
96.4731052
0
LINE
8
DEFAULT_255_2_778
10
7.3182188
20
96.4731052
11
7.3182188
21
96.7109052
0
LINE
8
DEFAULT_255_2_778
10
7.3182188
20
96.7109052
11
7.1994188
21
96.9488052
0
LINE
8
DEFAULT_255_2_778
10
7.1994188
20
96.9488052
11
7.0211188
21
97.0676052
0
LINE
8
DEFAULT_255_2_778
10
7.0211188
20
97.0676052
11
6.8427188
21
97.1271052
0
LINE
8
DEFAULT_255_2_778
10
6.8427188
20
97.1271052
11
6.5453188
21
97.1271052
0
LINE
8
DEFAULT_255_2_778
10
6.0688167
20
86.7263052
11
7.2581167
21
86.7263052
0
LINE
8
DEFAULT_255_2_778
10
7.2581167
20
86.7263052
11
7.2581167
21
86.4885052
0
LINE
8
DEFAULT_255_2_778
10
7.2581167
20
86.4885052
11
6.3662167
21
86.4885052
0
LINE
8
DEFAULT_255_2_778
10
6.3662167
20
86.4885052
11
6.3067167
21
85.7749052
0
LINE
8
DEFAULT_255_2_778
10
6.3067167
20
85.7749052
11
6.3662167
21
85.8344052
0
LINE
8
DEFAULT_255_2_778
10
6.3662167
20
85.8344052
11
6.4850167
21
85.8940052
0
LINE
8
DEFAULT_255_2_778
10
6.4850167
20
85.8940052
11
6.6633167
21
85.9535052
0
LINE
8
DEFAULT_255_2_778
10
6.6633167
20
85.9535052
11
6.8417167
21
85.9535052
0
LINE
8
DEFAULT_255_2_778
10
6.8417167
20
85.9535052
11
7.0200167
21
85.8940052
0
LINE
8
DEFAULT_255_2_778
10
7.0200167
20
85.8940052
11
7.1983167
21
85.7752052
0
LINE
8
DEFAULT_255_2_778
10
7.1983167
20
85.7752052
11
7.3171167
21
85.5968052
0
LINE
8
DEFAULT_255_2_778
10
7.3171167
20
85.5968052
11
7.3767167
21
85.4185052
0
LINE
8
DEFAULT_255_2_778
10
7.3767167
20
85.4185052
11
7.3767167
21
85.1211052
0
LINE
8
DEFAULT_255_2_778
10
7.3767167
20
85.1211052
11
7.3171167
21
84.9428052
0
LINE
8
DEFAULT_255_2_778
10
7.3171167
20
84.9428052
11
7.1983167
21
84.7645052
0
LINE
8
DEFAULT_255_2_778
10
7.1983167
20
84.7645052
11
6.9605167
21
84.5861052
0
LINE
8
DEFAULT_255_2_778
10
6.9605167
20
84.5861052
11
6.7821167
21
84.5266052
0
LINE
8
DEFAULT_255_2_778
10
6.7821167
20
84.5266052
11
6.5443167
21
84.5266052
0
LINE
8
DEFAULT_255_2_778
10
6.5443167
20
84.5266052
11
6.3064167
21
84.5861052
0
LINE
8
DEFAULT_255_2_778
10
6.3064167
20
84.5861052
11
6.1281167
21
84.7049052
0
LINE
8
DEFAULT_255_2_778
10
6.1281167
20
84.7049052
11
6.0093167
21
84.9428052
0
LINE
8
DEFAULT_255_2_778
10
6.0093167
20
84.9428052
11
6.0093167
21
85.0616052
0
LINE
8
DEFAULT_255_2_778
10
6.0093167
20
85.0616052
11
6.3067167
21
85.0616052
0
LINE
8
DEFAULT_255_2_778
10
6.3067167
20
85.0616052
11
6.3067167
21
85.0020052
0
LINE
8
DEFAULT_255_2_778
10
6.3067167
20
85.0020052
11
6.3662167
21
84.8832052
0
LINE
8
DEFAULT_255_2_778
10
6.3662167
20
84.8832052
11
6.5446167
21
84.7645052
0
LINE
8
DEFAULT_255_2_778
10
6.5446167
20
84.7645052
11
6.7824167
21
84.7645052
0
LINE
8
DEFAULT_255_2_778
10
6.7824167
20
84.7645052
11
6.9607167
21
84.8832052
0
LINE
8
DEFAULT_255_2_778
10
6.9607167
20
84.8832052
11
7.0795167
21
85.1211052
0
LINE
8
DEFAULT_255_2_778
10
7.0795167
20
85.1211052
11
7.0795167
21
85.3590052
0
LINE
8
DEFAULT_255_2_778
10
7.0795167
20
85.3590052
11
7.0200167
21
85.5373052
0
LINE
8
DEFAULT_255_2_778
10
7.0200167
20
85.5373052
11
6.9012167
21
85.6561052
0
LINE
8
DEFAULT_255_2_778
10
6.9012167
20
85.6561052
11
6.7824167
21
85.7156052
0
LINE
8
DEFAULT_255_2_778
10
6.7824167
20
85.7156052
11
6.6041167
21
85.7156052
0
LINE
8
DEFAULT_255_2_778
10
6.6041167
20
85.7156052
11
6.4853167
21
85.6561052
0
LINE
8
DEFAULT_255_2_778
10
6.4853167
20
85.6561052
11
6.3665167
21
85.5373052
0
LINE
8
DEFAULT_255_2_778
10
6.3665167
20
85.5373052
11
6.3070167
21
85.4185052
0
LINE
8
DEFAULT_255_2_778
10
6.3070167
20
85.4185052
11
6.0096167
21
85.4185052
0
LINE
8
DEFAULT_255_2_778
10
6.0096167
20
85.4185052
11
6.0691167
21
86.7266052
0
LINE
8
DEFAULT_255_2_778
10
6.7228511
20
112.4884729
11
6.6040511
21
112.4884729
0
LINE
8
DEFAULT_255_2_778
10
6.6040511
20
112.4884729
11
6.4853511
21
112.4289729
0
LINE
8
DEFAULT_255_2_778
10
6.4853511
20
112.4289729
11
6.3665511
21
112.3101729
0
LINE
8
DEFAULT_255_2_778
10
6.3665511
20
112.3101729
11
6.3069511
21
112.1913729
0
LINE
8
DEFAULT_255_2_778
10
6.3069511
20
112.1913729
11
6.2474511
21
111.8347729
0
LINE
8
DEFAULT_255_2_778
10
6.2474511
20
111.8347729
11
6.2474511
21
111.4185729
0
LINE
8
DEFAULT_255_2_778
10
6.2474511
20
111.4185729
11
6.3069511
21
111.0618729
0
LINE
8
DEFAULT_255_2_778
10
6.3069511
20
111.0618729
11
6.3665511
21
110.9430729
0
LINE
8
DEFAULT_255_2_778
10
6.3665511
20
110.9430729
11
6.4853511
21
110.8242729
0
LINE
8
DEFAULT_255_2_778
10
6.4853511
20
110.8242729
11
6.6040511
21
110.7647729
0
LINE
8
DEFAULT_255_2_778
10
6.6040511
20
110.7647729
11
6.7228511
21
110.7647729
0
LINE
8
DEFAULT_255_2_778
10
6.7228511
20
110.7647729
11
6.8416511
21
110.8242729
0
LINE
8
DEFAULT_255_2_778
10
6.8416511
20
110.8242729
11
6.9604511
21
110.9430729
0
LINE
8
DEFAULT_255_2_778
10
6.9604511
20
110.9430729
11
7.0200511
21
111.0618729
0
LINE
8
DEFAULT_255_2_778
10
7.0200511
20
111.0618729
11
7.0795511
21
111.4185729
0
LINE
8
DEFAULT_255_2_778
10
7.0795511
20
111.4185729
11
7.0795511
21
111.8344729
0
LINE
8
DEFAULT_255_2_778
10
7.0795511
20
111.8344729
11
7.0200511
21
112.1910729
0
LINE
8
DEFAULT_255_2_778
10
7.0200511
20
112.1910729
11
6.9604511
21
112.3098729
0
LINE
8
DEFAULT_255_2_778
10
6.9604511
20
112.3098729
11
6.8416511
21
112.4286729
0
LINE
8
DEFAULT_255_2_778
10
6.8416511
20
112.4286729
11
6.7228511
21
112.4884729
0
LINE
8
DEFAULT_255_2_778
10
6.5445511
20
112.7263729
11
6.7824511
21
112.7263729
0
LINE
8
DEFAULT_255_2_778
10
6.7824511
20
112.7263729
11
6.9607511
21
112.6668729
0
LINE
8
DEFAULT_255_2_778
10
6.9607511
20
112.6668729
11
7.1390511
21
112.4884729
0
LINE
8
DEFAULT_255_2_778
10
7.1390511
20
112.4884729
11
7.3174511
21
112.1318729
0
LINE
8
DEFAULT_255_2_778
10
7.3174511
20
112.1318729
11
7.3769511
21
111.7751729
0
LINE
8
DEFAULT_255_2_778
10
7.3769511
20
111.7751729
11
7.3769511
21
111.4777729
0
LINE
8
DEFAULT_255_2_778
10
7.3769511
20
111.4777729
11
7.3174511
21
111.1211729
0
LINE
8
DEFAULT_255_2_778
10
7.3174511
20
111.1211729
11
7.1390511
21
110.7644729
0
LINE
8
DEFAULT_255_2_778
10
7.1390511
20
110.7644729
11
6.9607511
21
110.5861729
0
LINE
8
DEFAULT_255_2_778
10
6.9607511
20
110.5861729
11
6.7824511
21
110.5266729
0
LINE
8
DEFAULT_255_2_778
10
6.7824511
20
110.5266729
11
6.5445511
21
110.5266729
0
LINE
8
DEFAULT_255_2_778
10
6.5445511
20
110.5266729
11
6.3662511
21
110.5861729
0
LINE
8
DEFAULT_255_2_778
10
6.3662511
20
110.5861729
11
6.1879511
21
110.7644729
0
LINE
8
DEFAULT_255_2_778
10
6.1879511
20
110.7644729
11
6.0095511
21
111.1211729
0
LINE
8
DEFAULT_255_2_778
10
6.0095511
20
111.1211729
11
5.9500511
21
111.4777729
0
LINE
8
DEFAULT_255_2_778
10
5.9500511
20
111.4777729
11
5.9500511
21
111.7751729
0
LINE
8
DEFAULT_255_2_778
10
5.9500511
20
111.7751729
11
6.0095511
21
112.1318729
0
LINE
8
DEFAULT_255_2_778
10
6.0095511
20
112.1318729
11
6.1879511
21
112.4884729
0
LINE
8
DEFAULT_255_2_778
10
6.1879511
20
112.4884729
11
6.3662511
21
112.6668729
0
LINE
8
DEFAULT_255_2_778
10
6.3662511
20
112.6668729
11
6.5445511
21
112.7263729
0
LINE
8
DEFAULT_255_2_778
10
6.8419865
20
91.9264396
11
7.1393865
21
91.9264396
0
LINE
8
DEFAULT_255_2_778
10
7.1393865
20
91.9264396
11
7.1393865
21
90.4995396
0
LINE
8
DEFAULT_255_2_778
10
7.1393865
20
90.4995396
11
7.4959865
21
90.4995396
0
LINE
8
DEFAULT_255_2_778
10
7.4959865
20
90.4995396
11
7.4959865
21
90.2616396
0
LINE
8
DEFAULT_255_2_778
10
7.4959865
20
90.2616396
11
7.1393865
21
90.2616396
0
LINE
8
DEFAULT_255_2_778
10
7.1393865
20
90.2616396
11
7.1393865
21
89.7859396
0
LINE
8
DEFAULT_255_2_778
10
7.1393865
20
89.7859396
11
6.9014865
21
89.7859396
0
LINE
8
DEFAULT_255_2_778
10
6.9014865
20
89.7859396
11
6.9014865
21
90.2616396
0
LINE
8
DEFAULT_255_2_778
10
6.9014865
20
90.2616396
11
5.8907865
21
90.2616396
0
LINE
8
DEFAULT_255_2_778
10
5.8907865
20
90.2616396
11
5.8907865
21
90.5590396
0
LINE
8
DEFAULT_255_2_778
10
5.8907865
20
90.5590396
11
6.8419865
21
91.9264396
0
LINE
8
DEFAULT_255_2_778
10
6.1283865
20
90.4995396
11
6.9011865
21
90.4995396
0
LINE
8
DEFAULT_255_2_778
10
6.9011865
20
90.4995396
11
6.9011865
21
91.6293396
0
LINE
8
DEFAULT_255_2_778
10
6.9011865
20
91.6293396
11
6.1283865
21
90.4995396
0
LINE
8
DEFAULT_255_2_778
10
6.8419865
20
81.5264729
11
6.6041865
21
81.5264729
0
LINE
8
DEFAULT_255_2_778
10
6.6041865
20
81.5264729
11
6.4258865
21
81.4669729
0
LINE
8
DEFAULT_255_2_778
10
6.4258865
20
81.4669729
11
6.2474865
21
81.3481729
0
LINE
8
DEFAULT_255_2_778
10
6.2474865
20
81.3481729
11
6.1286865
21
81.1697729
0
LINE
8
DEFAULT_255_2_778
10
6.1286865
20
81.1697729
11
6.0098865
21
80.8724729
0
LINE
8
DEFAULT_255_2_778
10
6.0098865
20
80.8724729
11
5.9503865
21
80.5157729
0
LINE
8
DEFAULT_255_2_778
10
5.9503865
20
80.5157729
11
5.9503865
21
80.2183729
0
LINE
8
DEFAULT_255_2_778
10
5.9503865
20
80.2183729
11
6.0098865
21
79.8616729
0
LINE
8
DEFAULT_255_2_778
10
6.0098865
20
79.8616729
11
6.0694865
21
79.6833729
0
LINE
8
DEFAULT_255_2_778
10
6.0694865
20
79.6833729
11
6.1882865
21
79.5050729
0
LINE
8
DEFAULT_255_2_778
10
6.1882865
20
79.5050729
11
6.3665865
21
79.3862729
0
LINE
8
DEFAULT_255_2_778
10
6.3665865
20
79.3862729
11
6.5448865
21
79.3267729
0
LINE
8
DEFAULT_255_2_778
10
6.5448865
20
79.3267729
11
6.7827865
21
79.3267729
0
LINE
8
DEFAULT_255_2_778
10
6.7827865
20
79.3267729
11
6.9610865
21
79.3862729
0
LINE
8
DEFAULT_255_2_778
10
6.9610865
20
79.3862729
11
7.1989865
21
79.5645729
0
LINE
8
DEFAULT_255_2_778
10
7.1989865
20
79.5645729
11
7.3177865
21
79.7428729
0
LINE
8
DEFAULT_255_2_778
10
7.3177865
20
79.7428729
11
7.3772865
21
79.9212729
0
LINE
8
DEFAULT_255_2_778
10
7.3772865
20
79.9212729
11
7.3772865
21
80.2186729
0
LINE
8
DEFAULT_255_2_778
10
7.3772865
20
80.2186729
11
7.3177865
21
80.3969729
0
LINE
8
DEFAULT_255_2_778
10
7.3177865
20
80.3969729
11
7.1989865
21
80.5752729
0
LINE
8
DEFAULT_255_2_778
10
7.1989865
20
80.5752729
11
7.0205865
21
80.6940729
0
LINE
8
DEFAULT_255_2_778
10
7.0205865
20
80.6940729
11
6.8422865
21
80.7536729
0
LINE
8
DEFAULT_255_2_778
10
6.8422865
20
80.7536729
11
6.6639865
21
80.7536729
0
LINE
8
DEFAULT_255_2_778
10
6.6639865
20
80.7536729
11
6.4856865
21
80.6940729
0
LINE
8
DEFAULT_255_2_778
10
6.4856865
20
80.6940729
11
6.3668865
21
80.6345729
0
LINE
8
DEFAULT_255_2_778
10
6.3668865
20
80.6345729
11
6.2480865
21
80.5157729
0
LINE
8
DEFAULT_255_2_778
10
6.2480865
20
80.5157729
11
6.3075865
21
80.9319729
0
LINE
8
DEFAULT_255_2_778
10
6.3075865
20
80.9319729
11
6.3670865
21
81.1102729
0
LINE
8
DEFAULT_255_2_778
10
6.3670865
20
81.1102729
11
6.4858865
21
81.2290729
0
LINE
8
DEFAULT_255_2_778
10
6.4858865
20
81.2290729
11
6.6641865
21
81.2885729
0
LINE
8
DEFAULT_255_2_778
10
6.6641865
20
81.2885729
11
6.8425865
21
81.2885729
0
LINE
8
DEFAULT_255_2_778
10
6.8425865
20
81.2885729
11
6.9613865
21
81.2290729
0
LINE
8
DEFAULT_255_2_778
10
6.9613865
20
81.2290729
11
7.0208865
21
81.1695729
0
LINE
8
DEFAULT_255_2_778
10
7.0208865
20
81.1695729
11
7.0803865
21
81.0507729
0
LINE
8
DEFAULT_255_2_778
10
7.0803865
20
81.0507729
11
7.0803865
21
80.9911729
0
LINE
8
DEFAULT_255_2_778
10
7.0803865
20
80.9911729
11
7.3777865
21
80.9911729
0
LINE
8
DEFAULT_255_2_778
10
7.3777865
20
80.9911729
11
7.3777865
21
81.1099729
0
LINE
8
DEFAULT_255_2_778
10
7.3777865
20
81.1099729
11
7.2589865
21
81.3478729
0
LINE
8
DEFAULT_255_2_778
10
7.2589865
20
81.3478729
11
7.0806865
21
81.4666729
0
LINE
8
DEFAULT_255_2_778
10
7.0806865
20
81.4666729
11
6.8419865
21
81.5264729
0
LINE
8
DEFAULT_255_2_778
10
6.7824865
20
80.5157729
11
6.6041865
21
80.5157729
0
LINE
8
DEFAULT_255_2_778
10
6.6041865
20
80.5157729
11
6.4853865
21
80.4562729
0
LINE
8
DEFAULT_255_2_778
10
6.4853865
20
80.4562729
11
6.3665865
21
80.3374729
0
LINE
8
DEFAULT_255_2_778
10
6.3665865
20
80.3374729
11
6.3070865
21
80.2186729
0
LINE
8
DEFAULT_255_2_778
10
6.3070865
20
80.2186729
11
6.3070865
21
79.9212729
0
LINE
8
DEFAULT_255_2_778
10
6.3070865
20
79.9212729
11
6.4258865
21
79.6833729
0
LINE
8
DEFAULT_255_2_778
10
6.4258865
20
79.6833729
11
6.6041865
21
79.5645729
0
LINE
8
DEFAULT_255_2_778
10
6.6041865
20
79.5645729
11
6.7824865
21
79.5645729
0
LINE
8
DEFAULT_255_2_778
10
6.7824865
20
79.5645729
11
6.9607865
21
79.6833729
0
LINE
8
DEFAULT_255_2_778
10
6.9607865
20
79.6833729
11
7.0795865
21
79.9212729
0
LINE
8
DEFAULT_255_2_778
10
7.0795865
20
79.9212729
11
7.0795865
21
80.1590729
0
LINE
8
DEFAULT_255_2_778
10
7.0795865
20
80.1590729
11
7.0200865
21
80.3374729
0
LINE
8
DEFAULT_255_2_778
10
7.0200865
20
80.3374729
11
6.9012865
21
80.4562729
0
LINE
8
DEFAULT_255_2_778
10
6.9012865
20
80.4562729
11
6.7824865
21
80.5157729
0
LINE
8
DEFAULT_255_2_778
10
33.7037844
20
102.3263718
11
33.8820844
21
102.3263718
0
LINE
8
DEFAULT_255_2_778
10
33.8820844
20
102.3263718
11
34.1199844
21
102.2668718
0
LINE
8
DEFAULT_255_2_778
10
34.1199844
20
102.2668718
11
34.2982844
21
102.1480718
0
LINE
8
DEFAULT_255_2_778
10
34.2982844
20
102.1480718
11
34.4170844
21
101.9101718
0
LINE
8
DEFAULT_255_2_778
10
34.4170844
20
101.9101718
11
34.4170844
21
101.6127718
0
LINE
8
DEFAULT_255_2_778
10
34.4170844
20
101.6127718
11
34.2982844
21
101.3153718
0
LINE
8
DEFAULT_255_2_778
10
34.2982844
20
101.3153718
11
34.1794844
21
101.1370718
0
LINE
8
DEFAULT_255_2_778
10
34.1794844
20
101.1370718
11
33.4658844
21
100.4234718
0
LINE
8
DEFAULT_255_2_778
10
33.4658844
20
100.4234718
11
34.4765844
21
100.4234718
0
LINE
8
DEFAULT_255_2_778
10
34.4765844
20
100.4234718
11
34.4765844
21
100.1856718
0
LINE
8
DEFAULT_255_2_778
10
34.4765844
20
100.1856718
11
33.1089844
21
100.1856718
0
LINE
8
DEFAULT_255_2_778
10
33.1089844
20
100.1856718
11
33.1089844
21
100.4829718
0
LINE
8
DEFAULT_255_2_778
10
33.1089844
20
100.4829718
11
33.9413844
21
101.3153718
0
LINE
8
DEFAULT_255_2_778
10
33.9413844
20
101.3153718
11
34.0601844
21
101.4937718
0
LINE
8
DEFAULT_255_2_778
10
34.0601844
20
101.4937718
11
34.1196844
21
101.6720718
0
LINE
8
DEFAULT_255_2_778
10
34.1196844
20
101.6720718
11
34.1196844
21
101.8503718
0
LINE
8
DEFAULT_255_2_778
10
34.1196844
20
101.8503718
11
34.0008844
21
102.0286718
0
LINE
8
DEFAULT_255_2_778
10
34.0008844
20
102.0286718
11
33.8820844
21
102.0882718
0
LINE
8
DEFAULT_255_2_778
10
33.8820844
20
102.0882718
11
33.7037844
21
102.0882718
0
LINE
8
DEFAULT_255_2_778
10
33.7037844
20
102.0882718
11
33.5849844
21
102.0286718
0
LINE
8
DEFAULT_255_2_778
10
33.5849844
20
102.0286718
11
33.5254844
21
101.9691718
0
LINE
8
DEFAULT_255_2_778
10
33.5254844
20
101.9691718
11
33.4658844
21
101.8503718
0
LINE
8
DEFAULT_255_2_778
10
33.4658844
20
101.8503718
11
33.4658844
21
101.7315718
0
LINE
8
DEFAULT_255_2_778
10
33.4658844
20
101.7315718
11
33.1092844
21
101.7315718
0
LINE
8
DEFAULT_255_2_778
10
33.1092844
20
101.7315718
11
33.1687844
21
101.9694718
0
LINE
8
DEFAULT_255_2_778
10
33.1687844
20
101.9694718
11
33.2875844
21
102.1477718
0
LINE
8
DEFAULT_255_2_778
10
33.2875844
20
102.1477718
11
33.4658844
21
102.2665718
0
LINE
8
DEFAULT_255_2_778
10
33.4658844
20
102.2665718
11
33.7037844
21
102.3260718
0
LINE
8
DEFAULT_255_2_778
10
33.1000844
20
76.3263718
11
34.4676844
21
76.3263718
0
LINE
8
DEFAULT_255_2_778
10
34.4676844
20
76.3263718
11
34.4676844
21
76.0289718
0
LINE
8
DEFAULT_255_2_778
10
34.4676844
20
76.0289718
11
33.6948844
21
74.1856718
0
LINE
8
DEFAULT_255_2_778
10
33.6948844
20
74.1856718
11
33.3974844
21
74.1856718
0
LINE
8
DEFAULT_255_2_778
10
33.3974844
20
74.1856718
11
34.1702844
21
76.0289718
0
LINE
8
DEFAULT_255_2_778
10
34.1702844
20
76.0289718
11
33.1000844
21
76.0289718
0
LINE
8
DEFAULT_255_2_778
10
33.1000844
20
76.0289718
11
33.1000844
21
76.3263718
0
LINE
8
DEFAULT_255_2_778
10
33.7635438
20
107.5265396
11
34.0609438
21
107.5265396
0
LINE
8
DEFAULT_255_2_778
10
34.0609438
20
107.5265396
11
34.0609438
21
105.3860396
0
LINE
8
DEFAULT_255_2_778
10
34.0609438
20
105.3860396
11
33.7635438
21
105.3860396
0
LINE
8
DEFAULT_255_2_778
10
33.7635438
20
105.3860396
11
33.7635438
21
107.1698396
0
LINE
8
DEFAULT_255_2_778
10
33.7635438
20
107.1698396
11
33.5257438
21
106.9915396
0
LINE
8
DEFAULT_255_2_778
10
33.5257438
20
106.9915396
11
33.2878438
21
106.8727396
0
LINE
8
DEFAULT_255_2_778
10
33.2878438
20
106.8727396
11
33.2878438
21
107.1698396
0
LINE
8
DEFAULT_255_2_778
10
33.2878438
20
107.1698396
11
33.4661438
21
107.2886396
0
LINE
8
DEFAULT_255_2_778
10
33.4661438
20
107.2886396
11
33.7040438
21
107.4670396
0
LINE
8
DEFAULT_255_2_778
10
33.7040438
20
107.4670396
11
33.7635438
21
107.5265396
0
LINE
8
DEFAULT_255_2_778
10
33.6446188
20
97.1263052
11
33.4067188
21
97.0668052
0
LINE
8
DEFAULT_255_2_778
10
33.4067188
20
97.0668052
11
33.2284188
21
96.9480052
0
LINE
8
DEFAULT_255_2_778
10
33.2284188
20
96.9480052
11
33.1096188
21
96.7101052
0
LINE
8
DEFAULT_255_2_778
10
33.1096188
20
96.7101052
11
33.1096188
21
96.5913052
0
LINE
8
DEFAULT_255_2_778
10
33.1096188
20
96.5913052
11
33.4070188
21
96.5913052
0
LINE
8
DEFAULT_255_2_778
10
33.4070188
20
96.5913052
11
33.4665188
21
96.7696052
0
LINE
8
DEFAULT_255_2_778
10
33.4665188
20
96.7696052
11
33.5260188
21
96.8292052
0
LINE
8
DEFAULT_255_2_778
10
33.5260188
20
96.8292052
11
33.6448188
21
96.8887052
0
LINE
8
DEFAULT_255_2_778
10
33.6448188
20
96.8887052
11
33.8827188
21
96.8887052
0
LINE
8
DEFAULT_255_2_778
10
33.8827188
20
96.8887052
11
34.0015188
21
96.8292052
0
LINE
8
DEFAULT_255_2_778
10
34.0015188
20
96.8292052
11
34.1203188
21
96.6509052
0
LINE
8
DEFAULT_255_2_778
10
34.1203188
20
96.6509052
11
34.1203188
21
96.4130052
0
LINE
8
DEFAULT_255_2_778
10
34.1203188
20
96.4130052
11
34.0607188
21
96.2942052
0
LINE
8
DEFAULT_255_2_778
10
34.0607188
20
96.2942052
11
33.9419188
21
96.2347052
0
LINE
8
DEFAULT_255_2_778
10
33.9419188
20
96.2347052
11
33.7636188
21
96.1751052
0
LINE
8
DEFAULT_255_2_778
10
33.7636188
20
96.1751052
11
33.5853188
21
96.1751052
0
LINE
8
DEFAULT_255_2_778
10
33.5853188
20
96.1751052
11
33.5853188
21
95.9373052
0
LINE
8
DEFAULT_255_2_778
10
33.5853188
20
95.9373052
11
33.8231188
21
95.9373052
0
LINE
8
DEFAULT_255_2_778
10
33.8231188
20
95.9373052
11
34.0015188
21
95.8777052
0
LINE
8
DEFAULT_255_2_778
10
34.0015188
20
95.8777052
11
34.1203188
21
95.7589052
0
LINE
8
DEFAULT_255_2_778
10
34.1203188
20
95.7589052
11
34.1798188
21
95.6401052
0
LINE
8
DEFAULT_255_2_778
10
34.1798188
20
95.6401052
11
34.1798188
21
95.4618052
0
LINE
8
DEFAULT_255_2_778
10
34.1798188
20
95.4618052
11
34.0610188
21
95.2835052
0
LINE
8
DEFAULT_255_2_778
10
34.0610188
20
95.2835052
11
33.8827188
21
95.1647052
0
LINE
8
DEFAULT_255_2_778
10
33.8827188
20
95.1647052
11
33.6448188
21
95.1647052
0
LINE
8
DEFAULT_255_2_778
10
33.6448188
20
95.1647052
11
33.4665188
21
95.2242052
0
LINE
8
DEFAULT_255_2_778
10
33.4665188
20
95.2242052
11
33.3477188
21
95.4025052
0
LINE
8
DEFAULT_255_2_778
10
33.3477188
20
95.4025052
11
33.3477188
21
95.5213052
0
LINE
8
DEFAULT_255_2_778
10
33.3477188
20
95.5213052
11
33.0503188
21
95.5213052
0
LINE
8
DEFAULT_255_2_778
10
33.0503188
20
95.5213052
11
33.0503188
21
95.4025052
0
LINE
8
DEFAULT_255_2_778
10
33.0503188
20
95.4025052
11
33.1098188
21
95.2242052
0
LINE
8
DEFAULT_255_2_778
10
33.1098188
20
95.2242052
11
33.2286188
21
95.1054052
0
LINE
8
DEFAULT_255_2_778
10
33.2286188
20
95.1054052
11
33.4070188
21
94.9866052
0
LINE
8
DEFAULT_255_2_778
10
33.4070188
20
94.9866052
11
33.6448188
21
94.9271052
0
LINE
8
DEFAULT_255_2_778
10
33.6448188
20
94.9271052
11
33.8827188
21
94.9271052
0
LINE
8
DEFAULT_255_2_778
10
33.8827188
20
94.9271052
11
34.1801188
21
95.0459052
0
LINE
8
DEFAULT_255_2_778
10
34.1801188
20
95.0459052
11
34.4179188
21
95.2837052
0
LINE
8
DEFAULT_255_2_778
10
34.4179188
20
95.2837052
11
34.4775188
21
95.4621052
0
LINE
8
DEFAULT_255_2_778
10
34.4775188
20
95.4621052
11
34.4775188
21
95.6999052
0
LINE
8
DEFAULT_255_2_778
10
34.4775188
20
95.6999052
11
34.3587188
21
95.9378052
0
LINE
8
DEFAULT_255_2_778
10
34.3587188
20
95.9378052
11
34.2399188
21
95.9973052
0
LINE
8
DEFAULT_255_2_778
10
34.2399188
20
95.9973052
11
34.0615188
21
96.0569052
0
LINE
8
DEFAULT_255_2_778
10
34.0615188
20
96.0569052
11
34.1803188
21
96.1164052
0
LINE
8
DEFAULT_255_2_778
10
34.1803188
20
96.1164052
11
34.3587188
21
96.2947052
0
LINE
8
DEFAULT_255_2_778
10
34.3587188
20
96.2947052
11
34.4182188
21
96.4731052
0
LINE
8
DEFAULT_255_2_778
10
34.4182188
20
96.4731052
11
34.4182188
21
96.7109052
0
LINE
8
DEFAULT_255_2_778
10
34.4182188
20
96.7109052
11
34.2994188
21
96.9488052
0
LINE
8
DEFAULT_255_2_778
10
34.2994188
20
96.9488052
11
34.1211188
21
97.0676052
0
LINE
8
DEFAULT_255_2_778
10
34.1211188
20
97.0676052
11
33.9427188
21
97.1271052
0
LINE
8
DEFAULT_255_2_778
10
33.9427188
20
97.1271052
11
33.6453188
21
97.1271052
0
LINE
8
DEFAULT_255_2_778
10
33.1688167
20
86.7263052
11
34.3581167
21
86.7263052
0
LINE
8
DEFAULT_255_2_778
10
34.3581167
20
86.7263052
11
34.3581167
21
86.4885052
0
LINE
8
DEFAULT_255_2_778
10
34.3581167
20
86.4885052
11
33.4662167
21
86.4885052
0
LINE
8
DEFAULT_255_2_778
10
33.4662167
20
86.4885052
11
33.4067167
21
85.7749052
0
LINE
8
DEFAULT_255_2_778
10
33.4067167
20
85.7749052
11
33.4662167
21
85.8344052
0
LINE
8
DEFAULT_255_2_778
10
33.4662167
20
85.8344052
11
33.5850167
21
85.8940052
0
LINE
8
DEFAULT_255_2_778
10
33.5850167
20
85.8940052
11
33.7633167
21
85.9535052
0
LINE
8
DEFAULT_255_2_778
10
33.7633167
20
85.9535052
11
33.9417167
21
85.9535052
0
LINE
8
DEFAULT_255_2_778
10
33.9417167
20
85.9535052
11
34.1200167
21
85.8940052
0
LINE
8
DEFAULT_255_2_778
10
34.1200167
20
85.8940052
11
34.2983167
21
85.7752052
0
LINE
8
DEFAULT_255_2_778
10
34.2983167
20
85.7752052
11
34.4171167
21
85.5968052
0
LINE
8
DEFAULT_255_2_778
10
34.4171167
20
85.5968052
11
34.4767167
21
85.4185052
0
LINE
8
DEFAULT_255_2_778
10
34.4767167
20
85.4185052
11
34.4767167
21
85.1211052
0
LINE
8
DEFAULT_255_2_778
10
34.4767167
20
85.1211052
11
34.4171167
21
84.9428052
0
LINE
8
DEFAULT_255_2_778
10
34.4171167
20
84.9428052
11
34.2983167
21
84.7645052
0
LINE
8
DEFAULT_255_2_778
10
34.2983167
20
84.7645052
11
34.0605167
21
84.5861052
0
LINE
8
DEFAULT_255_2_778
10
34.0605167
20
84.5861052
11
33.8821167
21
84.5266052
0
LINE
8
DEFAULT_255_2_778
10
33.8821167
20
84.5266052
11
33.6443167
21
84.5266052
0
LINE
8
DEFAULT_255_2_778
10
33.6443167
20
84.5266052
11
33.4064167
21
84.5861052
0
LINE
8
DEFAULT_255_2_778
10
33.4064167
20
84.5861052
11
33.2281167
21
84.7049052
0
LINE
8
DEFAULT_255_2_778
10
33.2281167
20
84.7049052
11
33.1093167
21
84.9428052
0
LINE
8
DEFAULT_255_2_778
10
33.1093167
20
84.9428052
11
33.1093167
21
85.0616052
0
LINE
8
DEFAULT_255_2_778
10
33.1093167
20
85.0616052
11
33.4067167
21
85.0616052
0
LINE
8
DEFAULT_255_2_778
10
33.4067167
20
85.0616052
11
33.4067167
21
85.0020052
0
LINE
8
DEFAULT_255_2_778
10
33.4067167
20
85.0020052
11
33.4662167
21
84.8832052
0
LINE
8
DEFAULT_255_2_778
10
33.4662167
20
84.8832052
11
33.6445167
21
84.7645052
0
LINE
8
DEFAULT_255_2_778
10
33.6445167
20
84.7645052
11
33.8824167
21
84.7645052
0
LINE
8
DEFAULT_255_2_778
10
33.8824167
20
84.7645052
11
34.0607167
21
84.8832052
0
LINE
8
DEFAULT_255_2_778
10
34.0607167
20
84.8832052
11
34.1795167
21
85.1211052
0
LINE
8
DEFAULT_255_2_778
10
34.1795167
20
85.1211052
11
34.1795167
21
85.3590052
0
LINE
8
DEFAULT_255_2_778
10
34.1795167
20
85.3590052
11
34.1200167
21
85.5373052
0
LINE
8
DEFAULT_255_2_778
10
34.1200167
20
85.5373052
11
34.0012167
21
85.6561052
0
LINE
8
DEFAULT_255_2_778
10
34.0012167
20
85.6561052
11
33.8824167
21
85.7156052
0
LINE
8
DEFAULT_255_2_778
10
33.8824167
20
85.7156052
11
33.7041167
21
85.7156052
0
LINE
8
DEFAULT_255_2_778
10
33.7041167
20
85.7156052
11
33.5853167
21
85.6561052
0
LINE
8
DEFAULT_255_2_778
10
33.5853167
20
85.6561052
11
33.4665167
21
85.5373052
0
LINE
8
DEFAULT_255_2_778
10
33.4665167
20
85.5373052
11
33.4070167
21
85.4185052
0
LINE
8
DEFAULT_255_2_778
10
33.4070167
20
85.4185052
11
33.1096167
21
85.4185052
0
LINE
8
DEFAULT_255_2_778
10
33.1096167
20
85.4185052
11
33.1691167
21
86.7266052
0
LINE
8
DEFAULT_255_2_778
10
33.8228643
20
112.4884729
11
33.7040643
21
112.4884729
0
LINE
8
DEFAULT_255_2_778
10
33.7040643
20
112.4884729
11
33.5852643
21
112.4289729
0
LINE
8
DEFAULT_255_2_778
10
33.5852643
20
112.4289729
11
33.4665643
21
112.3101729
0
LINE
8
DEFAULT_255_2_778
10
33.4665643
20
112.3101729
11
33.4069643
21
112.1913729
0
LINE
8
DEFAULT_255_2_778
10
33.4069643
20
112.1913729
11
33.3474643
21
111.8347729
0
LINE
8
DEFAULT_255_2_778
10
33.3474643
20
111.8347729
11
33.3474643
21
111.4185729
0
LINE
8
DEFAULT_255_2_778
10
33.3474643
20
111.4185729
11
33.4069643
21
111.0618729
0
LINE
8
DEFAULT_255_2_778
10
33.4069643
20
111.0618729
11
33.4665643
21
110.9430729
0
LINE
8
DEFAULT_255_2_778
10
33.4665643
20
110.9430729
11
33.5852643
21
110.8242729
0
LINE
8
DEFAULT_255_2_778
10
33.5852643
20
110.8242729
11
33.7040643
21
110.7647729
0
LINE
8
DEFAULT_255_2_778
10
33.7040643
20
110.7647729
11
33.8228643
21
110.7647729
0
LINE
8
DEFAULT_255_2_778
10
33.8228643
20
110.7647729
11
33.9416643
21
110.8242729
0
LINE
8
DEFAULT_255_2_778
10
33.9416643
20
110.8242729
11
34.0604643
21
110.9430729
0
LINE
8
DEFAULT_255_2_778
10
34.0604643
20
110.9430729
11
34.1199643
21
111.0618729
0
LINE
8
DEFAULT_255_2_778
10
34.1199643
20
111.0618729
11
34.1795643
21
111.4185729
0
LINE
8
DEFAULT_255_2_778
10
34.1795643
20
111.4185729
11
34.1795643
21
111.8344729
0
LINE
8
DEFAULT_255_2_778
10
34.1795643
20
111.8344729
11
34.1199643
21
112.1910729
0
LINE
8
DEFAULT_255_2_778
10
34.1199643
20
112.1910729
11
34.0604643
21
112.3098729
0
LINE
8
DEFAULT_255_2_778
10
34.0604643
20
112.3098729
11
33.9416643
21
112.4286729
0
LINE
8
DEFAULT_255_2_778
10
33.9416643
20
112.4286729
11
33.8228643
21
112.4884729
0
LINE
8
DEFAULT_255_2_778
10
33.6445643
20
112.7263729
11
33.8824643
21
112.7263729
0
LINE
8
DEFAULT_255_2_778
10
33.8824643
20
112.7263729
11
34.0607643
21
112.6668729
0
LINE
8
DEFAULT_255_2_778
10
34.0607643
20
112.6668729
11
34.2390643
21
112.4884729
0
LINE
8
DEFAULT_255_2_778
10
34.2390643
20
112.4884729
11
34.4174643
21
112.1318729
0
LINE
8
DEFAULT_255_2_778
10
34.4174643
20
112.1318729
11
34.4769643
21
111.7751729
0
LINE
8
DEFAULT_255_2_778
10
34.4769643
20
111.7751729
11
34.4769643
21
111.4777729
0
LINE
8
DEFAULT_255_2_778
10
34.4769643
20
111.4777729
11
34.4174643
21
111.1211729
0
LINE
8
DEFAULT_255_2_778
10
34.4174643
20
111.1211729
11
34.2390643
21
110.7644729
0
LINE
8
DEFAULT_255_2_778
10
34.2390643
20
110.7644729
11
34.0607643
21
110.5861729
0
LINE
8
DEFAULT_255_2_778
10
34.0607643
20
110.5861729
11
33.8824643
21
110.5266729
0
LINE
8
DEFAULT_255_2_778
10
33.8824643
20
110.5266729
11
33.6445643
21
110.5266729
0
LINE
8
DEFAULT_255_2_778
10
33.6445643
20
110.5266729
11
33.4662643
21
110.5861729
0
LINE
8
DEFAULT_255_2_778
10
33.4662643
20
110.5861729
11
33.2879643
21
110.7644729
0
LINE
8
DEFAULT_255_2_778
10
33.2879643
20
110.7644729
11
33.1095643
21
111.1211729
0
LINE
8
DEFAULT_255_2_778
10
33.1095643
20
111.1211729
11
33.0500643
21
111.4777729
0
LINE
8
DEFAULT_255_2_778
10
33.0500643
20
111.4777729
11
33.0500643
21
111.7751729
0
LINE
8
DEFAULT_255_2_778
10
33.0500643
20
111.7751729
11
33.1095643
21
112.1318729
0
LINE
8
DEFAULT_255_2_778
10
33.1095643
20
112.1318729
11
33.2879643
21
112.4884729
0
LINE
8
DEFAULT_255_2_778
10
33.2879643
20
112.4884729
11
33.4662643
21
112.6668729
0
LINE
8
DEFAULT_255_2_778
10
33.4662643
20
112.6668729
11
33.6445643
21
112.7263729
0
LINE
8
DEFAULT_255_2_778
10
33.9419865
20
91.9264396
11
34.2393865
21
91.9264396
0
LINE
8
DEFAULT_255_2_778
10
34.2393865
20
91.9264396
11
34.2393865
21
90.4995396
0
LINE
8
DEFAULT_255_2_778
10
34.2393865
20
90.4995396
11
34.5959865
21
90.4995396
0
LINE
8
DEFAULT_255_2_778
10
34.5959865
20
90.4995396
11
34.5959865
21
90.2616396
0
LINE
8
DEFAULT_255_2_778
10
34.5959865
20
90.2616396
11
34.2393865
21
90.2616396
0
LINE
8
DEFAULT_255_2_778
10
34.2393865
20
90.2616396
11
34.2393865
21
89.7859396
0
LINE
8
DEFAULT_255_2_778
10
34.2393865
20
89.7859396
11
34.0014865
21
89.7859396
0
LINE
8
DEFAULT_255_2_778
10
34.0014865
20
89.7859396
11
34.0014865
21
90.2616396
0
LINE
8
DEFAULT_255_2_778
10
34.0014865
20
90.2616396
11
32.9907865
21
90.2616396
0
LINE
8
DEFAULT_255_2_778
10
32.9907865
20
90.2616396
11
32.9907865
21
90.5590396
0
LINE
8
DEFAULT_255_2_778
10
32.9907865
20
90.5590396
11
33.9419865
21
91.9264396
0
LINE
8
DEFAULT_255_2_778
10
33.2283865
20
90.4995396
11
34.0011865
21
90.4995396
0
LINE
8
DEFAULT_255_2_778
10
34.0011865
20
90.4995396
11
34.0011865
21
91.6293396
0
LINE
8
DEFAULT_255_2_778
10
34.0011865
20
91.6293396
11
33.2283865
21
90.4995396
0
LINE
8
DEFAULT_255_2_778
10
33.9418865
20
81.5264729
11
33.7040865
21
81.5264729
0
LINE
8
DEFAULT_255_2_778
10
33.7040865
20
81.5264729
11
33.5257865
21
81.4669729
0
LINE
8
DEFAULT_255_2_778
10
33.5257865
20
81.4669729
11
33.3473865
21
81.3481729
0
LINE
8
DEFAULT_255_2_778
10
33.3473865
20
81.3481729
11
33.2285865
21
81.1697729
0
LINE
8
DEFAULT_255_2_778
10
33.2285865
20
81.1697729
11
33.1097865
21
80.8724729
0
LINE
8
DEFAULT_255_2_778
10
33.1097865
20
80.8724729
11
33.0502865
21
80.5157729
0
LINE
8
DEFAULT_255_2_778
10
33.0502865
20
80.5157729
11
33.0502865
21
80.2183729
0
LINE
8
DEFAULT_255_2_778
10
33.0502865
20
80.2183729
11
33.1097865
21
79.8616729
0
LINE
8
DEFAULT_255_2_778
10
33.1097865
20
79.8616729
11
33.1693865
21
79.6833729
0
LINE
8
DEFAULT_255_2_778
10
33.1693865
20
79.6833729
11
33.2881865
21
79.5050729
0
LINE
8
DEFAULT_255_2_778
10
33.2881865
20
79.5050729
11
33.4664865
21
79.3862729
0
LINE
8
DEFAULT_255_2_778
10
33.4664865
20
79.3862729
11
33.6447865
21
79.3267729
0
LINE
8
DEFAULT_255_2_778
10
33.6447865
20
79.3267729
11
33.8826865
21
79.3267729
0
LINE
8
DEFAULT_255_2_778
10
33.8826865
20
79.3267729
11
34.0609865
21
79.3862729
0
LINE
8
DEFAULT_255_2_778
10
34.0609865
20
79.3862729
11
34.2988865
21
79.5645729
0
LINE
8
DEFAULT_255_2_778
10
34.2988865
20
79.5645729
11
34.4176865
21
79.7428729
0
LINE
8
DEFAULT_255_2_778
10
34.4176865
20
79.7428729
11
34.4771865
21
79.9212729
0
LINE
8
DEFAULT_255_2_778
10
34.4771865
20
79.9212729
11
34.4771865
21
80.2186729
0
LINE
8
DEFAULT_255_2_778
10
34.4771865
20
80.2186729
11
34.4176865
21
80.3969729
0
LINE
8
DEFAULT_255_2_778
10
34.4176865
20
80.3969729
11
34.2988865
21
80.5752729
0
LINE
8
DEFAULT_255_2_778
10
34.2988865
20
80.5752729
11
34.1204865
21
80.6940729
0
LINE
8
DEFAULT_255_2_778
10
34.1204865
20
80.6940729
11
33.9421865
21
80.7536729
0
LINE
8
DEFAULT_255_2_778
10
33.9421865
20
80.7536729
11
33.7638865
21
80.7536729
0
LINE
8
DEFAULT_255_2_778
10
33.7638865
20
80.7536729
11
33.5855865
21
80.6940729
0
LINE
8
DEFAULT_255_2_778
10
33.5855865
20
80.6940729
11
33.4667865
21
80.6345729
0
LINE
8
DEFAULT_255_2_778
10
33.4667865
20
80.6345729
11
33.3479865
21
80.5157729
0
LINE
8
DEFAULT_255_2_778
10
33.3479865
20
80.5157729
11
33.4074865
21
80.9319729
0
LINE
8
DEFAULT_255_2_778
10
33.4074865
20
80.9319729
11
33.4669865
21
81.1102729
0
LINE
8
DEFAULT_255_2_778
10
33.4669865
20
81.1102729
11
33.5857865
21
81.2290729
0
LINE
8
DEFAULT_255_2_778
10
33.5857865
20
81.2290729
11
33.7640865
21
81.2885729
0
LINE
8
DEFAULT_255_2_778
10
33.7640865
20
81.2885729
11
33.9424865
21
81.2885729
0
LINE
8
DEFAULT_255_2_778
10
33.9424865
20
81.2885729
11
34.0612865
21
81.2290729
0
LINE
8
DEFAULT_255_2_778
10
34.0612865
20
81.2290729
11
34.1207865
21
81.1695729
0
LINE
8
DEFAULT_255_2_778
10
34.1207865
20
81.1695729
11
34.1802865
21
81.0507729
0
LINE
8
DEFAULT_255_2_778
10
34.1802865
20
81.0507729
11
34.1802865
21
80.9911729
0
LINE
8
DEFAULT_255_2_778
10
34.1802865
20
80.9911729
11
34.4776865
21
80.9911729
0
LINE
8
DEFAULT_255_2_778
10
34.4776865
20
80.9911729
11
34.4776865
21
81.1099729
0
LINE
8
DEFAULT_255_2_778
10
34.4776865
20
81.1099729
11
34.3588865
21
81.3478729
0
LINE
8
DEFAULT_255_2_778
10
34.3588865
20
81.3478729
11
34.1805865
21
81.4666729
0
LINE
8
DEFAULT_255_2_778
10
34.1805865
20
81.4666729
11
33.9418865
21
81.5264729
0
LINE
8
DEFAULT_255_2_778
10
33.8823865
20
80.5157729
11
33.7040865
21
80.5157729
0
LINE
8
DEFAULT_255_2_778
10
33.7040865
20
80.5157729
11
33.5852865
21
80.4562729
0
LINE
8
DEFAULT_255_2_778
10
33.5852865
20
80.4562729
11
33.4664865
21
80.3374729
0
LINE
8
DEFAULT_255_2_778
10
33.4664865
20
80.3374729
11
33.4069865
21
80.2186729
0
LINE
8
DEFAULT_255_2_778
10
33.4069865
20
80.2186729
11
33.4069865
21
79.9212729
0
LINE
8
DEFAULT_255_2_778
10
33.4069865
20
79.9212729
11
33.5257865
21
79.6833729
0
LINE
8
DEFAULT_255_2_778
10
33.5257865
20
79.6833729
11
33.7040865
21
79.5645729
0
LINE
8
DEFAULT_255_2_778
10
33.7040865
20
79.5645729
11
33.8823865
21
79.5645729
0
LINE
8
DEFAULT_255_2_778
10
33.8823865
20
79.5645729
11
34.0606865
21
79.6833729
0
LINE
8
DEFAULT_255_2_778
10
34.0606865
20
79.6833729
11
34.1794865
21
79.9212729
0
LINE
8
DEFAULT_255_2_778
10
34.1794865
20
79.9212729
11
34.1794865
21
80.1590729
0
LINE
8
DEFAULT_255_2_778
10
34.1794865
20
80.1590729
11
34.1199865
21
80.3374729
0
LINE
8
DEFAULT_255_2_778
10
34.1199865
20
80.3374729
11
34.0011865
21
80.4562729
0
LINE
8
DEFAULT_255_2_778
10
34.0011865
20
80.4562729
11
33.8823865
21
80.5157729
0
LINE
8
DEFAULT_255_2_778
10
33.7037844
20
39.7764718
11
33.8820844
21
39.7764718
0
LINE
8
DEFAULT_255_2_778
10
33.8820844
20
39.7764718
11
34.1199844
21
39.7169718
0
LINE
8
DEFAULT_255_2_778
10
34.1199844
20
39.7169718
11
34.2982844
21
39.5981718
0
LINE
8
DEFAULT_255_2_778
10
34.2982844
20
39.5981718
11
34.4170844
21
39.3602718
0
LINE
8
DEFAULT_255_2_778
10
34.4170844
20
39.3602718
11
34.4170844
21
39.0628718
0
LINE
8
DEFAULT_255_2_778
10
34.4170844
20
39.0628718
11
34.2982844
21
38.7654718
0
LINE
8
DEFAULT_255_2_778
10
34.2982844
20
38.7654718
11
34.1794844
21
38.5871718
0
LINE
8
DEFAULT_255_2_778
10
34.1794844
20
38.5871718
11
33.4658844
21
37.8735718
0
LINE
8
DEFAULT_255_2_778
10
33.4658844
20
37.8735718
11
34.4765844
21
37.8735718
0
LINE
8
DEFAULT_255_2_778
10
34.4765844
20
37.8735718
11
34.4765844
21
37.6357718
0
LINE
8
DEFAULT_255_2_778
10
34.4765844
20
37.6357718
11
33.1089844
21
37.6357718
0
LINE
8
DEFAULT_255_2_778
10
33.1089844
20
37.6357718
11
33.1089844
21
37.9330718
0
LINE
8
DEFAULT_255_2_778
10
33.1089844
20
37.9330718
11
33.9413844
21
38.7654718
0
LINE
8
DEFAULT_255_2_778
10
33.9413844
20
38.7654718
11
34.0601844
21
38.9438718
0
LINE
8
DEFAULT_255_2_778
10
34.0601844
20
38.9438718
11
34.1196844
21
39.1221718
0
LINE
8
DEFAULT_255_2_778
10
34.1196844
20
39.1221718
11
34.1196844
21
39.3004718
0
LINE
8
DEFAULT_255_2_778
10
34.1196844
20
39.3004718
11
34.0008844
21
39.4787718
0
LINE
8
DEFAULT_255_2_778
10
34.0008844
20
39.4787718
11
33.8820844
21
39.5383718
0
LINE
8
DEFAULT_255_2_778
10
33.8820844
20
39.5383718
11
33.7037844
21
39.5383718
0
LINE
8
DEFAULT_255_2_778
10
33.7037844
20
39.5383718
11
33.5849844
21
39.4787718
0
LINE
8
DEFAULT_255_2_778
10
33.5849844
20
39.4787718
11
33.5254844
21
39.4192718
0
LINE
8
DEFAULT_255_2_778
10
33.5254844
20
39.4192718
11
33.4658844
21
39.3004718
0
LINE
8
DEFAULT_255_2_778
10
33.4658844
20
39.3004718
11
33.4658844
21
39.1816718
0
LINE
8
DEFAULT_255_2_778
10
33.4658844
20
39.1816718
11
33.1092844
21
39.1816718
0
LINE
8
DEFAULT_255_2_778
10
33.1092844
20
39.1816718
11
33.1687844
21
39.4195718
0
LINE
8
DEFAULT_255_2_778
10
33.1687844
20
39.4195718
11
33.2875844
21
39.5978718
0
LINE
8
DEFAULT_255_2_778
10
33.2875844
20
39.5978718
11
33.4658844
21
39.7166718
0
LINE
8
DEFAULT_255_2_778
10
33.4658844
20
39.7166718
11
33.7037844
21
39.7761718
0
LINE
8
DEFAULT_255_2_778
10
33.1000844
20
13.7764586
11
34.4676844
21
13.7764586
0
LINE
8
DEFAULT_255_2_778
10
34.4676844
20
13.7764586
11
34.4676844
21
13.4790586
0
LINE
8
DEFAULT_255_2_778
10
34.4676844
20
13.4790586
11
33.6948844
21
11.6357586
0
LINE
8
DEFAULT_255_2_778
10
33.6948844
20
11.6357586
11
33.3974844
21
11.6357586
0
LINE
8
DEFAULT_255_2_778
10
33.3974844
20
11.6357586
11
34.1702844
21
13.4790586
0
LINE
8
DEFAULT_255_2_778
10
34.1702844
20
13.4790586
11
33.1000844
21
13.4790586
0
LINE
8
DEFAULT_255_2_778
10
33.1000844
20
13.4790586
11
33.1000844
21
13.7764586
0
LINE
8
DEFAULT_255_2_778
10
33.7635438
20
44.9765718
11
34.0609438
21
44.9765718
0
LINE
8
DEFAULT_255_2_778
10
34.0609438
20
44.9765718
11
34.0609438
21
42.8361718
0
LINE
8
DEFAULT_255_2_778
10
34.0609438
20
42.8361718
11
33.7635438
21
42.8361718
0
LINE
8
DEFAULT_255_2_778
10
33.7635438
20
42.8361718
11
33.7635438
21
44.6199718
0
LINE
8
DEFAULT_255_2_778
10
33.7635438
20
44.6199718
11
33.5257438
21
44.4415718
0
LINE
8
DEFAULT_255_2_778
10
33.5257438
20
44.4415718
11
33.2878438
21
44.3228718
0
LINE
8
DEFAULT_255_2_778
10
33.2878438
20
44.3228718
11
33.2878438
21
44.6201718
0
LINE
8
DEFAULT_255_2_778
10
33.2878438
20
44.6201718
11
33.4661438
21
44.7389718
0
LINE
8
DEFAULT_255_2_778
10
33.4661438
20
44.7389718
11
33.7040438
21
44.9173718
0
LINE
8
DEFAULT_255_2_778
10
33.7040438
20
44.9173718
11
33.7635438
21
44.9768718
0
LINE
8
DEFAULT_255_2_778
10
33.6446188
20
34.5764052
11
33.4067188
21
34.5169052
0
LINE
8
DEFAULT_255_2_778
10
33.4067188
20
34.5169052
11
33.2284188
21
34.3981052
0
LINE
8
DEFAULT_255_2_778
10
33.2284188
20
34.3981052
11
33.1096188
21
34.1602052
0
LINE
8
DEFAULT_255_2_778
10
33.1096188
20
34.1602052
11
33.1096188
21
34.0414052
0
LINE
8
DEFAULT_255_2_778
10
33.1096188
20
34.0414052
11
33.4070188
21
34.0414052
0
LINE
8
DEFAULT_255_2_778
10
33.4070188
20
34.0414052
11
33.4665188
21
34.2197052
0
LINE
8
DEFAULT_255_2_778
10
33.4665188
20
34.2197052
11
33.5260188
21
34.2793052
0
LINE
8
DEFAULT_255_2_778
10
33.5260188
20
34.2793052
11
33.6448188
21
34.3388052
0
LINE
8
DEFAULT_255_2_778
10
33.6448188
20
34.3388052
11
33.8827188
21
34.3388052
0
LINE
8
DEFAULT_255_2_778
10
33.8827188
20
34.3388052
11
34.0015188
21
34.2793052
0
LINE
8
DEFAULT_255_2_778
10
34.0015188
20
34.2793052
11
34.1203188
21
34.1010052
0
LINE
8
DEFAULT_255_2_778
10
34.1203188
20
34.1010052
11
34.1203188
21
33.8631052
0
LINE
8
DEFAULT_255_2_778
10
34.1203188
20
33.8631052
11
34.0607188
21
33.7443052
0
LINE
8
DEFAULT_255_2_778
10
34.0607188
20
33.7443052
11
33.9419188
21
33.6848052
0
LINE
8
DEFAULT_255_2_778
10
33.9419188
20
33.6848052
11
33.7636188
21
33.6252052
0
LINE
8
DEFAULT_255_2_778
10
33.7636188
20
33.6252052
11
33.5853188
21
33.6252052
0
LINE
8
DEFAULT_255_2_778
10
33.5853188
20
33.6252052
11
33.5853188
21
33.3874052
0
LINE
8
DEFAULT_255_2_778
10
33.5853188
20
33.3874052
11
33.8231188
21
33.3874052
0
LINE
8
DEFAULT_255_2_778
10
33.8231188
20
33.3874052
11
34.0015188
21
33.3278052
0
LINE
8
DEFAULT_255_2_778
10
34.0015188
20
33.3278052
11
34.1203188
21
33.2090052
0
LINE
8
DEFAULT_255_2_778
10
34.1203188
20
33.2090052
11
34.1798188
21
33.0902052
0
LINE
8
DEFAULT_255_2_778
10
34.1798188
20
33.0902052
11
34.1798188
21
32.9119052
0
LINE
8
DEFAULT_255_2_778
10
34.1798188
20
32.9119052
11
34.0610188
21
32.7336052
0
LINE
8
DEFAULT_255_2_778
10
34.0610188
20
32.7336052
11
33.8827188
21
32.6148052
0
LINE
8
DEFAULT_255_2_778
10
33.8827188
20
32.6148052
11
33.6448188
21
32.6148052
0
LINE
8
DEFAULT_255_2_778
10
33.6448188
20
32.6148052
11
33.4665188
21
32.6743052
0
LINE
8
DEFAULT_255_2_778
10
33.4665188
20
32.6743052
11
33.3477188
21
32.8526052
0
LINE
8
DEFAULT_255_2_778
10
33.3477188
20
32.8526052
11
33.3477188
21
32.9714052
0
LINE
8
DEFAULT_255_2_778
10
33.3477188
20
32.9714052
11
33.0503188
21
32.9714052
0
LINE
8
DEFAULT_255_2_778
10
33.0503188
20
32.9714052
11
33.0503188
21
32.8526052
0
LINE
8
DEFAULT_255_2_778
10
33.0503188
20
32.8526052
11
33.1098188
21
32.6743052
0
LINE
8
DEFAULT_255_2_778
10
33.1098188
20
32.6743052
11
33.2286188
21
32.5555052
0
LINE
8
DEFAULT_255_2_778
10
33.2286188
20
32.5555052
11
33.4070188
21
32.4367052
0
LINE
8
DEFAULT_255_2_778
10
33.4070188
20
32.4367052
11
33.6448188
21
32.3772052
0
LINE
8
DEFAULT_255_2_778
10
33.6448188
20
32.3772052
11
33.8827188
21
32.3772052
0
LINE
8
DEFAULT_255_2_778
10
33.8827188
20
32.3772052
11
34.1801188
21
32.4960052
0
LINE
8
DEFAULT_255_2_778
10
34.1801188
20
32.4960052
11
34.4179188
21
32.7338052
0
LINE
8
DEFAULT_255_2_778
10
34.4179188
20
32.7338052
11
34.4775188
21
32.9122052
0
LINE
8
DEFAULT_255_2_778
10
34.4775188
20
32.9122052
11
34.4775188
21
33.1500052
0
LINE
8
DEFAULT_255_2_778
10
34.4775188
20
33.1500052
11
34.3587188
21
33.3879052
0
LINE
8
DEFAULT_255_2_778
10
34.3587188
20
33.3879052
11
34.2399188
21
33.4474052
0
LINE
8
DEFAULT_255_2_778
10
34.2399188
20
33.4474052
11
34.0615188
21
33.5070052
0
LINE
8
DEFAULT_255_2_778
10
34.0615188
20
33.5070052
11
34.1803188
21
33.5665052
0
LINE
8
DEFAULT_255_2_778
10
34.1803188
20
33.5665052
11
34.3587188
21
33.7448052
0
LINE
8
DEFAULT_255_2_778
10
34.3587188
20
33.7448052
11
34.4182188
21
33.9232052
0
LINE
8
DEFAULT_255_2_778
10
34.4182188
20
33.9232052
11
34.4182188
21
34.1610052
0
LINE
8
DEFAULT_255_2_778
10
34.4182188
20
34.1610052
11
34.2994188
21
34.3989052
0
LINE
8
DEFAULT_255_2_778
10
34.2994188
20
34.3989052
11
34.1211188
21
34.5177052
0
LINE
8
DEFAULT_255_2_778
10
34.1211188
20
34.5177052
11
33.9427188
21
34.5772052
0
LINE
8
DEFAULT_255_2_778
10
33.9427188
20
34.5772052
11
33.6453188
21
34.5772052
0
LINE
8
DEFAULT_255_2_778
10
33.1688167
20
24.1764052
11
34.3581167
21
24.1764052
0
LINE
8
DEFAULT_255_2_778
10
34.3581167
20
24.1764052
11
34.3581167
21
23.9386052
0
LINE
8
DEFAULT_255_2_778
10
34.3581167
20
23.9386052
11
33.4662167
21
23.9386052
0
LINE
8
DEFAULT_255_2_778
10
33.4662167
20
23.9386052
11
33.4067167
21
23.2250052
0
LINE
8
DEFAULT_255_2_778
10
33.4067167
20
23.2250052
11
33.4662167
21
23.2845052
0
LINE
8
DEFAULT_255_2_778
10
33.4662167
20
23.2845052
11
33.5850167
21
23.3441052
0
LINE
8
DEFAULT_255_2_778
10
33.5850167
20
23.3441052
11
33.7633167
21
23.4036052
0
LINE
8
DEFAULT_255_2_778
10
33.7633167
20
23.4036052
11
33.9417167
21
23.4036052
0
LINE
8
DEFAULT_255_2_778
10
33.9417167
20
23.4036052
11
34.1200167
21
23.3441052
0
LINE
8
DEFAULT_255_2_778
10
34.1200167
20
23.3441052
11
34.2983167
21
23.2253052
0
LINE
8
DEFAULT_255_2_778
10
34.2983167
20
23.2253052
11
34.4171167
21
23.0469052
0
LINE
8
DEFAULT_255_2_778
10
34.4171167
20
23.0469052
11
34.4767167
21
22.8686052
0
LINE
8
DEFAULT_255_2_778
10
34.4767167
20
22.8686052
11
34.4767167
21
22.5712052
0
LINE
8
DEFAULT_255_2_778
10
34.4767167
20
22.5712052
11
34.4171167
21
22.3929052
0
LINE
8
DEFAULT_255_2_778
10
34.4171167
20
22.3929052
11
34.2983167
21
22.2146052
0
LINE
8
DEFAULT_255_2_778
10
34.2983167
20
22.2146052
11
34.0605167
21
22.0362052
0
LINE
8
DEFAULT_255_2_778
10
34.0605167
20
22.0362052
11
33.8821167
21
21.9767052
0
LINE
8
DEFAULT_255_2_778
10
33.8821167
20
21.9767052
11
33.6443167
21
21.9767052
0
LINE
8
DEFAULT_255_2_778
10
33.6443167
20
21.9767052
11
33.4064167
21
22.0362052
0
LINE
8
DEFAULT_255_2_778
10
33.4064167
20
22.0362052
11
33.2281167
21
22.1550052
0
LINE
8
DEFAULT_255_2_778
10
33.2281167
20
22.1550052
11
33.1093167
21
22.3929052
0
LINE
8
DEFAULT_255_2_778
10
33.1093167
20
22.3929052
11
33.1093167
21
22.5117052
0
LINE
8
DEFAULT_255_2_778
10
33.1093167
20
22.5117052
11
33.4067167
21
22.5117052
0
LINE
8
DEFAULT_255_2_778
10
33.4067167
20
22.5117052
11
33.4067167
21
22.4521052
0
LINE
8
DEFAULT_255_2_778
10
33.4067167
20
22.4521052
11
33.4662167
21
22.3333052
0
LINE
8
DEFAULT_255_2_778
10
33.4662167
20
22.3333052
11
33.6445167
21
22.2146052
0
LINE
8
DEFAULT_255_2_778
10
33.6445167
20
22.2146052
11
33.8824167
21
22.2146052
0
LINE
8
DEFAULT_255_2_778
10
33.8824167
20
22.2146052
11
34.0607167
21
22.3333052
0
LINE
8
DEFAULT_255_2_778
10
34.0607167
20
22.3333052
11
34.1795167
21
22.5712052
0
LINE
8
DEFAULT_255_2_778
10
34.1795167
20
22.5712052
11
34.1795167
21
22.8091052
0
LINE
8
DEFAULT_255_2_778
10
34.1795167
20
22.8091052
11
34.1200167
21
22.9874052
0
LINE
8
DEFAULT_255_2_778
10
34.1200167
20
22.9874052
11
34.0012167
21
23.1062052
0
LINE
8
DEFAULT_255_2_778
10
34.0012167
20
23.1062052
11
33.8824167
21
23.1657052
0
LINE
8
DEFAULT_255_2_778
10
33.8824167
20
23.1657052
11
33.7041167
21
23.1657052
0
LINE
8
DEFAULT_255_2_778
10
33.7041167
20
23.1657052
11
33.5853167
21
23.1062052
0
LINE
8
DEFAULT_255_2_778
10
33.5853167
20
23.1062052
11
33.4665167
21
22.9874052
0
LINE
8
DEFAULT_255_2_778
10
33.4665167
20
22.9874052
11
33.4070167
21
22.8686052
0
LINE
8
DEFAULT_255_2_778
10
33.4070167
20
22.8686052
11
33.1096167
21
22.8686052
0
LINE
8
DEFAULT_255_2_778
10
33.1096167
20
22.8686052
11
33.1691167
21
24.1767052
0
LINE
8
DEFAULT_255_2_778
10
33.8228643
20
49.9385729
11
33.7040643
21
49.9385729
0
LINE
8
DEFAULT_255_2_778
10
33.7040643
20
49.9385729
11
33.5852643
21
49.8790729
0
LINE
8
DEFAULT_255_2_778
10
33.5852643
20
49.8790729
11
33.4665643
21
49.7602729
0
LINE
8
DEFAULT_255_2_778
10
33.4665643
20
49.7602729
11
33.4069643
21
49.6414729
0
LINE
8
DEFAULT_255_2_778
10
33.4069643
20
49.6414729
11
33.3474643
21
49.2848729
0
LINE
8
DEFAULT_255_2_778
10
33.3474643
20
49.2848729
11
33.3474643
21
48.8686729
0
LINE
8
DEFAULT_255_2_778
10
33.3474643
20
48.8686729
11
33.4069643
21
48.5119729
0
LINE
8
DEFAULT_255_2_778
10
33.4069643
20
48.5119729
11
33.4665643
21
48.3931729
0
LINE
8
DEFAULT_255_2_778
10
33.4665643
20
48.3931729
11
33.5852643
21
48.2743729
0
LINE
8
DEFAULT_255_2_778
10
33.5852643
20
48.2743729
11
33.7040643
21
48.2148729
0
LINE
8
DEFAULT_255_2_778
10
33.7040643
20
48.2148729
11
33.8228643
21
48.2148729
0
LINE
8
DEFAULT_255_2_778
10
33.8228643
20
48.2148729
11
33.9416643
21
48.2743729
0
LINE
8
DEFAULT_255_2_778
10
33.9416643
20
48.2743729
11
34.0604643
21
48.3931729
0
LINE
8
DEFAULT_255_2_778
10
34.0604643
20
48.3931729
11
34.1199643
21
48.5119729
0
LINE
8
DEFAULT_255_2_778
10
34.1199643
20
48.5119729
11
34.1795643
21
48.8686729
0
LINE
8
DEFAULT_255_2_778
10
34.1795643
20
48.8686729
11
34.1795643
21
49.2848729
0
LINE
8
DEFAULT_255_2_778
10
34.1795643
20
49.2848729
11
34.1199643
21
49.6414729
0
LINE
8
DEFAULT_255_2_778
10
34.1199643
20
49.6414729
11
34.0604643
21
49.7602729
0
LINE
8
DEFAULT_255_2_778
10
34.0604643
20
49.7602729
11
33.9416643
21
49.8790729
0
LINE
8
DEFAULT_255_2_778
10
33.9416643
20
49.8790729
11
33.8228643
21
49.9385729
0
LINE
8
DEFAULT_255_2_778
10
33.6445643
20
50.1764729
11
33.8824643
21
50.1764729
0
LINE
8
DEFAULT_255_2_778
10
33.8824643
20
50.1764729
11
34.0607643
21
50.1169729
0
LINE
8
DEFAULT_255_2_778
10
34.0607643
20
50.1169729
11
34.2390643
21
49.9385729
0
LINE
8
DEFAULT_255_2_778
10
34.2390643
20
49.9385729
11
34.4174643
21
49.5819729
0
LINE
8
DEFAULT_255_2_778
10
34.4174643
20
49.5819729
11
34.4769643
21
49.2252729
0
LINE
8
DEFAULT_255_2_778
10
34.4769643
20
49.2252729
11
34.4769643
21
48.9278729
0
LINE
8
DEFAULT_255_2_778
10
34.4769643
20
48.9278729
11
34.4174643
21
48.5712729
0
LINE
8
DEFAULT_255_2_778
10
34.4174643
20
48.5712729
11
34.2390643
21
48.2145729
0
LINE
8
DEFAULT_255_2_778
10
34.2390643
20
48.2145729
11
34.0607643
21
48.0362729
0
LINE
8
DEFAULT_255_2_778
10
34.0607643
20
48.0362729
11
33.8824643
21
47.9767729
0
LINE
8
DEFAULT_255_2_778
10
33.8824643
20
47.9767729
11
33.6445643
21
47.9767729
0
LINE
8
DEFAULT_255_2_778
10
33.6445643
20
47.9767729
11
33.4662643
21
48.0362729
0
LINE
8
DEFAULT_255_2_778
10
33.4662643
20
48.0362729
11
33.2879643
21
48.2145729
0
LINE
8
DEFAULT_255_2_778
10
33.2879643
20
48.2145729
11
33.1095643
21
48.5712729
0
LINE
8
DEFAULT_255_2_778
10
33.1095643
20
48.5712729
11
33.0500643
21
48.9278729
0
LINE
8
DEFAULT_255_2_778
10
33.0500643
20
48.9278729
11
33.0500643
21
49.2252729
0
LINE
8
DEFAULT_255_2_778
10
33.0500643
20
49.2252729
11
33.1095643
21
49.5819729
0
LINE
8
DEFAULT_255_2_778
10
33.1095643
20
49.5819729
11
33.2879643
21
49.9385729
0
LINE
8
DEFAULT_255_2_778
10
33.2879643
20
49.9385729
11
33.4662643
21
50.1169729
0
LINE
8
DEFAULT_255_2_778
10
33.4662643
20
50.1169729
11
33.6445643
21
50.1764729
0
LINE
8
DEFAULT_255_2_778
10
33.9419865
20
29.3765396
11
34.2393865
21
29.3765396
0
LINE
8
DEFAULT_255_2_778
10
34.2393865
20
29.3765396
11
34.2393865
21
27.9496396
0
LINE
8
DEFAULT_255_2_778
10
34.2393865
20
27.9496396
11
34.5959865
21
27.9496396
0
LINE
8
DEFAULT_255_2_778
10
34.5959865
20
27.9496396
11
34.5959865
21
27.7117396
0
LINE
8
DEFAULT_255_2_778
10
34.5959865
20
27.7117396
11
34.2393865
21
27.7117396
0
LINE
8
DEFAULT_255_2_778
10
34.2393865
20
27.7117396
11
34.2393865
21
27.2360396
0
LINE
8
DEFAULT_255_2_778
10
34.2393865
20
27.2360396
11
34.0014865
21
27.2360396
0
LINE
8
DEFAULT_255_2_778
10
34.0014865
20
27.2360396
11
34.0014865
21
27.7117396
0
LINE
8
DEFAULT_255_2_778
10
34.0014865
20
27.7117396
11
32.9907865
21
27.7117396
0
LINE
8
DEFAULT_255_2_778
10
32.9907865
20
27.7117396
11
32.9907865
21
28.0091396
0
LINE
8
DEFAULT_255_2_778
10
32.9907865
20
28.0091396
11
33.9419865
21
29.3765396
0
LINE
8
DEFAULT_255_2_778
10
33.2283865
20
27.9496396
11
34.0011865
21
27.9496396
0
LINE
8
DEFAULT_255_2_778
10
34.0011865
20
27.9496396
11
34.0011865
21
29.0794396
0
LINE
8
DEFAULT_255_2_778
10
34.0011865
20
29.0794396
11
33.2283865
21
27.9496396
0
LINE
8
DEFAULT_255_2_778
10
33.9418865
20
18.9765729
11
33.7040865
21
18.9765729
0
LINE
8
DEFAULT_255_2_778
10
33.7040865
20
18.9765729
11
33.5257865
21
18.9170729
0
LINE
8
DEFAULT_255_2_778
10
33.5257865
20
18.9170729
11
33.3473865
21
18.7982729
0
LINE
8
DEFAULT_255_2_778
10
33.3473865
20
18.7982729
11
33.2285865
21
18.6198729
0
LINE
8
DEFAULT_255_2_778
10
33.2285865
20
18.6198729
11
33.1097865
21
18.3225729
0
LINE
8
DEFAULT_255_2_778
10
33.1097865
20
18.3225729
11
33.0502865
21
17.9658729
0
LINE
8
DEFAULT_255_2_778
10
33.0502865
20
17.9658729
11
33.0502865
21
17.6684729
0
LINE
8
DEFAULT_255_2_778
10
33.0502865
20
17.6684729
11
33.1097865
21
17.3117729
0
LINE
8
DEFAULT_255_2_778
10
33.1097865
20
17.3117729
11
33.1693865
21
17.1334729
0
LINE
8
DEFAULT_255_2_778
10
33.1693865
20
17.1334729
11
33.2881865
21
16.9551729
0
LINE
8
DEFAULT_255_2_778
10
33.2881865
20
16.9551729
11
33.4664865
21
16.8363729
0
LINE
8
DEFAULT_255_2_778
10
33.4664865
20
16.8363729
11
33.6447865
21
16.7768729
0
LINE
8
DEFAULT_255_2_778
10
33.6447865
20
16.7768729
11
33.8826865
21
16.7768729
0
LINE
8
DEFAULT_255_2_778
10
33.8826865
20
16.7768729
11
34.0609865
21
16.8363729
0
LINE
8
DEFAULT_255_2_778
10
34.0609865
20
16.8363729
11
34.2988865
21
17.0146729
0
LINE
8
DEFAULT_255_2_778
10
34.2988865
20
17.0146729
11
34.4176865
21
17.1929729
0
LINE
8
DEFAULT_255_2_778
10
34.4176865
20
17.1929729
11
34.4771865
21
17.3713729
0
LINE
8
DEFAULT_255_2_778
10
34.4771865
20
17.3713729
11
34.4771865
21
17.6687729
0
LINE
8
DEFAULT_255_2_778
10
34.4771865
20
17.6687729
11
34.4176865
21
17.8470729
0
LINE
8
DEFAULT_255_2_778
10
34.4176865
20
17.8470729
11
34.2988865
21
18.0253729
0
LINE
8
DEFAULT_255_2_778
10
34.2988865
20
18.0253729
11
34.1204865
21
18.1441729
0
LINE
8
DEFAULT_255_2_778
10
34.1204865
20
18.1441729
11
33.9421865
21
18.2037729
0
LINE
8
DEFAULT_255_2_778
10
33.9421865
20
18.2037729
11
33.7638865
21
18.2037729
0
LINE
8
DEFAULT_255_2_778
10
33.7638865
20
18.2037729
11
33.5855865
21
18.1441729
0
LINE
8
DEFAULT_255_2_778
10
33.5855865
20
18.1441729
11
33.4667865
21
18.0846729
0
LINE
8
DEFAULT_255_2_778
10
33.4667865
20
18.0846729
11
33.3479865
21
17.9658729
0
LINE
8
DEFAULT_255_2_778
10
33.3479865
20
17.9658729
11
33.4074865
21
18.3820729
0
LINE
8
DEFAULT_255_2_778
10
33.4074865
20
18.3820729
11
33.4669865
21
18.5603729
0
LINE
8
DEFAULT_255_2_778
10
33.4669865
20
18.5603729
11
33.5857865
21
18.6791729
0
LINE
8
DEFAULT_255_2_778
10
33.5857865
20
18.6791729
11
33.7640865
21
18.7386729
0
LINE
8
DEFAULT_255_2_778
10
33.7640865
20
18.7386729
11
33.9424865
21
18.7386729
0
LINE
8
DEFAULT_255_2_778
10
33.9424865
20
18.7386729
11
34.0612865
21
18.6791729
0
LINE
8
DEFAULT_255_2_778
10
34.0612865
20
18.6791729
11
34.1207865
21
18.6196729
0
LINE
8
DEFAULT_255_2_778
10
34.1207865
20
18.6196729
11
34.1802865
21
18.5008729
0
LINE
8
DEFAULT_255_2_778
10
34.1802865
20
18.5008729
11
34.1802865
21
18.4412729
0
LINE
8
DEFAULT_255_2_778
10
34.1802865
20
18.4412729
11
34.4776865
21
18.4412729
0
LINE
8
DEFAULT_255_2_778
10
34.4776865
20
18.4412729
11
34.4776865
21
18.5600729
0
LINE
8
DEFAULT_255_2_778
10
34.4776865
20
18.5600729
11
34.3588865
21
18.7979729
0
LINE
8
DEFAULT_255_2_778
10
34.3588865
20
18.7979729
11
34.1805865
21
18.9167729
0
LINE
8
DEFAULT_255_2_778
10
34.1805865
20
18.9167729
11
33.9418865
21
18.9765729
0
LINE
8
DEFAULT_255_2_778
10
33.8823865
20
17.9658729
11
33.7040865
21
17.9658729
0
LINE
8
DEFAULT_255_2_778
10
33.7040865
20
17.9658729
11
33.5852865
21
17.9063729
0
LINE
8
DEFAULT_255_2_778
10
33.5852865
20
17.9063729
11
33.4664865
21
17.7875729
0
LINE
8
DEFAULT_255_2_778
10
33.4664865
20
17.7875729
11
33.4069865
21
17.6687729
0
LINE
8
DEFAULT_255_2_778
10
33.4069865
20
17.6687729
11
33.4069865
21
17.3713729
0
LINE
8
DEFAULT_255_2_778
10
33.4069865
20
17.3713729
11
33.5257865
21
17.1334729
0
LINE
8
DEFAULT_255_2_778
10
33.5257865
20
17.1334729
11
33.7040865
21
17.0146729
0
LINE
8
DEFAULT_255_2_778
10
33.7040865
20
17.0146729
11
33.8823865
21
17.0146729
0
LINE
8
DEFAULT_255_2_778
10
33.8823865
20
17.0146729
11
34.0606865
21
17.1334729
0
LINE
8
DEFAULT_255_2_778
10
34.0606865
20
17.1334729
11
34.1794865
21
17.3713729
0
LINE
8
DEFAULT_255_2_778
10
34.1794865
20
17.3713729
11
34.1794865
21
17.6091729
0
LINE
8
DEFAULT_255_2_778
10
34.1794865
20
17.6091729
11
34.1199865
21
17.7875729
0
LINE
8
DEFAULT_255_2_778
10
34.1199865
20
17.7875729
11
34.0011865
21
17.9063729
0
LINE
8
DEFAULT_255_2_778
10
34.0011865
20
17.9063729
11
33.8823865
21
17.9658729
0
LINE
8
DEFAULT_255_2_778
10
6.6038844
20
39.7764718
11
6.7821844
21
39.7764718
0
LINE
8
DEFAULT_255_2_778
10
6.7821844
20
39.7764718
11
7.0200844
21
39.7169718
0
LINE
8
DEFAULT_255_2_778
10
7.0200844
20
39.7169718
11
7.1983844
21
39.5981718
0
LINE
8
DEFAULT_255_2_778
10
7.1983844
20
39.5981718
11
7.3171844
21
39.3602718
0
LINE
8
DEFAULT_255_2_778
10
7.3171844
20
39.3602718
11
7.3171844
21
39.0628718
0
LINE
8
DEFAULT_255_2_778
10
7.3171844
20
39.0628718
11
7.1983844
21
38.7654718
0
LINE
8
DEFAULT_255_2_778
10
7.1983844
20
38.7654718
11
7.0795844
21
38.5871718
0
LINE
8
DEFAULT_255_2_778
10
7.0795844
20
38.5871718
11
6.3659844
21
37.8735718
0
LINE
8
DEFAULT_255_2_778
10
6.3659844
20
37.8735718
11
7.3766844
21
37.8735718
0
LINE
8
DEFAULT_255_2_778
10
7.3766844
20
37.8735718
11
7.3766844
21
37.6357718
0
LINE
8
DEFAULT_255_2_778
10
7.3766844
20
37.6357718
11
6.0090844
21
37.6357718
0
LINE
8
DEFAULT_255_2_778
10
6.0090844
20
37.6357718
11
6.0090844
21
37.9330718
0
LINE
8
DEFAULT_255_2_778
10
6.0090844
20
37.9330718
11
6.8414844
21
38.7654718
0
LINE
8
DEFAULT_255_2_778
10
6.8414844
20
38.7654718
11
6.9602844
21
38.9438718
0
LINE
8
DEFAULT_255_2_778
10
6.9602844
20
38.9438718
11
7.0197844
21
39.1221718
0
LINE
8
DEFAULT_255_2_778
10
7.0197844
20
39.1221718
11
7.0197844
21
39.3004718
0
LINE
8
DEFAULT_255_2_778
10
7.0197844
20
39.3004718
11
6.9009844
21
39.4787718
0
LINE
8
DEFAULT_255_2_778
10
6.9009844
20
39.4787718
11
6.7821844
21
39.5383718
0
LINE
8
DEFAULT_255_2_778
10
6.7821844
20
39.5383718
11
6.6038844
21
39.5383718
0
LINE
8
DEFAULT_255_2_778
10
6.6038844
20
39.5383718
11
6.4850844
21
39.4787718
0
LINE
8
DEFAULT_255_2_778
10
6.4850844
20
39.4787718
11
6.4255844
21
39.4192718
0
LINE
8
DEFAULT_255_2_778
10
6.4255844
20
39.4192718
11
6.3659844
21
39.3004718
0
LINE
8
DEFAULT_255_2_778
10
6.3659844
20
39.3004718
11
6.3659844
21
39.1816718
0
LINE
8
DEFAULT_255_2_778
10
6.3659844
20
39.1816718
11
6.0093844
21
39.1816718
0
LINE
8
DEFAULT_255_2_778
10
6.0093844
20
39.1816718
11
6.0688844
21
39.4195718
0
LINE
8
DEFAULT_255_2_778
10
6.0688844
20
39.4195718
11
6.1876844
21
39.5978718
0
LINE
8
DEFAULT_255_2_778
10
6.1876844
20
39.5978718
11
6.3659844
21
39.7166718
0
LINE
8
DEFAULT_255_2_778
10
6.3659844
20
39.7166718
11
6.6038844
21
39.7761718
0
LINE
8
DEFAULT_255_2_778
10
6.0000844
20
13.7764586
11
7.3676844
21
13.7764586
0
LINE
8
DEFAULT_255_2_778
10
7.3676844
20
13.7764586
11
7.3676844
21
13.4790586
0
LINE
8
DEFAULT_255_2_778
10
7.3676844
20
13.4790586
11
6.5948844
21
11.6357586
0
LINE
8
DEFAULT_255_2_778
10
6.5948844
20
11.6357586
11
6.2974844
21
11.6357586
0
LINE
8
DEFAULT_255_2_778
10
6.2974844
20
11.6357586
11
7.0702844
21
13.4790586
0
LINE
8
DEFAULT_255_2_778
10
7.0702844
20
13.4790586
11
6.0000844
21
13.4790586
0
LINE
8
DEFAULT_255_2_778
10
6.0000844
20
13.4790586
11
6.0000844
21
13.7764586
0
LINE
8
DEFAULT_255_2_778
10
6.6636438
20
44.9765718
11
6.9610438
21
44.9765718
0
LINE
8
DEFAULT_255_2_778
10
6.9610438
20
44.9765718
11
6.9610438
21
42.8361718
0
LINE
8
DEFAULT_255_2_778
10
6.9610438
20
42.8361718
11
6.6636438
21
42.8361718
0
LINE
8
DEFAULT_255_2_778
10
6.6636438
20
42.8361718
11
6.6636438
21
44.6199718
0
LINE
8
DEFAULT_255_2_778
10
6.6636438
20
44.6199718
11
6.4258438
21
44.4415718
0
LINE
8
DEFAULT_255_2_778
10
6.4258438
20
44.4415718
11
6.1879438
21
44.3228718
0
LINE
8
DEFAULT_255_2_778
10
6.1879438
20
44.3228718
11
6.1879438
21
44.6201718
0
LINE
8
DEFAULT_255_2_778
10
6.1879438
20
44.6201718
11
6.3662438
21
44.7389718
0
LINE
8
DEFAULT_255_2_778
10
6.3662438
20
44.7389718
11
6.6041438
21
44.9173718
0
LINE
8
DEFAULT_255_2_778
10
6.6041438
20
44.9173718
11
6.6636438
21
44.9768718
0
LINE
8
DEFAULT_255_2_778
10
6.5446188
20
34.5764052
11
6.3067188
21
34.5169052
0
LINE
8
DEFAULT_255_2_778
10
6.3067188
20
34.5169052
11
6.1284188
21
34.3981052
0
LINE
8
DEFAULT_255_2_778
10
6.1284188
20
34.3981052
11
6.0096188
21
34.1602052
0
LINE
8
DEFAULT_255_2_778
10
6.0096188
20
34.1602052
11
6.0096188
21
34.0414052
0
LINE
8
DEFAULT_255_2_778
10
6.0096188
20
34.0414052
11
6.3070188
21
34.0414052
0
LINE
8
DEFAULT_255_2_778
10
6.3070188
20
34.0414052
11
6.3665188
21
34.2197052
0
LINE
8
DEFAULT_255_2_778
10
6.3665188
20
34.2197052
11
6.4260188
21
34.2793052
0
LINE
8
DEFAULT_255_2_778
10
6.4260188
20
34.2793052
11
6.5448188
21
34.3388052
0
LINE
8
DEFAULT_255_2_778
10
6.5448188
20
34.3388052
11
6.7827188
21
34.3388052
0
LINE
8
DEFAULT_255_2_778
10
6.7827188
20
34.3388052
11
6.9015188
21
34.2793052
0
LINE
8
DEFAULT_255_2_778
10
6.9015188
20
34.2793052
11
7.0203188
21
34.1010052
0
LINE
8
DEFAULT_255_2_778
10
7.0203188
20
34.1010052
11
7.0203188
21
33.8631052
0
LINE
8
DEFAULT_255_2_778
10
7.0203188
20
33.8631052
11
6.9607188
21
33.7443052
0
LINE
8
DEFAULT_255_2_778
10
6.9607188
20
33.7443052
11
6.8419188
21
33.6848052
0
LINE
8
DEFAULT_255_2_778
10
6.8419188
20
33.6848052
11
6.6636188
21
33.6252052
0
LINE
8
DEFAULT_255_2_778
10
6.6636188
20
33.6252052
11
6.4853188
21
33.6252052
0
LINE
8
DEFAULT_255_2_778
10
6.4853188
20
33.6252052
11
6.4853188
21
33.3874052
0
LINE
8
DEFAULT_255_2_778
10
6.4853188
20
33.3874052
11
6.7231188
21
33.3874052
0
LINE
8
DEFAULT_255_2_778
10
6.7231188
20
33.3874052
11
6.9015188
21
33.3278052
0
LINE
8
DEFAULT_255_2_778
10
6.9015188
20
33.3278052
11
7.0203188
21
33.2090052
0
LINE
8
DEFAULT_255_2_778
10
7.0203188
20
33.2090052
11
7.0798188
21
33.0902052
0
LINE
8
DEFAULT_255_2_778
10
7.0798188
20
33.0902052
11
7.0798188
21
32.9119052
0
LINE
8
DEFAULT_255_2_778
10
7.0798188
20
32.9119052
11
6.9610188
21
32.7336052
0
LINE
8
DEFAULT_255_2_778
10
6.9610188
20
32.7336052
11
6.7827188
21
32.6148052
0
LINE
8
DEFAULT_255_2_778
10
6.7827188
20
32.6148052
11
6.5448188
21
32.6148052
0
LINE
8
DEFAULT_255_2_778
10
6.5448188
20
32.6148052
11
6.3665188
21
32.6743052
0
LINE
8
DEFAULT_255_2_778
10
6.3665188
20
32.6743052
11
6.2477188
21
32.8526052
0
LINE
8
DEFAULT_255_2_778
10
6.2477188
20
32.8526052
11
6.2477188
21
32.9714052
0
LINE
8
DEFAULT_255_2_778
10
6.2477188
20
32.9714052
11
5.9503188
21
32.9714052
0
LINE
8
DEFAULT_255_2_778
10
5.9503188
20
32.9714052
11
5.9503188
21
32.8526052
0
LINE
8
DEFAULT_255_2_778
10
5.9503188
20
32.8526052
11
6.0098188
21
32.6743052
0
LINE
8
DEFAULT_255_2_778
10
6.0098188
20
32.6743052
11
6.1286188
21
32.5555052
0
LINE
8
DEFAULT_255_2_778
10
6.1286188
20
32.5555052
11
6.3070188
21
32.4367052
0
LINE
8
DEFAULT_255_2_778
10
6.3070188
20
32.4367052
11
6.5448188
21
32.3772052
0
LINE
8
DEFAULT_255_2_778
10
6.5448188
20
32.3772052
11
6.7827188
21
32.3772052
0
LINE
8
DEFAULT_255_2_778
10
6.7827188
20
32.3772052
11
7.0801188
21
32.4960052
0
LINE
8
DEFAULT_255_2_778
10
7.0801188
20
32.4960052
11
7.3179188
21
32.7338052
0
LINE
8
DEFAULT_255_2_778
10
7.3179188
20
32.7338052
11
7.3775188
21
32.9122052
0
LINE
8
DEFAULT_255_2_778
10
7.3775188
20
32.9122052
11
7.3775188
21
33.1500052
0
LINE
8
DEFAULT_255_2_778
10
7.3775188
20
33.1500052
11
7.2587188
21
33.3879052
0
LINE
8
DEFAULT_255_2_778
10
7.2587188
20
33.3879052
11
7.1399188
21
33.4474052
0
LINE
8
DEFAULT_255_2_778
10
7.1399188
20
33.4474052
11
6.9615188
21
33.5070052
0
LINE
8
DEFAULT_255_2_778
10
6.9615188
20
33.5070052
11
7.0803188
21
33.5665052
0
LINE
8
DEFAULT_255_2_778
10
7.0803188
20
33.5665052
11
7.2587188
21
33.7448052
0
LINE
8
DEFAULT_255_2_778
10
7.2587188
20
33.7448052
11
7.3182188
21
33.9232052
0
LINE
8
DEFAULT_255_2_778
10
7.3182188
20
33.9232052
11
7.3182188
21
34.1610052
0
LINE
8
DEFAULT_255_2_778
10
7.3182188
20
34.1610052
11
7.1994188
21
34.3989052
0
LINE
8
DEFAULT_255_2_778
10
7.1994188
20
34.3989052
11
7.0211188
21
34.5177052
0
LINE
8
DEFAULT_255_2_778
10
7.0211188
20
34.5177052
11
6.8427188
21
34.5772052
0
LINE
8
DEFAULT_255_2_778
10
6.8427188
20
34.5772052
11
6.5453188
21
34.5772052
0
LINE
8
DEFAULT_255_2_778
10
6.0688167
20
24.1764052
11
7.2581167
21
24.1764052
0
LINE
8
DEFAULT_255_2_778
10
7.2581167
20
24.1764052
11
7.2581167
21
23.9386052
0
LINE
8
DEFAULT_255_2_778
10
7.2581167
20
23.9386052
11
6.3662167
21
23.9386052
0
LINE
8
DEFAULT_255_2_778
10
6.3662167
20
23.9386052
11
6.3067167
21
23.2250052
0
LINE
8
DEFAULT_255_2_778
10
6.3067167
20
23.2250052
11
6.3662167
21
23.2845052
0
LINE
8
DEFAULT_255_2_778
10
6.3662167
20
23.2845052
11
6.4850167
21
23.3441052
0
LINE
8
DEFAULT_255_2_778
10
6.4850167
20
23.3441052
11
6.6633167
21
23.4036052
0
LINE
8
DEFAULT_255_2_778
10
6.6633167
20
23.4036052
11
6.8417167
21
23.4036052
0
LINE
8
DEFAULT_255_2_778
10
6.8417167
20
23.4036052
11
7.0200167
21
23.3441052
0
LINE
8
DEFAULT_255_2_778
10
7.0200167
20
23.3441052
11
7.1983167
21
23.2253052
0
LINE
8
DEFAULT_255_2_778
10
7.1983167
20
23.2253052
11
7.3171167
21
23.0469052
0
LINE
8
DEFAULT_255_2_778
10
7.3171167
20
23.0469052
11
7.3767167
21
22.8686052
0
LINE
8
DEFAULT_255_2_778
10
7.3767167
20
22.8686052
11
7.3767167
21
22.5712052
0
LINE
8
DEFAULT_255_2_778
10
7.3767167
20
22.5712052
11
7.3171167
21
22.3929052
0
LINE
8
DEFAULT_255_2_778
10
7.3171167
20
22.3929052
11
7.1983167
21
22.2146052
0
LINE
8
DEFAULT_255_2_778
10
7.1983167
20
22.2146052
11
6.9605167
21
22.0362052
0
LINE
8
DEFAULT_255_2_778
10
6.9605167
20
22.0362052
11
6.7821167
21
21.9767052
0
LINE
8
DEFAULT_255_2_778
10
6.7821167
20
21.9767052
11
6.5443167
21
21.9767052
0
LINE
8
DEFAULT_255_2_778
10
6.5443167
20
21.9767052
11
6.3064167
21
22.0362052
0
LINE
8
DEFAULT_255_2_778
10
6.3064167
20
22.0362052
11
6.1281167
21
22.1550052
0
LINE
8
DEFAULT_255_2_778
10
6.1281167
20
22.1550052
11
6.0093167
21
22.3929052
0
LINE
8
DEFAULT_255_2_778
10
6.0093167
20
22.3929052
11
6.0093167
21
22.5117052
0
LINE
8
DEFAULT_255_2_778
10
6.0093167
20
22.5117052
11
6.3067167
21
22.5117052
0
LINE
8
DEFAULT_255_2_778
10
6.3067167
20
22.5117052
11
6.3067167
21
22.4521052
0
LINE
8
DEFAULT_255_2_778
10
6.3067167
20
22.4521052
11
6.3662167
21
22.3333052
0
LINE
8
DEFAULT_255_2_778
10
6.3662167
20
22.3333052
11
6.5446167
21
22.2146052
0
LINE
8
DEFAULT_255_2_778
10
6.5446167
20
22.2146052
11
6.7824167
21
22.2146052
0
LINE
8
DEFAULT_255_2_778
10
6.7824167
20
22.2146052
11
6.9607167
21
22.3333052
0
LINE
8
DEFAULT_255_2_778
10
6.9607167
20
22.3333052
11
7.0795167
21
22.5712052
0
LINE
8
DEFAULT_255_2_778
10
7.0795167
20
22.5712052
11
7.0795167
21
22.8091052
0
LINE
8
DEFAULT_255_2_778
10
7.0795167
20
22.8091052
11
7.0200167
21
22.9874052
0
LINE
8
DEFAULT_255_2_778
10
7.0200167
20
22.9874052
11
6.9012167
21
23.1062052
0
LINE
8
DEFAULT_255_2_778
10
6.9012167
20
23.1062052
11
6.7824167
21
23.1657052
0
LINE
8
DEFAULT_255_2_778
10
6.7824167
20
23.1657052
11
6.6041167
21
23.1657052
0
LINE
8
DEFAULT_255_2_778
10
6.6041167
20
23.1657052
11
6.4853167
21
23.1062052
0
LINE
8
DEFAULT_255_2_778
10
6.4853167
20
23.1062052
11
6.3665167
21
22.9874052
0
LINE
8
DEFAULT_255_2_778
10
6.3665167
20
22.9874052
11
6.3070167
21
22.8686052
0
LINE
8
DEFAULT_255_2_778
10
6.3070167
20
22.8686052
11
6.0096167
21
22.8686052
0
LINE
8
DEFAULT_255_2_778
10
6.0096167
20
22.8686052
11
6.0691167
21
24.1767052
0
LINE
8
DEFAULT_255_2_778
10
6.7228511
20
49.9385729
11
6.6040511
21
49.9385729
0
LINE
8
DEFAULT_255_2_778
10
6.6040511
20
49.9385729
11
6.4853511
21
49.8790729
0
LINE
8
DEFAULT_255_2_778
10
6.4853511
20
49.8790729
11
6.3665511
21
49.7602729
0
LINE
8
DEFAULT_255_2_778
10
6.3665511
20
49.7602729
11
6.3069511
21
49.6414729
0
LINE
8
DEFAULT_255_2_778
10
6.3069511
20
49.6414729
11
6.2474511
21
49.2848729
0
LINE
8
DEFAULT_255_2_778
10
6.2474511
20
49.2848729
11
6.2474511
21
48.8686729
0
LINE
8
DEFAULT_255_2_778
10
6.2474511
20
48.8686729
11
6.3069511
21
48.5119729
0
LINE
8
DEFAULT_255_2_778
10
6.3069511
20
48.5119729
11
6.3665511
21
48.3931729
0
LINE
8
DEFAULT_255_2_778
10
6.3665511
20
48.3931729
11
6.4853511
21
48.2743729
0
LINE
8
DEFAULT_255_2_778
10
6.4853511
20
48.2743729
11
6.6040511
21
48.2148729
0
LINE
8
DEFAULT_255_2_778
10
6.6040511
20
48.2148729
11
6.7228511
21
48.2148729
0
LINE
8
DEFAULT_255_2_778
10
6.7228511
20
48.2148729
11
6.8416511
21
48.2743729
0
LINE
8
DEFAULT_255_2_778
10
6.8416511
20
48.2743729
11
6.9604511
21
48.3931729
0
LINE
8
DEFAULT_255_2_778
10
6.9604511
20
48.3931729
11
7.0200511
21
48.5119729
0
LINE
8
DEFAULT_255_2_778
10
7.0200511
20
48.5119729
11
7.0795511
21
48.8686729
0
LINE
8
DEFAULT_255_2_778
10
7.0795511
20
48.8686729
11
7.0795511
21
49.2848729
0
LINE
8
DEFAULT_255_2_778
10
7.0795511
20
49.2848729
11
7.0200511
21
49.6414729
0
LINE
8
DEFAULT_255_2_778
10
7.0200511
20
49.6414729
11
6.9604511
21
49.7602729
0
LINE
8
DEFAULT_255_2_778
10
6.9604511
20
49.7602729
11
6.8416511
21
49.8790729
0
LINE
8
DEFAULT_255_2_778
10
6.8416511
20
49.8790729
11
6.7228511
21
49.9385729
0
LINE
8
DEFAULT_255_2_778
10
6.5445511
20
50.1764729
11
6.7824511
21
50.1764729
0
LINE
8
DEFAULT_255_2_778
10
6.7824511
20
50.1764729
11
6.9607511
21
50.1169729
0
LINE
8
DEFAULT_255_2_778
10
6.9607511
20
50.1169729
11
7.1390511
21
49.9385729
0
LINE
8
DEFAULT_255_2_778
10
7.1390511
20
49.9385729
11
7.3174511
21
49.5819729
0
LINE
8
DEFAULT_255_2_778
10
7.3174511
20
49.5819729
11
7.3769511
21
49.2252729
0
LINE
8
DEFAULT_255_2_778
10
7.3769511
20
49.2252729
11
7.3769511
21
48.9278729
0
LINE
8
DEFAULT_255_2_778
10
7.3769511
20
48.9278729
11
7.3174511
21
48.5712729
0
LINE
8
DEFAULT_255_2_778
10
7.3174511
20
48.5712729
11
7.1390511
21
48.2145729
0
LINE
8
DEFAULT_255_2_778
10
7.1390511
20
48.2145729
11
6.9607511
21
48.0362729
0
LINE
8
DEFAULT_255_2_778
10
6.9607511
20
48.0362729
11
6.7824511
21
47.9767729
0
LINE
8
DEFAULT_255_2_778
10
6.7824511
20
47.9767729
11
6.5445511
21
47.9767729
0
LINE
8
DEFAULT_255_2_778
10
6.5445511
20
47.9767729
11
6.3662511
21
48.0362729
0
LINE
8
DEFAULT_255_2_778
10
6.3662511
20
48.0362729
11
6.1879511
21
48.2145729
0
LINE
8
DEFAULT_255_2_778
10
6.1879511
20
48.2145729
11
6.0095511
21
48.5712729
0
LINE
8
DEFAULT_255_2_778
10
6.0095511
20
48.5712729
11
5.9500511
21
48.9278729
0
LINE
8
DEFAULT_255_2_778
10
5.9500511
20
48.9278729
11
5.9500511
21
49.2252729
0
LINE
8
DEFAULT_255_2_778
10
5.9500511
20
49.2252729
11
6.0095511
21
49.5819729
0
LINE
8
DEFAULT_255_2_778
10
6.0095511
20
49.5819729
11
6.1879511
21
49.9385729
0
LINE
8
DEFAULT_255_2_778
10
6.1879511
20
49.9385729
11
6.3662511
21
50.1169729
0
LINE
8
DEFAULT_255_2_778
10
6.3662511
20
50.1169729
11
6.5445511
21
50.1764729
0
LINE
8
DEFAULT_255_2_778
10
6.8419865
20
29.3765396
11
7.1393865
21
29.3765396
0
LINE
8
DEFAULT_255_2_778
10
7.1393865
20
29.3765396
11
7.1393865
21
27.9496396
0
LINE
8
DEFAULT_255_2_778
10
7.1393865
20
27.9496396
11
7.4959865
21
27.9496396
0
LINE
8
DEFAULT_255_2_778
10
7.4959865
20
27.9496396
11
7.4959865
21
27.7117396
0
LINE
8
DEFAULT_255_2_778
10
7.4959865
20
27.7117396
11
7.1393865
21
27.7117396
0
LINE
8
DEFAULT_255_2_778
10
7.1393865
20
27.7117396
11
7.1393865
21
27.2360396
0
LINE
8
DEFAULT_255_2_778
10
7.1393865
20
27.2360396
11
6.9014865
21
27.2360396
0
LINE
8
DEFAULT_255_2_778
10
6.9014865
20
27.2360396
11
6.9014865
21
27.7117396
0
LINE
8
DEFAULT_255_2_778
10
6.9014865
20
27.7117396
11
5.8907865
21
27.7117396
0
LINE
8
DEFAULT_255_2_778
10
5.8907865
20
27.7117396
11
5.8907865
21
28.0091396
0
LINE
8
DEFAULT_255_2_778
10
5.8907865
20
28.0091396
11
6.8419865
21
29.3765396
0
LINE
8
DEFAULT_255_2_778
10
6.1283865
20
27.9496396
11
6.9011865
21
27.9496396
0
LINE
8
DEFAULT_255_2_778
10
6.9011865
20
27.9496396
11
6.9011865
21
29.0794396
0
LINE
8
DEFAULT_255_2_778
10
6.9011865
20
29.0794396
11
6.1283865
21
27.9496396
0
LINE
8
DEFAULT_255_2_778
10
6.8419865
20
18.9765729
11
6.6041865
21
18.9765729
0
LINE
8
DEFAULT_255_2_778
10
6.6041865
20
18.9765729
11
6.4258865
21
18.9170729
0
LINE
8
DEFAULT_255_2_778
10
6.4258865
20
18.9170729
11
6.2474865
21
18.7982729
0
LINE
8
DEFAULT_255_2_778
10
6.2474865
20
18.7982729
11
6.1286865
21
18.6198729
0
LINE
8
DEFAULT_255_2_778
10
6.1286865
20
18.6198729
11
6.0098865
21
18.3225729
0
LINE
8
DEFAULT_255_2_778
10
6.0098865
20
18.3225729
11
5.9503865
21
17.9658729
0
LINE
8
DEFAULT_255_2_778
10
5.9503865
20
17.9658729
11
5.9503865
21
17.6684729
0
LINE
8
DEFAULT_255_2_778
10
5.9503865
20
17.6684729
11
6.0098865
21
17.3117729
0
LINE
8
DEFAULT_255_2_778
10
6.0098865
20
17.3117729
11
6.0694865
21
17.1334729
0
LINE
8
DEFAULT_255_2_778
10
6.0694865
20
17.1334729
11
6.1882865
21
16.9551729
0
LINE
8
DEFAULT_255_2_778
10
6.1882865
20
16.9551729
11
6.3665865
21
16.8363729
0
LINE
8
DEFAULT_255_2_778
10
6.3665865
20
16.8363729
11
6.5448865
21
16.7768729
0
LINE
8
DEFAULT_255_2_778
10
6.5448865
20
16.7768729
11
6.7827865
21
16.7768729
0
LINE
8
DEFAULT_255_2_778
10
6.7827865
20
16.7768729
11
6.9610865
21
16.8363729
0
LINE
8
DEFAULT_255_2_778
10
6.9610865
20
16.8363729
11
7.1989865
21
17.0146729
0
LINE
8
DEFAULT_255_2_778
10
7.1989865
20
17.0146729
11
7.3177865
21
17.1929729
0
LINE
8
DEFAULT_255_2_778
10
7.3177865
20
17.1929729
11
7.3772865
21
17.3713729
0
LINE
8
DEFAULT_255_2_778
10
7.3772865
20
17.3713729
11
7.3772865
21
17.6687729
0
LINE
8
DEFAULT_255_2_778
10
7.3772865
20
17.6687729
11
7.3177865
21
17.8470729
0
LINE
8
DEFAULT_255_2_778
10
7.3177865
20
17.8470729
11
7.1989865
21
18.0253729
0
LINE
8
DEFAULT_255_2_778
10
7.1989865
20
18.0253729
11
7.0205865
21
18.1441729
0
LINE
8
DEFAULT_255_2_778
10
7.0205865
20
18.1441729
11
6.8422865
21
18.2037729
0
LINE
8
DEFAULT_255_2_778
10
6.8422865
20
18.2037729
11
6.6639865
21
18.2037729
0
LINE
8
DEFAULT_255_2_778
10
6.6639865
20
18.2037729
11
6.4856865
21
18.1441729
0
LINE
8
DEFAULT_255_2_778
10
6.4856865
20
18.1441729
11
6.3668865
21
18.0846729
0
LINE
8
DEFAULT_255_2_778
10
6.3668865
20
18.0846729
11
6.2480865
21
17.9658729
0
LINE
8
DEFAULT_255_2_778
10
6.2480865
20
17.9658729
11
6.3075865
21
18.3820729
0
LINE
8
DEFAULT_255_2_778
10
6.3075865
20
18.3820729
11
6.3670865
21
18.5603729
0
LINE
8
DEFAULT_255_2_778
10
6.3670865
20
18.5603729
11
6.4858865
21
18.6791729
0
LINE
8
DEFAULT_255_2_778
10
6.4858865
20
18.6791729
11
6.6641865
21
18.7386729
0
LINE
8
DEFAULT_255_2_778
10
6.6641865
20
18.7386729
11
6.8425865
21
18.7386729
0
LINE
8
DEFAULT_255_2_778
10
6.8425865
20
18.7386729
11
6.9613865
21
18.6791729
0
LINE
8
DEFAULT_255_2_778
10
6.9613865
20
18.6791729
11
7.0208865
21
18.6196729
0
LINE
8
DEFAULT_255_2_778
10
7.0208865
20
18.6196729
11
7.0803865
21
18.5008729
0
LINE
8
DEFAULT_255_2_778
10
7.0803865
20
18.5008729
11
7.0803865
21
18.4412729
0
LINE
8
DEFAULT_255_2_778
10
7.0803865
20
18.4412729
11
7.3777865
21
18.4412729
0
LINE
8
DEFAULT_255_2_778
10
7.3777865
20
18.4412729
11
7.3777865
21
18.5600729
0
LINE
8
DEFAULT_255_2_778
10
7.3777865
20
18.5600729
11
7.2589865
21
18.7979729
0
LINE
8
DEFAULT_255_2_778
10
7.2589865
20
18.7979729
11
7.0806865
21
18.9167729
0
LINE
8
DEFAULT_255_2_778
10
7.0806865
20
18.9167729
11
6.8419865
21
18.9765729
0
LINE
8
DEFAULT_255_2_778
10
6.7824865
20
17.9658729
11
6.6041865
21
17.9658729
0
LINE
8
DEFAULT_255_2_778
10
6.6041865
20
17.9658729
11
6.4853865
21
17.9063729
0
LINE
8
DEFAULT_255_2_778
10
6.4853865
20
17.9063729
11
6.3665865
21
17.7875729
0
LINE
8
DEFAULT_255_2_778
10
6.3665865
20
17.7875729
11
6.3070865
21
17.6687729
0
LINE
8
DEFAULT_255_2_778
10
6.3070865
20
17.6687729
11
6.3070865
21
17.3713729
0
LINE
8
DEFAULT_255_2_778
10
6.3070865
20
17.3713729
11
6.4258865
21
17.1334729
0
LINE
8
DEFAULT_255_2_778
10
6.4258865
20
17.1334729
11
6.6041865
21
17.0146729
0
LINE
8
DEFAULT_255_2_778
10
6.6041865
20
17.0146729
11
6.7824865
21
17.0146729
0
LINE
8
DEFAULT_255_2_778
10
6.7824865
20
17.0146729
11
6.9607865
21
17.1334729
0
LINE
8
DEFAULT_255_2_778
10
6.9607865
20
17.1334729
11
7.0795865
21
17.3713729
0
LINE
8
DEFAULT_255_2_778
10
7.0795865
20
17.3713729
11
7.0795865
21
17.6091729
0
LINE
8
DEFAULT_255_2_778
10
7.0795865
20
17.6091729
11
7.0200865
21
17.7875729
0
LINE
8
DEFAULT_255_2_778
10
7.0200865
20
17.7875729
11
6.9012865
21
17.9063729
0
LINE
8
DEFAULT_255_2_778
10
6.9012865
20
17.9063729
11
6.7824865
21
17.9658729
0
ARC
8
DEFAULT_255_2_778
10
2.7394294
20
75.4952083
40
0.5487547
50
89.8593896
51
180.1301939
0
ARC
8
DEFAULT_255_2_778
10
2.7421081
20
75.4952933
40
0.5486696
50
359.8609058
51
90.1390942
0
ARC
8
DEFAULT_255_2_778
10
2.742023
20
75.4926146
40
0.5487547
50
269.8698061
51
0.1406104
0
ARC
8
DEFAULT_255_2_778
10
2.7395144
20
75.4926997
40
0.5488398
50
179.8682888
51
270.1317112
0
ARC
8
DEFAULT_255_2_778
10
2.7395144
20
70.295023
40
0.5488398
50
89.8682888
51
180.1317112
0
ARC
8
DEFAULT_255_2_778
10
2.742023
20
70.295108
40
0.5487547
50
359.8593896
51
90.1301939
0
ARC
8
DEFAULT_255_2_778
10
2.7421081
20
70.2924293
40
0.5486696
50
269.8609058
51
0.1390942
0
ARC
8
DEFAULT_255_2_778
10
2.7394294
20
70.2925144
40
0.5487547
50
179.8698061
51
270.1406104
0
LINE
8
DEFAULT_255_2_778
10
2.1906761
20
75.4939613
11
2.1906761
21
75.4939613
0
LINE
8
DEFAULT_255_2_778
10
2.1906761
20
70.2937613
11
2.1906761
21
70.2937613
0
LINE
8
DEFAULT_255_2_778
10
1.4905761
20
79.1938613
11
3.9905761
21
79.1938613
0
LINE
8
DEFAULT_255_2_778
10
1.4905761
20
76.9938613
11
3.9905761
21
76.9938613
0
LINE
8
DEFAULT_255_2_778
10
1.4905761
20
73.9937613
11
3.9905761
21
73.9937613
0
LINE
8
DEFAULT_255_2_778
10
1.4905761
20
71.7937613
11
3.9905761
21
71.7937613
0
ARC
8
DEFAULT_255_2_778
10
2.7394294
20
85.8952031
40
0.5487547
50
89.8593896
51
180.1301939
0
ARC
8
DEFAULT_255_2_778
10
2.7421081
20
85.8952881
40
0.5486696
50
359.8609058
51
90.1390942
0
ARC
8
DEFAULT_255_2_778
10
2.742023
20
85.8926094
40
0.5487547
50
269.8698061
51
0.1406104
0
ARC
8
DEFAULT_255_2_778
10
2.7395144
20
85.8926945
40
0.5488398
50
179.8682888
51
270.1317112
0
ARC
8
DEFAULT_255_2_778
10
2.7394294
20
80.6951031
40
0.5487547
50
89.8593896
51
180.1301939
0
ARC
8
DEFAULT_255_2_778
10
2.7421081
20
80.6951881
40
0.5486696
50
359.8609058
51
90.1390942
0
ARC
8
DEFAULT_255_2_778
10
2.742023
20
80.6925094
40
0.5487547
50
269.8698061
51
0.1406104
0
ARC
8
DEFAULT_255_2_778
10
2.7395144
20
80.6925945
40
0.5488398
50
179.8682888
51
270.1317112
0
LINE
8
DEFAULT_255_2_778
10
2.1906761
20
85.8939561
11
2.1906761
21
85.8939561
0
LINE
8
DEFAULT_255_2_778
10
2.1906761
20
80.6938561
11
2.1906761
21
80.6938561
0
LINE
8
DEFAULT_255_2_778
10
1.4905761
20
87.3938561
11
3.9905761
21
87.3938561
0
LINE
8
DEFAULT_255_2_778
10
1.4905761
20
84.3937561
11
3.9905761
21
84.3937561
0
LINE
8
DEFAULT_255_2_778
10
1.4905761
20
82.1937561
11
3.9905761
21
82.1937561
0
ARC
8
DEFAULT_255_2_778
10
2.739426
20
96.295171
40
0.5487547
50
89.8698061
51
180.1406104
0
ARC
8
DEFAULT_255_2_778
10
2.7419346
20
96.295086
40
0.5488398
50
359.8682888
51
90.1317112
0
ARC
8
DEFAULT_255_2_778
10
2.7420197
20
96.2925773
40
0.5487547
50
269.8593896
51
0.1301939
0
ARC
8
DEFAULT_255_2_778
10
2.739341
20
96.2924923
40
0.5486696
50
179.8609058
51
270.1390942
0
ARC
8
DEFAULT_255_2_778
10
2.739426
20
91.095071
40
0.5487547
50
89.8698061
51
180.1406104
0
ARC
8
DEFAULT_255_2_778
10
2.7419346
20
91.094986
40
0.5488398
50
359.8682888
51
90.1317112
0
ARC
8
DEFAULT_255_2_778
10
2.7419346
20
91.0924626
40
0.5488398
50
269.8682888
51
0.1317112
0
ARC
8
DEFAULT_255_2_778
10
2.739426
20
91.0923776
40
0.5487547
50
179.8593896
51
270.1301939
0
LINE
8
DEFAULT_255_2_778
10
2.190673
20
96.2938243
11
2.190673
21
96.2938243
0
LINE
8
DEFAULT_255_2_778
10
2.190673
20
91.0937243
11
2.190673
21
91.0937243
0
LINE
8
DEFAULT_255_2_778
10
1.490573
20
97.7938243
11
3.990573
21
97.7938243
0
LINE
8
DEFAULT_255_2_778
10
1.490573
20
94.7936243
11
3.990573
21
94.7936243
0
LINE
8
DEFAULT_255_2_778
10
1.490573
20
92.5939243
11
3.990573
21
92.5939243
0
LINE
8
DEFAULT_255_2_778
10
1.490573
20
89.5938243
11
3.990573
21
89.5938243
0
LINE
8
DEFAULT_255_2_778
10
1.465673
20
119.2938243
11
4.015773
21
119.2938243
0
LINE
8
DEFAULT_255_2_778
10
4.015773
20
119.2938243
11
4.015773
21
68.0938243
0
LINE
8
DEFAULT_255_2_778
10
4.015773
20
68.0938243
11
1.465673
21
68.0938243
0
LINE
8
DEFAULT_255_2_778
10
1.465673
20
68.0938243
11
1.465673
21
119.2938243
0
ARC
8
DEFAULT_255_2_778
10
2.7395144
20
101.4953104
40
0.5488398
50
89.8682888
51
180.1317112
0
ARC
8
DEFAULT_255_2_778
10
2.742023
20
101.4953954
40
0.5487547
50
359.8593896
51
90.1301939
0
ARC
8
DEFAULT_255_2_778
10
2.742023
20
101.492702
40
0.5487547
50
269.8698061
51
0.1406104
0
ARC
8
DEFAULT_255_2_778
10
2.7395144
20
101.4927871
40
0.5488398
50
179.8682888
51
270.1317112
0
ARC
8
DEFAULT_255_2_778
10
2.7394294
20
111.8952957
40
0.5487547
50
89.8593896
51
180.1301939
0
ARC
8
DEFAULT_255_2_778
10
2.7421081
20
111.8953807
40
0.5486696
50
359.8609058
51
90.1390942
0
ARC
8
DEFAULT_255_2_778
10
2.742023
20
111.892702
40
0.5487547
50
269.8698061
51
0.1406104
0
ARC
8
DEFAULT_255_2_778
10
2.7395144
20
111.8927871
40
0.5488398
50
179.8682888
51
270.1317112
0
ARC
8
DEFAULT_255_2_778
10
2.7395144
20
106.6951104
40
0.5488398
50
89.8682888
51
180.1317112
0
ARC
8
DEFAULT_255_2_778
10
2.742023
20
106.6951954
40
0.5487547
50
359.8593896
51
90.1301939
0
ARC
8
DEFAULT_255_2_778
10
2.7421081
20
106.6925168
40
0.5486696
50
269.8609058
51
0.1390942
0
ARC
8
DEFAULT_255_2_778
10
2.7394294
20
106.6926018
40
0.5487547
50
179.8698061
51
270.1406104
0
LINE
8
DEFAULT_255_2_778
10
2.1906761
20
101.4940487
11
2.1906761
21
101.4940487
0
LINE
8
DEFAULT_255_2_778
10
1.4905761
20
105.1939487
11
3.9905761
21
105.1939487
0
LINE
8
DEFAULT_255_2_778
10
1.4905761
20
102.9939487
11
3.9905761
21
102.9939487
0
LINE
8
DEFAULT_255_2_778
10
1.4905761
20
99.9938487
11
3.9905761
21
99.9938487
0
LINE
8
DEFAULT_255_2_778
10
2.1906761
20
111.8940487
11
2.1906761
21
111.8940487
0
LINE
8
DEFAULT_255_2_778
10
2.1906761
20
106.6938487
11
2.1906761
21
106.6938487
0
LINE
8
DEFAULT_255_2_778
10
1.4905761
20
115.5939487
11
3.9905761
21
115.5939487
0
LINE
8
DEFAULT_255_2_778
10
1.4905761
20
113.3939487
11
3.9905761
21
113.3939487
0
LINE
8
DEFAULT_255_2_778
10
1.4905761
20
110.3938487
11
3.9905761
21
110.3938487
0
LINE
8
DEFAULT_255_2_778
10
1.4905761
20
108.1938487
11
3.9905761
21
108.1938487
0
ARC
8
DEFAULT_255_2_778
10
2.7394696
20
117.0951304
40
0.5488398
50
89.8682888
51
180.1317112
0
ARC
8
DEFAULT_255_2_778
10
2.7419782
20
117.0952154
40
0.5487547
50
359.8593896
51
90.1301939
0
ARC
8
DEFAULT_255_2_778
10
2.7420632
20
117.0925368
40
0.5486696
50
269.8609058
51
0.1390942
0
ARC
8
DEFAULT_255_2_778
10
2.7393846
20
117.0926218
40
0.5487547
50
179.8698061
51
270.1406104
0
LINE
8
DEFAULT_255_2_778
10
2.1906313
20
117.0938687
11
2.1906313
21
117.0938687
0
ARC
8
DEFAULT_255_2_778
10
37.7144294
20
85.6952031
40
0.5487547
50
89.8593896
51
180.1301939
0
ARC
8
DEFAULT_255_2_778
10
37.7171081
20
85.6952881
40
0.5486696
50
359.8609058
51
90.1390942
0
ARC
8
DEFAULT_255_2_778
10
37.717023
20
85.6926094
40
0.5487547
50
269.8698061
51
0.1406104
0
ARC
8
DEFAULT_255_2_778
10
37.7145144
20
85.6926945
40
0.5488398
50
179.8682888
51
270.1317112
0
ARC
8
DEFAULT_255_2_778
10
37.7144294
20
80.4951031
40
0.5487547
50
89.8593896
51
180.1301939
0
ARC
8
DEFAULT_255_2_778
10
37.7171081
20
80.4951881
40
0.5486696
50
359.8609058
51
90.1390942
0
ARC
8
DEFAULT_255_2_778
10
37.717023
20
80.4925094
40
0.5487547
50
269.8698061
51
0.1406104
0
ARC
8
DEFAULT_255_2_778
10
37.7145144
20
80.4925945
40
0.5488398
50
179.8682888
51
270.1317112
0
LINE
8
DEFAULT_255_2_778
10
37.1656761
20
85.6939561
11
37.1656761
21
85.6939561
0
LINE
8
DEFAULT_255_2_778
10
37.1656761
20
80.4938561
11
37.1656761
21
80.4938561
0
LINE
8
DEFAULT_255_2_778
10
36.4655761
20
87.1938561
11
38.9655761
21
87.1938561
0
LINE
8
DEFAULT_255_2_778
10
36.4655761
20
84.1937561
11
38.9655761
21
84.1937561
0
LINE
8
DEFAULT_255_2_778
10
36.4655761
20
81.9937561
11
38.9655761
21
81.9937561
0
ARC
8
DEFAULT_255_2_778
10
37.7144128
20
96.0952033
40
0.5487547
50
89.8698061
51
180.1406104
0
ARC
8
DEFAULT_255_2_778
10
37.7169214
20
96.0951182
40
0.5488398
50
359.8682888
51
90.1317112
0
ARC
8
DEFAULT_255_2_778
10
37.7170064
20
96.0926096
40
0.5487547
50
269.8593896
51
0.1301939
0
ARC
8
DEFAULT_255_2_778
10
37.7143277
20
96.0925246
40
0.5486696
50
179.8609058
51
270.1390942
0
ARC
8
DEFAULT_255_2_778
10
37.7144128
20
90.8951033
40
0.5487547
50
89.8698061
51
180.1406104
0
ARC
8
DEFAULT_255_2_778
10
37.7169214
20
90.8950182
40
0.5488398
50
359.8682888
51
90.1317112
0
ARC
8
DEFAULT_255_2_778
10
37.7169214
20
90.8924949
40
0.5488398
50
269.8682888
51
0.1317112
0
ARC
8
DEFAULT_255_2_778
10
37.7144128
20
90.8924099
40
0.5487547
50
179.8593896
51
270.1301939
0
LINE
8
DEFAULT_255_2_778
10
37.1656597
20
96.0938566
11
37.1656597
21
96.0938566
0
LINE
8
DEFAULT_255_2_778
10
37.1656597
20
90.8937566
11
37.1656597
21
90.8937566
0
LINE
8
DEFAULT_255_2_778
10
36.4655597
20
97.5938566
11
38.9655597
21
97.5938566
0
LINE
8
DEFAULT_255_2_778
10
36.4655597
20
94.5936566
11
38.9655597
21
94.5936566
0
LINE
8
DEFAULT_255_2_778
10
36.4655597
20
92.3936566
11
38.9655597
21
92.3936566
0
LINE
8
DEFAULT_255_2_778
10
36.4655597
20
89.3935566
11
38.9655597
21
89.3935566
0
LINE
8
DEFAULT_255_2_778
10
36.4406597
20
119.0935566
11
38.9907597
21
119.0935566
0
LINE
8
DEFAULT_255_2_778
10
38.9907597
20
119.0935566
11
38.9907597
21
67.8935566
0
LINE
8
DEFAULT_255_2_778
10
38.9907597
20
67.8935566
11
36.4406597
21
67.8935566
0
LINE
8
DEFAULT_255_2_778
10
36.4406597
20
67.8935566
11
36.4406597
21
119.0938566
0
ARC
8
DEFAULT_255_2_778
10
37.7145144
20
116.8950739
40
0.5488398
50
89.8682888
51
180.1317112
0
ARC
8
DEFAULT_255_2_778
10
37.717023
20
116.895159
40
0.5487547
50
359.8593896
51
90.1301939
0
ARC
8
DEFAULT_255_2_778
10
37.7171081
20
116.8924803
40
0.5486696
50
269.8609058
51
0.1390942
0
ARC
8
DEFAULT_255_2_778
10
37.7144294
20
116.8925653
40
0.5487547
50
179.8698061
51
270.1406104
0
ARC
8
DEFAULT_255_2_778
10
37.7145144
20
111.6949739
40
0.5488398
50
89.8682888
51
180.1317112
0
ARC
8
DEFAULT_255_2_778
10
37.717023
20
111.695059
40
0.5487547
50
359.8593896
51
90.1301939
0
ARC
8
DEFAULT_255_2_778
10
37.717023
20
111.6923655
40
0.5487547
50
269.8698061
51
0.1406104
0
ARC
8
DEFAULT_255_2_778
10
37.7145144
20
111.6924506
40
0.5488398
50
179.8682888
51
270.1317112
0
ARC
8
DEFAULT_255_2_778
10
37.7145144
20
101.2952739
40
0.5488398
50
89.8682888
51
180.1317112
0
ARC
8
DEFAULT_255_2_778
10
37.717023
20
101.295359
40
0.5487547
50
359.8593896
51
90.1301939
0
ARC
8
DEFAULT_255_2_778
10
37.717023
20
101.2926655
40
0.5487547
50
269.8698061
51
0.1406104
0
ARC
8
DEFAULT_255_2_778
10
37.7145144
20
101.2927506
40
0.5488398
50
179.8682888
51
270.1317112
0
ARC
8
DEFAULT_255_2_778
10
37.7145144
20
106.4953739
40
0.5488398
50
89.8682888
51
180.1317112
0
ARC
8
DEFAULT_255_2_778
10
37.717023
20
106.495459
40
0.5487547
50
359.8593896
51
90.1301939
0
ARC
8
DEFAULT_255_2_778
10
37.7171081
20
106.4927803
40
0.5486696
50
269.8609058
51
0.1390942
0
ARC
8
DEFAULT_255_2_778
10
37.7144294
20
106.4928653
40
0.5487547
50
179.8698061
51
270.1406104
0
LINE
8
DEFAULT_255_2_778
10
37.1656761
20
116.8938123
11
37.1656761
21
116.8938123
0
LINE
8
DEFAULT_255_2_778
10
37.1656761
20
111.6937123
11
37.1656761
21
111.6937123
0
LINE
8
DEFAULT_255_2_778
10
36.4655761
20
115.3936123
11
38.9655761
21
115.3936123
0
LINE
8
DEFAULT_255_2_778
10
36.4655761
20
113.1936123
11
38.9655761
21
113.1936123
0
LINE
8
DEFAULT_255_2_778
10
36.4655761
20
110.1935123
11
38.9655761
21
110.1935123
0
LINE
8
DEFAULT_255_2_778
10
36.4655761
20
107.9935123
11
38.9655761
21
107.9935123
0
LINE
8
DEFAULT_255_2_778
10
37.1656761
20
101.2940123
11
37.1656761
21
101.2940123
0
LINE
8
DEFAULT_255_2_778
10
37.1656761
20
106.4941123
11
37.1656761
21
106.4941123
0
LINE
8
DEFAULT_255_2_778
10
36.4655761
20
104.9942123
11
38.9655761
21
104.9942123
0
LINE
8
DEFAULT_255_2_778
10
36.4655761
20
102.7942123
11
38.9655761
21
102.7942123
0
LINE
8
DEFAULT_255_2_778
10
36.4655761
20
99.7941123
11
38.9655761
21
99.7941123
0
ARC
8
DEFAULT_255_2_778
10
37.7170632
20
75.2923368
40
0.5486696
50
269.8609058
51
0.1390942
0
ARC
8
DEFAULT_255_2_778
10
37.7169782
20
75.2950154
40
0.5487547
50
359.8593896
51
90.1301939
0
ARC
8
DEFAULT_255_2_778
10
37.7144059
20
75.2949941
40
0.5487762
50
89.8616186
51
180.1383814
0
ARC
8
DEFAULT_255_2_778
10
37.714321
20
75.2923583
40
0.5486913
50
179.863161
51
270.1472628
0
LINE
8
DEFAULT_255_2_778
10
37.7157313
20
74.7436687
11
37.7157313
21
74.7436687
0
ARC
8
DEFAULT_255_2_778
10
37.7170632
20
70.0927368
40
0.5486696
50
269.8609058
51
0.1390942
0
ARC
8
DEFAULT_255_2_778
10
37.7169782
20
70.0954154
40
0.5487547
50
359.8593896
51
90.1301939
0
ARC
8
DEFAULT_255_2_778
10
37.7144059
20
70.0953941
40
0.5487762
50
89.8616186
51
180.1383814
0
ARC
8
DEFAULT_255_2_778
10
37.714321
20
70.0927583
40
0.5486913
50
179.863161
51
270.1472628
0
LINE
8
DEFAULT_255_2_778
10
37.7157313
20
69.5440687
11
37.7157313
21
69.5440687
0
LINE
8
DEFAULT_255_2_778
10
38.9657761
20
78.9938655
11
36.4657761
21
78.9938655
0
LINE
8
DEFAULT_255_2_778
10
38.9657761
20
76.7938655
11
36.4657761
21
76.7938655
0
LINE
8
DEFAULT_255_2_778
10
38.9657761
20
73.7937655
11
36.4657761
21
73.7937655
0
LINE
8
DEFAULT_255_2_778
10
38.9657761
20
71.5937655
11
36.4657761
21
71.5937655
0
ARC
8
DEFAULT_255_2_778
10
37.7392294
20
12.6950083
40
0.5487547
50
89.8593896
51
180.1301939
0
ARC
8
DEFAULT_255_2_778
10
37.7419081
20
12.6950933
40
0.5486696
50
359.8609058
51
90.1390942
0
ARC
8
DEFAULT_255_2_778
10
37.741823
20
12.6924146
40
0.5487547
50
269.8698061
51
0.1406104
0
ARC
8
DEFAULT_255_2_778
10
37.7393144
20
12.6924997
40
0.5488398
50
179.8682888
51
270.1317112
0
ARC
8
DEFAULT_255_2_778
10
37.7393144
20
7.494823
40
0.5488398
50
89.8682888
51
180.1317112
0
ARC
8
DEFAULT_255_2_778
10
37.741823
20
7.494908
40
0.5487547
50
359.8593896
51
90.1301939
0
ARC
8
DEFAULT_255_2_778
10
37.7419081
20
7.4922293
40
0.5486696
50
269.8609058
51
0.1390942
0
ARC
8
DEFAULT_255_2_778
10
37.7392294
20
7.4923144
40
0.5487547
50
179.8698061
51
270.1406104
0
LINE
8
DEFAULT_255_2_778
10
37.1904761
20
12.6937613
11
37.1904761
21
12.6937613
0
LINE
8
DEFAULT_255_2_778
10
37.1904761
20
7.4935613
11
37.1904761
21
7.4935613
0
LINE
8
DEFAULT_255_2_778
10
36.4903761
20
16.3936613
11
38.9903761
21
16.3936613
0
LINE
8
DEFAULT_255_2_778
10
36.4903761
20
14.1936613
11
38.9903761
21
14.1936613
0
LINE
8
DEFAULT_255_2_778
10
36.4903761
20
11.1935613
11
38.9903761
21
11.1935613
0
LINE
8
DEFAULT_255_2_778
10
36.4903761
20
8.9934613
11
38.9903761
21
8.9934613
0
ARC
8
DEFAULT_255_2_778
10
37.7392294
20
23.0950031
40
0.5487547
50
89.8593896
51
180.1301939
0
ARC
8
DEFAULT_255_2_778
10
37.7419081
20
23.0950881
40
0.5486696
50
359.8609058
51
90.1390942
0
ARC
8
DEFAULT_255_2_778
10
37.741823
20
23.0924094
40
0.5487547
50
269.8698061
51
0.1406104
0
ARC
8
DEFAULT_255_2_778
10
37.7393144
20
23.0924945
40
0.5488398
50
179.8682888
51
270.1317112
0
ARC
8
DEFAULT_255_2_778
10
37.7392294
20
17.8949031
40
0.5487547
50
89.8593896
51
180.1301939
0
ARC
8
DEFAULT_255_2_778
10
37.7419081
20
17.8949881
40
0.5486696
50
359.8609058
51
90.1390942
0
ARC
8
DEFAULT_255_2_778
10
37.741823
20
17.8923094
40
0.5487547
50
269.8698061
51
0.1406104
0
ARC
8
DEFAULT_255_2_778
10
37.7393144
20
17.8923945
40
0.5488398
50
179.8682888
51
270.1317112
0
LINE
8
DEFAULT_255_2_778
10
37.1904761
20
23.0937561
11
37.1904761
21
23.0937561
0
LINE
8
DEFAULT_255_2_778
10
37.1904761
20
17.8936561
11
37.1904761
21
17.8936561
0
LINE
8
DEFAULT_255_2_778
10
36.4903761
20
24.5936561
11
38.9903761
21
24.5936561
0
LINE
8
DEFAULT_255_2_778
10
36.4903761
20
21.5935561
11
38.9903761
21
21.5935561
0
LINE
8
DEFAULT_255_2_778
10
36.4903761
20
19.3935561
11
38.9903761
21
19.3935561
0
ARC
8
DEFAULT_255_2_778
10
37.7393765
20
33.4949395
40
0.5488183
50
89.8764771
51
180.133932
0
ARC
8
DEFAULT_255_2_778
10
37.7418849
20
33.4949817
40
0.5487764
50
359.8616452
51
90.13836
0
ARC
8
DEFAULT_255_2_778
10
37.74197
20
33.4923461
40
0.5486913
50
269.852732
51
0.1368411
0
ARC
8
DEFAULT_255_2_778
10
37.7392914
20
33.4923883
40
0.5487332
50
179.8675732
51
270.132432
0
ARC
8
DEFAULT_255_2_778
10
37.7393765
20
28.2948395
40
0.5488183
50
89.8764771
51
180.133932
0
ARC
8
DEFAULT_255_2_778
10
37.7418849
20
28.2948817
40
0.5487764
50
359.8616452
51
90.13836
0
ARC
8
DEFAULT_255_2_778
10
37.7418851
20
28.2922312
40
0.5487762
50
269.8616223
51
0.1383799
0
ARC
8
DEFAULT_255_2_778
10
37.7393764
20
28.2922734
40
0.5488181
50
179.8660356
51
270.1235406
0
LINE
8
DEFAULT_255_2_778
10
37.1905597
20
33.4936566
11
37.1905597
21
33.4936566
0
LINE
8
DEFAULT_255_2_778
10
37.1905597
20
28.2935566
11
37.1905597
21
28.2935566
0
LINE
8
DEFAULT_255_2_778
10
36.4904597
20
34.9936566
11
38.9904597
21
34.9936566
0
LINE
8
DEFAULT_255_2_778
10
36.4904597
20
31.9934566
11
38.9904597
21
31.9934566
0
LINE
8
DEFAULT_255_2_778
10
36.4904597
20
29.7934566
11
38.9904597
21
29.7934566
0
LINE
8
DEFAULT_255_2_778
10
36.4904597
20
26.7933566
11
38.9904597
21
26.7933566
0
LINE
8
DEFAULT_255_2_778
10
36.4655597
20
56.4933566
11
39.0156597
21
56.4933566
0
LINE
8
DEFAULT_255_2_778
10
39.0156597
20
56.4933566
11
39.0156597
21
5.2933566
0
LINE
8
DEFAULT_255_2_778
10
39.0156597
20
5.2933566
11
36.4655597
21
5.2933566
0
LINE
8
DEFAULT_255_2_778
10
36.4655597
20
5.2933566
11
36.4655597
21
56.4936566
0
ARC
8
DEFAULT_255_2_778
10
37.7392294
20
38.6951073
40
0.5487547
50
89.8593896
51
180.1301939
0
ARC
8
DEFAULT_255_2_778
10
37.7419081
20
38.6951923
40
0.5486696
50
359.8609058
51
90.1390942
0
ARC
8
DEFAULT_255_2_778
10
37.741823
20
38.6925136
40
0.5487547
50
269.8698061
51
0.1406104
0
ARC
8
DEFAULT_255_2_778
10
37.7393144
20
38.6925987
40
0.5488398
50
179.8682888
51
270.1317112
0
LINE
8
DEFAULT_255_2_778
10
37.1904761
20
38.6938603
11
37.1904761
21
38.6938603
0
LINE
8
DEFAULT_255_2_778
10
36.4903761
20
42.3937603
11
38.9903761
21
42.3937603
0
LINE
8
DEFAULT_255_2_778
10
36.4903761
20
40.1937603
11
38.9903761
21
40.1937603
0
LINE
8
DEFAULT_255_2_778
10
36.4903761
20
37.1936603
11
38.9903761
21
37.1936603
0
ARC
8
DEFAULT_255_2_778
10
37.7392294
20
49.0951083
40
0.5487547
50
89.8593896
51
180.1301939
0
ARC
8
DEFAULT_255_2_778
10
37.7419081
20
49.0951933
40
0.5486696
50
359.8609058
51
90.1390942
0
ARC
8
DEFAULT_255_2_778
10
37.741823
20
49.0925146
40
0.5487547
50
269.8698061
51
0.1406104
0
ARC
8
DEFAULT_255_2_778
10
37.7393144
20
49.0925997
40
0.5488398
50
179.8682888
51
270.1317112
0
ARC
8
DEFAULT_255_2_778
10
37.7393144
20
43.894923
40
0.5488398
50
89.8682888
51
180.1317112
0
ARC
8
DEFAULT_255_2_778
10
37.741823
20
43.895008
40
0.5487547
50
359.8593896
51
90.1301939
0
ARC
8
DEFAULT_255_2_778
10
37.7419081
20
43.8923293
40
0.5486696
50
269.8609058
51
0.1390942
0
ARC
8
DEFAULT_255_2_778
10
37.7392294
20
43.8924144
40
0.5487547
50
179.8698061
51
270.1406104
0
LINE
8
DEFAULT_255_2_778
10
37.1904761
20
49.0938613
11
37.1904761
21
49.0938613
0
LINE
8
DEFAULT_255_2_778
10
37.1904761
20
43.8936613
11
37.1904761
21
43.8936613
0
LINE
8
DEFAULT_255_2_778
10
36.4903761
20
52.7937613
11
38.9903761
21
52.7937613
0
LINE
8
DEFAULT_255_2_778
10
36.4903761
20
50.5937613
11
38.9903761
21
50.5937613
0
LINE
8
DEFAULT_255_2_778
10
36.4903761
20
47.5936613
11
38.9903761
21
47.5936613
0
LINE
8
DEFAULT_255_2_778
10
36.4903761
20
45.3935613
11
38.9903761
21
45.3935613
0
ARC
8
DEFAULT_255_2_778
10
37.7393696
20
54.2949304
40
0.5488398
50
89.8682888
51
180.1317112
0
ARC
8
DEFAULT_255_2_778
10
37.7418782
20
54.2950154
40
0.5487547
50
359.8593896
51
90.1301939
0
ARC
8
DEFAULT_255_2_778
10
37.7419632
20
54.2923368
40
0.5486696
50
269.8609058
51
0.1390942
0
ARC
8
DEFAULT_255_2_778
10
37.7392846
20
54.2924218
40
0.5487547
50
179.8698061
51
270.1406104
0
LINE
8
DEFAULT_255_2_778
10
37.1905313
20
54.2936687
11
37.1905313
21
54.2936687
0
ARC
8
DEFAULT_255_2_778
10
2.7642294
20
23.2950031
40
0.5487547
50
89.8593896
51
180.1301939
0
ARC
8
DEFAULT_255_2_778
10
2.7669081
20
23.2950881
40
0.5486696
50
359.8609058
51
90.1390942
0
ARC
8
DEFAULT_255_2_778
10
2.766823
20
23.2924094
40
0.5487547
50
269.8698061
51
0.1406104
0
ARC
8
DEFAULT_255_2_778
10
2.7643144
20
23.2924945
40
0.5488398
50
179.8682888
51
270.1317112
0
ARC
8
DEFAULT_255_2_778
10
2.7642294
20
18.0949031
40
0.5487547
50
89.8593896
51
180.1301939
0
ARC
8
DEFAULT_255_2_778
10
2.7669081
20
18.0949881
40
0.5486696
50
359.8609058
51
90.1390942
0
ARC
8
DEFAULT_255_2_778
10
2.766823
20
18.0923094
40
0.5487547
50
269.8698061
51
0.1406104
0
ARC
8
DEFAULT_255_2_778
10
2.7643144
20
18.0923945
40
0.5488398
50
179.8682888
51
270.1317112
0
LINE
8
DEFAULT_255_2_778
10
2.2154761
20
23.2937561
11
2.2154761
21
23.2937561
0
LINE
8
DEFAULT_255_2_778
10
2.2154761
20
18.0936561
11
2.2154761
21
18.0936561
0
LINE
8
DEFAULT_255_2_778
10
1.5153761
20
24.7936561
11
4.0153761
21
24.7936561
0
LINE
8
DEFAULT_255_2_778
10
1.5153761
20
21.7935561
11
4.0153761
21
21.7935561
0
LINE
8
DEFAULT_255_2_778
10
1.5153761
20
19.5935561
11
4.0153761
21
19.5935561
0
ARC
8
DEFAULT_255_2_778
10
2.764326
20
33.695071
40
0.5487547
50
89.8698061
51
180.1406104
0
ARC
8
DEFAULT_255_2_778
10
2.7668346
20
33.694986
40
0.5488398
50
359.8682888
51
90.1317112
0
ARC
8
DEFAULT_255_2_778
10
2.7669197
20
33.6924773
40
0.5487547
50
269.8593896
51
0.1301939
0
ARC
8
DEFAULT_255_2_778
10
2.764241
20
33.6923923
40
0.5486696
50
179.8609058
51
270.1390942
0
ARC
8
DEFAULT_255_2_778
10
2.764326
20
28.494971
40
0.5487547
50
89.8698061
51
180.1406104
0
ARC
8
DEFAULT_255_2_778
10
2.7668346
20
28.494886
40
0.5488398
50
359.8682888
51
90.1317112
0
ARC
8
DEFAULT_255_2_778
10
2.7668346
20
28.4923626
40
0.5488398
50
269.8682888
51
0.1317112
0
ARC
8
DEFAULT_255_2_778
10
2.764326
20
28.4922776
40
0.5487547
50
179.8593896
51
270.1301939
0
LINE
8
DEFAULT_255_2_778
10
2.215573
20
33.6937243
11
2.215573
21
33.6937243
0
LINE
8
DEFAULT_255_2_778
10
2.215573
20
28.4936243
11
2.215573
21
28.4936243
0
LINE
8
DEFAULT_255_2_778
10
1.515473
20
35.1937243
11
4.015473
21
35.1937243
0
LINE
8
DEFAULT_255_2_778
10
1.515473
20
32.1935243
11
4.015473
21
32.1935243
0
LINE
8
DEFAULT_255_2_778
10
1.515473
20
29.9935243
11
4.015473
21
29.9935243
0
LINE
8
DEFAULT_255_2_778
10
1.515473
20
26.9934243
11
4.015473
21
26.9934243
0
LINE
8
DEFAULT_255_2_778
10
1.490573
20
56.6937243
11
4.040673
21
56.6937243
0
LINE
8
DEFAULT_255_2_778
10
4.040673
20
56.6937243
11
4.040673
21
5.4937243
0
LINE
8
DEFAULT_255_2_778
10
4.040673
20
5.4937243
11
1.490573
21
5.4937243
0
LINE
8
DEFAULT_255_2_778
10
1.490573
20
5.4937243
11
1.490573
21
56.6937243
0
ARC
8
DEFAULT_255_2_778
10
2.7642294
20
38.8951073
40
0.5487547
50
89.8593896
51
180.1301939
0
ARC
8
DEFAULT_255_2_778
10
2.7669081
20
38.8951923
40
0.5486696
50
359.8609058
51
90.1390942
0
ARC
8
DEFAULT_255_2_778
10
2.766823
20
38.8925136
40
0.5487547
50
269.8698061
51
0.1406104
0
ARC
8
DEFAULT_255_2_778
10
2.7643144
20
38.8925987
40
0.5488398
50
179.8682888
51
270.1317112
0
LINE
8
DEFAULT_255_2_778
10
2.2154761
20
38.8938603
11
2.2154761
21
38.8938603
0
LINE
8
DEFAULT_255_2_778
10
1.5153761
20
42.5937603
11
4.0153761
21
42.5937603
0
LINE
8
DEFAULT_255_2_778
10
1.5153761
20
40.3937603
11
4.0153761
21
40.3937603
0
LINE
8
DEFAULT_255_2_778
10
1.5153761
20
37.3936603
11
4.0153761
21
37.3936603
0
ARC
8
DEFAULT_255_2_778
10
2.7642294
20
49.2951083
40
0.5487547
50
89.8593896
51
180.1301939
0
ARC
8
DEFAULT_255_2_778
10
2.7669081
20
49.2951933
40
0.5486696
50
359.8609058
51
90.1390942
0
ARC
8
DEFAULT_255_2_778
10
2.766823
20
49.2925146
40
0.5487547
50
269.8698061
51
0.1406104
0
ARC
8
DEFAULT_255_2_778
10
2.7643144
20
49.2925997
40
0.5488398
50
179.8682888
51
270.1317112
0
ARC
8
DEFAULT_255_2_778
10
2.7643144
20
44.094923
40
0.5488398
50
89.8682888
51
180.1317112
0
ARC
8
DEFAULT_255_2_778
10
2.766823
20
44.095008
40
0.5487547
50
359.8593896
51
90.1301939
0
ARC
8
DEFAULT_255_2_778
10
2.7669081
20
44.0923293
40
0.5486696
50
269.8609058
51
0.1390942
0
ARC
8
DEFAULT_255_2_778
10
2.7642294
20
44.0924144
40
0.5487547
50
179.8698061
51
270.1406104
0
LINE
8
DEFAULT_255_2_778
10
2.2154761
20
49.2938613
11
2.2154761
21
49.2938613
0
LINE
8
DEFAULT_255_2_778
10
2.2154761
20
44.0936613
11
2.2154761
21
44.0936613
0
LINE
8
DEFAULT_255_2_778
10
1.5153761
20
52.9937613
11
4.0153761
21
52.9937613
0
LINE
8
DEFAULT_255_2_778
10
1.5153761
20
50.7937613
11
4.0153761
21
50.7937613
0
LINE
8
DEFAULT_255_2_778
10
1.5153761
20
47.7936613
11
4.0153761
21
47.7936613
0
LINE
8
DEFAULT_255_2_778
10
1.5153761
20
45.5936613
11
4.0153761
21
45.5936613
0
ARC
8
DEFAULT_255_2_778
10
2.7643696
20
54.4949304
40
0.5488398
50
89.8682888
51
180.1317112
0
ARC
8
DEFAULT_255_2_778
10
2.7668782
20
54.4950154
40
0.5487547
50
359.8593896
51
90.1301939
0
ARC
8
DEFAULT_255_2_778
10
2.7669632
20
54.4923368
40
0.5486696
50
269.8609058
51
0.1390942
0
ARC
8
DEFAULT_255_2_778
10
2.7642846
20
54.4924218
40
0.5487547
50
179.8698061
51
270.1406104
0
LINE
8
DEFAULT_255_2_778
10
2.2155313
20
54.4936687
11
2.2155313
21
54.4936687
0
ARC
8
DEFAULT_255_2_778
10
2.7669632
20
12.8924368
40
0.5486696
50
269.8609058
51
0.1390942
0
ARC
8
DEFAULT_255_2_778
10
2.7668782
20
12.8951154
40
0.5487547
50
359.8593896
51
90.1301939
0
ARC
8
DEFAULT_255_2_778
10
2.7643696
20
12.8950304
40
0.5488398
50
89.8682888
51
180.1317112
0
ARC
8
DEFAULT_255_2_778
10
2.7642846
20
12.8925218
40
0.5487547
50
179.8698061
51
270.1406104
0
LINE
8
DEFAULT_255_2_778
10
2.7656313
20
12.3437687
11
2.7656313
21
12.3437687
0
ARC
8
DEFAULT_255_2_778
10
2.7669632
20
7.6925368
40
0.5486696
50
269.8609058
51
0.1390942
0
ARC
8
DEFAULT_255_2_778
10
2.7668782
20
7.6952154
40
0.5487547
50
359.8593896
51
90.1301939
0
ARC
8
DEFAULT_255_2_778
10
2.7643696
20
7.6951304
40
0.5488398
50
89.8682888
51
180.1317112
0
ARC
8
DEFAULT_255_2_778
10
2.7642846
20
7.6926218
40
0.5487547
50
179.8698061
51
270.1406104
0
LINE
8
DEFAULT_255_2_778
10
2.7656313
20
7.1438687
11
2.7656313
21
7.1438687
0
ARC
8
DEFAULT_255_2_778
10
29.0888702
20
20.6883287
40
1.1944452
50
234.5578036
51
270.0924899
0
ARC
8
DEFAULT_255_2_778
10
29.0897441
20
20.6931464
40
1.1988788
50
185.3466739
51
234.6572939
0
ARC
8
DEFAULT_255_2_778
10
29.1054163
20
20.6935191
40
1.214518
50
179.992175
51
185.2952861
0
ARC
8
DEFAULT_255_2_778
10
29.0851648
20
20.6955356
40
1.1942679
50
144.5468923
51
180.0887817
0
ARC
8
DEFAULT_255_2_778
10
29.090398
20
20.6944873
40
1.1991408
50
95.3516494
51
144.6511289
0
ARC
8
DEFAULT_255_2_778
10
29.090633
20
20.6794622
40
1.2141228
50
89.9921976
51
95.2965583
0
ARC
8
DEFAULT_255_2_778
10
29.088866
20
46.6880905
40
1.194407
50
234.5513289
51
270.0926922
0
ARC
8
DEFAULT_255_2_778
10
29.089827
20
46.6929904
40
1.1989577
50
185.3438778
51
234.6497258
0
ARC
8
DEFAULT_255_2_778
10
29.1057935
20
46.6934208
40
1.2148953
50
179.9922565
51
185.293957
0
ARC
8
DEFAULT_255_2_778
10
29.0849813
20
46.6954167
40
1.1940844
50
144.5440759
51
180.0878931
0
ARC
8
DEFAULT_255_2_778
10
29.0904027
20
46.6942477
40
1.1991807
50
95.3516985
51
144.6488348
0
ARC
8
DEFAULT_255_2_778
10
29.090633
20
46.6792622
40
1.2141228
50
89.9921976
51
95.2965582
0
ARC
8
DEFAULT_255_2_778
10
29.0888834
20
77.8876219
40
1.1943384
50
234.5479662
51
270.0918639
0
ARC
8
DEFAULT_255_2_778
10
29.0899113
20
77.8926686
40
1.1990475
50
185.3464965
51
234.6478285
0
ARC
8
DEFAULT_255_2_778
10
29.1054893
20
77.8930219
40
1.2145911
50
179.9923059
51
185.2946162
0
ARC
8
DEFAULT_255_2_778
10
29.0851297
20
77.8950033
40
1.1942328
50
144.5463566
51
180.0872367
0
ARC
8
DEFAULT_255_2_778
10
29.0904555
20
77.8939457
40
1.1991866
50
95.3542067
51
144.6527959
0
ARC
8
DEFAULT_255_2_778
10
29.0906329
20
77.8791494
40
1.2139355
50
89.9921948
51
95.2973763
0
ARC
8
DEFAULT_255_2_778
10
29.088866
20
103.8880905
40
1.194407
50
234.5513289
51
270.0926922
0
ARC
8
DEFAULT_255_2_778
10
29.089827
20
103.8929904
40
1.1989577
50
185.3438778
51
234.6497258
0
ARC
8
DEFAULT_255_2_778
10
29.1057935
20
103.8934208
40
1.2148953
50
179.9922565
51
185.293957
0
ARC
8
DEFAULT_255_2_778
10
29.0849813
20
103.8954167
40
1.1940844
50
144.5440759
51
180.0878931
0
ARC
8
DEFAULT_255_2_778
10
29.0904027
20
103.8942477
40
1.1991807
50
95.3516985
51
144.6488348
0
ARC
8
DEFAULT_255_2_778
10
29.090633
20
103.8792622
40
1.2141228
50
89.9921976
51
95.2965582
0
ARC
8
DEFAULT_255_2_778
10
11.3926132
20
103.8993481
40
1.1943384
50
54.5479662
51
90.0918639
0
ARC
8
DEFAULT_255_2_778
10
11.3915853
20
103.8943014
40
1.1990475
50
5.3464965
51
54.6478285
0
ARC
8
DEFAULT_255_2_778
10
11.3760073
20
103.8939481
40
1.2145911
50
359.9923059
51
5.2946162
0
ARC
8
DEFAULT_255_2_778
10
11.3963669
20
103.8919667
40
1.1942328
50
324.5463566
51
0.0872367
0
ARC
8
DEFAULT_255_2_778
10
11.3910411
20
103.8930243
40
1.1991866
50
275.3542067
51
324.6527959
0
ARC
8
DEFAULT_255_2_778
10
11.3908637
20
103.9078206
40
1.2139355
50
269.9921948
51
275.2973763
0
ARC
8
DEFAULT_255_2_778
10
11.3926132
20
77.8995481
40
1.1943384
50
54.5479662
51
90.0918639
0
ARC
8
DEFAULT_255_2_778
10
11.3915853
20
77.8945014
40
1.1990475
50
5.3464965
51
54.6478285
0
ARC
8
DEFAULT_255_2_778
10
11.3760073
20
77.8941481
40
1.2145911
50
359.9923059
51
5.2946162
0
ARC
8
DEFAULT_255_2_778
10
11.3963669
20
77.8921667
40
1.1942328
50
324.5463566
51
0.0872367
0
ARC
8
DEFAULT_255_2_778
10
11.3910411
20
77.8932243
40
1.1991866
50
275.3542067
51
324.6527959
0
ARC
8
DEFAULT_255_2_778
10
11.3908637
20
77.9080206
40
1.2139355
50
269.9921948
51
275.2973763
0
ARC
8
DEFAULT_255_2_778
10
11.3926306
20
46.6997795
40
1.194407
50
54.5513289
51
90.0926922
0
ARC
8
DEFAULT_255_2_778
10
11.3916696
20
46.6948796
40
1.1989577
50
5.3438778
51
54.6497258
0
ARC
8
DEFAULT_255_2_778
10
11.3757031
20
46.6944492
40
1.2148953
50
359.9922565
51
5.293957
0
ARC
8
DEFAULT_255_2_778
10
11.3965153
20
46.6924532
40
1.1940844
50
324.5440759
51
0.0878931
0
ARC
8
DEFAULT_255_2_778
10
11.3910939
20
46.6936223
40
1.1991807
50
275.3516985
51
324.6488348
0
ARC
8
DEFAULT_255_2_778
10
11.3908636
20
46.7086078
40
1.2141228
50
269.9921976
51
275.2965582
0
ARC
8
DEFAULT_255_2_778
10
11.3926306
20
20.6999795
40
1.194407
50
54.5513289
51
90.0926922
0
ARC
8
DEFAULT_255_2_778
10
11.3916696
20
20.6950796
40
1.1989577
50
5.3438778
51
54.6497258
0
ARC
8
DEFAULT_255_2_778
10
11.3757031
20
20.6946492
40
1.2148953
50
359.9922565
51
5.293957
0
ARC
8
DEFAULT_255_2_778
10
11.3965153
20
20.6926532
40
1.1940844
50
324.5440759
51
0.0878931
0
ARC
8
DEFAULT_255_2_778
10
11.3910939
20
20.6938223
40
1.1991807
50
275.3516985
51
324.6488348
0
ARC
8
DEFAULT_255_2_778
10
11.3908636
20
20.7088078
40
1.2141228
50
269.9921976
51
275.2965582
0
LINE
8
DEFAULT_255_2_778
10
4.0153983
20
16.593785
11
1.5153983
21
16.593785
0
LINE
8
DEFAULT_255_2_778
10
4.0153983
20
14.393785
11
1.5153983
21
14.393785
0
LINE
8
DEFAULT_255_2_778
10
4.0153983
20
11.393585
11
1.5153983
21
11.393585
0
LINE
8
DEFAULT_255_2_778
10
4.0153983
20
9.193585
11
1.5153983
21
9.193585
0
LINE
8
DEFAULT_255_2_778
10
29.0907983
20
21.893585
11
29.0907983
21
45.493685
0
LINE
8
DEFAULT_255_2_778
10
29.0907983
20
47.893385
11
29.0907983
21
76.693285
0
LINE
8
DEFAULT_255_2_778
10
29.0907983
20
79.093085
11
29.0907983
21
102.693685
0
LINE
8
DEFAULT_255_2_778
10
29.0907983
20
105.093385
11
29.0907983
21
114.293785
0
LINE
8
DEFAULT_255_2_778
10
29.0907983
20
114.293785
11
11.3906983
21
114.293785
0
LINE
8
DEFAULT_255_2_778
10
11.3906983
20
114.293785
11
11.3906983
21
105.093685
0
LINE
8
DEFAULT_255_2_778
10
11.3906983
20
102.693885
11
11.3906983
21
79.093885
0
LINE
8
DEFAULT_255_2_778
10
11.3906983
20
76.694085
11
11.3906983
21
47.894185
0
LINE
8
DEFAULT_255_2_778
10
11.3906983
20
45.494485
11
11.3906983
21
21.894385
0
LINE
8
DEFAULT_255_2_778
10
11.3906983
20
19.494685
11
11.3906983
21
10.294585
0
LINE
8
DEFAULT_255_2_778
10
11.3906983
20
10.294585
11
29.0907983
21
10.294585
0
LINE
8
DEFAULT_255_2_778
10
29.0907983
20
10.294585
11
29.0907983
21
19.494685
0
LINE
8
DEFAULT_255_2_778
10
40.1403141
20
-0.2061944
11
0.2406141
21
-0.2061944
0
LINE
8
DEFAULT_255_2_778
10
0.2406141
20
-0.2061944
11
0.2406141
21
124.7938056
0
LINE
8
DEFAULT_255_2_778
10
0.2406141
20
124.7938056
11
40.2406141
21
124.7938056
0
LINE
8
DEFAULT_255_2_778
10
40.2406141
20
124.7938056
11
40.2406141
21
2.5939056
0
ARC
8
DEFAULT_255_2_778
10
13.8378007
20
6.7960661
40
0.9471227
50
138.7691257
51
180.1488555
0
ARC
8
DEFAULT_255_2_778
10
13.8379954
20
6.7968968
40
0.946722
50
92.2525226
51
138.8147006
0
ARC
8
DEFAULT_255_2_778
10
13.8407471
20
6.7674276
40
0.9762778
50
89.9979919
51
92.3459109
0
ARC
8
DEFAULT_255_2_778
10
13.8433191
20
6.7965784
40
0.9471305
50
49.1137343
51
90.1535204
0
ARC
8
DEFAULT_255_2_778
10
13.8440647
20
6.796467
40
0.9467268
50
2.2652623
51
49.1522587
0
ARC
8
DEFAULT_255_2_778
10
13.8144888
20
6.7936463
40
0.9763924
50
359.9976072
51
2.3620595
0
ARC
8
DEFAULT_255_2_778
10
13.8437541
20
6.7910677
40
0.9471305
50
319.1137343
51
0.1535204
0
ARC
8
DEFAULT_255_2_778
10
13.8436428
20
6.7903221
40
0.9467268
50
272.2652623
51
319.1522587
0
ARC
8
DEFAULT_255_2_778
10
13.8408221
20
6.819898
40
0.9763924
50
269.9976072
51
272.3620595
0
ARC
8
DEFAULT_255_2_778
10
13.8382435
20
6.7906326
40
0.9471305
50
229.1137343
51
270.1535204
0
ARC
8
DEFAULT_255_2_778
10
13.8374979
20
6.790744
40
0.9467268
50
182.2652623
51
229.1522587
0
ARC
8
DEFAULT_255_2_778
10
13.8670738
20
6.7935647
40
0.9763924
50
179.9976072
51
182.3620595
0
LINE
8
DEFAULT_255_2_778
10
12.8906813
20
6.7936055
11
12.8906813
21
6.7936055
0
LINE
8
DEFAULT_255_2_778
10
16.3907773
20
9.3438405
11
11.2906773
21
9.3438405
0
LINE
8
DEFAULT_255_2_778
10
11.2906773
20
9.3438405
11
11.2906773
21
4.2437405
0
LINE
8
DEFAULT_255_2_778
10
11.2906773
20
4.2437405
11
16.3907773
21
4.2437405
0
LINE
8
DEFAULT_255_2_778
10
16.3907773
20
4.2437405
11
16.3907773
21
9.3438405
0
LINE
8
DEFAULT_255_2_778
10
15.4644773
20
2.2630405
11
15.9915773
21
2.2630405
0
LINE
8
DEFAULT_255_2_778
10
15.9915773
20
2.2630405
11
15.9915773
21
2.1027405
0
LINE
8
DEFAULT_255_2_778
10
15.9915773
20
2.1027405
11
15.4644773
21
2.1027405
0
LINE
8
DEFAULT_255_2_778
10
15.4644773
20
2.1027405
11
15.4644773
21
2.2630405
0
LINE
8
DEFAULT_255_2_778
10
19.0794773
20
3.2436405
11
19.2887773
21
3.2436405
0
LINE
8
DEFAULT_255_2_778
10
19.2887773
20
3.2436405
11
19.2887773
21
1.7362405
0
LINE
8
DEFAULT_255_2_778
10
19.2887773
20
1.7362405
11
20.0107773
21
1.7362405
0
LINE
8
DEFAULT_255_2_778
10
20.0107773
20
1.7362405
11
20.0107773
21
1.5434405
0
LINE
8
DEFAULT_255_2_778
10
20.0107773
20
1.5434405
11
19.0794773
21
1.5434405
0
LINE
8
DEFAULT_255_2_778
10
19.0794773
20
1.5434405
11
19.0794773
21
3.2433405
0
LINE
8
DEFAULT_255_2_778
10
22.9582773
20
2.2630405
11
23.4852773
21
2.2630405
0
LINE
8
DEFAULT_255_2_778
10
23.4852773
20
2.2630405
11
23.4852773
21
2.1027405
0
LINE
8
DEFAULT_255_2_778
10
23.4852773
20
2.1027405
11
22.9582773
21
2.1027405
0
LINE
8
DEFAULT_255_2_778
10
22.9582773
20
2.1027405
11
22.9582773
21
2.2630405
0
LINE
8
DEFAULT_255_2_778
10
11.7973773
20
3.0761405
11
12.0124773
21
3.0655405
0
LINE
8
DEFAULT_255_2_778
10
12.0124773
20
3.0655405
11
12.1288773
21
2.9856405
0
LINE
8
DEFAULT_255_2_778
10
12.1288773
20
2.9856405
11
12.1685773
21
2.9189405
0
LINE
8
DEFAULT_255_2_778
10
12.1685773
20
2.9189405
11
12.1815773
21
2.8761405
0
LINE
8
DEFAULT_255_2_778
10
12.1815773
20
2.8761405
11
12.1865773
21
2.8472405
0
LINE
8
DEFAULT_255_2_778
10
12.1865773
20
2.8472405
11
12.1849773
21
2.7483405
0
LINE
8
DEFAULT_255_2_778
10
12.1849773
20
2.7483405
11
12.1690773
21
2.6938405
0
LINE
8
DEFAULT_255_2_778
10
12.1690773
20
2.6938405
11
12.0965773
21
2.5967405
0
LINE
8
DEFAULT_255_2_778
10
12.0965773
20
2.5967405
11
11.9169773
21
2.5133405
0
LINE
8
DEFAULT_255_2_778
10
11.9169773
20
2.5133405
11
11.8423773
21
2.5072405
0
LINE
8
DEFAULT_255_2_778
10
11.8423773
20
2.5072405
11
11.7740773
21
2.5072405
0
LINE
8
DEFAULT_255_2_778
10
11.7740773
20
2.5072405
11
11.7740773
21
2.3170405
0
LINE
8
DEFAULT_255_2_778
10
11.7740773
20
2.3170405
11
12.0285773
21
2.2903405
0
LINE
8
DEFAULT_255_2_778
10
12.0285773
20
2.2903405
11
12.1550773
21
2.2122405
0
LINE
8
DEFAULT_255_2_778
10
12.1550773
20
2.2122405
11
12.2016773
21
2.1408405
0
LINE
8
DEFAULT_255_2_778
10
12.2016773
20
2.1408405
11
12.2129773
21
2.1053405
0
LINE
8
DEFAULT_255_2_778
10
12.2129773
20
2.1053405
11
12.2182773
21
2.0754405
0
LINE
8
DEFAULT_255_2_778
10
12.2182773
20
2.0754405
11
12.2164773
21
1.9680405
0
LINE
8
DEFAULT_255_2_778
10
12.2164773
20
1.9680405
11
12.2074773
21
1.9254405
0
LINE
8
DEFAULT_255_2_778
10
12.2074773
20
1.9254405
11
12.1867773
21
1.8691405
0
LINE
8
DEFAULT_255_2_778
10
12.1867773
20
1.8691405
11
12.1301773
21
1.7899405
0
LINE
8
DEFAULT_255_2_778
10
12.1301773
20
1.7899405
11
12.0174773
21
1.7188405
0
LINE
8
DEFAULT_255_2_778
10
12.0174773
20
1.7188405
11
11.7817773
21
1.7137405
0
LINE
8
DEFAULT_255_2_778
10
11.7817773
20
1.7137405
11
11.6433773
21
1.8101405
0
LINE
8
DEFAULT_255_2_778
10
11.6433773
20
1.8101405
11
11.5771773
21
1.9196405
0
LINE
8
DEFAULT_255_2_778
10
11.5771773
20
1.9196405
11
11.5496773
21
2.0069405
0
LINE
8
DEFAULT_255_2_778
10
11.5496773
20
2.0069405
11
11.3403773
21
2.0069405
0
LINE
8
DEFAULT_255_2_778
10
11.3403773
20
2.0069405
11
11.3472773
21
1.9654405
0
LINE
8
DEFAULT_255_2_778
10
11.3472773
20
1.9654405
11
11.3565773
21
1.9241405
0
LINE
8
DEFAULT_255_2_778
10
11.3565773
20
1.9241405
11
11.3750773
21
1.8632405
0
LINE
8
DEFAULT_255_2_778
10
11.3750773
20
1.8632405
11
11.4094773
21
1.7849405
0
LINE
8
DEFAULT_255_2_778
10
11.4094773
20
1.7849405
11
11.4647773
21
1.7005405
0
LINE
8
DEFAULT_255_2_778
10
11.4647773
20
1.7005405
11
11.5592773
21
1.6084405
0
LINE
8
DEFAULT_255_2_778
10
11.5592773
20
1.6084405
11
11.6864773
21
1.5381405
0
LINE
8
DEFAULT_255_2_778
10
11.6864773
20
1.5381405
11
11.8438773
21
1.5055405
0
LINE
8
DEFAULT_255_2_778
10
11.8438773
20
1.5055405
11
12.0476773
21
1.5219405
0
LINE
8
DEFAULT_255_2_778
10
12.0476773
20
1.5219405
11
12.1981773
21
1.5809405
0
LINE
8
DEFAULT_255_2_778
10
12.1981773
20
1.5809405
11
12.2968773
21
1.6584405
0
LINE
8
DEFAULT_255_2_778
10
12.2968773
20
1.6584405
11
12.3534773
21
1.7312405
0
LINE
8
DEFAULT_255_2_778
10
12.3534773
20
1.7312405
11
12.3884773
21
1.8016405
0
LINE
8
DEFAULT_255_2_778
10
12.3884773
20
1.8016405
11
12.4077773
21
1.8614405
0
LINE
8
DEFAULT_255_2_778
10
12.4077773
20
1.8614405
11
12.4151773
21
1.8955405
0
LINE
8
DEFAULT_255_2_778
10
12.4151773
20
1.8955405
11
12.4204773
21
1.9299405
0
LINE
8
DEFAULT_255_2_778
10
12.4204773
20
1.9299405
11
12.4238773
21
1.9646405
0
LINE
8
DEFAULT_255_2_778
10
12.4238773
20
1.9646405
11
12.4230773
21
2.0728405
0
LINE
8
DEFAULT_255_2_778
10
12.4230773
20
2.0728405
11
12.4172773
21
2.1167405
0
LINE
8
DEFAULT_255_2_778
10
12.4172773
20
2.1167405
11
12.4000773
21
2.1823405
0
LINE
8
DEFAULT_255_2_778
10
12.4000773
20
2.1823405
11
12.3391773
21
2.2884405
0
LINE
8
DEFAULT_255_2_778
10
12.3391773
20
2.2884405
11
12.1714773
21
2.4040405
0
LINE
8
DEFAULT_255_2_778
10
12.1714773
20
2.4040405
11
12.1412773
21
2.4122405
0
LINE
8
DEFAULT_255_2_778
10
12.1412773
20
2.4122405
11
12.2529773
21
2.4869405
0
LINE
8
DEFAULT_255_2_778
10
12.2529773
20
2.4869405
11
12.3225773
21
2.5673405
0
LINE
8
DEFAULT_255_2_778
10
12.3225773
20
2.5673405
11
12.3579773
21
2.6340405
0
LINE
8
DEFAULT_255_2_778
10
12.3579773
20
2.6340405
11
12.3772773
21
2.6911405
0
LINE
8
DEFAULT_255_2_778
10
12.3772773
20
2.6911405
11
12.3844773
21
2.7229405
0
LINE
8
DEFAULT_255_2_778
10
12.3844773
20
2.7229405
11
12.3891773
21
2.7549405
0
LINE
8
DEFAULT_255_2_778
10
12.3891773
20
2.7549405
11
12.3876773
21
2.8956405
0
LINE
8
DEFAULT_255_2_778
10
12.3876773
20
2.8956405
11
12.3823773
21
2.9255405
0
LINE
8
DEFAULT_255_2_778
10
12.3823773
20
2.9255405
11
12.3709773
21
2.9684405
0
LINE
8
DEFAULT_255_2_778
10
12.3709773
20
2.9684405
11
12.3436773
21
3.0330405
0
LINE
8
DEFAULT_255_2_778
10
12.3436773
20
3.0330405
11
12.2958773
21
3.1028405
0
LINE
8
DEFAULT_255_2_778
10
12.2958773
20
3.1028405
11
12.2063773
21
3.1809405
0
LINE
8
DEFAULT_255_2_778
10
12.2063773
20
3.1809405
11
12.0687773
21
3.2438405
0
LINE
8
DEFAULT_255_2_778
10
12.0687773
20
3.2438405
11
11.8679773
21
3.2674405
0
LINE
8
DEFAULT_255_2_778
10
11.8679773
20
3.2674405
11
11.6840773
21
3.2375405
0
LINE
8
DEFAULT_255_2_778
10
11.6840773
20
3.2375405
11
11.4962773
21
3.1192405
0
LINE
8
DEFAULT_255_2_778
10
11.4962773
20
3.1192405
11
11.4250773
21
3.0129405
0
LINE
8
DEFAULT_255_2_778
10
11.4250773
20
3.0129405
11
11.3978773
21
2.9327405
0
LINE
8
DEFAULT_255_2_778
10
11.3978773
20
2.9327405
11
11.3882773
21
2.8816405
0
LINE
8
DEFAULT_255_2_778
10
11.3882773
20
2.8816405
11
11.3851773
21
2.8509405
0
LINE
8
DEFAULT_255_2_778
10
11.3851773
20
2.8509405
11
11.3835773
21
2.7999405
0
LINE
8
DEFAULT_255_2_778
10
11.3835773
20
2.7999405
11
11.5819773
21
2.7999405
0
LINE
8
DEFAULT_255_2_778
10
11.5819773
20
2.7999405
11
11.5835773
21
2.8377405
0
LINE
8
DEFAULT_255_2_778
10
11.5835773
20
2.8377405
11
11.5877773
21
2.8660405
0
LINE
8
DEFAULT_255_2_778
10
11.5877773
20
2.8660405
11
11.6033773
21
2.9176405
0
LINE
8
DEFAULT_255_2_778
10
11.6033773
20
2.9176405
11
11.6499773
21
2.9904405
0
LINE
8
DEFAULT_255_2_778
10
11.6499773
20
2.9904405
11
11.7700773
21
3.0668405
0
LINE
8
DEFAULT_255_2_778
10
11.7700773
20
3.0668405
11
11.7967773
21
3.0745405
0
LINE
8
DEFAULT_255_2_778
10
13.2252773
20
3.0769405
11
13.4237773
21
3.0658405
0
LINE
8
DEFAULT_255_2_778
10
13.4237773
20
3.0658405
11
13.5314773
21
2.9877405
0
LINE
8
DEFAULT_255_2_778
10
13.5314773
20
2.9877405
11
13.5673773
21
2.9237405
0
LINE
8
DEFAULT_255_2_778
10
13.5673773
20
2.9237405
11
13.5811773
21
2.8734405
0
LINE
8
DEFAULT_255_2_778
10
13.5811773
20
2.8734405
11
13.5851773
21
2.8456405
0
LINE
8
DEFAULT_255_2_778
10
13.5851773
20
2.8456405
11
13.5840773
21
2.7760405
0
LINE
8
DEFAULT_255_2_778
10
13.5840773
20
2.7760405
11
13.5787773
21
2.7440405
0
LINE
8
DEFAULT_255_2_778
10
13.5787773
20
2.7440405
11
13.5663773
21
2.6967405
0
LINE
8
DEFAULT_255_2_778
10
13.5663773
20
2.6967405
11
13.5393773
21
2.6276405
0
LINE
8
DEFAULT_255_2_778
10
13.5393773
20
2.6276405
11
13.4925773
21
2.5392405
0
LINE
8
DEFAULT_255_2_778
10
13.4925773
20
2.5392405
11
13.4131773
21
2.4210405
0
LINE
8
DEFAULT_255_2_778
10
13.4131773
20
2.4210405
11
13.2522773
21
2.2228405
0
LINE
8
DEFAULT_255_2_778
10
13.2522773
20
2.2228405
11
13.0194773
21
1.9799405
0
LINE
8
DEFAULT_255_2_778
10
13.0194773
20
1.9799405
11
12.7612773
21
1.7471405
0
LINE
8
DEFAULT_255_2_778
10
12.7612773
20
1.7471405
11
12.7612773
21
1.5434405
0
LINE
8
DEFAULT_255_2_778
10
12.7612773
20
1.5434405
11
13.8163773
21
1.5434405
0
LINE
8
DEFAULT_255_2_778
10
13.8163773
20
1.5434405
11
13.8163773
21
1.7288405
0
LINE
8
DEFAULT_255_2_778
10
13.8163773
20
1.7288405
11
13.0107773
21
1.7288405
0
LINE
8
DEFAULT_255_2_778
10
13.0107773
20
1.7288405
11
13.3721773
21
2.0593405
0
LINE
8
DEFAULT_255_2_778
10
13.3721773
20
2.0593405
11
13.5314773
21
2.2342405
0
LINE
8
DEFAULT_255_2_778
10
13.5314773
20
2.2342405
11
13.6131773
21
2.3445405
0
LINE
8
DEFAULT_255_2_778
10
13.6131773
20
2.3445405
11
13.6671773
21
2.4324405
0
LINE
8
DEFAULT_255_2_778
10
13.6671773
20
2.4324405
11
13.7192773
21
2.5377405
0
LINE
8
DEFAULT_255_2_778
10
13.7192773
20
2.5377405
11
13.7457773
21
2.6057405
0
LINE
8
DEFAULT_255_2_778
10
13.7457773
20
2.6057405
11
13.7663773
21
2.6752405
0
LINE
8
DEFAULT_255_2_778
10
13.7663773
20
2.6752405
11
13.7761773
21
2.7223405
0
LINE
8
DEFAULT_255_2_778
10
13.7761773
20
2.7223405
11
13.7737773
21
2.9353405
0
LINE
8
DEFAULT_255_2_778
10
13.7737773
20
2.9353405
11
13.7642773
21
2.9716405
0
LINE
8
DEFAULT_255_2_778
10
13.7642773
20
2.9716405
11
13.7457773
21
3.0216405
0
LINE
8
DEFAULT_255_2_778
10
13.7457773
20
3.0216405
11
13.7110773
21
3.0832405
0
LINE
8
DEFAULT_255_2_778
10
13.7110773
20
3.0832405
11
13.6531773
21
3.1486405
0
LINE
8
DEFAULT_255_2_778
10
13.6531773
20
3.1486405
11
13.5620773
21
3.2121405
0
LINE
8
DEFAULT_255_2_778
10
13.5620773
20
3.2121405
11
13.4335773
21
3.2565405
0
LINE
8
DEFAULT_255_2_778
10
13.4335773
20
3.2565405
11
13.2604773
21
3.2671405
0
LINE
8
DEFAULT_255_2_778
10
13.2604773
20
3.2671405
11
13.1144773
21
3.2380405
0
LINE
8
DEFAULT_255_2_778
10
13.1144773
20
3.2380405
11
13.0104773
21
3.1843405
0
LINE
8
DEFAULT_255_2_778
10
13.0104773
20
3.1843405
11
12.8858773
21
3.0475405
0
LINE
8
DEFAULT_255_2_778
10
12.8858773
20
3.0475405
11
12.8437773
21
2.9438405
0
LINE
8
DEFAULT_255_2_778
10
12.8437773
20
2.9438405
11
12.8315773
21
2.8864405
0
LINE
8
DEFAULT_255_2_778
10
12.8315773
20
2.8864405
11
12.8265773
21
2.8454405
0
LINE
8
DEFAULT_255_2_778
10
12.8265773
20
2.8454405
11
12.8241773
21
2.7840405
0
LINE
8
DEFAULT_255_2_778
10
12.8241773
20
2.7840405
11
13.0226773
21
2.7840405
0
LINE
8
DEFAULT_255_2_778
10
13.0226773
20
2.7840405
11
13.0244773
21
2.8274405
0
LINE
8
DEFAULT_255_2_778
10
13.0244773
20
2.8274405
11
13.0289773
21
2.8599405
0
LINE
8
DEFAULT_255_2_778
10
13.0289773
20
2.8599405
11
13.0416773
21
2.9083405
0
LINE
8
DEFAULT_255_2_778
10
13.0416773
20
2.9083405
11
13.0837773
21
2.9859405
0
LINE
8
DEFAULT_255_2_778
10
13.0837773
20
2.9859405
11
13.1940773
21
3.0668405
0
LINE
8
DEFAULT_255_2_778
10
13.1940773
20
3.0668405
11
13.2252773
21
3.0764405
0
LINE
8
DEFAULT_255_2_778
10
14.6516773
20
3.2118405
11
14.6624773
21
3.2229405
0
LINE
8
DEFAULT_255_2_778
10
14.6728773
20
3.2340405
11
14.6622773
21
3.2229405
0
LINE
8
DEFAULT_255_2_778
10
14.5778927
20
2.9163114
11
14.5881927
21
2.9248114
0
LINE
8
DEFAULT_255_2_778
10
14.5881927
20
2.9248114
11
14.5984927
21
2.9333114
0
LINE
8
DEFAULT_255_2_778
10
14.5984927
20
2.9333114
11
14.6085927
21
2.9420114
0
LINE
8
DEFAULT_255_2_778
10
14.6085927
20
2.9420114
11
14.6251927
21
2.9566114
0
LINE
8
DEFAULT_255_2_778
10
14.6251927
20
2.9566114
11
14.6415927
21
2.9714114
0
LINE
8
DEFAULT_255_2_778
10
14.6415927
20
2.9714114
11
14.6415927
21
1.5437114
0
LINE
8
DEFAULT_255_2_778
10
14.6415927
20
1.5437114
11
14.8463927
21
1.5437114
0
LINE
8
DEFAULT_255_2_778
10
14.8463927
20
1.5437114
11
14.8463927
21
3.2341114
0
LINE
8
DEFAULT_255_2_778
10
14.8463927
20
3.2341114
11
14.6727927
21
3.2341114
0
LINE
8
DEFAULT_255_2_778
10
14.5682927
20
2.9089114
11
14.5778927
21
2.9163114
0
LINE
8
DEFAULT_255_2_778
10
14.5381927
20
2.8864114
11
14.5492927
21
2.8944114
0
LINE
8
DEFAULT_255_2_778
10
14.5492927
20
2.8944114
11
14.5587927
21
2.9015114
0
LINE
8
DEFAULT_255_2_778
10
14.5587927
20
2.9015114
11
14.5682927
21
2.9089114
0
LINE
8
DEFAULT_255_2_778
10
14.5158927
20
2.8708114
11
14.5272927
21
2.8785114
0
LINE
8
DEFAULT_255_2_778
10
14.5045927
20
2.8634114
11
14.5158927
21
2.8708114
0
LINE
8
DEFAULT_255_2_778
10
14.4680927
20
2.8409114
11
14.4812927
21
2.8488114
0
LINE
8
DEFAULT_255_2_778
10
14.4812927
20
2.8488114
11
14.4928927
21
2.8560114
0
LINE
8
DEFAULT_255_2_778
10
14.4928927
20
2.8560114
11
14.5045927
21
2.8634114
0
LINE
8
DEFAULT_255_2_778
10
14.4547927
20
2.8333114
11
14.4680927
21
2.8409114
0
LINE
8
DEFAULT_255_2_778
10
14.4140927
20
2.8113114
11
14.4277927
21
2.8184114
0
LINE
8
DEFAULT_255_2_778
10
14.4277927
20
2.8184114
11
14.4412927
21
2.8258114
0
LINE
8
DEFAULT_255_2_778
10
14.4412927
20
2.8258114
11
14.4547927
21
2.8333114
0
LINE
8
DEFAULT_255_2_778
10
14.4002927
20
2.8044114
11
14.4140927
21
2.8113114
0
LINE
8
DEFAULT_255_2_778
10
14.3629927
20
2.7862114
11
14.3817927
21
2.7952114
0
LINE
8
DEFAULT_255_2_778
10
14.3817927
20
2.7952114
11
14.4002927
21
2.8044114
0
LINE
8
DEFAULT_255_2_778
10
14.3441927
20
2.7774114
11
14.3629927
21
2.7862114
0
LINE
8
DEFAULT_255_2_778
10
14.3470927
20
2.9912114
11
14.3336927
21
2.9849114
0
LINE
8
DEFAULT_255_2_778
10
14.3336927
20
2.9849114
11
14.3201927
21
2.9788114
0
LINE
8
DEFAULT_255_2_778
10
14.3201927
20
2.9788114
11
14.3063927
21
2.9727114
0
LINE
8
DEFAULT_255_2_778
10
14.3063927
20
2.9727114
11
14.3063927
21
2.7605114
0
LINE
8
DEFAULT_255_2_778
10
14.3063927
20
2.7605114
11
14.3444927
21
2.7774114
0
LINE
8
DEFAULT_255_2_778
10
14.3606334
20
2.9978437
11
14.3471334
21
2.9912437
0
LINE
8
DEFAULT_255_2_778
10
14.4000334
20
3.0187437
11
14.3871334
21
3.0116437
0
LINE
8
DEFAULT_255_2_778
10
14.3871334
20
3.0116437
11
14.3738334
21
3.0047437
0
LINE
8
DEFAULT_255_2_778
10
14.3738334
20
3.0047437
11
14.3606334
21
2.9978437
0
LINE
8
DEFAULT_255_2_778
10
14.4130334
20
3.0261437
11
14.4000334
21
3.0187437
0
LINE
8
DEFAULT_255_2_778
10
14.4513334
20
3.0492437
11
14.4386334
21
3.0412437
0
LINE
8
DEFAULT_255_2_778
10
14.4386334
20
3.0412437
11
14.4259334
21
3.0335437
0
LINE
8
DEFAULT_255_2_778
10
14.4259334
20
3.0335437
11
14.4130334
21
3.0259437
0
LINE
8
DEFAULT_255_2_778
10
14.4640334
20
3.0574437
11
14.4513334
21
3.0492437
0
LINE
8
DEFAULT_255_2_778
10
14.4765334
20
3.0656437
11
14.4640334
21
3.0574437
0
LINE
8
DEFAULT_255_2_778
10
14.4889334
20
3.0740437
11
14.4765334
21
3.0656437
0
LINE
8
DEFAULT_255_2_778
10
14.5011334
20
3.0828437
11
14.4889334
21
3.0740437
0
LINE
8
DEFAULT_255_2_778
10
14.5135334
20
3.0915437
11
14.5014334
21
3.0828437
0
LINE
8
DEFAULT_255_2_778
10
14.5257334
20
3.1005437
11
14.5135334
21
3.0915437
0
LINE
8
DEFAULT_255_2_778
10
14.5609334
20
3.1285437
11
14.5492334
21
3.1190437
0
LINE
8
DEFAULT_255_2_778
10
14.5492334
20
3.1190437
11
14.5373334
21
3.1097437
0
LINE
8
DEFAULT_255_2_778
10
14.5373334
20
3.1097437
11
14.5254334
21
3.1005437
0
LINE
8
DEFAULT_255_2_778
10
14.5728334
20
3.1383437
11
14.5609334
21
3.1285437
0
LINE
8
DEFAULT_255_2_778
10
14.5844334
20
3.1484437
11
14.5728334
21
3.1383437
0
LINE
8
DEFAULT_255_2_778
10
14.5961334
20
3.1584437
11
14.5844334
21
3.1484437
0
LINE
8
DEFAULT_255_2_778
10
14.6072334
20
3.1690437
11
14.5958334
21
3.1587437
0
LINE
8
DEFAULT_255_2_778
10
14.6188334
20
3.1793437
11
14.6074334
21
3.1687437
0
LINE
8
DEFAULT_255_2_778
10
14.6405334
20
3.2008437
11
14.6297334
21
3.1899437
0
LINE
8
DEFAULT_255_2_778
10
14.6516334
20
3.2119437
11
14.6408334
21
3.2010437
0
LINE
8
DEFAULT_255_2_778
10
16.8024334
20
3.2341437
11
16.7918334
21
3.2230437
0
LINE
8
DEFAULT_255_2_778
10
16.7710927
20
2.9714114
11
16.7710927
21
1.5437114
0
LINE
8
DEFAULT_255_2_778
10
16.7710927
20
1.5437114
11
16.9760927
21
1.5437114
0
LINE
8
DEFAULT_255_2_778
10
16.9760927
20
1.5437114
11
16.9760927
21
3.2341114
0
LINE
8
DEFAULT_255_2_778
10
16.9760927
20
3.2341114
11
16.8024927
21
3.2341114
0
LINE
8
DEFAULT_255_2_778
10
16.7482927
20
3.1796114
11
16.7593927
21
3.1902114
0
LINE
8
DEFAULT_255_2_778
10
16.7593927
20
3.1902114
11
16.7704927
21
3.2010114
0
LINE
8
DEFAULT_255_2_778
10
16.7704927
20
3.2010114
11
16.7813927
21
3.2119114
0
LINE
8
DEFAULT_255_2_778
10
16.7813927
20
3.2119114
11
16.7919927
21
3.2230114
0
LINE
8
DEFAULT_255_2_778
10
16.7548927
20
2.9566114
11
16.7712927
21
2.9714114
0
LINE
8
DEFAULT_255_2_778
10
16.7382927
20
2.9420114
11
16.7548927
21
2.9566114
0
LINE
8
DEFAULT_255_2_778
10
16.7281927
20
2.9333114
11
16.7382927
21
2.9420114
0
LINE
8
DEFAULT_255_2_778
10
16.7178927
20
2.9248114
11
16.7281927
21
2.9333114
0
LINE
8
DEFAULT_255_2_778
10
16.7075927
20
2.9163114
11
16.7178927
21
2.9248114
0
LINE
8
DEFAULT_255_2_778
10
16.6884927
20
2.9015114
11
16.6979927
21
2.9089114
0
LINE
8
DEFAULT_255_2_778
10
16.6789927
20
2.8944114
11
16.6884927
21
2.9015114
0
LINE
8
DEFAULT_255_2_778
10
16.6678927
20
2.8864114
11
16.6789927
21
2.8944114
0
LINE
8
DEFAULT_255_2_778
10
16.6567927
20
2.8785114
11
16.6678927
21
2.8864114
0
LINE
8
DEFAULT_255_2_778
10
16.6342927
20
2.8634114
11
16.6455927
21
2.8708114
0
LINE
8
DEFAULT_255_2_778
10
16.6455927
20
2.8708114
11
16.6569927
21
2.8785114
0
LINE
8
DEFAULT_255_2_778
10
16.6225927
20
2.8560114
11
16.6339927
21
2.8634114
0
LINE
8
DEFAULT_255_2_778
10
16.6109927
20
2.8488114
11
16.6225927
21
2.8560114
0
LINE
8
DEFAULT_255_2_778
10
16.5977927
20
2.8409114
11
16.6109927
21
2.8488114
0
LINE
8
DEFAULT_255_2_778
10
16.5844927
20
2.8333114
11
16.5977927
21
2.8409114
0
LINE
8
DEFAULT_255_2_778
10
16.5709927
20
2.8258114
11
16.5844927
21
2.8333114
0
LINE
8
DEFAULT_255_2_778
10
16.5574927
20
2.8184114
11
16.5709927
21
2.8258114
0
LINE
8
DEFAULT_255_2_778
10
16.5437927
20
2.8113114
11
16.5574927
21
2.8184114
0
LINE
8
DEFAULT_255_2_778
10
16.5114927
20
2.7952114
11
16.5299927
21
2.8044114
0
LINE
8
DEFAULT_255_2_778
10
16.5299927
20
2.8044114
11
16.5437927
21
2.8113114
0
LINE
8
DEFAULT_255_2_778
10
16.4926927
20
2.7862114
11
16.5114927
21
2.7952114
0
LINE
8
DEFAULT_255_2_778
10
16.4550927
20
2.7689114
11
16.4738927
21
2.7774114
0
LINE
8
DEFAULT_255_2_778
10
16.4738927
20
2.7774114
11
16.4926927
21
2.7862114
0
LINE
8
DEFAULT_255_2_778
10
16.4360927
20
2.7605114
11
16.4550927
21
2.7689114
0
LINE
8
DEFAULT_255_2_778
10
16.4360011
20
2.9726739
11
16.4360011
21
2.7607739
0
LINE
8
DEFAULT_255_2_778
10
16.4498011
20
2.9785739
11
16.4360011
21
2.9724739
0
LINE
8
DEFAULT_255_2_778
10
16.4633011
20
2.9848739
11
16.4498011
21
2.9787739
0
LINE
8
DEFAULT_255_2_778
10
16.4767011
20
2.9912739
11
16.4633011
21
2.9848739
0
LINE
8
DEFAULT_255_2_778
10
16.4902011
20
2.9978739
11
16.4767011
21
2.9912739
0
LINE
8
DEFAULT_255_2_778
10
16.5035011
20
3.0046739
11
16.4902011
21
2.9978739
0
LINE
8
DEFAULT_255_2_778
10
16.5167011
20
3.0115739
11
16.5035011
21
3.0046739
0
LINE
8
DEFAULT_255_2_778
10
16.5299011
20
3.0187739
11
16.5167011
21
3.0115739
0
LINE
8
DEFAULT_255_2_778
10
16.5426011
20
3.0261739
11
16.5297011
21
3.0187739
0
LINE
8
DEFAULT_255_2_778
10
16.5556011
20
3.0335739
11
16.5426011
21
3.0258739
0
LINE
8
DEFAULT_255_2_778
10
16.5683011
20
3.0412739
11
16.5556011
21
3.0335739
0
LINE
8
DEFAULT_255_2_778
10
16.5810011
20
3.0491739
11
16.5683011
21
3.0412739
0
LINE
8
DEFAULT_255_2_778
10
16.6186011
20
3.0740739
11
16.6061011
21
3.0655739
0
LINE
8
DEFAULT_255_2_778
10
16.6061011
20
3.0655739
11
16.5937011
21
3.0573739
0
LINE
8
DEFAULT_255_2_778
10
16.5937011
20
3.0573739
11
16.5810011
21
3.0491739
0
LINE
8
DEFAULT_255_2_778
10
16.6307011
20
3.0827739
11
16.6186011
21
3.0740739
0
LINE
8
DEFAULT_255_2_778
10
16.6551011
20
3.1004739
11
16.6429011
21
3.0914739
0
LINE
8
DEFAULT_255_2_778
10
16.6429011
20
3.0914739
11
16.6307011
21
3.0827739
0
LINE
8
DEFAULT_255_2_778
10
16.6670011
20
3.1097739
11
16.6551011
21
3.1004739
0
LINE
8
DEFAULT_255_2_778
10
16.6789011
20
3.1189739
11
16.6670011
21
3.1097739
0
LINE
8
DEFAULT_255_2_778
10
16.6905011
20
3.1285739
11
16.6789011
21
3.1189739
0
LINE
8
DEFAULT_255_2_778
10
16.7371011
20
3.1690739
11
16.7257011
21
3.1586739
0
LINE
8
DEFAULT_255_2_778
10
16.7257011
20
3.1586739
11
16.7141011
21
3.1486739
0
LINE
8
DEFAULT_255_2_778
10
16.7141011
20
3.1486739
11
16.7024011
21
3.1385739
0
LINE
8
DEFAULT_255_2_778
10
16.7024011
20
3.1385739
11
16.6905011
21
3.1287739
0
LINE
8
DEFAULT_255_2_778
10
16.7485011
20
3.1793739
11
16.7371011
21
3.1687739
0
LINE
8
DEFAULT_255_2_778
10
18.3219011
20
3.0380739
11
18.4704011
21
2.9602739
0
LINE
8
DEFAULT_255_2_778
10
18.4704011
20
2.9602739
11
18.5140011
21
2.8943739
0
LINE
8
DEFAULT_255_2_778
10
18.5140011
20
2.8943739
11
18.5281011
21
2.8470739
0
LINE
8
DEFAULT_255_2_778
10
18.5281011
20
2.8470739
11
18.5254011
21
2.7086739
0
LINE
8
DEFAULT_255_2_778
10
18.5254011
20
2.7086739
11
18.5066011
21
2.6580739
0
LINE
8
DEFAULT_255_2_778
10
18.5066011
20
2.6580739
11
18.4267011
21
2.5773739
0
LINE
8
DEFAULT_255_2_778
10
18.4267011
20
2.5773739
11
18.1939011
21
2.5255739
0
LINE
8
DEFAULT_255_2_778
10
18.1939011
20
2.5255739
11
17.8960011
21
2.5255739
0
LINE
8
DEFAULT_255_2_778
10
17.8960011
20
2.5255739
11
17.8960011
21
3.0507739
0
LINE
8
DEFAULT_255_2_778
10
17.8960011
20
3.0507739
11
18.3214011
21
3.0380739
0
LINE
8
DEFAULT_255_2_778
10
18.3476011
20
2.3167739
11
18.5090011
21
2.2421739
0
LINE
8
DEFAULT_255_2_778
10
18.5090011
20
2.2421739
11
18.5577011
21
2.1818739
0
LINE
8
DEFAULT_255_2_778
10
18.5577011
20
2.1818739
11
18.5783011
21
2.1297739
0
LINE
8
DEFAULT_255_2_778
10
18.5783011
20
2.1297739
11
18.5863011
21
2.0924739
0
LINE
8
DEFAULT_255_2_778
10
18.5863011
20
2.0924739
11
18.5844011
21
1.9543739
0
LINE
8
DEFAULT_255_2_778
10
18.5844011
20
1.9543739
11
18.5691011
21
1.8979739
0
LINE
8
DEFAULT_255_2_778
10
18.5691011
20
1.8979739
11
18.5310011
21
1.8307739
0
LINE
8
DEFAULT_255_2_778
10
18.5310011
20
1.8307739
11
18.4254011
21
1.7611739
0
LINE
8
DEFAULT_255_2_778
10
18.4254011
20
1.7611739
11
18.2428011
21
1.7365739
0
LINE
8
DEFAULT_255_2_778
10
18.2428011
20
1.7365739
11
17.8970011
21
1.7365739
0
LINE
8
DEFAULT_255_2_778
10
17.8970011
20
1.7365739
11
17.8970011
21
2.3281739
0
LINE
8
DEFAULT_255_2_778
10
17.8970011
20
2.3281739
11
18.3481011
21
2.3170739
0
LINE
8
DEFAULT_255_2_778
10
18.4048011
20
3.2240739
11
18.5836011
21
3.1512739
0
LINE
8
DEFAULT_255_2_778
10
18.5836011
20
3.1512739
11
18.6667011
21
3.0777739
0
LINE
8
DEFAULT_255_2_778
10
18.6667011
20
3.0777739
11
18.7059011
21
3.0144739
0
LINE
8
DEFAULT_255_2_778
10
18.7059011
20
3.0144739
11
18.7273011
21
2.9546739
0
LINE
8
DEFAULT_255_2_778
10
18.7273011
20
2.9546739
11
18.7355011
21
2.9168739
0
LINE
8
DEFAULT_255_2_778
10
18.7355011
20
2.9168739
11
18.7408011
21
2.8782739
0
LINE
8
DEFAULT_255_2_778
10
18.7408011
20
2.8782739
11
18.7397011
21
2.7578739
0
LINE
8
DEFAULT_255_2_778
10
18.7397011
20
2.7578739
11
18.7331011
21
2.7178739
0
LINE
8
DEFAULT_255_2_778
10
18.7331011
20
2.7178739
11
18.7183011
21
2.6662739
0
LINE
8
DEFAULT_255_2_778
10
18.7183011
20
2.6662739
11
18.6855011
21
2.6001739
0
LINE
8
DEFAULT_255_2_778
10
18.6855011
20
2.6001739
11
18.6140011
21
2.5165739
0
LINE
8
DEFAULT_255_2_778
10
18.6140011
20
2.5165739
11
18.4968011
21
2.4472739
0
LINE
8
DEFAULT_255_2_778
10
18.4968011
20
2.4472739
11
18.4733011
21
2.4398739
0
LINE
8
DEFAULT_255_2_778
10
18.4733011
20
2.4398739
11
18.6119011
21
2.3818739
0
LINE
8
DEFAULT_255_2_778
10
18.6119011
20
2.3818739
11
18.7008011
21
2.3069739
0
LINE
8
DEFAULT_255_2_778
10
18.7008011
20
2.3069739
11
18.7479011
21
2.2384739
0
LINE
8
DEFAULT_255_2_778
10
18.7479011
20
2.2384739
11
18.7754011
21
2.1731739
0
LINE
8
DEFAULT_255_2_778
10
18.7754011
20
2.1731739
11
18.7871011
21
2.1305739
0
LINE
8
DEFAULT_255_2_778
10
18.7871011
20
2.1305739
11
18.7929011
21
2.0992739
0
LINE
8
DEFAULT_255_2_778
10
18.7929011
20
2.0992739
11
18.7911011
21
1.8913739
0
LINE
8
DEFAULT_255_2_778
10
18.7911011
20
1.8913739
11
18.7823011
21
1.8500739
0
LINE
8
DEFAULT_255_2_778
10
18.7823011
20
1.8500739
11
18.7649011
21
1.7974739
0
LINE
8
DEFAULT_255_2_778
10
18.7649011
20
1.7974739
11
18.7331011
21
1.7370739
0
LINE
8
DEFAULT_255_2_778
10
18.7331011
20
1.7370739
11
18.6622011
21
1.6584739
0
LINE
8
DEFAULT_255_2_778
10
18.6622011
20
1.6584739
11
18.5603011
21
1.5947739
0
LINE
8
DEFAULT_255_2_778
10
18.5603011
20
1.5947739
11
18.3688011
21
1.5479739
0
LINE
8
DEFAULT_255_2_778
10
18.3688011
20
1.5479739
11
18.2608011
21
1.5434739
0
LINE
8
DEFAULT_255_2_778
10
18.2608011
20
1.5434739
11
17.6872011
21
1.5434739
0
LINE
8
DEFAULT_255_2_778
10
17.6872011
20
1.5434739
11
17.6872011
21
3.2433739
0
LINE
8
DEFAULT_255_2_778
10
17.6872011
20
3.2433739
11
18.3680011
21
3.2309739
0
LINE
8
DEFAULT_255_2_778
10
18.3680011
20
3.2309739
11
18.4045011
21
3.2240739
0
LINE
8
DEFAULT_255_2_778
10
20.6783011
20
3.0634739
11
20.8212011
21
3.0721739
0
LINE
8
DEFAULT_255_2_778
10
20.8212011
20
3.0721739
11
20.9191011
21
3.0375739
0
LINE
8
DEFAULT_255_2_778
10
20.9191011
20
3.0375739
11
20.9995011
21
2.9697739
0
LINE
8
DEFAULT_255_2_778
10
20.9995011
20
2.9697739
11
21.0493011
21
2.8988739
0
LINE
8
DEFAULT_255_2_778
10
21.0493011
20
2.8988739
11
21.0823011
21
2.8311739
0
LINE
8
DEFAULT_255_2_778
10
21.0823011
20
2.8311739
11
21.1117011
21
2.7488739
0
LINE
8
DEFAULT_255_2_778
10
21.1117011
20
2.7488739
11
21.1289011
21
2.6824739
0
LINE
8
DEFAULT_255_2_778
10
21.1289011
20
2.6824739
11
21.1387011
21
2.6334739
0
LINE
8
DEFAULT_255_2_778
10
21.1387011
20
2.6334739
11
21.1461011
21
2.5840739
0
LINE
8
DEFAULT_255_2_778
10
21.1461011
20
2.5840739
11
21.1490011
21
2.5591739
0
LINE
8
DEFAULT_255_2_778
10
21.1490011
20
2.5591739
11
21.1522011
21
2.5263739
0
LINE
8
DEFAULT_255_2_778
10
21.1522011
20
2.5263739
11
21.1522011
21
2.2604739
0
LINE
8
DEFAULT_255_2_778
10
21.1522011
20
2.2604739
11
21.1490011
21
2.2270739
0
LINE
8
DEFAULT_255_2_778
10
21.1490011
20
2.2270739
11
21.1427011
21
2.1768739
0
LINE
8
DEFAULT_255_2_778
10
21.1427011
20
2.1768739
11
21.1342011
21
2.1268739
0
LINE
8
DEFAULT_255_2_778
10
21.1342011
20
2.1268739
11
21.1178011
21
2.0548739
0
LINE
8
DEFAULT_255_2_778
10
21.1178011
20
2.0548739
11
21.0974011
21
1.9884739
0
LINE
8
DEFAULT_255_2_778
10
21.0974011
20
1.9884739
11
21.0585011
21
1.8966739
0
LINE
8
DEFAULT_255_2_778
10
21.0585011
20
1.8966739
11
21.0114011
21
1.8214739
0
LINE
8
DEFAULT_255_2_778
10
21.0114011
20
1.8214739
11
20.9419011
21
1.7526739
0
LINE
8
DEFAULT_255_2_778
10
20.9419011
20
1.7526739
11
20.8469011
21
1.7074739
0
LINE
8
DEFAULT_255_2_778
10
20.8469011
20
1.7074739
11
20.7156011
21
1.7018739
0
LINE
8
DEFAULT_255_2_778
10
20.7156011
20
1.7018739
11
20.6172011
21
1.7376739
0
LINE
8
DEFAULT_255_2_778
10
20.6172011
20
1.7376739
11
20.5365011
21
1.8074739
0
LINE
8
DEFAULT_255_2_778
10
20.5365011
20
1.8074739
11
20.4865011
21
1.8807739
0
LINE
8
DEFAULT_255_2_778
10
20.4865011
20
1.8807739
11
20.4558011
21
1.9447739
0
LINE
8
DEFAULT_255_2_778
10
20.4558011
20
1.9447739
11
20.4317011
21
2.0101739
0
LINE
8
DEFAULT_255_2_778
10
20.4317011
20
2.0101739
11
20.4130011
21
2.0770739
0
LINE
8
DEFAULT_255_2_778
10
20.4130011
20
2.0770739
11
20.4021011
21
2.1265739
0
LINE
8
DEFAULT_255_2_778
10
20.4021011
20
2.1265739
11
20.3936011
21
2.1765739
0
LINE
8
DEFAULT_255_2_778
10
20.3936011
20
2.1765739
11
20.3873011
21
2.2268739
0
LINE
8
DEFAULT_255_2_778
10
20.3873011
20
2.2268739
11
20.3841011
21
2.2601739
0
LINE
8
DEFAULT_255_2_778
10
20.3841011
20
2.2601739
11
20.3841011
21
2.5260739
0
LINE
8
DEFAULT_255_2_778
10
20.3841011
20
2.5260739
11
20.3873011
21
2.5588739
0
LINE
8
DEFAULT_255_2_778
10
20.3873011
20
2.5588739
11
20.3939011
21
2.6083739
0
LINE
8
DEFAULT_255_2_778
10
20.3939011
20
2.6083739
11
20.4026011
21
2.6575739
0
LINE
8
DEFAULT_255_2_778
10
20.4026011
20
2.6575739
11
20.4193011
21
2.7284739
0
LINE
8
DEFAULT_255_2_778
10
20.4193011
20
2.7284739
11
20.4399011
21
2.7938739
0
LINE
8
DEFAULT_255_2_778
10
20.4399011
20
2.7938739
11
20.4791011
21
2.8835739
0
LINE
8
DEFAULT_255_2_778
10
20.4791011
20
2.8835739
11
20.5259011
21
2.9562739
0
LINE
8
DEFAULT_255_2_778
10
20.5259011
20
2.9562739
11
20.6064011
21
3.0303739
0
LINE
8
DEFAULT_255_2_778
10
20.6064011
20
3.0303739
11
20.6773011
21
3.0631739
0
LINE
8
DEFAULT_255_2_778
10
20.9114833
20
3.2502271
11
20.7688833
21
3.2690271
0
LINE
8
DEFAULT_255_2_778
10
20.7688833
20
3.2690271
11
20.6267833
21
3.2502271
0
LINE
8
DEFAULT_255_2_778
10
20.6267833
20
3.2502271
11
20.5161833
21
3.2023271
0
LINE
8
DEFAULT_255_2_778
10
20.5161833
20
3.2023271
11
20.4362833
21
3.1425271
0
LINE
8
DEFAULT_255_2_778
10
20.4362833
20
3.1425271
11
20.3627833
21
3.0595271
0
LINE
8
DEFAULT_255_2_778
10
20.3627833
20
3.0595271
11
20.3106833
21
2.9775271
0
LINE
8
DEFAULT_255_2_778
10
20.3106833
20
2.9775271
11
20.2709833
21
2.8965271
0
LINE
8
DEFAULT_255_2_778
10
20.2709833
20
2.8965271
11
20.2391833
21
2.8121271
0
LINE
8
DEFAULT_255_2_778
10
20.2391833
20
2.8121271
11
20.2203833
21
2.7478271
0
LINE
8
DEFAULT_255_2_778
10
20.2203833
20
2.7478271
11
20.2053833
21
2.6824271
0
LINE
8
DEFAULT_255_2_778
10
20.2053833
20
2.6824271
11
20.1939833
21
2.6163271
0
LINE
8
DEFAULT_255_2_778
10
20.1939833
20
2.6163271
11
20.1891833
21
2.5798271
0
LINE
8
DEFAULT_255_2_778
10
20.1891833
20
2.5798271
11
20.1854833
21
2.5432271
0
LINE
8
DEFAULT_255_2_778
10
20.1854833
20
2.5432271
11
20.1825833
21
2.5067271
0
LINE
8
DEFAULT_255_2_778
10
20.1825833
20
2.5067271
11
20.1825833
21
2.2848271
0
LINE
8
DEFAULT_255_2_778
10
20.1825833
20
2.2848271
11
20.1854833
21
2.2474271
0
LINE
8
DEFAULT_255_2_778
10
20.1854833
20
2.2474271
11
20.1891833
21
2.2104271
0
LINE
8
DEFAULT_255_2_778
10
20.1891833
20
2.2104271
11
20.1939833
21
2.1734271
0
LINE
8
DEFAULT_255_2_778
10
20.1939833
20
2.1734271
11
20.2050833
21
2.1062271
0
LINE
8
DEFAULT_255_2_778
10
20.2050833
20
2.1062271
11
20.2198833
21
2.0397271
0
LINE
8
DEFAULT_255_2_778
10
20.2198833
20
2.0397271
11
20.2384833
21
1.9741271
0
LINE
8
DEFAULT_255_2_778
10
20.2384833
20
1.9741271
11
20.2658833
21
1.8974271
0
LINE
8
DEFAULT_255_2_778
10
20.2658833
20
1.8974271
11
20.2997833
21
1.8231271
0
LINE
8
DEFAULT_255_2_778
10
20.2997833
20
1.8231271
11
20.3476833
21
1.7405271
0
LINE
8
DEFAULT_255_2_778
10
20.3476833
20
1.7405271
11
20.4029833
21
1.6683271
0
LINE
8
DEFAULT_255_2_778
10
20.4029833
20
1.6683271
11
20.4810833
21
1.5966271
0
LINE
8
DEFAULT_255_2_778
10
20.4810833
20
1.5966271
11
20.5865833
21
1.5376271
0
LINE
8
DEFAULT_255_2_778
10
20.5865833
20
1.5376271
11
20.7273833
21
1.5063271
0
LINE
8
DEFAULT_255_2_778
10
20.7273833
20
1.5063271
11
20.8720833
21
1.5145271
0
LINE
8
DEFAULT_255_2_778
10
20.8720833
20
1.5145271
11
20.9882833
21
1.5540271
0
LINE
8
DEFAULT_255_2_778
10
20.9882833
20
1.5540271
11
21.0884833
21
1.6220271
0
LINE
8
DEFAULT_255_2_778
10
21.0884833
20
1.6220271
11
21.1638833
21
1.7032271
0
LINE
8
DEFAULT_255_2_778
10
21.1638833
20
1.7032271
11
21.2250833
21
1.7987271
0
LINE
8
DEFAULT_255_2_778
10
21.2250833
20
1.7987271
11
21.2609833
21
1.8723271
0
LINE
8
DEFAULT_255_2_778
10
21.2609833
20
1.8723271
11
21.2906833
21
1.9485271
0
LINE
8
DEFAULT_255_2_778
10
21.2906833
20
1.9485271
11
21.3088833
21
2.0069271
0
LINE
8
DEFAULT_255_2_778
10
21.3088833
20
2.0069271
11
21.3255833
21
2.0731271
0
LINE
8
DEFAULT_255_2_778
10
21.3255833
20
2.0731271
11
21.3385833
21
2.1400271
0
LINE
8
DEFAULT_255_2_778
10
21.3385833
20
2.1400271
11
21.3438833
21
2.1736271
0
LINE
8
DEFAULT_255_2_778
10
21.3438833
20
2.1736271
11
21.3485833
21
2.2107271
0
LINE
8
DEFAULT_255_2_778
10
21.3485833
20
2.2107271
11
21.3522833
21
2.2477271
0
LINE
8
DEFAULT_255_2_778
10
21.3522833
20
2.2477271
11
21.3551833
21
2.2848271
0
LINE
8
DEFAULT_255_2_778
10
21.3551833
20
2.2848271
11
21.3551833
21
2.5065271
0
LINE
8
DEFAULT_255_2_778
10
21.3551833
20
2.5065271
11
21.3522833
21
2.5430271
0
LINE
8
DEFAULT_255_2_778
10
21.3522833
20
2.5430271
11
21.3485833
21
2.5795271
0
LINE
8
DEFAULT_255_2_778
10
21.3485833
20
2.5795271
11
21.3438833
21
2.6160271
0
LINE
8
DEFAULT_255_2_778
10
21.3438833
20
2.6160271
11
21.3324833
21
2.6822271
0
LINE
8
DEFAULT_255_2_778
10
21.3324833
20
2.6822271
11
21.3173833
21
2.7475271
0
LINE
8
DEFAULT_255_2_778
10
21.3173833
20
2.7475271
11
21.2985833
21
2.8118271
0
LINE
8
DEFAULT_255_2_778
10
21.2985833
20
2.8118271
11
21.2705833
21
2.8875271
0
LINE
8
DEFAULT_255_2_778
10
21.2705833
20
2.8875271
11
21.2361833
21
2.9605271
0
LINE
8
DEFAULT_255_2_778
10
21.2361833
20
2.9605271
11
21.1752833
21
3.0592271
0
LINE
8
DEFAULT_255_2_778
10
21.1752833
20
3.0592271
11
21.1178833
21
3.1269271
0
LINE
8
DEFAULT_255_2_778
10
21.1178833
20
3.1269271
11
21.0390833
21
3.1915271
0
LINE
8
DEFAULT_255_2_778
10
21.0390833
20
3.1915271
11
20.9310833
21
3.2439271
0
LINE
8
DEFAULT_255_2_778
10
20.9310833
20
3.2439271
11
20.9114833
21
3.2500271
0
LINE
8
DEFAULT_255_2_778
10
29.0505573
20
3.0634062
11
29.1429573
21
3.0153062
0
LINE
8
DEFAULT_255_2_778
10
29.1429573
20
3.0153062
11
29.2019573
21
2.9565062
0
LINE
8
DEFAULT_255_2_778
10
29.2019573
20
2.9565062
11
29.2487573
21
2.8838062
0
LINE
8
DEFAULT_255_2_778
10
29.2487573
20
2.8838062
11
29.2815573
21
2.8108062
0
LINE
8
DEFAULT_255_2_778
10
29.2815573
20
2.8108062
11
29.3088573
21
2.7277062
0
LINE
8
DEFAULT_255_2_778
10
29.3088573
20
2.7277062
11
29.3252573
21
2.6579062
0
LINE
8
DEFAULT_255_2_778
10
29.3252573
20
2.6579062
11
29.3339573
21
2.6086062
0
LINE
8
DEFAULT_255_2_778
10
29.3339573
20
2.6086062
11
29.3405573
21
2.5591062
0
LINE
8
DEFAULT_255_2_778
10
29.3405573
20
2.5591062
11
29.3437573
21
2.5263062
0
LINE
8
DEFAULT_255_2_778
10
29.3437573
20
2.5263062
11
29.3437573
21
2.2604062
0
LINE
8
DEFAULT_255_2_778
10
29.3437573
20
2.2604062
11
29.3405573
21
2.2271062
0
LINE
8
DEFAULT_255_2_778
10
29.3405573
20
2.2271062
11
29.3342573
21
2.1768062
0
LINE
8
DEFAULT_255_2_778
10
29.3342573
20
2.1768062
11
29.3257573
21
2.1268062
0
LINE
8
DEFAULT_255_2_778
10
29.3257573
20
2.1268062
11
29.3093573
21
2.0548062
0
LINE
8
DEFAULT_255_2_778
10
29.3093573
20
2.0548062
11
29.2889573
21
1.9884062
0
LINE
8
DEFAULT_255_2_778
10
29.2889573
20
1.9884062
11
29.2500573
21
1.8966062
0
LINE
8
DEFAULT_255_2_778
10
29.2500573
20
1.8966062
11
29.2029573
21
1.8215062
0
LINE
8
DEFAULT_255_2_778
10
29.2029573
20
1.8215062
11
29.1333573
21
1.7527062
0
LINE
8
DEFAULT_255_2_778
10
29.1333573
20
1.7527062
11
29.0384573
21
1.7074062
0
LINE
8
DEFAULT_255_2_778
10
29.0384573
20
1.7074062
11
28.9071573
21
1.7019062
0
LINE
8
DEFAULT_255_2_778
10
28.9071573
20
1.7019062
11
28.8087573
21
1.7376062
0
LINE
8
DEFAULT_255_2_778
10
28.8087573
20
1.7376062
11
28.7280573
21
1.8075062
0
LINE
8
DEFAULT_255_2_778
10
28.7280573
20
1.8075062
11
28.6780573
21
1.8807062
0
LINE
8
DEFAULT_255_2_778
10
28.6780573
20
1.8807062
11
28.6473573
21
1.9448062
0
LINE
8
DEFAULT_255_2_778
10
28.6473573
20
1.9448062
11
28.6232573
21
2.0102062
0
LINE
8
DEFAULT_255_2_778
10
28.6232573
20
2.0102062
11
28.6044573
21
2.0771062
0
LINE
8
DEFAULT_255_2_778
10
28.6044573
20
2.0771062
11
28.5936573
21
2.1265062
0
LINE
8
DEFAULT_255_2_778
10
28.5936573
20
2.1265062
11
28.5851573
21
2.1766062
0
LINE
8
DEFAULT_255_2_778
10
28.5851573
20
2.1766062
11
28.5788573
21
2.2268062
0
LINE
8
DEFAULT_255_2_778
10
28.5788573
20
2.2268062
11
28.5756573
21
2.2602062
0
LINE
8
DEFAULT_255_2_778
10
28.5756573
20
2.2602062
11
28.5756573
21
2.5261062
0
LINE
8
DEFAULT_255_2_778
10
28.5756573
20
2.5261062
11
28.5788573
21
2.5589062
0
LINE
8
DEFAULT_255_2_778
10
28.5788573
20
2.5589062
11
28.5854573
21
2.6084062
0
LINE
8
DEFAULT_255_2_778
10
28.5854573
20
2.6084062
11
28.5941573
21
2.6576062
0
LINE
8
DEFAULT_255_2_778
10
28.5941573
20
2.6576062
11
28.6108573
21
2.7285062
0
LINE
8
DEFAULT_255_2_778
10
28.6108573
20
2.7285062
11
28.6314573
21
2.7938062
0
LINE
8
DEFAULT_255_2_778
10
28.6314573
20
2.7938062
11
28.6706573
21
2.8835062
0
LINE
8
DEFAULT_255_2_778
10
28.6706573
20
2.8835062
11
28.7174573
21
2.9563062
0
LINE
8
DEFAULT_255_2_778
10
28.7174573
20
2.9563062
11
28.7978573
21
3.0304062
0
LINE
8
DEFAULT_255_2_778
10
28.7978573
20
3.0304062
11
28.9071573
21
3.0719062
0
LINE
8
DEFAULT_255_2_778
10
28.9071573
20
3.0719062
11
29.0376573
21
3.0666062
0
LINE
8
DEFAULT_255_2_778
10
29.0376573
20
3.0666062
11
29.0503573
21
3.0632062
0
LINE
8
DEFAULT_255_2_778
10
29.1222833
20
3.2444625
11
28.9807833
21
3.2687625
0
LINE
8
DEFAULT_255_2_778
10
28.9807833
20
3.2687625
11
28.8375833
21
3.2555625
0
LINE
8
DEFAULT_255_2_778
10
28.8375833
20
3.2555625
11
28.7245833
21
3.2126625
0
LINE
8
DEFAULT_255_2_778
10
28.7245833
20
3.2126625
11
28.6274833
21
3.1428625
0
LINE
8
DEFAULT_255_2_778
10
28.6274833
20
3.1428625
11
28.5539833
21
3.0597625
0
LINE
8
DEFAULT_255_2_778
10
28.5539833
20
3.0597625
11
28.5018833
21
2.9777625
0
LINE
8
DEFAULT_255_2_778
10
28.5018833
20
2.9777625
11
28.4621833
21
2.8967625
0
LINE
8
DEFAULT_255_2_778
10
28.4621833
20
2.8967625
11
28.4303833
21
2.8123625
0
LINE
8
DEFAULT_255_2_778
10
28.4303833
20
2.8123625
11
28.4115833
21
2.7480625
0
LINE
8
DEFAULT_255_2_778
10
28.4115833
20
2.7480625
11
28.3965833
21
2.6826625
0
LINE
8
DEFAULT_255_2_778
10
28.3965833
20
2.6826625
11
28.3851833
21
2.6165625
0
LINE
8
DEFAULT_255_2_778
10
28.3851833
20
2.6165625
11
28.3803833
21
2.5800625
0
LINE
8
DEFAULT_255_2_778
10
28.3803833
20
2.5800625
11
28.3766833
21
2.5435625
0
LINE
8
DEFAULT_255_2_778
10
28.3766833
20
2.5435625
11
28.3737833
21
2.5070625
0
LINE
8
DEFAULT_255_2_778
10
28.3737833
20
2.5070625
11
28.3737833
21
2.2850625
0
LINE
8
DEFAULT_255_2_778
10
28.3737833
20
2.2850625
11
28.3766833
21
2.2477625
0
LINE
8
DEFAULT_255_2_778
10
28.3766833
20
2.2477625
11
28.3803833
21
2.2106625
0
LINE
8
DEFAULT_255_2_778
10
28.3803833
20
2.2106625
11
28.3851833
21
2.1736625
0
LINE
8
DEFAULT_255_2_778
10
28.3851833
20
2.1736625
11
28.3962833
21
2.1064625
0
LINE
8
DEFAULT_255_2_778
10
28.3962833
20
2.1064625
11
28.4110833
21
2.0400625
0
LINE
8
DEFAULT_255_2_778
10
28.4110833
20
2.0400625
11
28.4295833
21
1.9744625
0
LINE
8
DEFAULT_255_2_778
10
28.4295833
20
1.9744625
11
28.4570833
21
1.8976625
0
LINE
8
DEFAULT_255_2_778
10
28.4570833
20
1.8976625
11
28.4909833
21
1.8233625
0
LINE
8
DEFAULT_255_2_778
10
28.4909833
20
1.8233625
11
28.5388833
21
1.7407625
0
LINE
8
DEFAULT_255_2_778
10
28.5388833
20
1.7407625
11
28.5941833
21
1.6685625
0
LINE
8
DEFAULT_255_2_778
10
28.5941833
20
1.6685625
11
28.6721833
21
1.5968625
0
LINE
8
DEFAULT_255_2_778
10
28.6721833
20
1.5968625
11
28.7777833
21
1.5378625
0
LINE
8
DEFAULT_255_2_778
10
28.7777833
20
1.5378625
11
28.9185833
21
1.5066625
0
LINE
8
DEFAULT_255_2_778
10
28.9185833
20
1.5066625
11
29.0632833
21
1.5148625
0
LINE
8
DEFAULT_255_2_778
10
29.0632833
20
1.5148625
11
29.1794833
21
1.5542625
0
LINE
8
DEFAULT_255_2_778
10
29.1794833
20
1.5542625
11
29.2796833
21
1.6222625
0
LINE
8
DEFAULT_255_2_778
10
29.2796833
20
1.6222625
11
29.3550833
21
1.7034625
0
LINE
8
DEFAULT_255_2_778
10
29.3550833
20
1.7034625
11
29.4162833
21
1.7989625
0
LINE
8
DEFAULT_255_2_778
10
29.4162833
20
1.7989625
11
29.4521833
21
1.8725625
0
LINE
8
DEFAULT_255_2_778
10
29.4521833
20
1.8725625
11
29.4818833
21
1.9487625
0
LINE
8
DEFAULT_255_2_778
10
29.4818833
20
1.9487625
11
29.5000833
21
2.0072625
0
LINE
8
DEFAULT_255_2_778
10
29.5000833
20
2.0072625
11
29.5167833
21
2.0733625
0
LINE
8
DEFAULT_255_2_778
10
29.5167833
20
2.0733625
11
29.5297833
21
2.1403625
0
LINE
8
DEFAULT_255_2_778
10
29.5297833
20
2.1403625
11
29.5350833
21
2.1739625
0
LINE
8
DEFAULT_255_2_778
10
29.5350833
20
2.1739625
11
29.5397833
21
2.2109625
0
LINE
8
DEFAULT_255_2_778
10
29.5397833
20
2.2109625
11
29.5434833
21
2.2479625
0
LINE
8
DEFAULT_255_2_778
10
29.5434833
20
2.2479625
11
29.5463833
21
2.2850625
0
LINE
8
DEFAULT_255_2_778
10
29.5463833
20
2.2850625
11
29.5463833
21
2.5067625
0
LINE
8
DEFAULT_255_2_778
10
29.5463833
20
2.5067625
11
29.5434833
21
2.5432625
0
LINE
8
DEFAULT_255_2_778
10
29.5434833
20
2.5432625
11
29.5397833
21
2.5797625
0
LINE
8
DEFAULT_255_2_778
10
29.5397833
20
2.5797625
11
29.5350833
21
2.6162625
0
LINE
8
DEFAULT_255_2_778
10
29.5350833
20
2.6162625
11
29.5236833
21
2.6824625
0
LINE
8
DEFAULT_255_2_778
10
29.5236833
20
2.6824625
11
29.5085833
21
2.7477625
0
LINE
8
DEFAULT_255_2_778
10
29.5085833
20
2.7477625
11
29.4897833
21
2.8120625
0
LINE
8
DEFAULT_255_2_778
10
29.4897833
20
2.8120625
11
29.4617833
21
2.8877625
0
LINE
8
DEFAULT_255_2_778
10
29.4617833
20
2.8877625
11
29.4273833
21
2.9607625
0
LINE
8
DEFAULT_255_2_778
10
29.4273833
20
2.9607625
11
29.3664833
21
3.0594625
0
LINE
8
DEFAULT_255_2_778
10
29.3664833
20
3.0594625
11
29.3090833
21
3.1271625
0
LINE
8
DEFAULT_255_2_778
10
29.3090833
20
3.1271625
11
29.2302833
21
3.1917625
0
LINE
8
DEFAULT_255_2_778
10
29.2302833
20
3.1917625
11
29.1222833
21
3.2441625
0
LINE
8
DEFAULT_255_2_778
10
27.3260823
20
3.2436739
11
27.5559823
21
3.2436739
0
LINE
8
DEFAULT_255_2_778
10
27.5559823
20
3.2436739
11
28.1837823
21
1.5437739
0
LINE
8
DEFAULT_255_2_778
10
28.1837823
20
1.5437739
11
27.9559823
21
1.5437739
0
LINE
8
DEFAULT_255_2_778
10
27.9559823
20
1.5437739
11
27.8019823
21
1.9871739
0
LINE
8
DEFAULT_255_2_778
10
27.8019823
20
1.9871739
11
27.0820823
21
1.9871739
0
LINE
8
DEFAULT_255_2_778
10
27.0820823
20
1.9871739
11
26.9301823
21
1.5437739
0
LINE
8
DEFAULT_255_2_778
10
26.9301823
20
1.5437739
11
26.6981823
21
1.5437739
0
LINE
8
DEFAULT_255_2_778
10
26.6981823
20
1.5437739
11
27.3260823
21
3.2436739
0
LINE
8
DEFAULT_255_2_778
10
27.1493771
20
2.179775
11
27.7358771
21
2.179775
0
LINE
8
DEFAULT_255_2_778
10
27.7358771
20
2.179775
11
27.4419771
21
3.024275
0
LINE
8
DEFAULT_255_2_778
10
27.4419771
20
3.024275
11
27.1490771
21
2.179775
0
LINE
8
DEFAULT_255_2_778
10
25.6874823
20
3.2436739
11
25.9173823
21
3.2436739
0
LINE
8
DEFAULT_255_2_778
10
25.9173823
20
3.2436739
11
26.5451823
21
1.5437739
0
LINE
8
DEFAULT_255_2_778
10
26.5451823
20
1.5437739
11
26.3173823
21
1.5437739
0
LINE
8
DEFAULT_255_2_778
10
26.3173823
20
1.5437739
11
26.1633823
21
1.9871739
0
LINE
8
DEFAULT_255_2_778
10
26.1633823
20
1.9871739
11
25.4434823
21
1.9871739
0
LINE
8
DEFAULT_255_2_778
10
25.4434823
20
1.9871739
11
25.2915823
21
1.5437739
0
LINE
8
DEFAULT_255_2_778
10
25.2915823
20
1.5437739
11
25.0595823
21
1.5437739
0
LINE
8
DEFAULT_255_2_778
10
25.0595823
20
1.5437739
11
25.6874823
21
3.2436739
0
LINE
8
DEFAULT_255_2_778
10
25.5107771
20
2.179775
11
26.0972771
21
2.179775
0
LINE
8
DEFAULT_255_2_778
10
26.0972771
20
2.179775
11
25.8033771
21
3.024275
0
LINE
8
DEFAULT_255_2_778
10
25.8033771
20
3.024275
11
25.5104771
21
2.179775
0
LINE
8
DEFAULT_255_2_778
10
24.3687573
20
3.0669062
11
24.4631573
21
3.0230062
0
LINE
8
DEFAULT_255_2_778
10
24.4631573
20
3.0230062
11
24.5216573
21
2.9696062
0
LINE
8
DEFAULT_255_2_778
10
24.5216573
20
2.9696062
11
24.5714573
21
2.8987062
0
LINE
8
DEFAULT_255_2_778
10
24.5714573
20
2.8987062
11
24.6044573
21
2.8309062
0
LINE
8
DEFAULT_255_2_778
10
24.6044573
20
2.8309062
11
24.6338573
21
2.7486062
0
LINE
8
DEFAULT_255_2_778
10
24.6338573
20
2.7486062
11
24.6510573
21
2.6822062
0
LINE
8
DEFAULT_255_2_778
10
24.6510573
20
2.6822062
11
24.6608573
21
2.6333062
0
LINE
8
DEFAULT_255_2_778
10
24.6608573
20
2.6333062
11
24.6682573
21
2.5838062
0
LINE
8
DEFAULT_255_2_778
10
24.6682573
20
2.5838062
11
24.6711573
21
2.5589062
0
LINE
8
DEFAULT_255_2_778
10
24.6711573
20
2.5589062
11
24.6743573
21
2.5261062
0
LINE
8
DEFAULT_255_2_778
10
24.6743573
20
2.5261062
11
24.6743573
21
2.2602062
0
LINE
8
DEFAULT_255_2_778
10
24.6743573
20
2.2602062
11
24.6711573
21
2.2269062
0
LINE
8
DEFAULT_255_2_778
10
24.6711573
20
2.2269062
11
24.6648573
21
2.1766062
0
LINE
8
DEFAULT_255_2_778
10
24.6648573
20
2.1766062
11
24.6563573
21
2.1266062
0
LINE
8
DEFAULT_255_2_778
10
24.6563573
20
2.1266062
11
24.6399573
21
2.0546062
0
LINE
8
DEFAULT_255_2_778
10
24.6399573
20
2.0546062
11
24.6195573
21
1.9882062
0
LINE
8
DEFAULT_255_2_778
10
24.6195573
20
1.9882062
11
24.5806573
21
1.8964062
0
LINE
8
DEFAULT_255_2_778
10
24.5806573
20
1.8964062
11
24.5335573
21
1.8213062
0
LINE
8
DEFAULT_255_2_778
10
24.5335573
20
1.8213062
11
24.4639573
21
1.7525062
0
LINE
8
DEFAULT_255_2_778
10
24.4639573
20
1.7525062
11
24.3690573
21
1.7072062
0
LINE
8
DEFAULT_255_2_778
10
24.3690573
20
1.7072062
11
24.2377573
21
1.7017062
0
LINE
8
DEFAULT_255_2_778
10
24.2377573
20
1.7017062
11
24.1393573
21
1.7374062
0
LINE
8
DEFAULT_255_2_778
10
24.1393573
20
1.7374062
11
24.0586573
21
1.8073062
0
LINE
8
DEFAULT_255_2_778
10
24.0586573
20
1.8073062
11
24.0086573
21
1.8805062
0
LINE
8
DEFAULT_255_2_778
10
24.0086573
20
1.8805062
11
23.9779573
21
1.9446062
0
LINE
8
DEFAULT_255_2_778
10
23.9779573
20
1.9446062
11
23.9538573
21
2.0099062
0
LINE
8
DEFAULT_255_2_778
10
23.9538573
20
2.0099062
11
23.9350573
21
2.0769062
0
LINE
8
DEFAULT_255_2_778
10
23.9350573
20
2.0769062
11
23.9242573
21
2.1263062
0
LINE
8
DEFAULT_255_2_778
10
23.9242573
20
2.1263062
11
23.9157573
21
2.1764062
0
LINE
8
DEFAULT_255_2_778
10
23.9157573
20
2.1764062
11
23.9094573
21
2.2266062
0
LINE
8
DEFAULT_255_2_778
10
23.9094573
20
2.2266062
11
23.9062573
21
2.2600062
0
LINE
8
DEFAULT_255_2_778
10
23.9062573
20
2.2600062
11
23.9062573
21
2.5259062
0
LINE
8
DEFAULT_255_2_778
10
23.9062573
20
2.5259062
11
23.9094573
21
2.5587062
0
LINE
8
DEFAULT_255_2_778
10
23.9094573
20
2.5587062
11
23.9160573
21
2.6082062
0
LINE
8
DEFAULT_255_2_778
10
23.9160573
20
2.6082062
11
23.9247573
21
2.6574062
0
LINE
8
DEFAULT_255_2_778
10
23.9247573
20
2.6574062
11
23.9414573
21
2.7283062
0
LINE
8
DEFAULT_255_2_778
10
23.9414573
20
2.7283062
11
23.9620573
21
2.7936062
0
LINE
8
DEFAULT_255_2_778
10
23.9620573
20
2.7936062
11
24.0012573
21
2.8833062
0
LINE
8
DEFAULT_255_2_778
10
24.0012573
20
2.8833062
11
24.0480573
21
2.9561062
0
LINE
8
DEFAULT_255_2_778
10
24.0480573
20
2.9561062
11
24.1284573
21
3.0302062
0
LINE
8
DEFAULT_255_2_778
10
24.1284573
20
3.0302062
11
24.2377573
21
3.0717062
0
LINE
8
DEFAULT_255_2_778
10
24.2377573
20
3.0717062
11
24.3682573
21
3.0664062
0
LINE
8
DEFAULT_255_2_778
10
24.4332833
20
3.2502271
11
24.2906833
21
3.2690271
0
LINE
8
DEFAULT_255_2_778
10
24.2906833
20
3.2690271
11
24.1485833
21
3.2502271
0
LINE
8
DEFAULT_255_2_778
10
24.1485833
20
3.2502271
11
24.0379833
21
3.2023271
0
LINE
8
DEFAULT_255_2_778
10
24.0379833
20
3.2023271
11
23.9580833
21
3.1425271
0
LINE
8
DEFAULT_255_2_778
10
23.9580833
20
3.1425271
11
23.8845833
21
3.0595271
0
LINE
8
DEFAULT_255_2_778
10
23.8845833
20
3.0595271
11
23.8324833
21
2.9775271
0
LINE
8
DEFAULT_255_2_778
10
23.8324833
20
2.9775271
11
23.7927833
21
2.8965271
0
LINE
8
DEFAULT_255_2_778
10
23.7927833
20
2.8965271
11
23.7609833
21
2.8121271
0
LINE
8
DEFAULT_255_2_778
10
23.7609833
20
2.8121271
11
23.7421833
21
2.7478271
0
LINE
8
DEFAULT_255_2_778
10
23.7421833
20
2.7478271
11
23.7271833
21
2.6824271
0
LINE
8
DEFAULT_255_2_778
10
23.7271833
20
2.6824271
11
23.7157833
21
2.6163271
0
LINE
8
DEFAULT_255_2_778
10
23.7157833
20
2.6163271
11
23.7109833
21
2.5798271
0
LINE
8
DEFAULT_255_2_778
10
23.7109833
20
2.5798271
11
23.7072833
21
2.5432271
0
LINE
8
DEFAULT_255_2_778
10
23.7072833
20
2.5432271
11
23.7043833
21
2.5067271
0
LINE
8
DEFAULT_255_2_778
10
23.7043833
20
2.5067271
11
23.7043833
21
2.2848271
0
LINE
8
DEFAULT_255_2_778
10
23.7043833
20
2.2848271
11
23.7072833
21
2.2474271
0
LINE
8
DEFAULT_255_2_778
10
23.7072833
20
2.2474271
11
23.7109833
21
2.2104271
0
LINE
8
DEFAULT_255_2_778
10
23.7109833
20
2.2104271
11
23.7157833
21
2.1734271
0
LINE
8
DEFAULT_255_2_778
10
23.7157833
20
2.1734271
11
23.7268833
21
2.1062271
0
LINE
8
DEFAULT_255_2_778
10
23.7268833
20
2.1062271
11
23.7416833
21
2.0397271
0
LINE
8
DEFAULT_255_2_778
10
23.7416833
20
2.0397271
11
23.7601833
21
1.9741271
0
LINE
8
DEFAULT_255_2_778
10
23.7601833
20
1.9741271
11
23.7876833
21
1.8974271
0
LINE
8
DEFAULT_255_2_778
10
23.7876833
20
1.8974271
11
23.8215833
21
1.8231271
0
LINE
8
DEFAULT_255_2_778
10
23.8215833
20
1.8231271
11
23.8694833
21
1.7405271
0
LINE
8
DEFAULT_255_2_778
10
23.8694833
20
1.7405271
11
23.9247833
21
1.6683271
0
LINE
8
DEFAULT_255_2_778
10
23.9247833
20
1.6683271
11
24.0027833
21
1.5966271
0
LINE
8
DEFAULT_255_2_778
10
24.0027833
20
1.5966271
11
24.1083833
21
1.5376271
0
LINE
8
DEFAULT_255_2_778
10
24.1083833
20
1.5376271
11
24.2491833
21
1.5063271
0
LINE
8
DEFAULT_255_2_778
10
24.2491833
20
1.5063271
11
24.3938833
21
1.5145271
0
LINE
8
DEFAULT_255_2_778
10
24.3938833
20
1.5145271
11
24.5100833
21
1.5540271
0
LINE
8
DEFAULT_255_2_778
10
24.5100833
20
1.5540271
11
24.6102833
21
1.6220271
0
LINE
8
DEFAULT_255_2_778
10
24.6102833
20
1.6220271
11
24.6856833
21
1.7032271
0
LINE
8
DEFAULT_255_2_778
10
24.6856833
20
1.7032271
11
24.7468833
21
1.7987271
0
LINE
8
DEFAULT_255_2_778
10
24.7468833
20
1.7987271
11
24.7827833
21
1.8723271
0
LINE
8
DEFAULT_255_2_778
10
24.7827833
20
1.8723271
11
24.8124833
21
1.9485271
0
LINE
8
DEFAULT_255_2_778
10
24.8124833
20
1.9485271
11
24.8306833
21
2.0069271
0
LINE
8
DEFAULT_255_2_778
10
24.8306833
20
2.0069271
11
24.8473833
21
2.0731271
0
LINE
8
DEFAULT_255_2_778
10
24.8473833
20
2.0731271
11
24.8603833
21
2.1400271
0
LINE
8
DEFAULT_255_2_778
10
24.8603833
20
2.1400271
11
24.8656833
21
2.1736271
0
LINE
8
DEFAULT_255_2_778
10
24.8656833
20
2.1736271
11
24.8703833
21
2.2107271
0
LINE
8
DEFAULT_255_2_778
10
24.8703833
20
2.2107271
11
24.8740833
21
2.2477271
0
LINE
8
DEFAULT_255_2_778
10
24.8740833
20
2.2477271
11
24.8769833
21
2.2848271
0
LINE
8
DEFAULT_255_2_778
10
24.8769833
20
2.2848271
11
24.8769833
21
2.5065271
0
LINE
8
DEFAULT_255_2_778
10
24.8769833
20
2.5065271
11
24.8740833
21
2.5430271
0
LINE
8
DEFAULT_255_2_778
10
24.8740833
20
2.5430271
11
24.8703833
21
2.5795271
0
LINE
8
DEFAULT_255_2_778
10
24.8703833
20
2.5795271
11
24.8656833
21
2.6160271
0
LINE
8
DEFAULT_255_2_778
10
24.8656833
20
2.6160271
11
24.8542833
21
2.6822271
0
LINE
8
DEFAULT_255_2_778
10
24.8542833
20
2.6822271
11
24.8391833
21
2.7475271
0
LINE
8
DEFAULT_255_2_778
10
24.8391833
20
2.7475271
11
24.8203833
21
2.8118271
0
LINE
8
DEFAULT_255_2_778
10
24.8203833
20
2.8118271
11
24.7923833
21
2.8875271
0
LINE
8
DEFAULT_255_2_778
10
24.7923833
20
2.8875271
11
24.7579833
21
2.9605271
0
LINE
8
DEFAULT_255_2_778
10
24.7579833
20
2.9605271
11
24.6970833
21
3.0592271
0
LINE
8
DEFAULT_255_2_778
10
24.6970833
20
3.0592271
11
24.6396833
21
3.1269271
0
LINE
8
DEFAULT_255_2_778
10
24.6396833
20
3.1269271
11
24.5608833
21
3.1915271
0
LINE
8
DEFAULT_255_2_778
10
24.5608833
20
3.1915271
11
24.4528833
21
3.2439271
0
LINE
8
DEFAULT_255_2_778
10
24.4528833
20
3.2439271
11
24.4332833
21
3.2500271
0
LINE
8
DEFAULT_255_2_778
10
22.2391573
20
3.0669062
11
22.3335573
21
3.0230062
0
LINE
8
DEFAULT_255_2_778
10
22.3335573
20
3.0230062
11
22.3920573
21
2.9696062
0
LINE
8
DEFAULT_255_2_778
10
22.3920573
20
2.9696062
11
22.4418573
21
2.8987062
0
LINE
8
DEFAULT_255_2_778
10
22.4418573
20
2.8987062
11
22.4748573
21
2.8309062
0
LINE
8
DEFAULT_255_2_778
10
22.4748573
20
2.8309062
11
22.5042573
21
2.7486062
0
LINE
8
DEFAULT_255_2_778
10
22.5042573
20
2.7486062
11
22.5214573
21
2.6822062
0
LINE
8
DEFAULT_255_2_778
10
22.5214573
20
2.6822062
11
22.5312573
21
2.6333062
0
LINE
8
DEFAULT_255_2_778
10
22.5312573
20
2.6333062
11
22.5386573
21
2.5838062
0
LINE
8
DEFAULT_255_2_778
10
22.5386573
20
2.5838062
11
22.5415573
21
2.5589062
0
LINE
8
DEFAULT_255_2_778
10
22.5415573
20
2.5589062
11
22.5447573
21
2.5261062
0
LINE
8
DEFAULT_255_2_778
10
22.5447573
20
2.5261062
11
22.5447573
21
2.2602062
0
LINE
8
DEFAULT_255_2_778
10
22.5447573
20
2.2602062
11
22.5415573
21
2.2269062
0
LINE
8
DEFAULT_255_2_778
10
22.5415573
20
2.2269062
11
22.5352573
21
2.1766062
0
LINE
8
DEFAULT_255_2_778
10
22.5352573
20
2.1766062
11
22.5267573
21
2.1266062
0
LINE
8
DEFAULT_255_2_778
10
22.5267573
20
2.1266062
11
22.5103573
21
2.0546062
0
LINE
8
DEFAULT_255_2_778
10
22.5103573
20
2.0546062
11
22.4899573
21
1.9882062
0
LINE
8
DEFAULT_255_2_778
10
22.4899573
20
1.9882062
11
22.4510573
21
1.8964062
0
LINE
8
DEFAULT_255_2_778
10
22.4510573
20
1.8964062
11
22.4039573
21
1.8213062
0
LINE
8
DEFAULT_255_2_778
10
22.4039573
20
1.8213062
11
22.3343573
21
1.7525062
0
LINE
8
DEFAULT_255_2_778
10
22.3343573
20
1.7525062
11
22.2394573
21
1.7072062
0
LINE
8
DEFAULT_255_2_778
10
22.2394573
20
1.7072062
11
22.1081573
21
1.7017062
0
LINE
8
DEFAULT_255_2_778
10
22.1081573
20
1.7017062
11
22.0097573
21
1.7374062
0
LINE
8
DEFAULT_255_2_778
10
22.0097573
20
1.7374062
11
21.9290573
21
1.8073062
0
LINE
8
DEFAULT_255_2_778
10
21.9290573
20
1.8073062
11
21.8790573
21
1.8805062
0
LINE
8
DEFAULT_255_2_778
10
21.8790573
20
1.8805062
11
21.8483573
21
1.9446062
0
LINE
8
DEFAULT_255_2_778
10
21.8483573
20
1.9446062
11
21.8242573
21
2.0099062
0
LINE
8
DEFAULT_255_2_778
10
21.8242573
20
2.0099062
11
21.8054573
21
2.0769062
0
LINE
8
DEFAULT_255_2_778
10
21.8054573
20
2.0769062
11
21.7946573
21
2.1263062
0
LINE
8
DEFAULT_255_2_778
10
21.7946573
20
2.1263062
11
21.7861573
21
2.1764062
0
LINE
8
DEFAULT_255_2_778
10
21.7861573
20
2.1764062
11
21.7798573
21
2.2266062
0
LINE
8
DEFAULT_255_2_778
10
21.7798573
20
2.2266062
11
21.7766573
21
2.2600062
0
LINE
8
DEFAULT_255_2_778
10
21.7766573
20
2.2600062
11
21.7766573
21
2.5259062
0
LINE
8
DEFAULT_255_2_778
10
21.7766573
20
2.5259062
11
21.7798573
21
2.5587062
0
LINE
8
DEFAULT_255_2_778
10
21.7798573
20
2.5587062
11
21.7864573
21
2.6082062
0
LINE
8
DEFAULT_255_2_778
10
21.7864573
20
2.6082062
11
21.7951573
21
2.6574062
0
LINE
8
DEFAULT_255_2_778
10
21.7951573
20
2.6574062
11
21.8118573
21
2.7283062
0
LINE
8
DEFAULT_255_2_778
10
21.8118573
20
2.7283062
11
21.8324573
21
2.7936062
0
LINE
8
DEFAULT_255_2_778
10
21.8324573
20
2.7936062
11
21.8716573
21
2.8833062
0
LINE
8
DEFAULT_255_2_778
10
21.8716573
20
2.8833062
11
21.9184573
21
2.9561062
0
LINE
8
DEFAULT_255_2_778
10
21.9184573
20
2.9561062
11
21.9988573
21
3.0302062
0
LINE
8
DEFAULT_255_2_778
10
21.9988573
20
3.0302062
11
22.1081573
21
3.0717062
0
LINE
8
DEFAULT_255_2_778
10
22.1081573
20
3.0717062
11
22.2386573
21
3.0664062
0
LINE
8
DEFAULT_255_2_778
10
22.3036833
20
3.2502271
11
22.1610833
21
3.2690271
0
LINE
8
DEFAULT_255_2_778
10
22.1610833
20
3.2690271
11
22.0189833
21
3.2502271
0
LINE
8
DEFAULT_255_2_778
10
22.0189833
20
3.2502271
11
21.9083833
21
3.2023271
0
LINE
8
DEFAULT_255_2_778
10
21.9083833
20
3.2023271
11
21.8284833
21
3.1425271
0
LINE
8
DEFAULT_255_2_778
10
21.8284833
20
3.1425271
11
21.7549833
21
3.0595271
0
LINE
8
DEFAULT_255_2_778
10
21.7549833
20
3.0595271
11
21.7028833
21
2.9775271
0
LINE
8
DEFAULT_255_2_778
10
21.7028833
20
2.9775271
11
21.6631833
21
2.8965271
0
LINE
8
DEFAULT_255_2_778
10
21.6631833
20
2.8965271
11
21.6313833
21
2.8121271
0
LINE
8
DEFAULT_255_2_778
10
21.6313833
20
2.8121271
11
21.6125833
21
2.7478271
0
LINE
8
DEFAULT_255_2_778
10
21.6125833
20
2.7478271
11
21.5975833
21
2.6824271
0
LINE
8
DEFAULT_255_2_778
10
21.5975833
20
2.6824271
11
21.5861833
21
2.6163271
0
LINE
8
DEFAULT_255_2_778
10
21.5861833
20
2.6163271
11
21.5813833
21
2.5798271
0
LINE
8
DEFAULT_255_2_778
10
21.5813833
20
2.5798271
11
21.5776833
21
2.5432271
0
LINE
8
DEFAULT_255_2_778
10
21.5776833
20
2.5432271
11
21.5747833
21
2.5067271
0
LINE
8
DEFAULT_255_2_778
10
21.5747833
20
2.5067271
11
21.5747833
21
2.2848271
0
LINE
8
DEFAULT_255_2_778
10
21.5747833
20
2.2848271
11
21.5776833
21
2.2474271
0
LINE
8
DEFAULT_255_2_778
10
21.5776833
20
2.2474271
11
21.5813833
21
2.2104271
0
LINE
8
DEFAULT_255_2_778
10
21.5813833
20
2.2104271
11
21.5861833
21
2.1734271
0
LINE
8
DEFAULT_255_2_778
10
21.5861833
20
2.1734271
11
21.5972833
21
2.1062271
0
LINE
8
DEFAULT_255_2_778
10
21.5972833
20
2.1062271
11
21.6120833
21
2.0397271
0
LINE
8
DEFAULT_255_2_778
10
21.6120833
20
2.0397271
11
21.6305833
21
1.9741271
0
LINE
8
DEFAULT_255_2_778
10
21.6305833
20
1.9741271
11
21.6580833
21
1.8974271
0
LINE
8
DEFAULT_255_2_778
10
21.6580833
20
1.8974271
11
21.6919833
21
1.8231271
0
LINE
8
DEFAULT_255_2_778
10
21.6919833
20
1.8231271
11
21.7398833
21
1.7405271
0
LINE
8
DEFAULT_255_2_778
10
21.7398833
20
1.7405271
11
21.7951833
21
1.6683271
0
LINE
8
DEFAULT_255_2_778
10
21.7951833
20
1.6683271
11
21.8731833
21
1.5966271
0
LINE
8
DEFAULT_255_2_778
10
21.8731833
20
1.5966271
11
21.9787833
21
1.5376271
0
LINE
8
DEFAULT_255_2_778
10
21.9787833
20
1.5376271
11
22.1195833
21
1.5063271
0
LINE
8
DEFAULT_255_2_778
10
22.1195833
20
1.5063271
11
22.2642833
21
1.5145271
0
LINE
8
DEFAULT_255_2_778
10
22.2642833
20
1.5145271
11
22.3804833
21
1.5540271
0
LINE
8
DEFAULT_255_2_778
10
22.3804833
20
1.5540271
11
22.4806833
21
1.6220271
0
LINE
8
DEFAULT_255_2_778
10
22.4806833
20
1.6220271
11
22.5560833
21
1.7032271
0
LINE
8
DEFAULT_255_2_778
10
22.5560833
20
1.7032271
11
22.6172833
21
1.7987271
0
LINE
8
DEFAULT_255_2_778
10
22.6172833
20
1.7987271
11
22.6531833
21
1.8723271
0
LINE
8
DEFAULT_255_2_778
10
22.6531833
20
1.8723271
11
22.6828833
21
1.9485271
0
LINE
8
DEFAULT_255_2_778
10
22.6828833
20
1.9485271
11
22.7010833
21
2.0069271
0
LINE
8
DEFAULT_255_2_778
10
22.7010833
20
2.0069271
11
22.7177833
21
2.0731271
0
LINE
8
DEFAULT_255_2_778
10
22.7177833
20
2.0731271
11
22.7307833
21
2.1400271
0
LINE
8
DEFAULT_255_2_778
10
22.7307833
20
2.1400271
11
22.7360833
21
2.1736271
0
LINE
8
DEFAULT_255_2_778
10
22.7360833
20
2.1736271
11
22.7407833
21
2.2107271
0
LINE
8
DEFAULT_255_2_778
10
22.7407833
20
2.2107271
11
22.7444833
21
2.2477271
0
LINE
8
DEFAULT_255_2_778
10
22.7444833
20
2.2477271
11
22.7473833
21
2.2848271
0
LINE
8
DEFAULT_255_2_778
10
22.7473833
20
2.2848271
11
22.7473833
21
2.5065271
0
LINE
8
DEFAULT_255_2_778
10
22.7473833
20
2.5065271
11
22.7444833
21
2.5430271
0
LINE
8
DEFAULT_255_2_778
10
22.7444833
20
2.5430271
11
22.7407833
21
2.5795271
0
LINE
8
DEFAULT_255_2_778
10
22.7407833
20
2.5795271
11
22.7360833
21
2.6160271
0
LINE
8
DEFAULT_255_2_778
10
22.7360833
20
2.6160271
11
22.7246833
21
2.6822271
0
LINE
8
DEFAULT_255_2_778
10
22.7246833
20
2.6822271
11
22.7095833
21
2.7475271
0
LINE
8
DEFAULT_255_2_778
10
22.7095833
20
2.7475271
11
22.6907833
21
2.8118271
0
LINE
8
DEFAULT_255_2_778
10
22.6907833
20
2.8118271
11
22.6627833
21
2.8875271
0
LINE
8
DEFAULT_255_2_778
10
22.6627833
20
2.8875271
11
22.6283833
21
2.9605271
0
LINE
8
DEFAULT_255_2_778
10
22.6283833
20
2.9605271
11
22.5674833
21
3.0592271
0
LINE
8
DEFAULT_255_2_778
10
22.5674833
20
3.0592271
11
22.5100833
21
3.1269271
0
LINE
8
DEFAULT_255_2_778
10
22.5100833
20
3.1269271
11
22.4312833
21
3.1915271
0
LINE
8
DEFAULT_255_2_778
10
22.4312833
20
3.1915271
11
22.3232833
21
3.2439271
0
LINE
8
DEFAULT_255_2_778
10
22.3232833
20
3.2439271
11
22.3036833
21
3.2500271
0
LINE
8
DEFAULT_255_2_778
10
16.1344939
20
119.2171469
11
15.9023939
21
119.2034469
0
LINE
8
DEFAULT_255_2_778
10
15.9023939
20
119.2034469
11
15.6663939
21
119.0967469
0
LINE
8
DEFAULT_255_2_778
10
15.6663939
20
119.0967469
11
15.5719939
21
118.9901469
0
LINE
8
DEFAULT_255_2_778
10
15.5719939
20
118.9901469
11
15.5335939
21
118.9041469
0
LINE
8
DEFAULT_255_2_778
10
15.5335939
20
118.9041469
11
15.5179939
21
118.8382469
0
LINE
8
DEFAULT_255_2_778
10
15.5179939
20
118.8382469
11
15.5134939
21
118.7999469
0
LINE
8
DEFAULT_255_2_778
10
15.5134939
20
118.7999469
11
15.5121939
21
118.7520469
0
LINE
8
DEFAULT_255_2_778
10
15.5121939
20
118.7520469
11
15.7325939
21
118.7520469
0
LINE
8
DEFAULT_255_2_778
10
15.7325939
20
118.7520469
11
15.7343939
21
118.7901469
0
LINE
8
DEFAULT_255_2_778
10
15.7343939
20
118.7901469
11
15.7391939
21
118.8184469
0
LINE
8
DEFAULT_255_2_778
10
15.7391939
20
118.8184469
11
15.7565939
21
118.8703469
0
LINE
8
DEFAULT_255_2_778
10
15.7565939
20
118.8703469
11
15.8084939
21
118.9430469
0
LINE
8
DEFAULT_255_2_778
10
15.8084939
20
118.9430469
11
15.9251939
21
119.0139469
0
LINE
8
DEFAULT_255_2_778
10
15.9251939
20
119.0139469
11
16.1346939
21
119.0327469
0
LINE
8
DEFAULT_255_2_778
10
16.1346939
20
119.0327469
11
16.2981939
21
118.9724469
0
LINE
8
DEFAULT_255_2_778
10
16.2981939
20
118.9724469
11
16.3672939
21
118.9015469
0
LINE
8
DEFAULT_255_2_778
10
16.3672939
20
118.9015469
11
16.3934939
21
118.8451469
0
LINE
8
DEFAULT_255_2_778
10
16.3934939
20
118.8451469
11
16.4027939
21
118.8081469
0
LINE
8
DEFAULT_255_2_778
10
16.4027939
20
118.8081469
11
16.4011939
21
118.6922469
0
LINE
8
DEFAULT_255_2_778
10
16.4011939
20
118.6922469
11
16.3786939
21
118.6319469
0
LINE
8
DEFAULT_255_2_778
10
16.3786939
20
118.6319469
11
16.2786939
21
118.5295469
0
LINE
8
DEFAULT_255_2_778
10
16.2786939
20
118.5295469
11
16.0531939
21
118.4591469
0
LINE
8
DEFAULT_255_2_778
10
16.0531939
20
118.4591469
11
15.9460939
21
118.4583469
0
LINE
8
DEFAULT_255_2_778
10
15.9460939
20
118.4583469
11
15.9460939
21
118.2681469
0
LINE
8
DEFAULT_255_2_778
10
15.9460939
20
118.2681469
11
16.2405939
21
118.2374469
0
LINE
8
DEFAULT_255_2_778
10
16.2405939
20
118.2374469
11
16.3759939
21
118.1569469
0
LINE
8
DEFAULT_255_2_778
10
16.3759939
20
118.1569469
11
16.4209939
21
118.0921469
0
LINE
8
DEFAULT_255_2_778
10
16.4209939
20
118.0921469
11
16.4352939
21
118.0498469
0
LINE
8
DEFAULT_255_2_778
10
16.4352939
20
118.0498469
11
16.4331939
21
117.8971469
0
LINE
8
DEFAULT_255_2_778
10
16.4331939
20
117.8971469
11
16.4135939
21
117.8381469
0
LINE
8
DEFAULT_255_2_778
10
16.4135939
20
117.8381469
11
16.3701939
21
117.7696469
0
LINE
8
DEFAULT_255_2_778
10
16.3701939
20
117.7696469
11
16.2595939
21
117.6865469
0
LINE
8
DEFAULT_255_2_778
10
16.2595939
20
117.6865469
11
16.0090939
21
117.6526469
0
LINE
8
DEFAULT_255_2_778
10
16.0090939
20
117.6526469
11
15.8280939
21
117.7352469
0
LINE
8
DEFAULT_255_2_778
10
15.8280939
20
117.7352469
11
15.7401939
21
117.8450469
0
LINE
8
DEFAULT_255_2_778
10
15.7401939
20
117.8450469
11
15.7020939
21
117.9384469
0
LINE
8
DEFAULT_255_2_778
10
15.7020939
20
117.9384469
11
15.6967939
21
117.9582469
0
LINE
8
DEFAULT_255_2_778
10
15.6967939
20
117.9582469
11
15.4642939
21
117.9582469
0
LINE
8
DEFAULT_255_2_778
10
15.4642939
20
117.9582469
11
15.4705939
21
117.9217469
0
LINE
8
DEFAULT_255_2_778
10
15.4705939
20
117.9217469
11
15.4840939
21
117.8675469
0
LINE
8
DEFAULT_255_2_778
10
15.4840939
20
117.8675469
11
15.5092939
21
117.7984469
0
LINE
8
DEFAULT_255_2_778
10
15.5092939
20
117.7984469
11
15.5499939
21
117.7212469
0
LINE
8
DEFAULT_255_2_778
10
15.5499939
20
117.7212469
11
15.6142939
21
117.6389469
0
LINE
8
DEFAULT_255_2_778
10
15.6142939
20
117.6389469
11
15.7137939
21
117.5555469
0
LINE
8
DEFAULT_255_2_778
10
15.7137939
20
117.5555469
11
15.8394939
21
117.4928469
0
LINE
8
DEFAULT_255_2_778
10
15.8394939
20
117.4928469
11
16.0021939
21
117.4587469
0
LINE
8
DEFAULT_255_2_778
10
16.0021939
20
117.4587469
11
16.2061939
21
117.4656469
0
LINE
8
DEFAULT_255_2_778
10
16.2061939
20
117.4656469
11
16.4013939
21
117.5246469
0
LINE
8
DEFAULT_255_2_778
10
16.4013939
20
117.5246469
11
16.5265939
21
117.6098469
0
LINE
8
DEFAULT_255_2_778
10
16.5265939
20
117.6098469
11
16.5897939
21
117.6831469
0
LINE
8
DEFAULT_255_2_778
10
16.5897939
20
117.6831469
11
16.6283939
21
117.7529469
0
LINE
8
DEFAULT_255_2_778
10
16.6283939
20
117.7529469
11
16.6500939
21
117.8130469
0
LINE
8
DEFAULT_255_2_778
10
16.6500939
20
117.8130469
11
16.6585939
21
117.8469469
0
LINE
8
DEFAULT_255_2_778
10
16.6585939
20
117.8469469
11
16.6646939
21
117.8812469
0
LINE
8
DEFAULT_255_2_778
10
16.6646939
20
117.8812469
11
16.6683939
21
117.9159469
0
LINE
8
DEFAULT_255_2_778
10
16.6683939
20
117.9159469
11
16.6672939
21
118.0247469
0
LINE
8
DEFAULT_255_2_778
10
16.6672939
20
118.0247469
11
16.6606939
21
118.0686469
0
LINE
8
DEFAULT_255_2_778
10
16.6606939
20
118.0686469
11
16.6416939
21
118.1339469
0
LINE
8
DEFAULT_255_2_778
10
16.6416939
20
118.1339469
11
16.5717939
21
118.2427469
0
LINE
8
DEFAULT_255_2_778
10
16.5717939
20
118.2427469
11
16.3788939
21
118.3583469
0
LINE
8
DEFAULT_255_2_778
10
16.3788939
20
118.3583469
11
16.3545939
21
118.3638469
0
LINE
8
DEFAULT_255_2_778
10
16.3545939
20
118.3638469
11
16.4908939
21
118.4488469
0
LINE
8
DEFAULT_255_2_778
10
16.4908939
20
118.4488469
11
16.5558939
21
118.5186469
0
LINE
8
DEFAULT_255_2_778
10
16.5558939
20
118.5186469
11
16.5953939
21
118.5850469
0
LINE
8
DEFAULT_255_2_778
10
16.5953939
20
118.5850469
11
16.6170939
21
118.6425469
0
LINE
8
DEFAULT_255_2_778
10
16.6170939
20
118.6425469
11
16.6246939
21
118.6739469
0
LINE
8
DEFAULT_255_2_778
10
16.6246939
20
118.6739469
11
16.6299939
21
118.7060469
0
LINE
8
DEFAULT_255_2_778
10
16.6299939
20
118.7060469
11
16.6283939
21
118.8470469
0
LINE
8
DEFAULT_255_2_778
10
16.6283939
20
118.8470469
11
16.6225939
21
118.8769469
0
LINE
8
DEFAULT_255_2_778
10
16.6225939
20
118.8769469
11
16.6098939
21
118.9197469
0
LINE
8
DEFAULT_255_2_778
10
16.6098939
20
118.9197469
11
16.5794939
21
118.9846469
0
LINE
8
DEFAULT_255_2_778
10
16.5794939
20
118.9846469
11
16.5259939
21
119.0544469
0
LINE
8
DEFAULT_255_2_778
10
16.5259939
20
119.0544469
11
16.4267939
21
119.1322469
0
LINE
8
DEFAULT_255_2_778
10
16.4267939
20
119.1322469
11
16.2738939
21
119.1952469
0
LINE
8
DEFAULT_255_2_778
10
16.2738939
20
119.1952469
11
16.1352939
21
119.2169469
0
LINE
8
DEFAULT_255_2_778
10
17.6933939
20
119.2179469
11
17.5229939
21
119.2097469
0
LINE
8
DEFAULT_255_2_778
10
17.5229939
20
119.2097469
11
17.3925939
21
119.1735469
0
LINE
8
DEFAULT_255_2_778
10
17.3925939
20
119.1735469
11
17.2991939
21
119.1221469
0
LINE
8
DEFAULT_255_2_778
10
17.2991939
20
119.1221469
11
17.1755939
21
118.9909469
0
LINE
8
DEFAULT_255_2_778
10
17.1755939
20
118.9909469
11
17.1311939
21
118.8864469
0
LINE
8
DEFAULT_255_2_778
10
17.1311939
20
118.8864469
11
17.1173939
21
118.8210469
0
LINE
8
DEFAULT_255_2_778
10
17.1173939
20
118.8210469
11
17.1131939
21
118.7827469
0
LINE
8
DEFAULT_255_2_778
10
17.1131939
20
118.7827469
11
17.1117939
21
118.7348469
0
LINE
8
DEFAULT_255_2_778
10
17.1117939
20
118.7348469
11
17.3321939
21
118.7348469
0
LINE
8
DEFAULT_255_2_778
10
17.3321939
20
118.7348469
11
17.3343939
21
118.7782469
0
LINE
8
DEFAULT_255_2_778
10
17.3343939
20
118.7782469
11
17.3393939
21
118.8107469
0
LINE
8
DEFAULT_255_2_778
10
17.3393939
20
118.8107469
11
17.3552939
21
118.8634469
0
LINE
8
DEFAULT_255_2_778
10
17.3552939
20
118.8634469
11
17.4004939
21
118.9367469
0
LINE
8
DEFAULT_255_2_778
10
17.4004939
20
118.9367469
11
17.5001939
21
119.0086469
0
LINE
8
DEFAULT_255_2_778
10
17.5001939
20
119.0086469
11
17.6946939
21
119.0335469
0
LINE
8
DEFAULT_255_2_778
10
17.6946939
20
119.0335469
11
17.8526939
21
118.9782469
0
LINE
8
DEFAULT_255_2_778
10
17.8526939
20
118.9782469
11
17.9224939
21
118.9041469
0
LINE
8
DEFAULT_255_2_778
10
17.9224939
20
118.9041469
11
17.9486939
21
118.8419469
0
LINE
8
DEFAULT_255_2_778
10
17.9486939
20
118.8419469
11
17.9560939
21
118.8054469
0
LINE
8
DEFAULT_255_2_778
10
17.9560939
20
118.8054469
11
17.9534939
21
118.7105469
0
LINE
8
DEFAULT_255_2_778
10
17.9534939
20
118.7105469
11
17.9460939
21
118.6784469
0
LINE
8
DEFAULT_255_2_778
10
17.9460939
20
118.6784469
11
17.9240939
21
118.6163469
0
LINE
8
DEFAULT_255_2_778
10
17.9240939
20
118.6163469
11
17.8814939
21
118.5327469
0
LINE
8
DEFAULT_255_2_778
10
17.8814939
20
118.5327469
11
17.7936939
21
118.4059469
0
LINE
8
DEFAULT_255_2_778
10
17.7936939
20
118.4059469
11
17.6488939
21
118.2374469
0
LINE
8
DEFAULT_255_2_778
10
17.6488939
20
118.2374469
11
17.4187939
21
118.0106469
0
LINE
8
DEFAULT_255_2_778
10
17.4187939
20
118.0106469
11
17.1400939
21
117.7736469
0
LINE
8
DEFAULT_255_2_778
10
17.1400939
20
117.7736469
11
17.0416939
21
117.6974469
0
LINE
8
DEFAULT_255_2_778
10
17.0416939
20
117.6974469
11
17.0416939
21
117.4936469
0
LINE
8
DEFAULT_255_2_778
10
17.0416939
20
117.4936469
11
18.2140939
21
117.4936469
0
LINE
8
DEFAULT_255_2_778
10
18.2140939
20
117.4936469
11
18.2140939
21
117.6791469
0
LINE
8
DEFAULT_255_2_778
10
18.2140939
20
117.6791469
11
17.3189939
21
117.6791469
0
LINE
8
DEFAULT_255_2_778
10
17.3189939
20
117.6791469
11
17.7258939
21
118.0149469
0
LINE
8
DEFAULT_255_2_778
10
17.7258939
20
118.0149469
11
17.8899939
21
118.1755469
0
LINE
8
DEFAULT_255_2_778
10
17.8899939
20
118.1755469
11
17.9949939
21
118.3033469
0
LINE
8
DEFAULT_255_2_778
10
17.9949939
20
118.3033469
11
18.0674939
21
118.4144469
0
LINE
8
DEFAULT_255_2_778
10
18.0674939
20
118.4144469
11
18.1235939
21
118.5260469
0
LINE
8
DEFAULT_255_2_778
10
18.1235939
20
118.5260469
11
18.1478939
21
118.5903469
0
LINE
8
DEFAULT_255_2_778
10
18.1478939
20
118.5903469
11
18.1605939
21
118.6340469
0
LINE
8
DEFAULT_255_2_778
10
18.1605939
20
118.6340469
11
18.1703939
21
118.6782469
0
LINE
8
DEFAULT_255_2_778
10
18.1703939
20
118.6782469
11
18.1740939
21
118.7004469
0
LINE
8
DEFAULT_255_2_778
10
18.1740939
20
118.7004469
11
18.1740939
21
118.8464469
0
LINE
8
DEFAULT_255_2_778
10
18.1740939
20
118.8464469
11
18.1664939
21
118.8853469
0
LINE
8
DEFAULT_255_2_778
10
18.1664939
20
118.8853469
11
18.1558939
21
118.9219469
0
LINE
8
DEFAULT_255_2_778
10
18.1558939
20
118.9219469
11
18.1349939
21
118.9721469
0
LINE
8
DEFAULT_255_2_778
10
18.1349939
20
118.9721469
11
18.0965939
21
119.0335469
0
LINE
8
DEFAULT_255_2_778
10
18.0965939
20
119.0335469
11
18.0322939
21
119.0989469
0
LINE
8
DEFAULT_255_2_778
10
18.0322939
20
119.0989469
11
17.9312939
21
119.1624469
0
LINE
8
DEFAULT_255_2_778
10
17.9312939
20
119.1624469
11
17.7885939
21
119.2068469
0
LINE
8
DEFAULT_255_2_778
10
17.7885939
20
119.2068469
11
17.6933939
21
119.2177469
0
LINE
8
DEFAULT_255_2_778
10
19.4054939
20
118.6782469
11
19.6560939
21
118.6782469
0
LINE
8
DEFAULT_255_2_778
10
19.6560939
20
118.6782469
11
19.2115939
21
118.1106469
0
LINE
8
DEFAULT_255_2_778
10
19.2115939
20
118.1106469
11
19.6753939
21
117.4939469
0
LINE
8
DEFAULT_255_2_778
10
19.6753939
20
117.4939469
11
19.3993939
21
117.4939469
0
LINE
8
DEFAULT_255_2_778
10
19.3993939
20
117.4939469
11
19.0596939
21
117.9733469
0
LINE
8
DEFAULT_255_2_778
10
19.0596939
20
117.9733469
11
18.7223939
21
117.4939469
0
LINE
8
DEFAULT_255_2_778
10
18.7223939
20
117.4939469
11
18.4669939
21
117.4939469
0
LINE
8
DEFAULT_255_2_778
10
18.4669939
20
117.4939469
11
18.9440939
21
118.0998469
0
LINE
8
DEFAULT_255_2_778
10
18.9440939
20
118.0998469
11
18.4995939
21
118.6782469
0
LINE
8
DEFAULT_255_2_778
10
18.4995939
20
118.6782469
11
18.7863939
21
118.6782469
0
LINE
8
DEFAULT_255_2_778
10
18.7863939
20
118.6782469
11
19.0935939
21
118.2408469
0
LINE
8
DEFAULT_255_2_778
10
19.0935939
20
118.2408469
11
19.4054939
21
118.6782469
0
LINE
8
DEFAULT_255_2_778
10
24.0854939
20
119.0354469
11
24.2602939
21
118.9835469
0
LINE
8
DEFAULT_255_2_778
10
24.2602939
20
118.9835469
11
24.3378939
21
118.9044469
0
LINE
8
DEFAULT_255_2_778
10
24.3378939
20
118.9044469
11
24.3640939
21
118.8422469
0
LINE
8
DEFAULT_255_2_778
10
24.3640939
20
118.8422469
11
24.3714939
21
118.8057469
0
LINE
8
DEFAULT_255_2_778
10
24.3714939
20
118.8057469
11
24.3687939
21
118.7107469
0
LINE
8
DEFAULT_255_2_778
10
24.3687939
20
118.7107469
11
24.3613939
21
118.6787469
0
LINE
8
DEFAULT_255_2_778
10
24.3613939
20
118.6787469
11
24.3394939
21
118.6165469
0
LINE
8
DEFAULT_255_2_778
10
24.3394939
20
118.6165469
11
24.2968939
21
118.5329469
0
LINE
8
DEFAULT_255_2_778
10
24.2968939
20
118.5329469
11
24.2089939
21
118.4062469
0
LINE
8
DEFAULT_255_2_778
10
24.2089939
20
118.4062469
11
24.0642939
21
118.2376469
0
LINE
8
DEFAULT_255_2_778
10
24.0642939
20
118.2376469
11
23.8340939
21
118.0109469
0
LINE
8
DEFAULT_255_2_778
10
23.8340939
20
118.0109469
11
23.5554939
21
117.7738469
0
LINE
8
DEFAULT_255_2_778
10
23.5554939
20
117.7738469
11
23.4570939
21
117.6976469
0
LINE
8
DEFAULT_255_2_778
10
23.4570939
20
117.6976469
11
23.4570939
21
117.4939469
0
LINE
8
DEFAULT_255_2_778
10
23.4570939
20
117.4939469
11
24.6293939
21
117.4939469
0
LINE
8
DEFAULT_255_2_778
10
24.6293939
20
117.4939469
11
24.6293939
21
117.6794469
0
LINE
8
DEFAULT_255_2_778
10
24.6293939
20
117.6794469
11
23.7343939
21
117.6794469
0
LINE
8
DEFAULT_255_2_778
10
23.7343939
20
117.6794469
11
24.1412939
21
118.0151469
0
LINE
8
DEFAULT_255_2_778
10
24.1412939
20
118.0151469
11
24.3052939
21
118.1757469
0
LINE
8
DEFAULT_255_2_778
10
24.3052939
20
118.1757469
11
24.4103939
21
118.3035469
0
LINE
8
DEFAULT_255_2_778
10
24.4103939
20
118.3035469
11
24.4828939
21
118.4146469
0
LINE
8
DEFAULT_255_2_778
10
24.4828939
20
118.4146469
11
24.5389939
21
118.5263469
0
LINE
8
DEFAULT_255_2_778
10
24.5389939
20
118.5263469
11
24.5632939
21
118.5906469
0
LINE
8
DEFAULT_255_2_778
10
24.5632939
20
118.5906469
11
24.5759939
21
118.6343469
0
LINE
8
DEFAULT_255_2_778
10
24.5759939
20
118.6343469
11
24.5857939
21
118.6784469
0
LINE
8
DEFAULT_255_2_778
10
24.5857939
20
118.6784469
11
24.5894939
21
118.7007469
0
LINE
8
DEFAULT_255_2_778
10
24.5894939
20
118.7007469
11
24.5894939
21
118.8467469
0
LINE
8
DEFAULT_255_2_778
10
24.5894939
20
118.8467469
11
24.5817939
21
118.8856469
0
LINE
8
DEFAULT_255_2_778
10
24.5817939
20
118.8856469
11
24.5711939
21
118.9221469
0
LINE
8
DEFAULT_255_2_778
10
24.5711939
20
118.9221469
11
24.5502939
21
118.9724469
0
LINE
8
DEFAULT_255_2_778
10
24.5502939
20
118.9724469
11
24.5119939
21
119.0338469
0
LINE
8
DEFAULT_255_2_778
10
24.5119939
20
119.0338469
11
24.4476939
21
119.0991469
0
LINE
8
DEFAULT_255_2_778
10
24.4476939
20
119.0991469
11
24.3465939
21
119.1626469
0
LINE
8
DEFAULT_255_2_778
10
24.3465939
20
119.1626469
11
24.2039939
21
119.2071469
0
LINE
8
DEFAULT_255_2_778
10
24.2039939
20
119.2071469
11
24.0115939
21
119.2177469
0
LINE
8
DEFAULT_255_2_778
10
24.0115939
20
119.2177469
11
23.8496939
21
119.1888469
0
LINE
8
DEFAULT_255_2_778
10
23.8496939
20
119.1888469
11
23.7321939
21
119.1340469
0
LINE
8
DEFAULT_255_2_778
10
23.7321939
20
119.1340469
11
23.5956939
21
118.9983469
0
LINE
8
DEFAULT_255_2_778
10
23.5956939
20
118.9983469
11
23.5490939
21
118.8949469
0
LINE
8
DEFAULT_255_2_778
10
23.5490939
20
118.8949469
11
23.5342939
21
118.8306469
0
LINE
8
DEFAULT_255_2_778
10
23.5342939
20
118.8306469
11
23.5295939
21
118.7922469
0
LINE
8
DEFAULT_255_2_778
10
23.5295939
20
118.7922469
11
23.5274939
21
118.7348469
0
LINE
8
DEFAULT_255_2_778
10
23.5274939
20
118.7348469
11
23.7478939
21
118.7348469
0
LINE
8
DEFAULT_255_2_778
10
23.7478939
20
118.7348469
11
23.7499939
21
118.7782469
0
LINE
8
DEFAULT_255_2_778
10
23.7499939
20
118.7782469
11
23.7549939
21
118.8107469
0
LINE
8
DEFAULT_255_2_778
10
23.7549939
20
118.8107469
11
23.7708939
21
118.8634469
0
LINE
8
DEFAULT_255_2_778
10
23.7708939
20
118.8634469
11
23.8160939
21
118.9367469
0
LINE
8
DEFAULT_255_2_778
10
23.8160939
20
118.9367469
11
23.9158939
21
119.0086469
0
LINE
8
DEFAULT_255_2_778
10
23.9158939
20
119.0086469
11
24.0856939
21
119.0354469
0
LINE
8
DEFAULT_255_2_778
10
14.0177939
20
119.1938469
11
14.2503939
21
119.1938469
0
LINE
8
DEFAULT_255_2_778
10
14.2503939
20
119.1938469
11
14.2503939
21
117.4939469
0
LINE
8
DEFAULT_255_2_778
10
14.2503939
20
117.4939469
11
14.0177939
21
117.4939469
0
LINE
8
DEFAULT_255_2_778
10
14.0177939
20
117.4939469
11
14.0177939
21
119.1938469
0
LINE
8
DEFAULT_255_2_778
10
27.7850939
20
119.1938469
11
28.0369939
21
119.1938469
0
LINE
8
DEFAULT_255_2_778
10
28.0369939
20
119.1938469
11
27.3622939
21
117.4939469
0
LINE
8
DEFAULT_255_2_778
10
27.3622939
20
117.4939469
11
27.1019939
21
117.4939469
0
LINE
8
DEFAULT_255_2_778
10
27.1019939
20
117.4939469
11
26.4272939
21
119.1938469
0
LINE
8
DEFAULT_255_2_778
10
26.4272939
20
119.1938469
11
26.6791939
21
119.1938469
0
LINE
8
DEFAULT_255_2_778
10
26.6791939
20
119.1938469
11
27.2358939
21
117.7167469
0
LINE
8
DEFAULT_255_2_778
10
27.2358939
20
117.7167469
11
27.7850939
21
119.1938469
0
LINE
8
DEFAULT_255_2_778
10
22.5397939
20
119.2248469
11
22.3246939
21
119.2190469
0
LINE
8
DEFAULT_255_2_778
10
22.3246939
20
119.2190469
11
22.1401939
21
119.1708469
0
LINE
8
DEFAULT_255_2_778
10
22.1401939
20
119.1708469
11
22.0097939
21
119.0986469
0
LINE
8
DEFAULT_255_2_778
10
22.0097939
20
119.0986469
11
21.9150939
21
119.0137469
0
LINE
8
DEFAULT_255_2_778
10
21.9150939
20
119.0137469
11
21.8451939
21
118.9240469
0
LINE
8
DEFAULT_255_2_778
10
21.8451939
20
118.9240469
11
21.7957939
21
118.8369469
0
LINE
8
DEFAULT_255_2_778
10
21.7957939
20
118.8369469
11
21.7650939
21
118.7657469
0
LINE
8
DEFAULT_255_2_778
10
21.7650939
20
118.7657469
11
21.7396939
21
118.6880469
0
LINE
8
DEFAULT_255_2_778
10
21.7396939
20
118.6880469
11
21.7263939
21
118.6350469
0
LINE
8
DEFAULT_255_2_778
10
21.7263939
20
118.6350469
11
21.7158939
21
118.5816469
0
LINE
8
DEFAULT_255_2_778
10
21.7158939
20
118.5816469
11
21.7068939
21
118.5207469
0
LINE
8
DEFAULT_255_2_778
10
21.7068939
20
118.5207469
11
21.7033939
21
118.4901469
0
LINE
8
DEFAULT_255_2_778
10
21.7033939
20
118.4901469
11
21.7007939
21
118.4594469
0
LINE
8
DEFAULT_255_2_778
10
21.7007939
20
118.4594469
11
21.7007939
21
118.2138469
0
LINE
8
DEFAULT_255_2_778
10
21.7007939
20
118.2138469
11
21.7033939
21
118.1834469
0
LINE
8
DEFAULT_255_2_778
10
21.7033939
20
118.1834469
11
21.7068939
21
118.1530469
0
LINE
8
DEFAULT_255_2_778
10
21.7068939
20
118.1530469
11
21.7158939
21
118.0924469
0
LINE
8
DEFAULT_255_2_778
10
21.7158939
20
118.0924469
11
21.7266939
21
118.0392469
0
LINE
8
DEFAULT_255_2_778
10
21.7266939
20
118.0392469
11
21.7401939
21
117.9868469
0
LINE
8
DEFAULT_255_2_778
10
21.7401939
20
117.9868469
11
21.7658939
21
117.9098469
0
LINE
8
DEFAULT_255_2_778
10
21.7658939
20
117.9098469
11
21.7964939
21
117.8394469
0
LINE
8
DEFAULT_255_2_778
10
21.7964939
20
117.8394469
11
21.8462939
21
117.7535469
0
LINE
8
DEFAULT_255_2_778
10
21.8462939
20
117.7535469
11
21.9163939
21
117.6659469
0
LINE
8
DEFAULT_255_2_778
10
21.9163939
20
117.6659469
11
22.0105939
21
117.5844469
0
LINE
8
DEFAULT_255_2_778
10
22.0105939
20
117.5844469
11
22.1407939
21
117.5148469
0
LINE
8
DEFAULT_255_2_778
10
22.1407939
20
117.5148469
11
22.2986939
21
117.4722469
0
LINE
8
DEFAULT_255_2_778
10
22.2986939
20
117.4722469
11
22.5106939
21
117.4616469
0
LINE
8
DEFAULT_255_2_778
10
22.5106939
20
117.4616469
11
22.6918939
21
117.4881469
0
LINE
8
DEFAULT_255_2_778
10
22.6918939
20
117.4881469
11
22.8283939
21
117.5378469
0
LINE
8
DEFAULT_255_2_778
10
22.8283939
20
117.5378469
11
22.9524939
21
117.6177469
0
LINE
8
DEFAULT_255_2_778
10
22.9524939
20
117.6177469
11
23.0180939
21
117.6860469
0
LINE
8
DEFAULT_255_2_778
10
23.0180939
20
117.6860469
11
23.0567939
21
117.7466469
0
LINE
8
DEFAULT_255_2_778
10
23.0567939
20
117.7466469
11
23.0786939
21
117.7961469
0
LINE
8
DEFAULT_255_2_778
10
23.0786939
20
117.7961469
11
23.0934939
21
117.8445469
0
LINE
8
DEFAULT_255_2_778
10
23.0934939
20
117.8445469
11
23.1003939
21
117.8775469
0
LINE
8
DEFAULT_255_2_778
10
23.1003939
20
117.8775469
11
23.1027939
21
117.8942469
0
LINE
8
DEFAULT_255_2_778
10
23.1027939
20
117.8942469
11
23.1045939
21
117.9109469
0
LINE
8
DEFAULT_255_2_778
10
23.1045939
20
117.9109469
11
23.1059939
21
117.9445469
0
LINE
8
DEFAULT_255_2_778
10
23.1059939
20
117.9445469
11
22.8672939
21
117.9445469
0
LINE
8
DEFAULT_255_2_778
10
22.8672939
20
117.9445469
11
22.8632939
21
117.9183469
0
LINE
8
DEFAULT_255_2_778
10
22.8632939
20
117.9183469
11
22.8532939
21
117.8794469
0
LINE
8
DEFAULT_255_2_778
10
22.8532939
20
117.8794469
11
22.8270939
21
117.8207469
0
LINE
8
DEFAULT_255_2_778
10
22.8270939
20
117.8207469
11
22.7804939
21
117.7611469
0
LINE
8
DEFAULT_255_2_778
10
22.7804939
20
117.7611469
11
22.6804939
21
117.6945469
0
LINE
8
DEFAULT_255_2_778
10
22.6804939
20
117.6945469
11
22.5481939
21
117.6585469
0
LINE
8
DEFAULT_255_2_778
10
22.5481939
20
117.6585469
11
22.3473939
21
117.6653469
0
LINE
8
DEFAULT_255_2_778
10
22.3473939
20
117.6653469
11
22.2087939
21
117.7172469
0
LINE
8
DEFAULT_255_2_778
10
22.2087939
20
117.7172469
11
22.1190939
21
117.7865469
0
LINE
8
DEFAULT_255_2_778
10
22.1190939
20
117.7865469
11
22.0478939
21
117.8778469
0
LINE
8
DEFAULT_255_2_778
10
22.0478939
20
117.8778469
11
22.0049939
21
117.9609469
0
LINE
8
DEFAULT_255_2_778
10
22.0049939
20
117.9609469
11
21.9777939
21
118.0358469
0
LINE
8
DEFAULT_255_2_778
10
21.9777939
20
118.0358469
11
21.9597939
21
118.1048469
0
LINE
8
DEFAULT_255_2_778
10
21.9597939
20
118.1048469
11
21.9507939
21
118.1517469
0
LINE
8
DEFAULT_255_2_778
10
21.9507939
20
118.1517469
11
21.9436939
21
118.2019469
0
LINE
8
DEFAULT_255_2_778
10
21.9436939
20
118.2019469
11
21.9430939
21
118.5099469
0
LINE
8
DEFAULT_255_2_778
10
21.9430939
20
118.5099469
11
21.9515939
21
118.5660469
0
LINE
8
DEFAULT_255_2_778
10
21.9515939
20
118.5660469
11
21.9645939
21
118.6250469
0
LINE
8
DEFAULT_255_2_778
10
21.9645939
20
118.6250469
11
21.9819939
21
118.6829469
0
LINE
8
DEFAULT_255_2_778
10
21.9819939
20
118.6829469
11
22.0153939
21
118.7613469
0
LINE
8
DEFAULT_255_2_778
10
22.0153939
20
118.7613469
11
22.0743939
21
118.8536469
0
LINE
8
DEFAULT_255_2_778
10
22.0743939
20
118.8536469
11
22.1669939
21
118.9420469
0
LINE
8
DEFAULT_255_2_778
10
22.1669939
20
118.9420469
11
22.3079939
21
119.0086469
0
LINE
8
DEFAULT_255_2_778
10
22.3079939
20
119.0086469
11
22.5000939
21
119.0306469
0
LINE
8
DEFAULT_255_2_778
10
22.5000939
20
119.0306469
11
22.6780939
21
118.9970469
0
LINE
8
DEFAULT_255_2_778
10
22.6780939
20
118.9970469
11
22.7953939
21
118.9237469
0
LINE
8
DEFAULT_255_2_778
10
22.7953939
20
118.9237469
11
22.8402939
21
118.8621469
0
LINE
8
DEFAULT_255_2_778
10
22.8402939
20
118.8621469
11
22.8590939
21
118.8131469
0
LINE
8
DEFAULT_255_2_778
10
22.8590939
20
118.8131469
11
22.8651939
21
118.7832469
0
LINE
8
DEFAULT_255_2_778
10
22.8651939
20
118.7832469
11
22.8672939
21
118.7430469
0
LINE
8
DEFAULT_255_2_778
10
22.8672939
20
118.7430469
11
23.1059939
21
118.7430469
0
LINE
8
DEFAULT_255_2_778
10
23.1059939
20
118.7430469
11
23.1043939
21
118.7943469
0
LINE
8
DEFAULT_255_2_778
10
23.1043939
20
118.7943469
11
23.1024939
21
118.8115469
0
LINE
8
DEFAULT_255_2_778
10
23.1024939
20
118.8115469
11
23.0966939
21
118.8454469
0
LINE
8
DEFAULT_255_2_778
10
23.0966939
20
118.8454469
11
23.0826939
21
118.8951469
0
LINE
8
DEFAULT_255_2_778
10
23.0826939
20
118.8951469
11
23.0617939
21
118.9451469
0
LINE
8
DEFAULT_255_2_778
10
23.0617939
20
118.9451469
11
23.0239939
21
119.0065469
0
LINE
8
DEFAULT_255_2_778
10
23.0239939
20
119.0065469
11
22.9588939
21
119.0750469
0
LINE
8
DEFAULT_255_2_778
10
22.9588939
20
119.0750469
11
22.8556939
21
119.1428469
0
LINE
8
DEFAULT_255_2_778
10
22.8556939
20
119.1428469
11
22.6974939
21
119.2007469
0
LINE
8
DEFAULT_255_2_778
10
22.6974939
20
119.2007469
11
22.5402939
21
119.2245469
0
LINE
8
DEFAULT_255_2_778
10
25.1151939
20
118.1048469
11
25.7067939
21
118.1048469
0
LINE
8
DEFAULT_255_2_778
10
25.7067939
20
118.1048469
11
25.7067939
21
118.9518469
0
LINE
8
DEFAULT_255_2_778
10
25.7067939
20
118.9518469
11
25.1151939
21
118.1048469
0
LINE
8
DEFAULT_255_2_778
10
25.6657939
20
119.1938469
11
25.9343939
21
119.1938469
0
LINE
8
DEFAULT_255_2_778
10
25.9343939
20
119.1938469
11
25.9343939
21
118.1048469
0
LINE
8
DEFAULT_255_2_778
10
25.9343939
20
118.1048469
11
26.2560939
21
118.1048469
0
LINE
8
DEFAULT_255_2_778
10
26.2560939
20
118.1048469
11
26.2560939
21
117.9193469
0
LINE
8
DEFAULT_255_2_778
10
26.2560939
20
117.9193469
11
25.9343939
21
117.9193469
0
LINE
8
DEFAULT_255_2_778
10
25.9343939
20
117.9193469
11
25.9343939
21
117.4942469
0
LINE
8
DEFAULT_255_2_778
10
25.9343939
20
117.4942469
11
25.7065939
21
117.4942469
0
LINE
8
DEFAULT_255_2_778
10
25.7065939
20
117.4942469
11
25.7065939
21
117.9193469
0
LINE
8
DEFAULT_255_2_778
10
25.7065939
20
117.9193469
11
24.9162939
21
117.9193469
0
LINE
8
DEFAULT_255_2_778
10
24.9162939
20
117.9193469
11
24.9162939
21
118.1241469
0
LINE
8
DEFAULT_255_2_778
10
24.9162939
20
118.1241469
11
25.6655939
21
119.1941469
0
LINE
8
DEFAULT_255_2_778
10
20.5558896
20
119.000125
11
20.7433896
21
118.974425
0
LINE
8
DEFAULT_255_2_778
10
20.7433896
20
118.974425
11
20.8746896
21
118.920225
0
LINE
8
DEFAULT_255_2_778
10
20.8746896
20
118.920225
11
20.9799896
21
118.835825
0
LINE
8
DEFAULT_255_2_778
10
20.9799896
20
118.835825
11
21.0426896
21
118.755925
0
LINE
8
DEFAULT_255_2_778
10
21.0426896
20
118.755925
11
21.0770896
21
118.692425
0
LINE
8
DEFAULT_255_2_778
10
21.0770896
20
118.692425
11
21.1003896
21
118.631825
0
LINE
8
DEFAULT_255_2_778
10
21.1003896
20
118.631825
11
21.1119896
21
118.590025
0
LINE
8
DEFAULT_255_2_778
10
21.1119896
20
118.590025
11
21.1209896
21
118.547425
0
LINE
8
DEFAULT_255_2_778
10
21.1209896
20
118.547425
11
21.1275896
21
118.504325
0
LINE
8
DEFAULT_255_2_778
10
21.1275896
20
118.504325
11
21.1267896
21
118.181025
0
LINE
8
DEFAULT_255_2_778
10
21.1267896
20
118.181025
11
21.1191896
21
118.129425
0
LINE
8
DEFAULT_255_2_778
10
21.1191896
20
118.129425
11
21.1095896
21
118.082825
0
LINE
8
DEFAULT_255_2_778
10
21.1095896
20
118.082825
11
21.0974896
21
118.036825
0
LINE
8
DEFAULT_255_2_778
10
21.0974896
20
118.036825
11
21.0757896
21
117.975125
0
LINE
8
DEFAULT_255_2_778
10
21.0757896
20
117.975125
11
21.0442896
21
117.911325
0
LINE
8
DEFAULT_255_2_778
10
21.0442896
20
117.911325
11
20.9929896
21
117.841525
0
LINE
8
DEFAULT_255_2_778
10
20.9929896
20
117.841525
11
20.9024896
21
117.766925
0
LINE
8
DEFAULT_255_2_778
10
20.9024896
20
117.766925
11
20.7510896
21
117.706625
0
LINE
8
DEFAULT_255_2_778
10
20.7510896
20
117.706625
11
20.5603896
21
117.686525
0
LINE
8
DEFAULT_255_2_778
10
20.5603896
20
117.686525
11
20.2073896
21
117.686525
0
LINE
8
DEFAULT_255_2_778
10
20.2073896
20
117.686525
11
20.2073896
21
119.000925
0
LINE
8
DEFAULT_255_2_778
10
20.2073896
20
119.000925
11
20.5553896
21
119.000125
0
LINE
8
DEFAULT_255_2_778
10
20.5953011
20
119.1919739
11
20.8117011
21
119.1628739
0
LINE
8
DEFAULT_255_2_778
10
20.8117011
20
119.1628739
11
20.9403011
21
119.1202739
0
LINE
8
DEFAULT_255_2_778
10
20.9403011
20
119.1202739
11
21.0665011
21
119.0474739
0
LINE
8
DEFAULT_255_2_778
10
21.0665011
20
119.0474739
11
21.1692011
21
118.9548739
0
LINE
8
DEFAULT_255_2_778
10
21.1692011
20
118.9548739
11
21.2395011
21
118.8641739
0
LINE
8
DEFAULT_255_2_778
10
21.2395011
20
118.8641739
11
21.2742011
21
118.8051739
0
LINE
8
DEFAULT_255_2_778
10
21.2742011
20
118.8051739
11
21.2988011
21
118.7524739
0
LINE
8
DEFAULT_255_2_778
10
21.2988011
20
118.7524739
11
21.3189011
21
118.6979739
0
LINE
8
DEFAULT_255_2_778
10
21.3189011
20
118.6979739
11
21.3351011
21
118.6421739
0
LINE
8
DEFAULT_255_2_778
10
21.3351011
20
118.6421739
11
21.3478011
21
118.5849739
0
LINE
8
DEFAULT_255_2_778
10
21.3478011
20
118.5849739
11
21.3570011
21
118.5270739
0
LINE
8
DEFAULT_255_2_778
10
21.3570011
20
118.5270739
11
21.3605011
21
118.4976739
0
LINE
8
DEFAULT_255_2_778
10
21.3605011
20
118.4976739
11
21.3634011
21
118.4682739
0
LINE
8
DEFAULT_255_2_778
10
21.3634011
20
118.4682739
11
21.3634011
21
118.1785739
0
LINE
8
DEFAULT_255_2_778
10
21.3634011
20
118.1785739
11
21.3608011
21
118.1507739
0
LINE
8
DEFAULT_255_2_778
10
21.3608011
20
118.1507739
11
21.3533011
21
118.0955739
0
LINE
8
DEFAULT_255_2_778
10
21.3533011
20
118.0955739
11
21.3430011
21
118.0412739
0
LINE
8
DEFAULT_255_2_778
10
21.3430011
20
118.0412739
11
21.3295011
21
117.9880739
0
LINE
8
DEFAULT_255_2_778
10
21.3295011
20
117.9880739
11
21.3123011
21
117.9359739
0
LINE
8
DEFAULT_255_2_778
10
21.3123011
20
117.9359739
11
21.2912011
21
117.8854739
0
LINE
8
DEFAULT_255_2_778
10
21.2912011
20
117.8854739
11
21.2565011
21
117.8211739
0
LINE
8
DEFAULT_255_2_778
10
21.2565011
20
117.8211739
11
21.2031011
21
117.7462739
0
LINE
8
DEFAULT_255_2_778
10
21.2031011
20
117.7462739
11
21.1224011
21
117.6637739
0
LINE
8
DEFAULT_255_2_778
10
21.1224011
20
117.6637739
11
21.0091011
21
117.5856739
0
LINE
8
DEFAULT_255_2_778
10
21.0091011
20
117.5856739
11
20.8834011
21
117.5343739
0
LINE
8
DEFAULT_255_2_778
10
20.8834011
20
117.5343739
11
20.6681011
21
117.4975739
0
LINE
8
DEFAULT_255_2_778
10
20.6681011
20
117.4975739
11
20.5591011
21
117.4941739
0
LINE
8
DEFAULT_255_2_778
10
20.5591011
20
117.4941739
11
19.9746011
21
117.4941739
0
LINE
8
DEFAULT_255_2_778
10
19.9746011
20
117.4941739
11
19.9746011
21
119.1940739
0
LINE
8
DEFAULT_255_2_778
10
19.9746011
20
119.1940739
11
20.5945011
21
119.1921739
0
LINE
8
DEFAULT_255_2_778
10
12.8210896
20
119.000125
11
13.0085896
21
118.974425
0
LINE
8
DEFAULT_255_2_778
10
13.0085896
20
118.974425
11
13.1398896
21
118.920225
0
LINE
8
DEFAULT_255_2_778
10
13.1398896
20
118.920225
11
13.2451896
21
118.835825
0
LINE
8
DEFAULT_255_2_778
10
13.2451896
20
118.835825
11
13.3078896
21
118.755925
0
LINE
8
DEFAULT_255_2_778
10
13.3078896
20
118.755925
11
13.3422896
21
118.692425
0
LINE
8
DEFAULT_255_2_778
10
13.3422896
20
118.692425
11
13.3655896
21
118.631825
0
LINE
8
DEFAULT_255_2_778
10
13.3655896
20
118.631825
11
13.3771896
21
118.590025
0
LINE
8
DEFAULT_255_2_778
10
13.3771896
20
118.590025
11
13.3861896
21
118.547425
0
LINE
8
DEFAULT_255_2_778
10
13.3861896
20
118.547425
11
13.3927896
21
118.504325
0
LINE
8
DEFAULT_255_2_778
10
13.3927896
20
118.504325
11
13.3919896
21
118.181025
0
LINE
8
DEFAULT_255_2_778
10
13.3919896
20
118.181025
11
13.3843896
21
118.129425
0
LINE
8
DEFAULT_255_2_778
10
13.3843896
20
118.129425
11
13.3747896
21
118.082825
0
LINE
8
DEFAULT_255_2_778
10
13.3747896
20
118.082825
11
13.3626896
21
118.036825
0
LINE
8
DEFAULT_255_2_778
10
13.3626896
20
118.036825
11
13.3409896
21
117.975125
0
LINE
8
DEFAULT_255_2_778
10
13.3409896
20
117.975125
11
13.3094896
21
117.911325
0
LINE
8
DEFAULT_255_2_778
10
13.3094896
20
117.911325
11
13.2580896
21
117.841525
0
LINE
8
DEFAULT_255_2_778
10
13.2580896
20
117.841525
11
13.1676896
21
117.766925
0
LINE
8
DEFAULT_255_2_778
10
13.1676896
20
117.766925
11
13.0162896
21
117.706625
0
LINE
8
DEFAULT_255_2_778
10
13.0162896
20
117.706625
11
12.8255896
21
117.686525
0
LINE
8
DEFAULT_255_2_778
10
12.8255896
20
117.686525
11
12.4725896
21
117.686525
0
LINE
8
DEFAULT_255_2_778
10
12.4725896
20
117.686525
11
12.4725896
21
119.000925
0
LINE
8
DEFAULT_255_2_778
10
12.4725896
20
119.000925
11
12.8204896
21
119.000125
0
LINE
8
DEFAULT_255_2_778
10
12.8332033
20
119.193052
11
13.0504033
21
119.168952
0
LINE
8
DEFAULT_255_2_778
10
13.0504033
20
119.168952
11
13.2057033
21
119.120252
0
LINE
8
DEFAULT_255_2_778
10
13.2057033
20
119.120252
11
13.3319033
21
119.047552
0
LINE
8
DEFAULT_255_2_778
10
13.3319033
20
119.047552
11
13.4346033
21
118.954952
0
LINE
8
DEFAULT_255_2_778
10
13.4346033
20
118.954952
11
13.5050033
21
118.864152
0
LINE
8
DEFAULT_255_2_778
10
13.5050033
20
118.864152
11
13.5396033
21
118.805152
0
LINE
8
DEFAULT_255_2_778
10
13.5396033
20
118.805152
11
13.5642033
21
118.752552
0
LINE
8
DEFAULT_255_2_778
10
13.5642033
20
118.752552
11
13.5843033
21
118.698052
0
LINE
8
DEFAULT_255_2_778
10
13.5843033
20
118.698052
11
13.6005033
21
118.642152
0
LINE
8
DEFAULT_255_2_778
10
13.6005033
20
118.642152
11
13.6132033
21
118.585052
0
LINE
8
DEFAULT_255_2_778
10
13.6132033
20
118.585052
11
13.6224033
21
118.527052
0
LINE
8
DEFAULT_255_2_778
10
13.6224033
20
118.527052
11
13.6259033
21
118.497752
0
LINE
8
DEFAULT_255_2_778
10
13.6259033
20
118.497752
11
13.6288033
21
118.468352
0
LINE
8
DEFAULT_255_2_778
10
13.6288033
20
118.468352
11
13.6288033
21
118.178652
0
LINE
8
DEFAULT_255_2_778
10
13.6288033
20
118.178652
11
13.6262033
21
118.150852
0
LINE
8
DEFAULT_255_2_778
10
13.6262033
20
118.150852
11
13.6187033
21
118.095552
0
LINE
8
DEFAULT_255_2_778
10
13.6187033
20
118.095552
11
13.6084033
21
118.041352
0
LINE
8
DEFAULT_255_2_778
10
13.6084033
20
118.041352
11
13.5949033
21
117.988152
0
LINE
8
DEFAULT_255_2_778
10
13.5949033
20
117.988152
11
13.5777033
21
117.936052
0
LINE
8
DEFAULT_255_2_778
10
13.5777033
20
117.936052
11
13.5566033
21
117.885452
0
LINE
8
DEFAULT_255_2_778
10
13.5566033
20
117.885452
11
13.5219033
21
117.821152
0
LINE
8
DEFAULT_255_2_778
10
13.5219033
20
117.821152
11
13.4685033
21
117.746252
0
LINE
8
DEFAULT_255_2_778
10
13.4685033
20
117.746252
11
13.3878033
21
117.663752
0
LINE
8
DEFAULT_255_2_778
10
13.3878033
20
117.663752
11
13.2745033
21
117.585652
0
LINE
8
DEFAULT_255_2_778
10
13.2745033
20
117.585652
11
13.1488033
21
117.534352
0
LINE
8
DEFAULT_255_2_778
10
13.1488033
20
117.534352
11
12.9335033
21
117.497552
0
LINE
8
DEFAULT_255_2_778
10
12.9335033
20
117.497552
11
12.8245033
21
117.494152
0
LINE
8
DEFAULT_255_2_778
10
12.8245033
20
117.494152
11
12.2400033
21
117.494152
0
LINE
8
DEFAULT_255_2_778
10
12.2400033
20
117.494152
11
12.2400033
21
119.194052
0
LINE
8
DEFAULT_255_2_778
10
12.2400033
20
119.194052
11
12.8327033
21
119.193352
0
LINE
8
DEFAULT_255_2_778
10
27.5824033
20
124.101852
11
12.6713033
21
124.101852
0
LINE
8
DEFAULT_255_2_778
10
12.6713033
20
124.101852
11
12.6713033
21
119.997852
0
LINE
8
DEFAULT_255_2_778
10
12.6713033
20
119.997852
11
27.5824033
21
119.997852
0
LINE
8
DEFAULT_255_2_778
10
27.5824033
20
119.997852
11
27.5824033
21
124.101852
0
LINE
8
DEFAULT_255_2_778
10
15.0839596
20
122.9771062
11
14.8448596
21
123.0044062
0
LINE
8
DEFAULT_255_2_778
10
14.8448596
20
123.0044062
11
14.6312596
21
122.9994062
0
LINE
8
DEFAULT_255_2_778
10
14.6312596
20
122.9994062
11
14.4460596
21
122.9666062
0
LINE
8
DEFAULT_255_2_778
10
14.4460596
20
122.9666062
11
14.2899596
21
122.9115062
0
LINE
8
DEFAULT_255_2_778
10
14.2899596
20
122.9115062
11
14.1642596
21
122.8382062
0
LINE
8
DEFAULT_255_2_778
10
14.1642596
20
122.8382062
11
14.0698596
21
122.7512062
0
LINE
8
DEFAULT_255_2_778
10
14.0698596
20
122.7512062
11
14.0034596
21
122.6485062
0
LINE
8
DEFAULT_255_2_778
10
14.0034596
20
122.6485062
11
13.9626596
21
122.5287062
0
LINE
8
DEFAULT_255_2_778
10
13.9626596
20
122.5287062
11
13.9502596
21
122.3927062
0
LINE
8
DEFAULT_255_2_778
10
13.9502596
20
122.3927062
11
13.9655596
21
122.2649062
0
LINE
8
DEFAULT_255_2_778
10
13.9655596
20
122.2649062
11
14.0081596
21
122.1527062
0
LINE
8
DEFAULT_255_2_778
10
14.0081596
20
122.1527062
11
14.0817596
21
122.0463062
0
LINE
8
DEFAULT_255_2_778
10
14.0817596
20
122.0463062
11
14.1746596
21
121.9604062
0
LINE
8
DEFAULT_255_2_778
10
14.1746596
20
121.9604062
11
14.2688596
21
121.9006062
0
LINE
8
DEFAULT_255_2_778
10
14.2688596
20
121.9006062
11
14.4394596
21
121.8175062
0
LINE
8
DEFAULT_255_2_778
10
14.4394596
20
121.8175062
11
14.7646596
21
121.6738062
0
LINE
8
DEFAULT_255_2_778
10
14.7646596
20
121.6738062
11
14.8127596
21
121.6468062
0
LINE
8
DEFAULT_255_2_778
10
14.8127596
20
121.6468062
11
14.8545596
21
121.6182062
0
LINE
8
DEFAULT_255_2_778
10
14.8545596
20
121.6182062
11
14.8876596
21
121.5865062
0
LINE
8
DEFAULT_255_2_778
10
14.8876596
20
121.5865062
11
14.9106596
21
121.5513062
0
LINE
8
DEFAULT_255_2_778
10
14.9106596
20
121.5513062
11
14.9207596
21
121.5166062
0
LINE
8
DEFAULT_255_2_778
10
14.9207596
20
121.5166062
11
14.9173596
21
121.4825062
0
LINE
8
DEFAULT_255_2_778
10
14.9173596
20
121.4825062
11
14.9003596
21
121.4476062
0
LINE
8
DEFAULT_255_2_778
10
14.9003596
20
121.4476062
11
14.8691596
21
121.4166062
0
LINE
8
DEFAULT_255_2_778
10
14.8691596
20
121.4166062
11
14.8265596
21
121.3915062
0
LINE
8
DEFAULT_255_2_778
10
14.8265596
20
121.3915062
11
14.7757596
21
121.3717062
0
LINE
8
DEFAULT_255_2_778
10
14.7757596
20
121.3717062
11
14.7175596
21
121.3566062
0
LINE
8
DEFAULT_255_2_778
10
14.7175596
20
121.3566062
11
14.5802596
21
121.3381062
0
LINE
8
DEFAULT_255_2_778
10
14.5802596
20
121.3381062
11
14.4130596
21
121.3365062
0
LINE
8
DEFAULT_255_2_778
10
14.4130596
20
121.3365062
11
14.3166596
21
121.3447062
0
LINE
8
DEFAULT_255_2_778
10
14.3166596
20
121.3447062
11
14.2111596
21
121.3621062
0
LINE
8
DEFAULT_255_2_778
10
14.2111596
20
121.3621062
11
14.0960596
21
121.3912062
0
LINE
8
DEFAULT_255_2_778
10
14.0960596
20
121.3912062
11
13.9714596
21
121.4346062
0
LINE
8
DEFAULT_255_2_778
10
13.9714596
20
121.4346062
11
13.9714596
21
121.0653062
0
LINE
8
DEFAULT_255_2_778
10
13.9714596
20
121.0653062
11
14.2569596
21
120.9994062
0
LINE
8
DEFAULT_255_2_778
10
14.2569596
20
120.9994062
11
14.5143596
21
120.9740062
0
LINE
8
DEFAULT_255_2_778
10
14.5143596
20
120.9740062
11
14.7424596
21
120.9827062
0
LINE
8
DEFAULT_255_2_778
10
14.7424596
20
120.9827062
11
14.9405596
21
121.0184062
0
LINE
8
DEFAULT_255_2_778
10
14.9405596
20
121.0184062
11
15.1083596
21
121.0766062
0
LINE
8
DEFAULT_255_2_778
10
15.1083596
20
121.0766062
11
15.2451596
21
121.1528062
0
LINE
8
DEFAULT_255_2_778
10
15.2451596
20
121.1528062
11
15.3493596
21
121.2436062
0
LINE
8
DEFAULT_255_2_778
10
15.3493596
20
121.2436062
11
15.4213596
21
121.3463062
0
LINE
8
DEFAULT_255_2_778
10
15.4213596
20
121.3463062
11
15.4641596
21
121.4608062
0
LINE
8
DEFAULT_255_2_778
10
15.4641596
20
121.4608062
11
15.4792596
21
121.5913062
0
LINE
8
DEFAULT_255_2_778
10
15.4792596
20
121.5913062
11
15.4652596
21
121.7262062
0
LINE
8
DEFAULT_255_2_778
10
15.4652596
20
121.7262062
11
15.4210596
21
121.8487062
0
LINE
8
DEFAULT_255_2_778
10
15.4210596
20
121.8487062
11
15.3475596
21
121.9588062
0
LINE
8
DEFAULT_255_2_778
10
15.3475596
20
121.9588062
11
15.2567596
21
122.0458062
0
LINE
8
DEFAULT_255_2_778
10
15.2567596
20
122.0458062
11
15.1649596
21
122.1067062
0
LINE
8
DEFAULT_255_2_778
10
15.1649596
20
122.1067062
11
14.9982596
21
122.1924062
0
LINE
8
DEFAULT_255_2_778
10
14.9982596
20
122.1924062
11
14.6786596
21
122.3384062
0
LINE
8
DEFAULT_255_2_778
10
14.6786596
20
122.3384062
11
14.5881596
21
122.3927062
0
LINE
8
DEFAULT_255_2_778
10
14.5881596
20
122.3927062
11
14.5532596
21
122.4228062
0
LINE
8
DEFAULT_255_2_778
10
14.5532596
20
122.4228062
11
14.5270596
21
122.4562062
0
LINE
8
DEFAULT_255_2_778
10
14.5270596
20
122.4562062
11
14.5119596
21
122.4903062
0
LINE
8
DEFAULT_255_2_778
10
14.5119596
20
122.4903062
11
14.5098596
21
122.5244062
0
LINE
8
DEFAULT_255_2_778
10
14.5098596
20
122.5244062
11
14.5214596
21
122.5580062
0
LINE
8
DEFAULT_255_2_778
10
14.5214596
20
122.5580062
11
14.5468596
21
122.5877062
0
LINE
8
DEFAULT_255_2_778
10
14.5468596
20
122.5877062
11
14.5839596
21
122.6123062
0
LINE
8
DEFAULT_255_2_778
10
14.5839596
20
122.6123062
11
14.6289596
21
122.6316062
0
LINE
8
DEFAULT_255_2_778
10
14.6289596
20
122.6316062
11
14.6804596
21
122.6472062
0
LINE
8
DEFAULT_255_2_778
10
14.6804596
20
122.6472062
11
14.7384596
21
122.6589062
0
LINE
8
DEFAULT_255_2_778
10
14.7384596
20
122.6589062
11
14.8035596
21
122.6652062
0
LINE
8
DEFAULT_255_2_778
10
14.8035596
20
122.6652062
11
14.8754596
21
122.6652062
0
LINE
8
DEFAULT_255_2_778
10
14.8754596
20
122.6652062
11
14.9546596
21
122.6589062
0
LINE
8
DEFAULT_255_2_778
10
14.9546596
20
122.6589062
11
15.0408596
21
122.6462062
0
LINE
8
DEFAULT_255_2_778
10
15.0408596
20
122.6462062
11
15.1347596
21
122.6263062
0
LINE
8
DEFAULT_255_2_778
10
15.1347596
20
122.6263062
11
15.2363596
21
122.5988062
0
LINE
8
DEFAULT_255_2_778
10
15.2363596
20
122.5988062
11
15.3459596
21
122.5633062
0
LINE
8
DEFAULT_255_2_778
10
15.3459596
20
122.5633062
11
15.3459596
21
122.9324062
0
LINE
8
DEFAULT_255_2_778
10
15.3459596
20
122.9324062
11
15.0842596
21
122.9774062
0
LINE
8
DEFAULT_255_2_778
10
19.3059596
20
122.9528062
11
18.6082596
21
122.9528062
0
LINE
8
DEFAULT_255_2_778
10
18.6082596
20
122.9528062
11
18.6082596
21
121.0240062
0
LINE
8
DEFAULT_255_2_778
10
18.6082596
20
121.0240062
11
18.9982596
21
121.0240062
0
LINE
8
DEFAULT_255_2_778
10
18.9982596
20
121.0240062
11
18.9982596
21
122.2551062
0
LINE
8
DEFAULT_255_2_778
10
18.9982596
20
122.2551062
11
19.5316596
21
121.0034062
0
LINE
8
DEFAULT_255_2_778
10
19.5316596
20
121.0034062
11
19.8803596
21
121.0034062
0
LINE
8
DEFAULT_255_2_778
10
19.8803596
20
121.0034062
11
20.4343596
21
122.2755062
0
LINE
8
DEFAULT_255_2_778
10
20.4343596
20
122.2755062
11
20.4343596
21
121.0237062
0
LINE
8
DEFAULT_255_2_778
10
20.4343596
20
121.0237062
11
20.9884596
21
121.0237062
0
LINE
8
DEFAULT_255_2_778
10
20.9884596
20
121.0237062
11
20.9884596
21
122.9525062
0
LINE
8
DEFAULT_255_2_778
10
20.9884596
20
122.9525062
11
20.2907596
21
122.9525062
0
LINE
8
DEFAULT_255_2_778
10
20.2907596
20
122.9525062
11
19.8187596
21
121.7828062
0
LINE
8
DEFAULT_255_2_778
10
19.8187596
20
121.7828062
11
19.3056596
21
122.9525062
0
LINE
8
DEFAULT_255_2_778
10
26.2292596
20
122.6565062
11
26.3176596
21
122.6462062
0
LINE
8
DEFAULT_255_2_778
10
26.3176596
20
122.6462062
11
26.4139596
21
122.6279062
0
LINE
8
DEFAULT_255_2_778
10
26.4139596
20
122.6279062
11
26.5184596
21
122.6004062
0
LINE
8
DEFAULT_255_2_778
10
26.5184596
20
122.6004062
11
26.6314596
21
122.5628062
0
LINE
8
DEFAULT_255_2_778
10
26.6314596
20
122.5628062
11
26.6314596
21
122.9324062
0
LINE
8
DEFAULT_255_2_778
10
26.6314596
20
122.9324062
11
26.3660596
21
122.9758062
0
LINE
8
DEFAULT_255_2_778
10
26.3660596
20
122.9758062
11
26.1234596
21
123.0007062
0
LINE
8
DEFAULT_255_2_778
10
26.1234596
20
123.0007062
11
25.9078596
21
122.9920062
0
LINE
8
DEFAULT_255_2_778
10
25.9078596
20
122.9920062
11
25.7220596
21
122.9536062
0
LINE
8
DEFAULT_255_2_778
10
25.7220596
20
122.9536062
11
25.5681596
21
122.8917062
0
LINE
8
DEFAULT_255_2_778
10
25.5681596
20
122.8917062
11
25.4458596
21
122.8120062
0
LINE
8
DEFAULT_255_2_778
10
25.4458596
20
122.8120062
11
25.3564596
21
122.7205062
0
LINE
8
DEFAULT_255_2_778
10
25.3564596
20
122.7205062
11
25.2950596
21
122.6152062
0
LINE
8
DEFAULT_255_2_778
10
25.2950596
20
122.6152062
11
25.2601596
21
122.4930062
0
LINE
8
DEFAULT_255_2_778
10
25.2601596
20
122.4930062
11
25.2545596
21
122.3575062
0
LINE
8
DEFAULT_255_2_778
10
25.2545596
20
122.3575062
11
25.2783596
21
122.2313062
0
LINE
8
DEFAULT_255_2_778
10
25.2783596
20
122.2313062
11
25.3323596
21
122.1180062
0
LINE
8
DEFAULT_255_2_778
10
25.3323596
20
122.1180062
11
25.4157596
21
122.0157062
0
LINE
8
DEFAULT_255_2_778
10
25.4157596
20
122.0157062
11
25.5106596
21
121.9387062
0
LINE
8
DEFAULT_255_2_778
10
25.5106596
20
121.9387062
11
25.6027596
21
121.8852062
0
LINE
8
DEFAULT_255_2_778
10
25.6027596
20
121.8852062
11
26.0827596
21
121.6690062
0
LINE
8
DEFAULT_255_2_778
10
26.0827596
20
121.6690062
11
26.1292596
21
121.6429062
0
LINE
8
DEFAULT_255_2_778
10
26.1292596
20
121.6429062
11
26.1695596
21
121.6151062
0
LINE
8
DEFAULT_255_2_778
10
26.1695596
20
121.6151062
11
26.2012596
21
121.5836062
0
LINE
8
DEFAULT_255_2_778
10
26.2012596
20
121.5836062
11
26.2226596
21
121.5495062
0
LINE
8
DEFAULT_255_2_778
10
26.2226596
20
121.5495062
11
26.2311596
21
121.5148062
0
LINE
8
DEFAULT_255_2_778
10
26.2311596
20
121.5148062
11
26.2250596
21
121.4799062
0
LINE
8
DEFAULT_255_2_778
10
26.2250596
20
121.4799062
11
26.2049596
21
121.4460062
0
LINE
8
DEFAULT_255_2_778
10
26.2049596
20
121.4460062
11
26.1713596
21
121.4172062
0
LINE
8
DEFAULT_255_2_778
10
26.1713596
20
121.4172062
11
26.1276596
21
121.3939062
0
LINE
8
DEFAULT_255_2_778
10
26.1276596
20
121.3939062
11
26.0766596
21
121.3754062
0
LINE
8
DEFAULT_255_2_778
10
26.0766596
20
121.3754062
11
25.9543596
21
121.3492062
0
LINE
8
DEFAULT_255_2_778
10
25.9543596
20
121.3492062
11
25.8038596
21
121.3373062
0
LINE
8
DEFAULT_255_2_778
10
25.8038596
20
121.3373062
11
25.7167596
21
121.3386062
0
LINE
8
DEFAULT_255_2_778
10
25.7167596
20
121.3386062
11
25.6210596
21
121.3465062
0
LINE
8
DEFAULT_255_2_778
10
25.6210596
20
121.3465062
11
25.5159596
21
121.3635062
0
LINE
8
DEFAULT_255_2_778
10
25.5159596
20
121.3635062
11
25.4014596
21
121.3920062
0
LINE
8
DEFAULT_255_2_778
10
25.4014596
20
121.3920062
11
25.2773596
21
121.4346062
0
LINE
8
DEFAULT_255_2_778
10
25.2773596
20
121.4346062
11
25.2773596
21
121.0653062
0
LINE
8
DEFAULT_255_2_778
10
25.2773596
20
121.0653062
11
25.5599596
21
121.0007062
0
LINE
8
DEFAULT_255_2_778
10
25.5599596
20
121.0007062
11
25.8146596
21
120.9758062
0
LINE
8
DEFAULT_255_2_778
10
25.8146596
20
120.9758062
11
26.0403596
21
120.9846062
0
LINE
8
DEFAULT_255_2_778
10
26.0403596
20
120.9846062
11
26.2367596
21
121.0200062
0
LINE
8
DEFAULT_255_2_778
10
26.2367596
20
121.0200062
11
26.4028596
21
121.0777062
0
LINE
8
DEFAULT_255_2_778
10
26.4028596
20
121.0777062
11
26.5383596
21
121.1536062
0
LINE
8
DEFAULT_255_2_778
10
26.5383596
20
121.1536062
11
26.6401596
21
121.2433062
0
LINE
8
DEFAULT_255_2_778
10
26.6401596
20
121.2433062
11
26.7095596
21
121.3441062
0
LINE
8
DEFAULT_255_2_778
10
26.7095596
20
121.3441062
11
26.7518596
21
121.4584062
0
LINE
8
DEFAULT_255_2_778
10
26.7518596
20
121.4584062
11
26.7669596
21
121.5921062
0
LINE
8
DEFAULT_255_2_778
10
26.7669596
20
121.5921062
11
26.7529596
21
121.7251062
0
LINE
8
DEFAULT_255_2_778
10
26.7529596
20
121.7251062
11
26.7105596
21
121.8437062
0
LINE
8
DEFAULT_255_2_778
10
26.7105596
20
121.8437062
11
26.6383596
21
121.9532062
0
LINE
8
DEFAULT_255_2_778
10
26.6383596
20
121.9532062
11
26.5449596
21
122.0434062
0
LINE
8
DEFAULT_255_2_778
10
26.5449596
20
122.0434062
11
26.4481596
21
122.1067062
0
LINE
8
DEFAULT_255_2_778
10
26.4481596
20
122.1067062
11
26.2732596
21
122.1945062
0
LINE
8
DEFAULT_255_2_778
10
26.2732596
20
122.1945062
11
25.9959596
21
122.3191062
0
LINE
8
DEFAULT_255_2_778
10
25.9959596
20
122.3191062
11
25.8924596
21
122.3776062
0
LINE
8
DEFAULT_255_2_778
10
25.8924596
20
122.3776062
11
25.8522596
21
122.4104062
0
LINE
8
DEFAULT_255_2_778
10
25.8522596
20
122.4104062
11
25.8231596
21
122.4475062
0
LINE
8
DEFAULT_255_2_778
10
25.8231596
20
122.4475062
11
25.8075596
21
122.4863062
0
LINE
8
DEFAULT_255_2_778
10
25.8075596
20
122.4863062
11
25.8072596
21
122.5252062
0
LINE
8
DEFAULT_255_2_778
10
25.8072596
20
122.5252062
11
25.8221596
21
122.5647062
0
LINE
8
DEFAULT_255_2_778
10
25.8221596
20
122.5647062
11
25.8517596
21
122.6001062
0
LINE
8
DEFAULT_255_2_778
10
25.8517596
20
122.6001062
11
25.8943596
21
122.6258062
0
LINE
8
DEFAULT_255_2_778
10
25.8943596
20
122.6258062
11
25.9480596
21
122.6430062
0
LINE
8
DEFAULT_255_2_778
10
25.9480596
20
122.6430062
11
26.0086596
21
122.6544062
0
LINE
8
DEFAULT_255_2_778
10
26.0086596
20
122.6544062
11
26.0750596
21
122.6602062
0
LINE
8
DEFAULT_255_2_778
10
26.0750596
20
122.6602062
11
26.2290596
21
122.6567062
0
LINE
8
DEFAULT_255_2_778
10
23.8612596
20
122.9528062
11
23.2252596
21
122.9528062
0
LINE
8
DEFAULT_255_2_778
10
23.2252596
20
122.9528062
11
23.2252596
21
121.0240062
0
LINE
8
DEFAULT_255_2_778
10
23.2252596
20
121.0240062
11
23.6152596
21
121.0240062
0
LINE
8
DEFAULT_255_2_778
10
23.6152596
20
121.0240062
11
23.6152596
21
122.2551062
0
LINE
8
DEFAULT_255_2_778
10
23.6152596
20
122.2551062
11
24.3129596
21
121.0240062
0
LINE
8
DEFAULT_255_2_778
10
24.3129596
20
121.0240062
11
24.9489596
21
121.0240062
0
LINE
8
DEFAULT_255_2_778
10
24.9489596
20
121.0240062
11
24.9489596
21
122.9528062
0
LINE
8
DEFAULT_255_2_778
10
24.9489596
20
122.9528062
11
24.5386596
21
122.9528062
0
LINE
8
DEFAULT_255_2_778
10
24.5386596
20
122.9528062
11
24.5386596
21
121.7627062
0
LINE
8
DEFAULT_255_2_778
10
24.5386596
20
121.7627062
11
23.8615596
21
122.9528062
0
LINE
8
DEFAULT_255_2_778
10
22.8764596
20
122.9528062
11
21.4400596
21
122.9528062
0
LINE
8
DEFAULT_255_2_778
10
21.4400596
20
122.9528062
11
21.4400596
21
121.0240062
0
LINE
8
DEFAULT_255_2_778
10
21.4400596
20
121.0240062
11
22.8968596
21
121.0240062
0
LINE
8
DEFAULT_255_2_778
10
22.8968596
20
121.0240062
11
22.8968596
21
121.3727062
0
LINE
8
DEFAULT_255_2_778
10
22.8968596
20
121.3727062
11
22.0144596
21
121.3727062
0
LINE
8
DEFAULT_255_2_778
10
22.0144596
20
121.3727062
11
22.0144596
21
121.8447062
0
LINE
8
DEFAULT_255_2_778
10
22.0144596
20
121.8447062
11
22.7738596
21
121.8447062
0
LINE
8
DEFAULT_255_2_778
10
22.7738596
20
121.8447062
11
22.7738596
21
122.1524062
0
LINE
8
DEFAULT_255_2_778
10
22.7738596
20
122.1524062
11
22.0144596
21
122.1524062
0
LINE
8
DEFAULT_255_2_778
10
22.0144596
20
122.1524062
11
22.0144596
21
122.6041062
0
LINE
8
DEFAULT_255_2_778
10
22.0144596
20
122.6041062
11
22.8762596
21
122.6041062
0
LINE
8
DEFAULT_255_2_778
10
22.8762596
20
122.6041062
11
22.8762596
21
122.9528062
0
LINE
8
DEFAULT_255_2_778
10
18.2388596
20
122.9528062
11
16.8230596
21
122.9528062
0
LINE
8
DEFAULT_255_2_778
10
16.8230596
20
122.9528062
11
16.8230596
21
121.0240062
0
LINE
8
DEFAULT_255_2_778
10
16.8230596
20
121.0240062
11
18.2595596
21
121.0240062
0
LINE
8
DEFAULT_255_2_778
10
18.2595596
20
121.0240062
11
18.2595596
21
121.3727062
0
LINE
8
DEFAULT_255_2_778
10
18.2595596
20
121.3727062
11
17.3771596
21
121.3727062
0
LINE
8
DEFAULT_255_2_778
10
17.3771596
20
121.3727062
11
17.3771596
21
121.8447062
0
LINE
8
DEFAULT_255_2_778
10
17.3771596
20
121.8447062
11
18.1364596
21
121.8447062
0
LINE
8
DEFAULT_255_2_778
10
18.1364596
20
121.8447062
11
18.1364596
21
122.1524062
0
LINE
8
DEFAULT_255_2_778
10
18.1364596
20
122.1524062
11
17.3771596
21
122.1524062
0
LINE
8
DEFAULT_255_2_778
10
17.3771596
20
122.1524062
11
17.3771596
21
122.6041062
0
LINE
8
DEFAULT_255_2_778
10
17.3771596
20
122.6041062
11
18.2388596
21
122.6041062
0
LINE
8
DEFAULT_255_2_778
10
18.2388596
20
122.6041062
11
18.2388596
21
122.9528062
0
LINE
8
DEFAULT_255_2_778
10
16.3714596
20
122.9528062
11
15.7764596
21
122.9528062
0
LINE
8
DEFAULT_255_2_778
10
15.7764596
20
122.9528062
11
15.7764596
21
121.0240062
0
LINE
8
DEFAULT_255_2_778
10
15.7764596
20
121.0240062
11
16.3714596
21
121.0240062
0
LINE
8
DEFAULT_255_2_778
10
16.3714596
20
121.0240062
11
16.3714596
21
122.9528062
0
ENDSEC
0
EOF