0
SECTION
2
HEADER
9
$MEASUREMENT
70
1
0
ENDSEC
0
SECTION
2
TABLES
0
TABLE
2
LTYPE
0
LTYPE
72
65
70
64
2
CONTINUOUS
3
______
73
0
40
0
0
ENDTAB
0
TABLE
2
LAYER
0
LAYER
2
DEFAULT_255_2_778
70
0
62
255
6
CONTINUOUS
0
ENDTAB
0
ENDSEC
0
SECTION
2
ENTITIES
0
ARC
8
DEFAULT_255_2_778
10
1.7423848
20
103.8992086
40
1.194407
50
54.5513289
51
90.0926922
0
ARC
8
DEFAULT_255_2_778
10
1.7414238
20
103.8943086
40
1.1989577
50
5.3438778
51
54.6497258
0
ARC
8
DEFAULT_255_2_778
10
1.7254573
20
103.8938782
40
1.2148953
50
359.9922565
51
5.293957
0
ARC
8
DEFAULT_255_2_778
10
1.7461211
20
103.8918957
40
1.1942328
50
324.5463566
51
0.0872367
0
ARC
8
DEFAULT_255_2_778
10
1.7407952
20
103.8929533
40
1.1991866
50
275.3542067
51
324.6527959
0
ARC
8
DEFAULT_255_2_778
10
1.7406179
20
103.9077496
40
1.2139355
50
269.9921948
51
275.2973763
0
ARC
8
DEFAULT_255_2_778
10
1.7423674
20
77.8994771
40
1.1943384
50
54.5479662
51
90.0918639
0
ARC
8
DEFAULT_255_2_778
10
1.7413395
20
77.8944304
40
1.1990475
50
5.3464965
51
54.6478285
0
ARC
8
DEFAULT_255_2_778
10
1.7257615
20
77.8940771
40
1.2145911
50
359.9923059
51
5.2946162
0
ARC
8
DEFAULT_255_2_778
10
1.7461211
20
77.8920957
40
1.1942328
50
324.5463566
51
0.0872367
0
ARC
8
DEFAULT_255_2_778
10
1.7407952
20
77.8931533
40
1.1991866
50
275.3542067
51
324.6527959
0
ARC
8
DEFAULT_255_2_778
10
1.7406179
20
77.9079496
40
1.2139355
50
269.9921948
51
275.2973763
0
ARC
8
DEFAULT_255_2_778
10
1.7423806
20
46.6996704
40
1.1944452
50
54.5578036
51
90.0924899
0
ARC
8
DEFAULT_255_2_778
10
1.7415067
20
46.6948526
40
1.1988788
50
5.3466739
51
54.6572939
0
ARC
8
DEFAULT_255_2_778
10
1.7258345
20
46.6944799
40
1.214518
50
359.992175
51
5.2952861
0
ARC
8
DEFAULT_255_2_778
10
1.746086
20
46.6924635
40
1.1942679
50
324.5468923
51
0.0887817
0
ARC
8
DEFAULT_255_2_778
10
1.7408528
20
46.6935117
40
1.1991408
50
275.3516494
51
324.6511289
0
ARC
8
DEFAULT_255_2_778
10
1.7406178
20
46.7085368
40
1.2141228
50
269.9921976
51
275.2965583
0
ARC
8
DEFAULT_255_2_778
10
1.7423848
20
20.6999086
40
1.194407
50
54.5513289
51
90.0926922
0
ARC
8
DEFAULT_255_2_778
10
1.7414238
20
20.6950086
40
1.1989577
50
5.3438778
51
54.6497258
0
ARC
8
DEFAULT_255_2_778
10
1.7254573
20
20.6945782
40
1.2148953
50
359.9922565
51
5.293957
0
ARC
8
DEFAULT_255_2_778
10
1.7462695
20
20.6925823
40
1.1940844
50
324.5440759
51
0.0878931
0
ARC
8
DEFAULT_255_2_778
10
1.7408481
20
20.6937513
40
1.1991807
50
275.3516985
51
324.6488348
0
ARC
8
DEFAULT_255_2_778
10
1.7406178
20
20.7087368
40
1.2141228
50
269.9921976
51
275.2965582
0
ARC
8
DEFAULT_255_2_778
10
24.7385244
20
20.6890577
40
1.1944452
50
234.5578036
51
270.0924899
0
ARC
8
DEFAULT_255_2_778
10
24.7393983
20
20.6938755
40
1.1988788
50
185.3466739
51
234.6572939
0
ARC
8
DEFAULT_255_2_778
10
24.7550705
20
20.6942482
40
1.214518
50
179.992175
51
185.2952861
0
ARC
8
DEFAULT_255_2_778
10
24.7348875
20
20.696282
40
1.1943365
50
144.550255
51
180.0896104
0
ARC
8
DEFAULT_255_2_778
10
24.739974
20
20.6953007
40
1.199051
50
95.3490305
51
144.6530265
0
ARC
8
DEFAULT_255_2_778
10
24.7402861
20
20.6798872
40
1.2144269
50
89.9921482
51
95.2958988
0
ARC
8
DEFAULT_255_2_778
10
24.7385202
20
46.6888195
40
1.194407
50
234.5513289
51
270.0926922
0
ARC
8
DEFAULT_255_2_778
10
24.7394812
20
46.6937195
40
1.1989577
50
185.3438778
51
234.6497258
0
ARC
8
DEFAULT_255_2_778
10
24.7554477
20
46.6941498
40
1.2148953
50
179.9922565
51
185.293957
0
ARC
8
DEFAULT_255_2_778
10
24.734704
20
46.6961632
40
1.194153
50
144.5474388
51
180.088722
0
ARC
8
DEFAULT_255_2_778
10
24.7399787
20
46.6950611
40
1.1990908
50
95.3490796
51
144.6507323
0
ARC
8
DEFAULT_255_2_778
10
24.7402861
20
46.6796872
40
1.2144269
50
89.9921482
51
95.2958987
0
ARC
8
DEFAULT_255_2_778
10
24.7385376
20
77.8883509
40
1.1943384
50
234.5479662
51
270.0918639
0
ARC
8
DEFAULT_255_2_778
10
24.7395655
20
77.8933976
40
1.1990475
50
185.3464965
51
234.6478285
0
ARC
8
DEFAULT_255_2_778
10
24.7551435
20
77.8937509
40
1.2145911
50
179.9923059
51
185.2946162
0
ARC
8
DEFAULT_255_2_778
10
24.7348524
20
77.8957497
40
1.1943014
50
144.5497193
51
180.0880656
0
ARC
8
DEFAULT_255_2_778
10
24.7400315
20
77.8947591
40
1.1990968
50
95.3515876
51
144.6546935
0
ARC
8
DEFAULT_255_2_778
10
24.740286
20
77.8795745
40
1.2142395
50
89.9921454
51
95.2967167
0
ARC
8
DEFAULT_255_2_778
10
24.7385376
20
103.8879509
40
1.1943384
50
234.5479662
51
270.0918639
0
ARC
8
DEFAULT_255_2_778
10
24.7395655
20
103.8929976
40
1.1990475
50
185.3464965
51
234.6478285
0
ARC
8
DEFAULT_255_2_778
10
24.7551435
20
103.8933509
40
1.2145911
50
179.9923059
51
185.2946162
0
ARC
8
DEFAULT_255_2_778
10
24.7348524
20
103.8953497
40
1.1943014
50
144.5497193
51
180.0880656
0
ARC
8
DEFAULT_255_2_778
10
24.7400315
20
103.8943591
40
1.1990968
50
95.3515876
51
144.6546935
0
ARC
8
DEFAULT_255_2_778
10
24.740286
20
103.8791745
40
1.2142395
50
89.9921454
51
95.2967167
0
LINE
8
DEFAULT_255_2_778
10
30.7263525
20
124.793714
11
30.6059525
21
124.786614
0
LINE
8
DEFAULT_255_2_778
10
30.6059525
20
124.786614
11
30.4884525
21
124.765114
0
LINE
8
DEFAULT_255_2_778
10
30.4884525
20
124.765114
11
30.3763525
21
124.730514
0
LINE
8
DEFAULT_255_2_778
10
30.3763525
20
124.730514
11
30.2715525
21
124.684414
0
LINE
8
DEFAULT_255_2_778
10
30.2715525
20
124.684414
11
30.1757525
21
124.628614
0
LINE
8
DEFAULT_255_2_778
10
30.1757525
20
124.628614
11
30.0897525
21
124.565114
0
LINE
8
DEFAULT_255_2_778
10
30.0897525
20
124.565114
11
30.0140525
21
124.495814
0
LINE
8
DEFAULT_255_2_778
10
30.0140525
20
124.495814
11
29.9484525
21
124.422214
0
LINE
8
DEFAULT_255_2_778
10
29.9484525
20
124.422214
11
29.8926525
21
124.346014
0
LINE
8
DEFAULT_255_2_778
10
29.8926525
20
124.346014
11
29.8460525
21
124.268214
0
LINE
8
DEFAULT_255_2_778
10
29.8460525
20
124.268214
11
29.8079525
21
124.189414
0
LINE
8
DEFAULT_255_2_778
10
29.8079525
20
124.189414
11
29.7778525
21
124.110314
0
LINE
8
DEFAULT_255_2_778
10
29.7778525
20
124.110314
11
29.7547525
21
124.030914
0
LINE
8
DEFAULT_255_2_778
10
29.7547525
20
124.030914
11
29.7389525
21
123.951814
0
LINE
8
DEFAULT_255_2_778
10
29.7389525
20
123.951814
11
29.7293525
21
123.872714
0
LINE
8
DEFAULT_255_2_778
10
29.7293525
20
123.872714
11
29.7262525
21
123.793614
0
LINE
8
DEFAULT_255_2_778
10
29.7262525
20
123.793614
11
29.7262525
21
122.493714
0
LINE
8
DEFAULT_255_2_778
10
1.2406525
20
124.793714
11
1.2406525
21
124.788414
0
LINE
8
DEFAULT_255_2_778
10
10.2404525
20
114.293714
11
1.7404525
21
114.293714
0
LINE
8
DEFAULT_255_2_778
10
1.7404525
20
114.293714
11
1.7404525
21
105.093614
0
LINE
8
DEFAULT_255_2_778
10
1.7404525
20
102.693814
11
1.7404525
21
79.093814
0
LINE
8
DEFAULT_255_2_778
10
1.7404525
20
76.694014
11
1.7404525
21
47.894114
0
LINE
8
DEFAULT_255_2_778
10
1.7404525
20
45.494414
11
1.7404525
21
21.894314
0
LINE
8
DEFAULT_255_2_778
10
1.7404525
20
19.494614
11
1.7404525
21
10.294514
0
LINE
8
DEFAULT_255_2_778
10
1.7404525
20
10.294514
11
24.7404525
21
10.294514
0
LINE
8
DEFAULT_255_2_778
10
24.7404525
20
10.294514
11
24.7404525
21
19.494614
0
LINE
8
DEFAULT_255_2_778
10
24.7404525
20
21.894314
11
24.7404525
21
45.494414
0
LINE
8
DEFAULT_255_2_778
10
24.7404525
20
47.894114
11
24.7404525
21
76.694014
0
LINE
8
DEFAULT_255_2_778
10
24.7404525
20
79.093814
11
24.7404525
21
102.693614
0
LINE
8
DEFAULT_255_2_778
10
24.7404525
20
105.093414
11
24.7404525
21
114.293714
0
LINE
8
DEFAULT_255_2_778
10
24.7404525
20
114.293714
11
16.2404525
21
114.293714
0
LINE
8
DEFAULT_255_2_778
10
1.7404338
20
56.7937463
11
4.8405338
21
56.7937463
0
LINE
8
DEFAULT_255_2_778
10
4.8405338
20
56.7937463
11
4.8405338
21
67.7937463
0
LINE
8
DEFAULT_255_2_778
10
4.8405338
20
67.7937463
11
1.7404338
21
67.7937463
0
LINE
8
DEFAULT_255_2_778
10
16.2404338
20
115.7936463
11
10.2404338
21
115.7936463
0
LINE
8
DEFAULT_255_2_778
10
10.2404338
20
115.7936463
11
10.2404338
21
112.7935463
0
LINE
8
DEFAULT_255_2_778
10
10.2404338
20
112.7935463
11
16.2404338
21
112.7935463
0
LINE
8
DEFAULT_255_2_778
10
16.2404338
20
112.7935463
11
16.2404338
21
115.7936463
0
LINE
8
DEFAULT_255_2_778
10
33.3549338
20
122.3937463
11
33.3549338
21
123.7936463
0
LINE
8
DEFAULT_255_2_778
10
33.3549338
20
123.7936463
11
33.3518338
21
123.8727463
0
LINE
8
DEFAULT_255_2_778
10
33.3518338
20
123.8727463
11
33.3422338
21
123.9518463
0
LINE
8
DEFAULT_255_2_778
10
33.3422338
20
123.9518463
11
33.3264338
21
124.0309463
0
LINE
8
DEFAULT_255_2_778
10
33.3264338
20
124.0309463
11
33.3033338
21
124.1103463
0
LINE
8
DEFAULT_255_2_778
10
33.3033338
20
124.1103463
11
33.2732338
21
124.1894463
0
LINE
8
DEFAULT_255_2_778
10
33.2732338
20
124.1894463
11
33.2351338
21
124.2682463
0
LINE
8
DEFAULT_255_2_778
10
33.2351338
20
124.2682463
11
33.1885338
21
124.3460463
0
LINE
8
DEFAULT_255_2_778
10
33.1885338
20
124.3460463
11
33.1327338
21
124.4222463
0
LINE
8
DEFAULT_255_2_778
10
33.1327338
20
124.4222463
11
33.0671338
21
124.4958463
0
LINE
8
DEFAULT_255_2_778
10
33.0671338
20
124.4958463
11
32.9914338
21
124.5651463
0
LINE
8
DEFAULT_255_2_778
10
32.9914338
20
124.5651463
11
32.9054338
21
124.6286463
0
LINE
8
DEFAULT_255_2_778
10
32.9054338
20
124.6286463
11
32.8096338
21
124.6844463
0
LINE
8
DEFAULT_255_2_778
10
32.8096338
20
124.6844463
11
32.7049338
21
124.7305463
0
LINE
8
DEFAULT_255_2_778
10
32.7049338
20
124.7305463
11
32.5927338
21
124.7651463
0
LINE
8
DEFAULT_255_2_778
10
32.5927338
20
124.7651463
11
32.4752338
21
124.7866463
0
LINE
8
DEFAULT_255_2_778
10
32.4752338
20
124.7866463
11
32.3548338
21
124.7937463
0
LINE
8
DEFAULT_255_2_778
10
26.7403338
20
119.0938463
11
26.7403338
21
122.3937463
0
LINE
8
DEFAULT_255_2_778
10
26.7403338
20
56.6937463
11
29.8209338
21
56.6937463
0
LINE
8
DEFAULT_255_2_778
10
29.8209338
20
56.6937463
11
29.8209338
21
5.4936463
0
LINE
8
DEFAULT_255_2_778
10
29.8209338
20
5.4936463
11
26.7406338
21
5.4936463
0
LINE
8
DEFAULT_255_2_778
10
26.7406338
20
5.4936463
11
26.7210338
21
119.0935463
0
LINE
8
DEFAULT_255_2_778
10
26.7210338
20
119.0935463
11
29.8209338
21
119.0935463
0
LINE
8
DEFAULT_255_2_778
10
40.2405141
20
124.7938056
11
0.2405141
21
124.7938056
0
LINE
8
DEFAULT_255_2_778
10
0.2405141
20
124.7938056
11
0.2405141
21
-0.2061944
0
LINE
8
DEFAULT_255_2_778
10
0.2405141
20
-0.2061944
11
40.2405141
21
-0.2061944
0
LINE
8
DEFAULT_255_2_778
10
40.2405141
20
-0.2061944
11
40.2405141
21
124.7938056
0
ARC
8
DEFAULT_255_2_778
10
26.7406548
20
2.5936995
40
0.5000116
50
179.9898688
51
269.9986732
0
ARC
8
DEFAULT_255_2_778
10
4.3379204
20
6.7959327
40
0.9472803
50
138.7727129
51
180.1478761
0
ARC
8
DEFAULT_255_2_778
10
4.3379926
20
6.7969134
40
0.9466888
50
92.2547351
51
138.8202308
0
ARC
8
DEFAULT_255_2_778
10
4.3407041
20
6.7678869
40
0.9758009
50
89.9977044
51
92.3467712
0
ARC
8
DEFAULT_255_2_778
10
4.3432853
20
6.7966013
40
0.94709
50
49.1119526
51
90.1537831
0
ARC
8
DEFAULT_255_2_778
10
4.3439128
20
6.7963899
40
0.9468392
50
2.2629974
51
49.1490367
0
ARC
8
DEFAULT_255_2_778
10
4.3140987
20
6.7935288
40
0.9767444
50
359.9975984
51
2.3616381
0
ARC
8
DEFAULT_255_2_778
10
4.3437161
20
6.7909501
40
0.9471305
50
319.1137343
51
0.1535204
0
ARC
8
DEFAULT_255_2_778
10
4.3436048
20
6.7902045
40
0.9467268
50
272.2652623
51
319.1522587
0
ARC
8
DEFAULT_255_2_778
10
4.340784
20
6.8197804
40
0.9763924
50
269.9976072
51
272.3620595
0
ARC
8
DEFAULT_255_2_778
10
4.3382055
20
6.790515
40
0.9471305
50
229.1137343
51
270.1535204
0
ARC
8
DEFAULT_255_2_778
10
4.3374599
20
6.7906263
40
0.9467268
50
182.2652623
51
229.1522587
0
ARC
8
DEFAULT_255_2_778
10
4.3670357
20
6.7934471
40
0.9763924
50
179.9976072
51
182.3620595
0
LINE
8
DEFAULT_255_2_778
10
33.3547432
20
0.7937879
11
33.3584432
21
2.0936879
0
LINE
8
DEFAULT_255_2_778
10
33.3613432
20
0.7937879
11
33.3420432
21
0.6345879
0
LINE
8
DEFAULT_255_2_778
10
33.3420432
20
0.6345879
11
33.3258432
21
0.5548879
0
LINE
8
DEFAULT_255_2_778
10
33.3258432
20
0.5548879
11
33.3025432
21
0.4749879
0
LINE
8
DEFAULT_255_2_778
10
33.3025432
20
0.4749879
11
33.2719432
21
0.3953879
0
LINE
8
DEFAULT_255_2_778
10
33.2719432
20
0.3953879
11
33.2332432
21
0.3162879
0
LINE
8
DEFAULT_255_2_778
10
33.2332432
20
0.3162879
11
33.1861432
21
0.2381879
0
LINE
8
DEFAULT_255_2_778
10
33.1861432
20
0.2381879
11
33.1298432
21
0.1617879
0
LINE
8
DEFAULT_255_2_778
10
33.1298432
20
0.1617879
11
33.0636432
21
0.0881879
0
LINE
8
DEFAULT_255_2_778
10
33.0636432
20
0.0881879
11
32.9874432
21
0.0190879
0
LINE
8
DEFAULT_255_2_778
10
32.9874432
20
0.0190879
11
32.9014432
21
-0.0438121
0
LINE
8
DEFAULT_255_2_778
10
32.9014432
20
-0.0438121
11
32.8062432
21
-0.0986121
0
LINE
8
DEFAULT_255_2_778
10
32.8062432
20
-0.0986121
11
32.7033432
21
-0.1436121
0
LINE
8
DEFAULT_255_2_778
10
32.7033432
20
-0.1436121
11
32.5929432
21
-0.1774121
0
LINE
8
DEFAULT_255_2_778
10
32.5929432
20
-0.1774121
11
32.4763432
21
-0.1989121
0
LINE
8
DEFAULT_255_2_778
10
32.4763432
20
-0.1989121
11
32.3545432
21
-0.2063121
0
LINE
8
DEFAULT_255_2_778
10
1.7404432
20
45.1472879
11
1.8835432
21
44.8993879
0
LINE
8
DEFAULT_255_2_778
10
40.2404432
20
122.3936879
11
26.2406432
21
122.3936879
0
LINE
8
DEFAULT_255_2_778
10
26.2406432
20
122.3936879
11
26.2406432
21
2.5937879
0
LINE
8
DEFAULT_255_2_778
10
26.7406432
20
2.0936879
11
40.2407432
21
2.0936879
0
LINE
8
DEFAULT_255_2_778
10
32.2477432
20
2.0936879
11
32.2477432
21
-0.2063121
0
LINE
8
DEFAULT_255_2_778
10
30.8335432
20
-0.2063121
11
30.8335432
21
2.0936879
0
LINE
8
DEFAULT_255_2_778
10
29.7262432
20
2.0936879
11
29.7262432
21
0.7937879
0
LINE
8
DEFAULT_255_2_778
10
29.7262432
20
0.7937879
11
29.7293432
21
0.7146879
0
LINE
8
DEFAULT_255_2_778
10
29.7293432
20
0.7146879
11
29.7389432
21
0.6355879
0
LINE
8
DEFAULT_255_2_778
10
29.7389432
20
0.6355879
11
29.7547432
21
0.5564879
0
LINE
8
DEFAULT_255_2_778
10
29.7547432
20
0.5564879
11
29.7778432
21
0.4770879
0
LINE
8
DEFAULT_255_2_778
10
29.7778432
20
0.4770879
11
29.8079432
21
0.3979879
0
LINE
8
DEFAULT_255_2_778
10
29.8079432
20
0.3979879
11
29.8460432
21
0.3191879
0
LINE
8
DEFAULT_255_2_778
10
29.8460432
20
0.3191879
11
29.8926432
21
0.2413879
0
LINE
8
DEFAULT_255_2_778
10
29.8926432
20
0.2413879
11
29.9484432
21
0.1651879
0
LINE
8
DEFAULT_255_2_778
10
29.9484432
20
0.1651879
11
30.0140432
21
0.0915879
0
LINE
8
DEFAULT_255_2_778
10
30.0140432
20
0.0915879
11
30.0897432
21
0.0222879
0
LINE
8
DEFAULT_255_2_778
10
30.0897432
20
0.0222879
11
30.1757432
21
-0.0412121
0
LINE
8
DEFAULT_255_2_778
10
30.1757432
20
-0.0412121
11
30.2715432
21
-0.0970121
0
LINE
8
DEFAULT_255_2_778
10
30.2715432
20
-0.0970121
11
30.3763432
21
-0.1430121
0
LINE
8
DEFAULT_255_2_778
10
30.3763432
20
-0.1430121
11
30.4884432
21
-0.1777121
0
LINE
8
DEFAULT_255_2_778
10
30.4884432
20
-0.1777121
11
30.6059432
21
-0.1991121
0
LINE
8
DEFAULT_255_2_778
10
30.6059432
20
-0.1991121
11
30.7263432
21
-0.2063121
0
LINE
8
DEFAULT_255_2_778
10
3.3906432
20
6.7934879
11
3.3906432
21
6.7934879
0
LINE
8
DEFAULT_255_2_778
10
6.9405459
20
9.3438541
11
1.8404459
21
9.3438541
0
LINE
8
DEFAULT_255_2_778
10
1.8404459
20
9.3438541
11
1.8404459
21
4.2437541
0
LINE
8
DEFAULT_255_2_778
10
1.8404459
20
4.2437541
11
6.9405459
21
4.2437541
0
LINE
8
DEFAULT_255_2_778
10
6.9405459
20
4.2437541
11
6.9405459
21
9.3438541
0
LINE
8
DEFAULT_255_2_778
10
35.817224
20
45.1813875
11
35.567624
21
45.1813875
0
LINE
8
DEFAULT_255_2_778
10
35.567624
20
45.1813875
11
35.302824
21
44.9741875
0
LINE
8
DEFAULT_255_2_778
10
35.302824
20
44.9741875
11
35.040624
21
44.8429875
0
LINE
8
DEFAULT_255_2_778
10
35.040624
20
44.8429875
11
35.040624
21
44.5685875
0
LINE
8
DEFAULT_255_2_778
10
35.040624
20
44.5685875
11
35.417424
21
44.7603875
0
LINE
8
DEFAULT_255_2_778
10
35.417424
20
44.7603875
11
35.522424
21
44.8413875
0
LINE
8
DEFAULT_255_2_778
10
35.522424
20
44.8413875
11
35.522424
21
42.9937875
0
LINE
8
DEFAULT_255_2_778
10
35.522424
20
42.9937875
11
35.817224
21
42.9937875
0
LINE
8
DEFAULT_255_2_778
10
35.817224
20
42.9937875
11
35.817224
21
45.1813875
0
LINE
8
DEFAULT_255_2_778
10
36.0886281
20
34.7957864
11
35.8823281
21
34.8253864
0
LINE
8
DEFAULT_255_2_778
10
35.8823281
20
34.8253864
11
35.6611281
21
34.8150864
0
LINE
8
DEFAULT_255_2_778
10
35.6611281
20
34.8150864
11
35.4883281
21
34.7719864
0
LINE
8
DEFAULT_255_2_778
10
35.4883281
20
34.7719864
11
35.2841281
21
34.6520864
0
LINE
8
DEFAULT_255_2_778
10
35.2841281
20
34.6520864
11
35.1872281
21
34.5401864
0
LINE
8
DEFAULT_255_2_778
10
35.1872281
20
34.5401864
11
35.1391281
21
34.4414864
0
LINE
8
DEFAULT_255_2_778
10
35.1391281
20
34.4414864
11
35.1182281
21
34.3700864
0
LINE
8
DEFAULT_255_2_778
10
35.1182281
20
34.3700864
11
35.1092281
21
34.3207864
0
LINE
8
DEFAULT_255_2_778
10
35.1092281
20
34.3207864
11
35.1049281
21
34.2834864
0
LINE
8
DEFAULT_255_2_778
10
35.1049281
20
34.2834864
11
35.1031281
21
34.2215864
0
LINE
8
DEFAULT_255_2_778
10
35.1031281
20
34.2215864
11
35.3883281
21
34.2215864
0
LINE
8
DEFAULT_255_2_778
10
35.3883281
20
34.2215864
11
35.3907281
21
34.2707864
0
LINE
8
DEFAULT_255_2_778
10
35.3907281
20
34.2707864
11
35.3970281
21
34.3072864
0
LINE
8
DEFAULT_255_2_778
10
35.3970281
20
34.3072864
11
35.4108281
21
34.3530864
0
LINE
8
DEFAULT_255_2_778
10
35.4108281
20
34.3530864
11
35.4417281
21
34.4144864
0
LINE
8
DEFAULT_255_2_778
10
35.4417281
20
34.4144864
11
35.5227281
21
34.4991864
0
LINE
8
DEFAULT_255_2_778
10
35.5227281
20
34.4991864
11
35.6521281
21
34.5650864
0
LINE
8
DEFAULT_255_2_778
10
35.6521281
20
34.5650864
11
35.8590281
21
34.5888864
0
LINE
8
DEFAULT_255_2_778
10
35.8590281
20
34.5888864
11
36.0302281
21
34.5549864
0
LINE
8
DEFAULT_255_2_778
10
36.0302281
20
34.5549864
11
36.1577281
21
34.4766864
0
LINE
8
DEFAULT_255_2_778
10
36.1577281
20
34.4766864
11
36.2159281
21
34.4049864
0
LINE
8
DEFAULT_255_2_778
10
36.2159281
20
34.4049864
11
36.2440281
21
34.3416864
0
LINE
8
DEFAULT_255_2_778
10
36.2440281
20
34.3416864
11
36.2535281
21
34.3062864
0
LINE
8
DEFAULT_255_2_778
10
36.2535281
20
34.3062864
11
36.2596281
21
34.2689864
0
LINE
8
DEFAULT_255_2_778
10
36.2596281
20
34.2689864
11
36.2572281
21
34.1623864
0
LINE
8
DEFAULT_255_2_778
10
36.2572281
20
34.1623864
11
36.2463281
21
34.1167864
0
LINE
8
DEFAULT_255_2_778
10
36.2463281
20
34.1167864
11
36.2101281
21
34.0421864
0
LINE
8
DEFAULT_255_2_778
10
36.2101281
20
34.0421864
11
36.0953281
21
33.9331864
0
LINE
8
DEFAULT_255_2_778
10
36.0953281
20
33.9331864
11
35.8839281
21
33.8514864
0
LINE
8
DEFAULT_255_2_778
10
35.8839281
20
33.8514864
11
35.7632281
21
33.8411864
0
LINE
8
DEFAULT_255_2_778
10
35.7632281
20
33.8411864
11
35.6651281
21
33.8411864
0
LINE
8
DEFAULT_255_2_778
10
35.6651281
20
33.8411864
11
35.6651281
21
33.5947864
0
LINE
8
DEFAULT_255_2_778
10
35.6651281
20
33.5947864
11
35.9820281
21
33.5736864
0
LINE
8
DEFAULT_255_2_778
10
35.9820281
20
33.5736864
11
36.1746281
21
33.4905864
0
LINE
8
DEFAULT_255_2_778
10
36.1746281
20
33.4905864
11
36.2511281
21
33.4156864
0
LINE
8
DEFAULT_255_2_778
10
36.2511281
20
33.4156864
11
36.2839281
21
33.3566864
0
LINE
8
DEFAULT_255_2_778
10
36.2839281
20
33.3566864
11
36.2979281
21
33.3121864
0
LINE
8
DEFAULT_255_2_778
10
36.2979281
20
33.3121864
11
36.3040281
21
33.2772864
0
LINE
8
DEFAULT_255_2_778
10
36.3040281
20
33.2772864
11
36.3030281
21
33.1574864
0
LINE
8
DEFAULT_255_2_778
10
36.3030281
20
33.1574864
11
36.2950281
21
33.1148864
0
LINE
8
DEFAULT_255_2_778
10
36.2950281
20
33.1148864
11
36.2794281
21
33.0629864
0
LINE
8
DEFAULT_255_2_778
10
36.2794281
20
33.0629864
11
36.2514281
21
33.0034864
0
LINE
8
DEFAULT_255_2_778
10
36.2514281
20
33.0034864
11
36.1860281
21
32.9214864
0
LINE
8
DEFAULT_255_2_778
10
36.1860281
20
32.9214864
11
36.0701281
21
32.8422864
0
LINE
8
DEFAULT_255_2_778
10
36.0701281
20
32.8422864
11
35.8899281
21
32.7957864
0
LINE
8
DEFAULT_255_2_778
10
35.8899281
20
32.7957864
11
35.6545281
21
32.8208864
0
LINE
8
DEFAULT_255_2_778
10
35.6545281
20
32.8208864
11
35.5026281
21
32.9132864
0
LINE
8
DEFAULT_255_2_778
10
35.5026281
20
32.9132864
11
35.4103281
21
33.0256864
0
LINE
8
DEFAULT_255_2_778
10
35.4103281
20
33.0256864
11
35.3610281
21
33.1299864
0
LINE
8
DEFAULT_255_2_778
10
35.3610281
20
33.1299864
11
35.3417281
21
33.1936864
0
LINE
8
DEFAULT_255_2_778
10
35.3417281
20
33.1936864
11
35.0409281
21
33.1936864
0
LINE
8
DEFAULT_255_2_778
10
35.0409281
20
33.1936864
11
35.0494281
21
33.1463864
0
LINE
8
DEFAULT_255_2_778
10
35.0494281
20
33.1463864
11
35.0605281
21
33.0994864
0
LINE
8
DEFAULT_255_2_778
10
35.0605281
20
33.0994864
11
35.0822281
21
33.0304864
0
LINE
8
DEFAULT_255_2_778
10
35.0822281
20
33.0304864
11
35.1187281
21
32.9460864
0
LINE
8
DEFAULT_255_2_778
10
35.1187281
20
32.9460864
11
35.1645281
21
32.8682864
0
LINE
8
DEFAULT_255_2_778
10
35.1645281
20
32.8682864
11
35.2354281
21
32.7806864
0
LINE
8
DEFAULT_255_2_778
10
35.2354281
20
32.7806864
11
35.3219281
21
32.7031864
0
LINE
8
DEFAULT_255_2_778
10
35.3219281
20
32.7031864
11
35.4542281
21
32.6219864
0
LINE
8
DEFAULT_255_2_778
10
35.4542281
20
32.6219864
11
35.6018281
21
32.5692864
0
LINE
8
DEFAULT_255_2_778
10
35.6018281
20
32.5692864
11
35.7928281
21
32.5443864
0
LINE
8
DEFAULT_255_2_778
10
35.7928281
20
32.5443864
11
36.0013281
21
32.5565864
0
LINE
8
DEFAULT_255_2_778
10
36.0013281
20
32.5565864
11
36.1884281
21
32.6044864
0
LINE
8
DEFAULT_255_2_778
10
36.1884281
20
32.6044864
11
36.3315281
21
32.6769864
0
LINE
8
DEFAULT_255_2_778
10
36.3315281
20
32.6769864
11
36.4310281
21
32.7576864
0
LINE
8
DEFAULT_255_2_778
10
36.4310281
20
32.7576864
11
36.4980281
21
32.8378864
0
LINE
8
DEFAULT_255_2_778
10
36.4980281
20
32.8378864
11
36.5392281
21
32.9095864
0
LINE
8
DEFAULT_255_2_778
10
36.5392281
20
32.9095864
11
36.5633281
21
32.9669864
0
LINE
8
DEFAULT_255_2_778
10
36.5633281
20
32.9669864
11
36.5818281
21
33.0280864
0
LINE
8
DEFAULT_255_2_778
10
36.5818281
20
33.0280864
11
36.5911281
21
33.0722864
0
LINE
8
DEFAULT_255_2_778
10
36.5911281
20
33.0722864
11
36.5974281
21
33.1169864
0
LINE
8
DEFAULT_255_2_778
10
36.5974281
20
33.1169864
11
36.5953281
21
33.3042864
0
LINE
8
DEFAULT_255_2_778
10
36.5953281
20
33.3042864
11
36.5850281
21
33.3587864
0
LINE
8
DEFAULT_255_2_778
10
36.5850281
20
33.3587864
11
36.5609281
21
33.4320864
0
LINE
8
DEFAULT_255_2_778
10
36.5609281
20
33.4320864
11
36.4956281
21
33.5386864
0
LINE
8
DEFAULT_255_2_778
10
36.4956281
20
33.5386864
11
36.3371281
21
33.6675864
0
LINE
8
DEFAULT_255_2_778
10
36.3371281
20
33.6675864
11
36.1937281
21
33.7193864
0
LINE
8
DEFAULT_255_2_778
10
36.1937281
20
33.7193864
11
36.3379281
21
33.8032864
0
LINE
8
DEFAULT_255_2_778
10
36.3379281
20
33.8032864
11
36.4284281
21
33.8876864
0
LINE
8
DEFAULT_255_2_778
10
36.4284281
20
33.8876864
11
36.4768281
21
33.9532864
0
LINE
8
DEFAULT_255_2_778
10
36.4768281
20
33.9532864
11
36.5133281
21
34.0239864
0
LINE
8
DEFAULT_255_2_778
10
36.5133281
20
34.0239864
11
36.5331281
21
34.0800864
0
LINE
8
DEFAULT_255_2_778
10
36.5331281
20
34.0800864
11
36.5432281
21
34.1207864
0
LINE
8
DEFAULT_255_2_778
10
36.5432281
20
34.1207864
11
36.5501281
21
34.1623864
0
LINE
8
DEFAULT_255_2_778
10
36.5501281
20
34.1623864
11
36.5480281
21
34.3448864
0
LINE
8
DEFAULT_255_2_778
10
36.5480281
20
34.3448864
11
36.5403281
21
34.3834864
0
LINE
8
DEFAULT_255_2_778
10
36.5403281
20
34.3834864
11
36.5239281
21
34.4390864
0
LINE
8
DEFAULT_255_2_778
10
36.5239281
20
34.4390864
11
36.4935281
21
34.5067864
0
LINE
8
DEFAULT_255_2_778
10
36.4935281
20
34.5067864
11
36.4532281
21
34.5692864
0
LINE
8
DEFAULT_255_2_778
10
36.4532281
20
34.5692864
11
36.3725281
21
34.6536864
0
LINE
8
DEFAULT_255_2_778
10
36.3725281
20
34.6536864
11
36.2463281
21
34.7367864
0
LINE
8
DEFAULT_255_2_778
10
36.2463281
20
34.7367864
11
36.0892281
21
34.7957864
0
LINE
8
DEFAULT_255_2_778
10
36.3976677
20
55.5938052
11
36.7236677
21
55.5938052
0
LINE
8
DEFAULT_255_2_778
10
36.7236677
20
55.5938052
11
35.8504677
21
53.3938052
0
LINE
8
DEFAULT_255_2_778
10
35.8504677
20
53.3938052
11
35.5136677
21
53.3938052
0
LINE
8
DEFAULT_255_2_778
10
35.5136677
20
53.3938052
11
34.6405677
21
55.5938052
0
LINE
8
DEFAULT_255_2_778
10
34.6405677
20
55.5938052
11
34.9665677
21
55.5938052
0
LINE
8
DEFAULT_255_2_778
10
34.9665677
20
55.5938052
11
35.6869677
21
53.6822052
0
LINE
8
DEFAULT_255_2_778
10
35.6869677
20
53.6822052
11
36.3979677
21
55.5938052
0
LINE
8
DEFAULT_255_2_778
10
35.7549479
20
23.6472385
11
35.5911479
21
23.6041385
0
LINE
8
DEFAULT_255_2_778
10
35.5911479
20
23.6041385
11
35.4848479
21
23.5427385
0
LINE
8
DEFAULT_255_2_778
10
35.4848479
20
23.5427385
11
35.3678479
21
23.4334385
0
LINE
8
DEFAULT_255_2_778
10
35.3678479
20
23.4334385
11
35.3850479
21
24.1412385
0
LINE
8
DEFAULT_255_2_778
10
35.3850479
20
24.1412385
11
36.3828479
21
24.1412385
0
LINE
8
DEFAULT_255_2_778
10
36.3828479
20
24.1412385
11
36.3828479
21
24.3814385
0
LINE
8
DEFAULT_255_2_778
10
36.3828479
20
24.3814385
11
35.1088479
21
24.3814385
0
LINE
8
DEFAULT_255_2_778
10
35.1088479
20
24.3814385
11
35.0900479
21
23.0950385
0
LINE
8
DEFAULT_255_2_778
10
35.0900479
20
23.0950385
11
35.3848479
21
23.0950385
0
LINE
8
DEFAULT_255_2_778
10
35.3848479
20
23.0950385
11
35.3882479
21
23.1220385
0
LINE
8
DEFAULT_255_2_778
10
35.3882479
20
23.1220385
11
35.3972479
21
23.1619385
0
LINE
8
DEFAULT_255_2_778
10
35.3972479
20
23.1619385
11
35.4154479
21
23.2117385
0
LINE
8
DEFAULT_255_2_778
10
35.4154479
20
23.2117385
11
35.4557479
21
23.2773385
0
LINE
8
DEFAULT_255_2_778
10
35.4557479
20
23.2773385
11
35.5525479
21
23.3612385
0
LINE
8
DEFAULT_255_2_778
10
35.5525479
20
23.3612385
11
35.6718479
21
23.4072385
0
LINE
8
DEFAULT_255_2_778
10
35.6718479
20
23.4072385
11
35.8554479
21
23.4093385
0
LINE
8
DEFAULT_255_2_778
10
35.8554479
20
23.4093385
11
35.9951479
21
23.3561385
0
LINE
8
DEFAULT_255_2_778
10
35.9951479
20
23.3561385
11
36.0846479
21
23.2746385
0
LINE
8
DEFAULT_255_2_778
10
36.0846479
20
23.2746385
11
36.1388479
21
23.1900385
0
LINE
8
DEFAULT_255_2_778
10
36.1388479
20
23.1900385
11
36.1671479
21
23.1204385
0
LINE
8
DEFAULT_255_2_778
10
36.1671479
20
23.1204385
11
36.1827479
21
23.0609385
0
LINE
8
DEFAULT_255_2_778
10
36.1827479
20
23.0609385
11
36.1888479
21
23.0265385
0
LINE
8
DEFAULT_255_2_778
10
36.1888479
20
23.0265385
11
36.1888479
21
22.7913385
0
LINE
8
DEFAULT_255_2_778
10
36.1888479
20
22.7913385
11
36.1796479
21
22.7426385
0
LINE
8
DEFAULT_255_2_778
10
36.1796479
20
22.7426385
11
36.1624479
21
22.6828385
0
LINE
8
DEFAULT_255_2_778
10
36.1624479
20
22.6828385
11
36.1327479
21
22.6137385
0
LINE
8
DEFAULT_255_2_778
10
36.1327479
20
22.6137385
11
36.0708479
21
22.5224385
0
LINE
8
DEFAULT_255_2_778
10
36.0708479
20
22.5224385
11
35.9766479
21
22.4444385
0
LINE
8
DEFAULT_255_2_778
10
35.9766479
20
22.4444385
11
35.8414479
21
22.3991385
0
LINE
8
DEFAULT_255_2_778
10
35.8414479
20
22.3991385
11
35.6247479
21
22.4116385
0
LINE
8
DEFAULT_255_2_778
10
35.6247479
20
22.4116385
11
35.5004479
21
22.4745385
0
LINE
8
DEFAULT_255_2_778
10
35.5004479
20
22.4745385
11
35.4139479
21
22.5674385
0
LINE
8
DEFAULT_255_2_778
10
35.4139479
20
22.5674385
11
35.3702479
21
22.6481385
0
LINE
8
DEFAULT_255_2_778
10
35.3702479
20
22.6481385
11
35.3498479
21
22.7098385
0
LINE
8
DEFAULT_255_2_778
10
35.3498479
20
22.7098385
11
35.3424479
21
22.7476385
0
LINE
8
DEFAULT_255_2_778
10
35.3424479
20
22.7476385
11
35.3408479
21
22.7603385
0
LINE
8
DEFAULT_255_2_778
10
35.3408479
20
22.7603385
11
35.0400479
21
22.7603385
0
LINE
8
DEFAULT_255_2_778
10
35.0400479
20
22.7603385
11
35.0426479
21
22.7375385
0
LINE
8
DEFAULT_255_2_778
10
35.0426479
20
22.7375385
11
35.0498479
21
22.6923385
0
LINE
8
DEFAULT_255_2_778
10
35.0498479
20
22.6923385
11
35.0598479
21
22.6473385
0
LINE
8
DEFAULT_255_2_778
10
35.0598479
20
22.6473385
11
35.0802479
21
22.5814385
0
LINE
8
DEFAULT_255_2_778
10
35.0802479
20
22.5814385
11
35.1146479
21
22.5029385
0
LINE
8
DEFAULT_255_2_778
10
35.1146479
20
22.5029385
11
35.1591479
21
22.4298385
0
LINE
8
DEFAULT_255_2_778
10
35.1591479
20
22.4298385
11
35.2289479
21
22.3481385
0
LINE
8
DEFAULT_255_2_778
10
35.2289479
20
22.3481385
11
35.3350479
21
22.2624385
0
LINE
8
DEFAULT_255_2_778
10
35.3350479
20
22.2624385
11
35.4641479
21
22.1965385
0
LINE
8
DEFAULT_255_2_778
10
35.4641479
20
22.1965385
11
35.6350479
21
22.1533385
0
LINE
8
DEFAULT_255_2_778
10
35.6350479
20
22.1533385
11
35.8483479
21
22.1475385
0
LINE
8
DEFAULT_255_2_778
10
35.8483479
20
22.1475385
11
36.0272479
21
22.1809385
0
LINE
8
DEFAULT_255_2_778
10
36.0272479
20
22.1809385
11
36.1782479
21
22.2489385
0
LINE
8
DEFAULT_255_2_778
10
36.1782479
20
22.2489385
11
36.2780479
21
22.3253385
0
LINE
8
DEFAULT_255_2_778
10
36.2780479
20
22.3253385
11
36.3523479
21
22.4087385
0
LINE
8
DEFAULT_255_2_778
10
36.3523479
20
22.4087385
11
36.4026479
21
22.4872385
0
LINE
8
DEFAULT_255_2_778
10
36.4026479
20
22.4872385
11
36.4338479
21
22.5523385
0
LINE
8
DEFAULT_255_2_778
10
36.4338479
20
22.5523385
11
36.4587479
21
22.6211385
0
LINE
8
DEFAULT_255_2_778
10
36.4587479
20
22.6211385
11
36.4717479
21
22.6682385
0
LINE
8
DEFAULT_255_2_778
10
36.4717479
20
22.6682385
11
36.4822479
21
22.7185385
0
LINE
8
DEFAULT_255_2_778
10
36.4822479
20
22.7185385
11
36.4902479
21
22.7719385
0
LINE
8
DEFAULT_255_2_778
10
36.4902479
20
22.7719385
11
36.4915479
21
23.0371385
0
LINE
8
DEFAULT_255_2_778
10
36.4915479
20
23.0371385
11
36.4875479
21
23.0693385
0
LINE
8
DEFAULT_255_2_778
10
36.4875479
20
23.0693385
11
36.4812479
21
23.1095385
0
LINE
8
DEFAULT_255_2_778
10
36.4812479
20
23.1095385
11
36.4719479
21
23.1543385
0
LINE
8
DEFAULT_255_2_778
10
36.4719479
20
23.1543385
11
36.4537479
21
23.2204385
0
LINE
8
DEFAULT_255_2_778
10
36.4537479
20
23.2204385
11
36.4222479
21
23.3022385
0
LINE
8
DEFAULT_255_2_778
10
36.4222479
20
23.3022385
11
36.3769479
21
23.3858385
0
LINE
8
DEFAULT_255_2_778
10
36.3769479
20
23.3858385
11
36.3092479
21
23.4736385
0
LINE
8
DEFAULT_255_2_778
10
36.3092479
20
23.4736385
11
36.2137479
21
23.5554385
0
LINE
8
DEFAULT_255_2_778
10
36.2137479
20
23.5554385
11
36.0682479
21
23.6242385
0
LINE
8
DEFAULT_255_2_778
10
36.0682479
20
23.6242385
11
35.8560479
21
23.6538385
0
LINE
8
DEFAULT_255_2_778
10
35.8560479
20
23.6538385
11
35.7549479
21
23.6477385
0
LINE
8
DEFAULT_255_2_778
10
35.0406875
20
13.9939052
11
36.5357875
21
13.9939052
0
LINE
8
DEFAULT_255_2_778
10
36.5357875
20
13.9939052
11
36.5357875
21
13.7243052
0
LINE
8
DEFAULT_255_2_778
10
36.5357875
20
13.7243052
11
35.6922875
21
11.7942052
0
LINE
8
DEFAULT_255_2_778
10
35.6922875
20
11.7942052
11
35.3382875
21
11.7942052
0
LINE
8
DEFAULT_255_2_778
10
35.3382875
20
11.7942052
11
36.2254875
21
13.7479052
0
LINE
8
DEFAULT_255_2_778
10
36.2254875
20
13.7479052
11
35.0403875
21
13.7479052
0
LINE
8
DEFAULT_255_2_778
10
35.0403875
20
13.7479052
11
35.0403875
21
13.9942052
0
LINE
8
DEFAULT_255_2_778
10
35.9933938
20
39.7637432
11
36.1250938
21
39.6865432
0
LINE
8
DEFAULT_255_2_778
10
36.1250938
20
39.6865432
11
36.1856938
21
39.6097432
0
LINE
8
DEFAULT_255_2_778
10
36.1856938
20
39.6097432
11
36.2108938
21
39.5492432
0
LINE
8
DEFAULT_255_2_778
10
36.2108938
20
39.5492432
11
36.2216938
21
39.5031432
0
LINE
8
DEFAULT_255_2_778
10
36.2216938
20
39.5031432
11
36.2203938
21
39.3682432
0
LINE
8
DEFAULT_255_2_778
10
36.2203938
20
39.3682432
11
36.2108938
21
39.3269432
0
LINE
8
DEFAULT_255_2_778
10
36.2108938
20
39.3269432
11
36.1904938
21
39.2663432
0
LINE
8
DEFAULT_255_2_778
10
36.1904938
20
39.2663432
11
36.1592938
21
39.1967432
0
LINE
8
DEFAULT_255_2_778
10
36.1592938
20
39.1967432
11
36.1099938
21
39.1099432
0
LINE
8
DEFAULT_255_2_778
10
36.1099938
20
39.1099432
11
36.0136938
21
38.9745432
0
LINE
8
DEFAULT_255_2_778
10
36.0136938
20
38.9745432
11
35.8655938
21
38.7988432
0
LINE
8
DEFAULT_255_2_778
10
35.8655938
20
38.7988432
11
35.6935938
21
38.6197432
0
LINE
8
DEFAULT_255_2_778
10
35.6935938
20
38.6197432
11
35.4120938
21
38.3588432
0
LINE
8
DEFAULT_255_2_778
10
35.4120938
20
38.3588432
11
35.1045938
21
38.1064432
0
LINE
8
DEFAULT_255_2_778
10
35.1045938
20
38.1064432
11
35.0405938
21
38.0574432
0
LINE
8
DEFAULT_255_2_778
10
35.0405938
20
38.0574432
11
35.0405938
21
37.7939432
0
LINE
8
DEFAULT_255_2_778
10
35.0405938
20
37.7939432
11
36.5576938
21
37.7939432
0
LINE
8
DEFAULT_255_2_778
10
36.5576938
20
37.7939432
11
36.5576938
21
38.0342432
0
LINE
8
DEFAULT_255_2_778
10
36.5576938
20
38.0342432
11
35.3993938
21
38.0342432
0
LINE
8
DEFAULT_255_2_778
10
35.3993938
20
38.0342432
11
35.9258938
21
38.4689432
0
LINE
8
DEFAULT_255_2_778
10
35.9258938
20
38.4689432
11
36.1089938
21
38.6453432
0
LINE
8
DEFAULT_255_2_778
10
36.1089938
20
38.6453432
11
36.2219938
21
38.7742432
0
LINE
8
DEFAULT_255_2_778
10
36.2219938
20
38.7742432
11
36.2989938
21
38.8771432
0
LINE
8
DEFAULT_255_2_778
10
36.2989938
20
38.8771432
11
36.3679938
21
38.9859432
0
LINE
8
DEFAULT_255_2_778
10
36.3679938
20
38.9859432
11
36.4285938
21
39.1033432
0
LINE
8
DEFAULT_255_2_778
10
36.4285938
20
39.1033432
11
36.4621938
21
39.1856432
0
LINE
8
DEFAULT_255_2_778
10
36.4621938
20
39.1856432
11
36.4806938
21
39.2417432
0
LINE
8
DEFAULT_255_2_778
10
36.4806938
20
39.2417432
11
36.4952938
21
39.2986432
0
LINE
8
DEFAULT_255_2_778
10
36.4952938
20
39.2986432
11
36.5010938
21
39.3274432
0
LINE
8
DEFAULT_255_2_778
10
36.5010938
20
39.3274432
11
36.5058938
21
39.3563432
0
LINE
8
DEFAULT_255_2_778
10
36.5058938
20
39.3563432
11
36.5092938
21
39.3854432
0
LINE
8
DEFAULT_255_2_778
10
36.5092938
20
39.3854432
11
36.5092938
21
39.5201432
0
LINE
8
DEFAULT_255_2_778
10
36.5092938
20
39.5201432
11
36.5060938
21
39.5455432
0
LINE
8
DEFAULT_255_2_778
10
36.5060938
20
39.5455432
11
36.5018938
21
39.5706432
0
LINE
8
DEFAULT_255_2_778
10
36.5018938
20
39.5706432
11
36.4896938
21
39.6203432
0
LINE
8
DEFAULT_255_2_778
10
36.4896938
20
39.6203432
11
36.4745938
21
39.6648432
0
LINE
8
DEFAULT_255_2_778
10
36.4745938
20
39.6648432
11
36.4446938
21
39.7283432
0
LINE
8
DEFAULT_255_2_778
10
36.4446938
20
39.7283432
11
36.4057938
21
39.7870432
0
LINE
8
DEFAULT_255_2_778
10
36.4057938
20
39.7870432
11
36.3407938
21
39.8563432
0
LINE
8
DEFAULT_255_2_778
10
36.3407938
20
39.8563432
11
36.2383938
21
39.9296432
0
LINE
8
DEFAULT_255_2_778
10
36.2383938
20
39.9296432
11
36.1155938
21
39.9839432
0
LINE
8
DEFAULT_255_2_778
10
36.1155938
20
39.9839432
11
35.9459938
21
40.0201432
0
LINE
8
DEFAULT_255_2_778
10
35.9459938
20
40.0201432
11
35.7586938
21
40.0249432
0
LINE
8
DEFAULT_255_2_778
10
35.7586938
20
40.0249432
11
35.6043938
21
40.0029432
0
LINE
8
DEFAULT_255_2_778
10
35.6043938
20
40.0029432
11
35.4686938
21
39.9561432
0
LINE
8
DEFAULT_255_2_778
10
35.4686938
20
39.9561432
11
35.3741938
21
39.9013432
0
LINE
8
DEFAULT_255_2_778
10
35.3741938
20
39.9013432
11
35.2315938
21
39.7587432
0
LINE
8
DEFAULT_255_2_778
10
35.2315938
20
39.7587432
11
35.1744938
21
39.6500432
0
LINE
8
DEFAULT_255_2_778
10
35.1744938
20
39.6500432
11
35.1503938
21
39.5730432
0
LINE
8
DEFAULT_255_2_778
10
35.1503938
20
39.5730432
11
35.1384938
21
39.5116432
0
LINE
8
DEFAULT_255_2_778
10
35.1384938
20
39.5116432
11
35.1339938
21
39.4743432
0
LINE
8
DEFAULT_255_2_778
10
35.1339938
20
39.4743432
11
35.1315938
21
39.4370432
0
LINE
8
DEFAULT_255_2_778
10
35.1315938
20
39.4370432
11
35.1310938
21
39.3999432
0
LINE
8
DEFAULT_255_2_778
10
35.1310938
20
39.3999432
11
35.4162938
21
39.3999432
0
LINE
8
DEFAULT_255_2_778
10
35.4162938
20
39.3999432
11
35.4175938
21
39.4420432
0
LINE
8
DEFAULT_255_2_778
10
35.4175938
20
39.4420432
11
35.4207938
21
39.4700432
0
LINE
8
DEFAULT_255_2_778
10
35.4207938
20
39.4700432
11
35.4286938
21
39.5118432
0
LINE
8
DEFAULT_255_2_778
10
35.4286938
20
39.5118432
11
35.4461938
21
39.5661432
0
LINE
8
DEFAULT_255_2_778
10
35.4461938
20
39.5661432
11
35.4839938
21
39.6349432
0
LINE
8
DEFAULT_255_2_778
10
35.4839938
20
39.6349432
11
35.5670938
21
39.7169432
0
LINE
8
DEFAULT_255_2_778
10
35.5670938
20
39.7169432
11
35.7080938
21
39.7778432
0
LINE
8
DEFAULT_255_2_778
10
35.7080938
20
39.7778432
11
35.9171938
21
39.7823432
0
LINE
8
DEFAULT_255_2_778
10
35.9171938
20
39.7823432
11
35.9933938
21
39.7635432
0
LINE
8
DEFAULT_255_2_778
10
36.7198938
20
53.7570432
11
36.8500938
21
53.6366432
0
LINE
8
DEFAULT_255_2_778
10
36.8500938
20
53.6366432
11
36.8495938
21
53.6062432
0
LINE
8
DEFAULT_255_2_778
10
36.8495938
20
53.6062432
11
37.0349938
21
53.6062432
0
LINE
8
DEFAULT_255_2_778
10
37.0349938
20
53.6062432
11
37.0333938
21
53.6435432
0
LINE
8
DEFAULT_255_2_778
10
37.0333938
20
53.6435432
11
37.0288938
21
53.6716432
0
LINE
8
DEFAULT_255_2_778
10
37.0288938
20
53.6716432
11
37.0148938
21
53.7171432
0
LINE
8
DEFAULT_255_2_778
10
37.0148938
20
53.7171432
11
36.9812938
21
53.7747432
0
LINE
8
DEFAULT_255_2_778
10
36.9812938
20
53.7747432
11
36.8936938
21
53.8454432
0
LINE
8
DEFAULT_255_2_778
10
36.8936938
20
53.8454432
11
36.7534938
21
53.8901432
0
LINE
8
DEFAULT_255_2_778
10
36.7534938
20
53.8901432
11
36.4920938
21
53.8774432
0
LINE
8
DEFAULT_255_2_778
10
36.4920938
20
53.8774432
11
36.3539938
21
53.8068432
0
LINE
8
DEFAULT_255_2_778
10
36.3539938
20
53.8068432
11
36.3002938
21
53.7393432
0
LINE
8
DEFAULT_255_2_778
10
36.3002938
20
53.7393432
11
36.2825938
21
53.6948432
0
LINE
8
DEFAULT_255_2_778
10
36.2825938
20
53.6948432
11
36.2756938
21
53.6649432
0
LINE
8
DEFAULT_255_2_778
10
36.2756938
20
53.6649432
11
36.2777938
21
53.5594432
0
LINE
8
DEFAULT_255_2_778
10
36.2777938
20
53.5594432
11
36.2999938
21
53.4972432
0
LINE
8
DEFAULT_255_2_778
10
36.2999938
20
53.4972432
11
36.3915938
21
53.4043432
0
LINE
8
DEFAULT_255_2_778
10
36.3915938
20
53.4043432
11
36.5248938
21
53.3490432
0
LINE
8
DEFAULT_255_2_778
10
36.5248938
20
53.3490432
11
36.8505938
21
53.2278432
0
LINE
8
DEFAULT_255_2_778
10
36.8505938
20
53.2278432
11
36.8717938
21
53.1789432
0
LINE
8
DEFAULT_255_2_778
10
36.8717938
20
53.1789432
11
36.8696938
21
53.1223432
0
LINE
8
DEFAULT_255_2_778
10
36.8696938
20
53.1223432
11
36.8415938
21
53.0665432
0
LINE
8
DEFAULT_255_2_778
10
36.8415938
20
53.0665432
11
36.7100938
21
53.0048432
0
LINE
8
DEFAULT_255_2_778
10
36.7100938
20
53.0048432
11
36.4470938
21
53.0956432
0
LINE
8
DEFAULT_255_2_778
10
36.4470938
20
53.0956432
11
36.4267938
21
53.1628432
0
LINE
8
DEFAULT_255_2_778
10
36.4267938
20
53.1628432
11
36.4256938
21
53.1874432
0
LINE
8
DEFAULT_255_2_778
10
36.4256938
20
53.1874432
11
36.2401938
21
53.1874432
0
LINE
8
DEFAULT_255_2_778
10
36.2401938
20
53.1874432
11
36.2414938
21
53.1101432
0
LINE
8
DEFAULT_255_2_778
10
36.2414938
20
53.1101432
11
36.2544938
21
53.0657432
0
LINE
8
DEFAULT_255_2_778
10
36.2544938
20
53.0657432
11
36.2920938
21
53.0008432
0
LINE
8
DEFAULT_255_2_778
10
36.2920938
20
53.0008432
11
36.3915938
21
52.9170432
0
LINE
8
DEFAULT_255_2_778
10
36.3915938
20
52.9170432
11
36.5597938
21
52.8699432
0
LINE
8
DEFAULT_255_2_778
10
36.5597938
20
52.8699432
11
36.8063938
21
52.8860432
0
LINE
8
DEFAULT_255_2_778
10
36.8063938
20
52.8860432
11
36.9579938
21
52.9630432
0
LINE
8
DEFAULT_255_2_778
10
36.9579938
20
52.9630432
11
37.0119938
21
53.0265432
0
LINE
8
DEFAULT_255_2_778
10
37.0119938
20
53.0265432
11
37.0370938
21
53.0826432
0
LINE
8
DEFAULT_255_2_778
10
37.0370938
20
53.0826432
11
37.0455938
21
53.1159432
0
LINE
8
DEFAULT_255_2_778
10
37.0455938
20
53.1159432
11
37.0431938
21
53.2485432
0
LINE
8
DEFAULT_255_2_778
10
37.0431938
20
53.2485432
11
37.0122938
21
53.3175432
0
LINE
8
DEFAULT_255_2_778
10
37.0122938
20
53.3175432
11
36.9132938
21
53.4019432
0
LINE
8
DEFAULT_255_2_778
10
36.9132938
20
53.4019432
11
36.4700938
21
53.5707432
0
LINE
8
DEFAULT_255_2_778
10
36.4700938
20
53.5707432
11
36.4539938
21
53.6141432
0
LINE
8
DEFAULT_255_2_778
10
36.4539938
20
53.6141432
11
36.4558938
21
53.6618432
0
LINE
8
DEFAULT_255_2_778
10
36.4558938
20
53.6618432
11
36.4835938
21
53.7147432
0
LINE
8
DEFAULT_255_2_778
10
36.4835938
20
53.7147432
11
36.7198938
21
53.7583432
0
LINE
8
DEFAULT_255_2_778
10
36.0443938
20
18.1655432
11
36.1496938
21
18.1068432
0
LINE
8
DEFAULT_255_2_778
10
36.1496938
20
18.1068432
11
36.2211938
21
18.0301432
0
LINE
8
DEFAULT_255_2_778
10
36.2211938
20
18.0301432
11
36.2618938
21
17.9605432
0
LINE
8
DEFAULT_255_2_778
10
36.2618938
20
17.9605432
11
36.2864938
21
17.8972432
0
LINE
8
DEFAULT_255_2_778
10
36.2864938
20
17.8972432
11
36.2994938
21
17.8472432
0
LINE
8
DEFAULT_255_2_778
10
36.2994938
20
17.8472432
11
36.3060938
21
17.8115432
0
LINE
8
DEFAULT_255_2_778
10
36.3060938
20
17.8115432
11
36.3108938
21
17.7734432
0
LINE
8
DEFAULT_255_2_778
10
36.3108938
20
17.7734432
11
36.3102938
21
17.6157432
0
LINE
8
DEFAULT_255_2_778
10
36.3102938
20
17.6157432
11
36.3047938
21
17.5755432
0
LINE
8
DEFAULT_255_2_778
10
36.3047938
20
17.5755432
11
36.2938938
21
17.5244432
0
LINE
8
DEFAULT_255_2_778
10
36.2938938
20
17.5244432
11
36.2740938
21
17.4639432
0
LINE
8
DEFAULT_255_2_778
10
36.2740938
20
17.4639432
11
36.2393938
21
17.3953432
0
LINE
8
DEFAULT_255_2_778
10
36.2393938
20
17.3953432
11
36.1943938
21
17.3350432
0
LINE
8
DEFAULT_255_2_778
10
36.1943938
20
17.3350432
11
36.1002938
21
17.2562432
0
LINE
8
DEFAULT_255_2_778
10
36.1002938
20
17.2562432
11
35.9668938
21
17.2048432
0
LINE
8
DEFAULT_255_2_778
10
35.9668938
20
17.2048432
11
35.7763938
21
17.1966432
0
LINE
8
DEFAULT_255_2_778
10
35.7763938
20
17.1966432
11
35.6342938
21
17.2347432
0
LINE
8
DEFAULT_255_2_778
10
35.6342938
20
17.2347432
11
35.5305938
21
17.3033432
0
LINE
8
DEFAULT_255_2_778
10
35.5305938
20
17.3033432
11
35.4609938
21
17.3845432
0
LINE
8
DEFAULT_255_2_778
10
35.4609938
20
17.3845432
11
35.4244938
21
17.4512432
0
LINE
8
DEFAULT_255_2_778
10
35.4244938
20
17.4512432
11
35.4027938
21
17.5107432
0
LINE
8
DEFAULT_255_2_778
10
35.4027938
20
17.5107432
11
35.3911938
21
17.5567432
0
LINE
8
DEFAULT_255_2_778
10
35.3911938
20
17.5567432
11
35.3842938
21
17.5964432
0
LINE
8
DEFAULT_255_2_778
10
35.3842938
20
17.5964432
11
35.3863938
21
17.8044432
0
LINE
8
DEFAULT_255_2_778
10
35.3863938
20
17.8044432
11
35.3935938
21
17.8396432
0
LINE
8
DEFAULT_255_2_778
10
35.3935938
20
17.8396432
11
35.4072938
21
17.8867432
0
LINE
8
DEFAULT_255_2_778
10
35.4072938
20
17.8867432
11
35.4331938
21
17.9465432
0
LINE
8
DEFAULT_255_2_778
10
35.4331938
20
17.9465432
11
35.4771938
21
18.0134432
0
LINE
8
DEFAULT_255_2_778
10
35.4771938
20
18.0134432
11
35.5697938
21
18.0996432
0
LINE
8
DEFAULT_255_2_778
10
35.5697938
20
18.0996432
11
35.6996938
21
18.1626432
0
LINE
8
DEFAULT_255_2_778
10
35.6996938
20
18.1626432
11
35.9239938
21
18.1883432
0
LINE
8
DEFAULT_255_2_778
10
35.9239938
20
18.1883432
11
36.0443938
21
18.1655432
0
LINE
8
DEFAULT_255_2_778
10
36.2383938
20
19.1635432
11
36.0824938
21
19.2109432
0
LINE
8
DEFAULT_255_2_778
10
36.0824938
20
19.2109432
11
35.8731938
21
19.2262432
0
LINE
8
DEFAULT_255_2_778
10
35.8731938
20
19.2262432
11
35.6906938
21
19.2035432
0
LINE
8
DEFAULT_255_2_778
10
35.6906938
20
19.2035432
11
35.5477938
21
19.1530432
0
LINE
8
DEFAULT_255_2_778
10
35.5477938
20
19.1530432
11
35.4234938
21
19.0757432
0
LINE
8
DEFAULT_255_2_778
10
35.4234938
20
19.0757432
11
35.3307938
21
18.9886432
0
LINE
8
DEFAULT_255_2_778
10
35.3307938
20
18.9886432
11
35.2665938
21
18.9061432
0
LINE
8
DEFAULT_255_2_778
10
35.2665938
20
18.9061432
11
35.2119938
21
18.8164432
0
LINE
8
DEFAULT_255_2_778
10
35.2119938
20
18.8164432
11
35.1704938
21
18.7307432
0
LINE
8
DEFAULT_255_2_778
10
35.1704938
20
18.7307432
11
35.1360938
21
18.6420432
0
LINE
8
DEFAULT_255_2_778
10
35.1360938
20
18.6420432
11
35.1167938
21
18.5817432
0
LINE
8
DEFAULT_255_2_778
10
35.1167938
20
18.5817432
11
35.0958938
21
18.5034432
0
LINE
8
DEFAULT_255_2_778
10
35.0958938
20
18.5034432
11
35.0786938
21
18.4243432
0
LINE
8
DEFAULT_255_2_778
10
35.0786938
20
18.4243432
11
35.0651938
21
18.3444432
0
LINE
8
DEFAULT_255_2_778
10
35.0651938
20
18.3444432
11
35.0595938
21
18.3042432
0
LINE
8
DEFAULT_255_2_778
10
35.0595938
20
18.3042432
11
35.0543938
21
18.2587432
0
LINE
8
DEFAULT_255_2_778
10
35.0543938
20
18.2587432
11
35.0498938
21
18.2129432
0
LINE
8
DEFAULT_255_2_778
10
35.0498938
20
18.2129432
11
35.0463938
21
18.1671432
0
LINE
8
DEFAULT_255_2_778
10
35.0463938
20
18.1671432
11
35.0463938
21
17.8245432
0
LINE
8
DEFAULT_255_2_778
10
35.0463938
20
17.8245432
11
35.0495938
21
17.7848432
0
LINE
8
DEFAULT_255_2_778
10
35.0495938
20
17.7848432
11
35.0537938
21
17.7451432
0
LINE
8
DEFAULT_255_2_778
10
35.0537938
20
17.7451432
11
35.0588938
21
17.7057432
0
LINE
8
DEFAULT_255_2_778
10
35.0588938
20
17.7057432
11
35.0699938
21
17.6369432
0
LINE
8
DEFAULT_255_2_778
10
35.0699938
20
17.6369432
11
35.0842938
21
17.5686432
0
LINE
8
DEFAULT_255_2_778
10
35.0842938
20
17.5686432
11
35.1021938
21
17.5014432
0
LINE
8
DEFAULT_255_2_778
10
35.1021938
20
17.5014432
11
35.1310938
21
17.4173432
0
LINE
8
DEFAULT_255_2_778
10
35.1310938
20
17.4173432
11
35.1635938
21
17.3427432
0
LINE
8
DEFAULT_255_2_778
10
35.1635938
20
17.3427432
11
35.2157938
21
17.2509432
0
LINE
8
DEFAULT_255_2_778
10
35.2157938
20
17.2509432
11
35.2897938
21
17.1554432
0
LINE
8
DEFAULT_255_2_778
10
35.2897938
20
17.1554432
11
35.3789938
21
17.0752432
0
LINE
8
DEFAULT_255_2_778
10
35.3789938
20
17.0752432
11
35.5009938
21
17.0051432
0
LINE
8
DEFAULT_255_2_778
10
35.5009938
20
17.0051432
11
35.6419938
21
16.9611432
0
LINE
8
DEFAULT_255_2_778
10
35.6419938
20
16.9611432
11
35.8499938
21
16.9442432
0
LINE
8
DEFAULT_255_2_778
10
35.8499938
20
16.9442432
11
36.0676938
21
16.9720432
0
LINE
8
DEFAULT_255_2_778
10
36.0676938
20
16.9720432
11
36.2100938
21
17.0223432
0
LINE
8
DEFAULT_255_2_778
10
36.2100938
20
17.0223432
11
36.3348938
21
17.0979432
0
LINE
8
DEFAULT_255_2_778
10
36.3348938
20
17.0979432
11
36.4240938
21
17.1794432
0
LINE
8
DEFAULT_255_2_778
10
36.4240938
20
17.1794432
11
36.4833938
21
17.2551432
0
LINE
8
DEFAULT_255_2_778
10
36.4833938
20
17.2551432
11
36.5203938
21
17.3178432
0
LINE
8
DEFAULT_255_2_778
10
36.5203938
20
17.3178432
11
36.5505938
21
17.3858432
0
LINE
8
DEFAULT_255_2_778
10
36.5505938
20
17.3858432
11
36.5666938
21
17.4329432
0
LINE
8
DEFAULT_255_2_778
10
36.5666938
20
17.4329432
11
36.5796938
21
17.4808432
0
LINE
8
DEFAULT_255_2_778
10
36.5796938
20
17.4808432
11
36.5904938
21
17.5348432
0
LINE
8
DEFAULT_255_2_778
10
36.5904938
20
17.5348432
11
36.5883938
21
17.8779432
0
LINE
8
DEFAULT_255_2_778
10
36.5883938
20
17.8779432
11
36.5783938
21
17.9258432
0
LINE
8
DEFAULT_255_2_778
10
36.5783938
20
17.9258432
11
36.5589938
21
17.9928432
0
LINE
8
DEFAULT_255_2_778
10
36.5589938
20
17.9928432
11
36.5335938
21
18.0576432
0
LINE
8
DEFAULT_255_2_778
10
36.5335938
20
18.0576432
11
36.4843938
21
18.1475432
0
LINE
8
DEFAULT_255_2_778
10
36.4843938
20
18.1475432
11
36.4102938
21
18.2415432
0
LINE
8
DEFAULT_255_2_778
10
36.4102938
20
18.2415432
11
36.3184938
21
18.3219432
0
LINE
8
DEFAULT_255_2_778
10
36.3184938
20
18.3219432
11
36.1930938
21
18.3896432
0
LINE
8
DEFAULT_255_2_778
10
36.1930938
20
18.3896432
11
36.0274938
21
18.4320432
0
LINE
8
DEFAULT_255_2_778
10
36.0274938
20
18.4320432
11
35.8295938
21
18.4333432
0
LINE
8
DEFAULT_255_2_778
10
35.8295938
20
18.4333432
11
35.6636938
21
18.3917432
0
LINE
8
DEFAULT_255_2_778
10
35.6636938
20
18.3917432
11
35.5329938
21
18.3208432
0
LINE
8
DEFAULT_255_2_778
10
35.5329938
20
18.3208432
11
35.4149938
21
18.2182432
0
LINE
8
DEFAULT_255_2_778
10
35.4149938
20
18.2182432
11
35.3395938
21
18.1250432
0
LINE
8
DEFAULT_255_2_778
10
35.3395938
20
18.1250432
11
35.3297938
21
18.1097432
0
LINE
8
DEFAULT_255_2_778
10
35.3297938
20
18.1097432
11
35.3326938
21
18.1460432
0
LINE
8
DEFAULT_255_2_778
10
35.3326938
20
18.1460432
11
35.3358938
21
18.1822432
0
LINE
8
DEFAULT_255_2_778
10
35.3358938
20
18.1822432
11
35.3440938
21
18.2544432
0
LINE
8
DEFAULT_255_2_778
10
35.3440938
20
18.2544432
11
35.3546938
21
18.3264432
0
LINE
8
DEFAULT_255_2_778
10
35.3546938
20
18.3264432
11
35.3662938
21
18.3896432
0
LINE
8
DEFAULT_255_2_778
10
35.3662938
20
18.3896432
11
35.3805938
21
18.4523432
0
LINE
8
DEFAULT_255_2_778
10
35.3805938
20
18.4523432
11
35.4048938
21
18.5378432
0
LINE
8
DEFAULT_255_2_778
10
35.4048938
20
18.5378432
11
35.4387938
21
18.6296432
0
LINE
8
DEFAULT_255_2_778
10
35.4387938
20
18.6296432
11
35.4948938
21
18.7407432
0
LINE
8
DEFAULT_255_2_778
10
35.4948938
20
18.7407432
11
35.5615938
21
18.8320432
0
LINE
8
DEFAULT_255_2_778
10
35.5615938
20
18.8320432
11
35.6681938
21
18.9214432
0
LINE
8
DEFAULT_255_2_778
10
35.6681938
20
18.9214432
11
35.7845938
21
18.9693432
0
LINE
8
DEFAULT_255_2_778
10
35.7845938
20
18.9693432
11
35.9525938
21
18.9810432
0
LINE
8
DEFAULT_255_2_778
10
35.9525938
20
18.9810432
11
36.0785938
21
18.9513432
0
LINE
8
DEFAULT_255_2_778
10
36.0785938
20
18.9513432
11
36.1745938
21
18.8889432
0
LINE
8
DEFAULT_255_2_778
10
36.1745938
20
18.8889432
11
36.2224938
21
18.8296432
0
LINE
8
DEFAULT_255_2_778
10
36.2224938
20
18.8296432
11
36.2451938
21
18.7825432
0
LINE
8
DEFAULT_255_2_778
10
36.2451938
20
18.7825432
11
36.2568938
21
18.7450432
0
LINE
8
DEFAULT_255_2_778
10
36.2568938
20
18.7450432
11
36.2626938
21
18.7161432
0
LINE
8
DEFAULT_255_2_778
10
36.2626938
20
18.7161432
11
36.2663938
21
18.6870432
0
LINE
8
DEFAULT_255_2_778
10
36.2663938
20
18.6870432
11
36.2682938
21
18.6434432
0
LINE
8
DEFAULT_255_2_778
10
36.2682938
20
18.6434432
11
36.5566938
21
18.6434432
0
LINE
8
DEFAULT_255_2_778
10
36.5566938
20
18.6434432
11
36.5552938
21
18.6942432
0
LINE
8
DEFAULT_255_2_778
10
36.5552938
20
18.6942432
11
36.5534938
21
18.7196432
0
LINE
8
DEFAULT_255_2_778
10
36.5534938
20
18.7196432
11
36.5505938
21
18.7450432
0
LINE
8
DEFAULT_255_2_778
10
36.5505938
20
18.7450432
11
36.5465938
21
18.7704432
0
LINE
8
DEFAULT_255_2_778
10
36.5465938
20
18.7704432
11
36.5357938
21
18.8206432
0
LINE
8
DEFAULT_255_2_778
10
36.5357938
20
18.8206432
11
36.5174938
21
18.8781432
0
LINE
8
DEFAULT_255_2_778
10
36.5174938
20
18.8781432
11
36.4928938
21
18.9328432
0
LINE
8
DEFAULT_255_2_778
10
36.4928938
20
18.9328432
11
36.4502938
21
18.9998432
0
LINE
8
DEFAULT_255_2_778
10
36.4502938
20
18.9998432
11
36.3830938
21
19.0717432
0
LINE
8
DEFAULT_255_2_778
10
36.3830938
20
19.0717432
11
36.2780938
21
19.1442432
0
LINE
8
DEFAULT_255_2_778
10
36.2780938
20
19.1442432
11
36.2383938
21
19.1635432
0
LINE
8
DEFAULT_255_2_778
10
35.2977927
20
28.1844052
11
36.0632927
21
28.1844052
0
LINE
8
DEFAULT_255_2_778
10
36.0632927
20
28.1844052
11
36.0632927
21
29.2805052
0
LINE
8
DEFAULT_255_2_778
10
36.0632927
20
29.2805052
11
35.2977927
21
28.1844052
0
LINE
8
DEFAULT_255_2_778
10
36.0103927
20
29.5938052
11
36.3579927
21
29.5938052
0
LINE
8
DEFAULT_255_2_778
10
36.3579927
20
29.5938052
11
36.3579927
21
28.1844052
0
LINE
8
DEFAULT_255_2_778
10
36.3579927
20
28.1844052
11
36.7741927
21
28.1844052
0
LINE
8
DEFAULT_255_2_778
10
36.7741927
20
28.1844052
11
36.7741927
21
27.9441052
0
LINE
8
DEFAULT_255_2_778
10
36.7741927
20
27.9441052
11
36.3579927
21
27.9441052
0
LINE
8
DEFAULT_255_2_778
10
36.3579927
20
27.9441052
11
36.3579927
21
27.3938052
0
LINE
8
DEFAULT_255_2_778
10
36.3579927
20
27.3938052
11
36.0632927
21
27.3938052
0
LINE
8
DEFAULT_255_2_778
10
36.0632927
20
27.3938052
11
36.0632927
21
27.9441052
0
LINE
8
DEFAULT_255_2_778
10
36.0632927
20
27.9441052
11
35.0403927
21
27.9441052
0
LINE
8
DEFAULT_255_2_778
10
35.0403927
20
27.9441052
11
35.0403927
21
28.2092052
0
LINE
8
DEFAULT_255_2_778
10
35.0403927
20
28.2092052
11
36.0103927
21
29.5938052
0
LINE
8
DEFAULT_255_2_778
10
35.9771625
20
50.4223312
11
35.8001625
21
50.4223312
0
LINE
8
DEFAULT_255_2_778
10
35.8001625
20
50.4223312
11
35.6559625
21
50.3945312
0
LINE
8
DEFAULT_255_2_778
10
35.6559625
20
50.3945312
11
35.5258625
21
50.3408312
0
LINE
8
DEFAULT_255_2_778
10
35.5258625
20
50.3408312
11
35.4318625
21
50.2802312
0
LINE
8
DEFAULT_255_2_778
10
35.4318625
20
50.2802312
11
35.3445625
21
50.2011312
0
LINE
8
DEFAULT_255_2_778
10
35.3445625
20
50.2011312
11
35.2683625
21
50.1082312
0
LINE
8
DEFAULT_255_2_778
10
35.2683625
20
50.1082312
11
35.2120625
21
50.0201312
0
LINE
8
DEFAULT_255_2_778
10
35.2120625
20
50.0201312
11
35.1654625
21
49.9294312
0
LINE
8
DEFAULT_255_2_778
10
35.1654625
20
49.9294312
11
35.1268625
21
49.8352312
0
LINE
8
DEFAULT_255_2_778
10
35.1268625
20
49.8352312
11
35.1032625
21
49.7640312
0
LINE
8
DEFAULT_255_2_778
10
35.1032625
20
49.7640312
11
35.0836625
21
49.6918312
0
LINE
8
DEFAULT_255_2_778
10
35.0836625
20
49.6918312
11
35.0680625
21
49.6185312
0
LINE
8
DEFAULT_255_2_778
10
35.0680625
20
49.6185312
11
35.0617625
21
49.5817312
0
LINE
8
DEFAULT_255_2_778
10
35.0617625
20
49.5817312
11
35.0548625
21
49.5346312
0
LINE
8
DEFAULT_255_2_778
10
35.0548625
20
49.5346312
11
35.0492625
21
49.4875312
0
LINE
8
DEFAULT_255_2_778
10
35.0492625
20
49.4875312
11
35.0450625
21
49.4402312
0
LINE
8
DEFAULT_255_2_778
10
35.0450625
20
49.4402312
11
35.0421625
21
49.3928312
0
LINE
8
DEFAULT_255_2_778
10
35.0421625
20
49.3928312
11
35.0421625
21
49.2010312
0
LINE
8
DEFAULT_255_2_778
10
35.0421625
20
49.2010312
11
35.0450625
21
49.1528312
0
LINE
8
DEFAULT_255_2_778
10
35.0450625
20
49.1528312
11
35.0492625
21
49.1047312
0
LINE
8
DEFAULT_255_2_778
10
35.0492625
20
49.1047312
11
35.0545625
21
49.0565312
0
LINE
8
DEFAULT_255_2_778
10
35.0545625
20
49.0565312
11
35.0614625
21
49.0086312
0
LINE
8
DEFAULT_255_2_778
10
35.0614625
20
49.0086312
11
35.0749625
21
48.9338312
0
LINE
8
DEFAULT_255_2_778
10
35.0749625
20
48.9338312
11
35.0921625
21
48.8597312
0
LINE
8
DEFAULT_255_2_778
10
35.0921625
20
48.8597312
11
35.1133625
21
48.7866312
0
LINE
8
DEFAULT_255_2_778
10
35.1133625
20
48.7866312
11
35.1376625
21
48.7171312
0
LINE
8
DEFAULT_255_2_778
10
35.1376625
20
48.7171312
11
35.1802625
21
48.6186312
0
LINE
8
DEFAULT_255_2_778
10
35.1802625
20
48.6186312
11
35.2318625
21
48.5242312
0
LINE
8
DEFAULT_255_2_778
10
35.2318625
20
48.5242312
11
35.3017625
21
48.4234312
0
LINE
8
DEFAULT_255_2_778
10
35.3017625
20
48.4234312
11
35.3845625
21
48.3332312
0
LINE
8
DEFAULT_255_2_778
10
35.3845625
20
48.3332312
11
35.4750625
21
48.2617312
0
LINE
8
DEFAULT_255_2_778
10
35.4750625
20
48.2617312
11
35.5998625
21
48.1958312
0
LINE
8
DEFAULT_255_2_778
10
35.5998625
20
48.1958312
11
35.7406625
21
48.1561312
0
LINE
8
DEFAULT_255_2_778
10
35.7406625
20
48.1561312
11
35.9181625
21
48.1442312
0
LINE
8
DEFAULT_255_2_778
10
35.9181625
20
48.1442312
11
36.0655625
21
48.1620312
0
LINE
8
DEFAULT_255_2_778
10
36.0655625
20
48.1620312
11
36.2034625
21
48.2072312
0
LINE
8
DEFAULT_255_2_778
10
36.2034625
20
48.2072312
11
36.3253625
21
48.2781312
0
LINE
8
DEFAULT_255_2_778
10
36.3253625
20
48.2781312
11
36.4145625
21
48.3548312
0
LINE
8
DEFAULT_255_2_778
10
36.4145625
20
48.3548312
11
36.4936625
21
48.4480312
0
LINE
8
DEFAULT_255_2_778
10
36.4936625
20
48.4480312
11
36.5447625
21
48.5244312
0
LINE
8
DEFAULT_255_2_778
10
36.5447625
20
48.5244312
11
36.5963625
21
48.6192312
0
LINE
8
DEFAULT_255_2_778
10
36.5963625
20
48.6192312
11
36.6389625
21
48.7181312
0
LINE
8
DEFAULT_255_2_778
10
36.6389625
20
48.7181312
11
36.6632625
21
48.7880312
0
LINE
8
DEFAULT_255_2_778
10
36.6632625
20
48.7880312
11
36.6844625
21
48.8610312
0
LINE
8
DEFAULT_255_2_778
10
36.6844625
20
48.8610312
11
36.7016625
21
48.9351312
0
LINE
8
DEFAULT_255_2_778
10
36.7016625
20
48.9351312
11
36.7151625
21
49.0100312
0
LINE
8
DEFAULT_255_2_778
10
36.7151625
20
49.0100312
11
36.7219625
21
49.0576312
0
LINE
8
DEFAULT_255_2_778
10
36.7219625
20
49.0576312
11
36.7272625
21
49.1055312
0
LINE
8
DEFAULT_255_2_778
10
36.7272625
20
49.1055312
11
36.7315625
21
49.1536312
0
LINE
8
DEFAULT_255_2_778
10
36.7315625
20
49.1536312
11
36.7344625
21
49.2018312
0
LINE
8
DEFAULT_255_2_778
10
36.7344625
20
49.2018312
11
36.7344625
21
49.3933312
0
LINE
8
DEFAULT_255_2_778
10
36.7344625
20
49.3933312
11
36.7315625
21
49.4407312
0
LINE
8
DEFAULT_255_2_778
10
36.7315625
20
49.4407312
11
36.7272625
21
49.4881312
0
LINE
8
DEFAULT_255_2_778
10
36.7272625
20
49.4881312
11
36.7217625
21
49.5352312
0
LINE
8
DEFAULT_255_2_778
10
36.7217625
20
49.5352312
11
36.7148625
21
49.5822312
0
LINE
8
DEFAULT_255_2_778
10
36.7148625
20
49.5822312
11
36.7010625
21
49.6558312
0
LINE
8
DEFAULT_255_2_778
10
36.7010625
20
49.6558312
11
36.6836625
21
49.7286312
0
LINE
8
DEFAULT_255_2_778
10
36.6836625
20
49.7286312
11
36.6621625
21
49.8003312
0
LINE
8
DEFAULT_255_2_778
10
36.6621625
20
49.8003312
11
36.6373625
21
49.8688312
0
LINE
8
DEFAULT_255_2_778
10
36.6373625
20
49.8688312
11
36.5939625
21
49.9659312
0
LINE
8
DEFAULT_255_2_778
10
36.5939625
20
49.9659312
11
36.5418625
21
50.0588312
0
LINE
8
DEFAULT_255_2_778
10
36.5418625
20
50.0588312
11
36.4722625
21
50.1564312
0
LINE
8
DEFAULT_255_2_778
10
36.4722625
20
50.1564312
11
36.3899625
21
50.2434312
0
LINE
8
DEFAULT_255_2_778
10
36.3899625
20
50.2434312
11
36.2997625
21
50.3125312
0
LINE
8
DEFAULT_255_2_778
10
36.2997625
20
50.3125312
11
36.1756625
21
50.3760312
0
LINE
8
DEFAULT_255_2_778
10
36.1756625
20
50.3760312
11
36.0353625
21
50.4144312
0
LINE
8
DEFAULT_255_2_778
10
36.0353625
20
50.4144312
11
35.9771625
21
50.4223312
0
LINE
8
DEFAULT_255_2_778
10
35.9261625
20
50.1757312
11
36.0539625
21
50.1493312
0
LINE
8
DEFAULT_255_2_778
10
36.0539625
20
50.1493312
11
36.1658625
21
50.0876312
0
LINE
8
DEFAULT_255_2_778
10
36.1658625
20
50.0876312
11
36.2362625
21
50.0220312
0
LINE
8
DEFAULT_255_2_778
10
36.2362625
20
50.0220312
11
36.2915625
21
49.9479312
0
LINE
8
DEFAULT_255_2_778
10
36.2915625
20
49.9479312
11
36.3394625
21
49.8598312
0
LINE
8
DEFAULT_255_2_778
10
36.3394625
20
49.8598312
11
36.3722625
21
49.7804312
0
LINE
8
DEFAULT_255_2_778
10
36.3722625
20
49.7804312
11
36.3984625
21
49.6987312
0
LINE
8
DEFAULT_255_2_778
10
36.3984625
20
49.6987312
11
36.4140625
21
49.6357312
0
LINE
8
DEFAULT_255_2_778
10
36.4140625
20
49.6357312
11
36.4264625
21
49.5719312
0
LINE
8
DEFAULT_255_2_778
10
36.4264625
20
49.5719312
11
36.4357625
21
49.5076312
0
LINE
8
DEFAULT_255_2_778
10
36.4357625
20
49.5076312
11
36.4396625
21
49.4722312
0
LINE
8
DEFAULT_255_2_778
10
36.4396625
20
49.4722312
11
36.4428625
21
49.4367312
0
LINE
8
DEFAULT_255_2_778
10
36.4428625
20
49.4367312
11
36.4428625
21
49.1499312
0
LINE
8
DEFAULT_255_2_778
10
36.4428625
20
49.1499312
11
36.4396625
21
49.1139312
0
LINE
8
DEFAULT_255_2_778
10
36.4396625
20
49.1139312
11
36.4357625
21
49.0780312
0
LINE
8
DEFAULT_255_2_778
10
36.4357625
20
49.0780312
11
36.4264625
21
49.0129312
0
LINE
8
DEFAULT_255_2_778
10
36.4264625
20
49.0129312
11
36.4142625
21
48.9480312
0
LINE
8
DEFAULT_255_2_778
10
36.4142625
20
48.9480312
11
36.3989625
21
48.8840312
0
LINE
8
DEFAULT_255_2_778
10
36.3989625
20
48.8840312
11
36.3817625
21
48.8258312
0
LINE
8
DEFAULT_255_2_778
10
36.3817625
20
48.8258312
11
36.3497625
21
48.7403312
0
LINE
8
DEFAULT_255_2_778
10
36.3497625
20
48.7403312
11
36.3050625
21
48.6493312
0
LINE
8
DEFAULT_255_2_778
10
36.3050625
20
48.6493312
11
36.2526625
21
48.5707312
0
LINE
8
DEFAULT_255_2_778
10
36.2526625
20
48.5707312
11
36.1814625
21
48.4967312
0
LINE
8
DEFAULT_255_2_778
10
36.1814625
20
48.4967312
11
36.0888625
21
48.4361312
0
LINE
8
DEFAULT_255_2_778
10
36.0888625
20
48.4361312
11
35.9636625
21
48.3982312
0
LINE
8
DEFAULT_255_2_778
10
35.9636625
20
48.3982312
11
35.8128625
21
48.3982312
0
LINE
8
DEFAULT_255_2_778
10
35.8128625
20
48.3982312
11
35.6877625
21
48.4361312
0
LINE
8
DEFAULT_255_2_778
10
35.6877625
20
48.4361312
11
35.5951625
21
48.4967312
0
LINE
8
DEFAULT_255_2_778
10
35.5951625
20
48.4967312
11
35.5239625
21
48.5707312
0
LINE
8
DEFAULT_255_2_778
10
35.5239625
20
48.5707312
11
35.4715625
21
48.6493312
0
LINE
8
DEFAULT_255_2_778
10
35.4715625
20
48.6493312
11
35.4392625
21
48.7126312
0
LINE
8
DEFAULT_255_2_778
10
35.4392625
20
48.7126312
11
35.4048625
21
48.7970312
0
LINE
8
DEFAULT_255_2_778
10
35.4048625
20
48.7970312
11
35.3861625
21
48.8546312
0
LINE
8
DEFAULT_255_2_778
10
35.3861625
20
48.8546312
11
35.3697625
21
48.9158312
0
LINE
8
DEFAULT_255_2_778
10
35.3697625
20
48.9158312
11
35.3559625
21
48.9801312
0
LINE
8
DEFAULT_255_2_778
10
35.3559625
20
48.9801312
11
35.3453625
21
49.0451312
0
LINE
8
DEFAULT_255_2_778
10
35.3453625
20
49.0451312
11
35.3411625
21
49.0777312
0
LINE
8
DEFAULT_255_2_778
10
35.3411625
20
49.0777312
11
35.3371625
21
49.1137312
0
LINE
8
DEFAULT_255_2_778
10
35.3371625
20
49.1137312
11
35.3339625
21
49.1497312
0
LINE
8
DEFAULT_255_2_778
10
35.3339625
20
49.1497312
11
35.3339625
21
49.4365312
0
LINE
8
DEFAULT_255_2_778
10
35.3339625
20
49.4365312
11
35.3371625
21
49.4719312
0
LINE
8
DEFAULT_255_2_778
10
35.3371625
20
49.4719312
11
35.3411625
21
49.5074312
0
LINE
8
DEFAULT_255_2_778
10
35.3411625
20
49.5074312
11
35.3503625
21
49.5717312
0
LINE
8
DEFAULT_255_2_778
10
35.3503625
20
49.5717312
11
35.3628625
21
49.6354312
0
LINE
8
DEFAULT_255_2_778
10
35.3628625
20
49.6354312
11
35.3784625
21
49.6984312
0
LINE
8
DEFAULT_255_2_778
10
35.3784625
20
49.6984312
11
35.3958625
21
49.7556312
0
LINE
8
DEFAULT_255_2_778
10
35.3958625
20
49.7556312
11
35.4281625
21
49.8394312
0
LINE
8
DEFAULT_255_2_778
10
35.4281625
20
49.8394312
11
35.4731625
21
49.9281312
0
LINE
8
DEFAULT_255_2_778
10
35.4731625
20
49.9281312
11
35.5255625
21
50.0043312
0
LINE
8
DEFAULT_255_2_778
10
35.5255625
20
50.0043312
11
35.5964625
21
50.0762312
0
LINE
8
DEFAULT_255_2_778
10
35.5964625
20
50.0762312
11
35.6887625
21
50.1350312
0
LINE
8
DEFAULT_255_2_778
10
35.6887625
20
50.1350312
11
35.8134625
21
50.1717312
0
LINE
8
DEFAULT_255_2_778
10
35.8134625
20
50.1717312
11
35.9261625
21
50.1757312
0
LINE
8
DEFAULT_255_2_778
10
36.1153396
20
102.3835479
11
35.9457396
21
102.4197479
0
LINE
8
DEFAULT_255_2_778
10
35.9457396
20
102.4197479
11
35.7584396
21
102.4245479
0
LINE
8
DEFAULT_255_2_778
10
35.7584396
20
102.4245479
11
35.6041396
21
102.4025479
0
LINE
8
DEFAULT_255_2_778
10
35.6041396
20
102.4025479
11
35.4684396
21
102.3557479
0
LINE
8
DEFAULT_255_2_778
10
35.4684396
20
102.3557479
11
35.3739396
21
102.3009479
0
LINE
8
DEFAULT_255_2_778
10
35.3739396
20
102.3009479
11
35.2313396
21
102.1583479
0
LINE
8
DEFAULT_255_2_778
10
35.2313396
20
102.1583479
11
35.1742396
21
102.0496479
0
LINE
8
DEFAULT_255_2_778
10
35.1742396
20
102.0496479
11
35.1501396
21
101.9726479
0
LINE
8
DEFAULT_255_2_778
10
35.1501396
20
101.9726479
11
35.1382396
21
101.9112479
0
LINE
8
DEFAULT_255_2_778
10
35.1382396
20
101.9112479
11
35.1337396
21
101.8739479
0
LINE
8
DEFAULT_255_2_778
10
35.1337396
20
101.8739479
11
35.1313396
21
101.8366479
0
LINE
8
DEFAULT_255_2_778
10
35.1313396
20
101.8366479
11
35.1308396
21
101.7996479
0
LINE
8
DEFAULT_255_2_778
10
35.1308396
20
101.7996479
11
35.4160396
21
101.7996479
0
LINE
8
DEFAULT_255_2_778
10
35.4160396
20
101.7996479
11
35.4173396
21
101.8416479
0
LINE
8
DEFAULT_255_2_778
10
35.4173396
20
101.8416479
11
35.4205396
21
101.8697479
0
LINE
8
DEFAULT_255_2_778
10
35.4205396
20
101.8697479
11
35.4284396
21
101.9115479
0
LINE
8
DEFAULT_255_2_778
10
35.4284396
20
101.9115479
11
35.4459396
21
101.9657479
0
LINE
8
DEFAULT_255_2_778
10
35.4459396
20
101.9657479
11
35.4837396
21
102.0345479
0
LINE
8
DEFAULT_255_2_778
10
35.4837396
20
102.0345479
11
35.5668396
21
102.1165479
0
LINE
8
DEFAULT_255_2_778
10
35.5668396
20
102.1165479
11
35.7078396
21
102.1774479
0
LINE
8
DEFAULT_255_2_778
10
35.7078396
20
102.1774479
11
35.9169396
21
102.1819479
0
LINE
8
DEFAULT_255_2_778
10
35.9169396
20
102.1819479
11
36.0798396
21
102.1210479
0
LINE
8
DEFAULT_255_2_778
10
36.0798396
20
102.1210479
11
36.1682396
21
102.0369479
0
LINE
8
DEFAULT_255_2_778
10
36.1682396
20
102.0369479
11
36.2037396
21
101.9692479
0
LINE
8
DEFAULT_255_2_778
10
36.2037396
20
101.9692479
11
36.2169396
21
101.9260479
0
LINE
8
DEFAULT_255_2_778
10
36.2169396
20
101.9260479
11
36.2235396
21
101.8903479
0
LINE
8
DEFAULT_255_2_778
10
36.2235396
20
101.8903479
11
36.2235396
21
101.7882479
0
LINE
8
DEFAULT_255_2_778
10
36.2235396
20
101.7882479
11
36.2201396
21
101.7673479
0
LINE
8
DEFAULT_255_2_778
10
36.2201396
20
101.7673479
11
36.2106396
21
101.7260479
0
LINE
8
DEFAULT_255_2_778
10
36.2106396
20
101.7260479
11
36.1902396
21
101.6654479
0
LINE
8
DEFAULT_255_2_778
10
36.1902396
20
101.6654479
11
36.1590396
21
101.5958479
0
LINE
8
DEFAULT_255_2_778
10
36.1590396
20
101.5958479
11
36.1097396
21
101.5090479
0
LINE
8
DEFAULT_255_2_778
10
36.1097396
20
101.5090479
11
36.0134396
21
101.3736479
0
LINE
8
DEFAULT_255_2_778
10
36.0134396
20
101.3736479
11
35.8653396
21
101.1979479
0
LINE
8
DEFAULT_255_2_778
10
35.8653396
20
101.1979479
11
35.6933396
21
101.0188479
0
LINE
8
DEFAULT_255_2_778
10
35.6933396
20
101.0188479
11
35.4118396
21
100.7579479
0
LINE
8
DEFAULT_255_2_778
10
35.4118396
20
100.7579479
11
35.1043396
21
100.5055479
0
LINE
8
DEFAULT_255_2_778
10
35.1043396
20
100.5055479
11
35.0403396
21
100.4565479
0
LINE
8
DEFAULT_255_2_778
10
35.0403396
20
100.4565479
11
35.0403396
21
100.1930479
0
LINE
8
DEFAULT_255_2_778
10
35.0403396
20
100.1930479
11
36.5574396
21
100.1930479
0
LINE
8
DEFAULT_255_2_778
10
36.5574396
20
100.1930479
11
36.5574396
21
100.4332479
0
LINE
8
DEFAULT_255_2_778
10
36.5574396
20
100.4332479
11
35.3991396
21
100.4332479
0
LINE
8
DEFAULT_255_2_778
10
35.3991396
20
100.4332479
11
35.9256396
21
100.8680479
0
LINE
8
DEFAULT_255_2_778
10
35.9256396
20
100.8680479
11
36.1087396
21
101.0444479
0
LINE
8
DEFAULT_255_2_778
10
36.1087396
20
101.0444479
11
36.2217396
21
101.1733479
0
LINE
8
DEFAULT_255_2_778
10
36.2217396
20
101.1733479
11
36.2987396
21
101.2762479
0
LINE
8
DEFAULT_255_2_778
10
36.2987396
20
101.2762479
11
36.3677396
21
101.3850479
0
LINE
8
DEFAULT_255_2_778
10
36.3677396
20
101.3850479
11
36.4283396
21
101.5024479
0
LINE
8
DEFAULT_255_2_778
10
36.4283396
20
101.5024479
11
36.4619396
21
101.5847479
0
LINE
8
DEFAULT_255_2_778
10
36.4619396
20
101.5847479
11
36.4804396
21
101.6408479
0
LINE
8
DEFAULT_255_2_778
10
36.4804396
20
101.6408479
11
36.4950396
21
101.6977479
0
LINE
8
DEFAULT_255_2_778
10
36.4950396
20
101.6977479
11
36.5008396
21
101.7265479
0
LINE
8
DEFAULT_255_2_778
10
36.5008396
20
101.7265479
11
36.5056396
21
101.7554479
0
LINE
8
DEFAULT_255_2_778
10
36.5056396
20
101.7554479
11
36.5090396
21
101.7845479
0
LINE
8
DEFAULT_255_2_778
10
36.5090396
20
101.7845479
11
36.5090396
21
101.9191479
0
LINE
8
DEFAULT_255_2_778
10
36.5090396
20
101.9191479
11
36.5058396
21
101.9445479
0
LINE
8
DEFAULT_255_2_778
10
36.5058396
20
101.9445479
11
36.5016396
21
101.9697479
0
LINE
8
DEFAULT_255_2_778
10
36.5016396
20
101.9697479
11
36.4894396
21
102.0194479
0
LINE
8
DEFAULT_255_2_778
10
36.4894396
20
102.0194479
11
36.4743396
21
102.0639479
0
LINE
8
DEFAULT_255_2_778
10
36.4743396
20
102.0639479
11
36.4444396
21
102.1274479
0
LINE
8
DEFAULT_255_2_778
10
36.4444396
20
102.1274479
11
36.4055396
21
102.1861479
0
LINE
8
DEFAULT_255_2_778
10
36.4055396
20
102.1861479
11
36.3405396
21
102.2554479
0
LINE
8
DEFAULT_255_2_778
10
36.3405396
20
102.2554479
11
36.2381396
21
102.3287479
0
LINE
8
DEFAULT_255_2_778
10
36.2381396
20
102.3287479
11
36.1153396
21
102.3830479
0
LINE
8
DEFAULT_255_2_778
10
35.817224
20
107.5812875
11
35.567624
21
107.5812875
0
LINE
8
DEFAULT_255_2_778
10
35.567624
20
107.5812875
11
35.302824
21
107.3740875
0
LINE
8
DEFAULT_255_2_778
10
35.302824
20
107.3740875
11
35.040624
21
107.2428875
0
LINE
8
DEFAULT_255_2_778
10
35.040624
20
107.2428875
11
35.040624
21
106.9684875
0
LINE
8
DEFAULT_255_2_778
10
35.040624
20
106.9684875
11
35.417424
21
107.1602875
0
LINE
8
DEFAULT_255_2_778
10
35.417424
20
107.1602875
11
35.522424
21
107.2412875
0
LINE
8
DEFAULT_255_2_778
10
35.522424
20
107.2412875
11
35.522424
21
105.3936875
0
LINE
8
DEFAULT_255_2_778
10
35.522424
20
105.3936875
11
35.817224
21
105.3936875
0
LINE
8
DEFAULT_255_2_778
10
35.817224
20
105.3936875
11
35.817224
21
107.5812875
0
LINE
8
DEFAULT_255_2_778
10
36.0645636
20
97.2016811
11
35.8279636
21
97.2265811
0
LINE
8
DEFAULT_255_2_778
10
35.8279636
20
97.2265811
11
35.6086636
21
97.2059811
0
LINE
8
DEFAULT_255_2_778
10
35.6086636
20
97.2059811
11
35.3678636
21
97.1135811
0
LINE
8
DEFAULT_255_2_778
10
35.3678636
20
97.1135811
11
35.2231636
21
96.9900811
0
LINE
8
DEFAULT_255_2_778
10
35.2231636
20
96.9900811
11
35.1575636
21
96.8868811
0
LINE
8
DEFAULT_255_2_778
10
35.1575636
20
96.8868811
11
35.1270636
21
96.8066811
0
LINE
8
DEFAULT_255_2_778
10
35.1270636
20
96.8066811
11
35.1125636
21
96.7455811
0
LINE
8
DEFAULT_255_2_778
10
35.1125636
20
96.7455811
11
35.1069636
21
96.7084811
0
LINE
8
DEFAULT_255_2_778
10
35.1069636
20
96.7084811
11
35.1046636
21
96.6836811
0
LINE
8
DEFAULT_255_2_778
10
35.1046636
20
96.6836811
11
35.1027636
21
96.6217811
0
LINE
8
DEFAULT_255_2_778
10
35.1027636
20
96.6217811
11
35.3879636
21
96.6217811
0
LINE
8
DEFAULT_255_2_778
10
35.3879636
20
96.6217811
11
35.3903636
21
96.6709811
0
LINE
8
DEFAULT_255_2_778
10
35.3903636
20
96.6709811
11
35.3967636
21
96.7074811
0
LINE
8
DEFAULT_255_2_778
10
35.3967636
20
96.7074811
11
35.4104636
21
96.7532811
0
LINE
8
DEFAULT_255_2_778
10
35.4104636
20
96.7532811
11
35.4414636
21
96.8145811
0
LINE
8
DEFAULT_255_2_778
10
35.4414636
20
96.8145811
11
35.5223636
21
96.8992811
0
LINE
8
DEFAULT_255_2_778
10
35.5223636
20
96.8992811
11
35.6517636
21
96.9651811
0
LINE
8
DEFAULT_255_2_778
10
35.6517636
20
96.9651811
11
35.8586636
21
96.9889811
0
LINE
8
DEFAULT_255_2_778
10
35.8586636
20
96.9889811
11
36.0298636
21
96.9550811
0
LINE
8
DEFAULT_255_2_778
10
36.0298636
20
96.9550811
11
36.1573636
21
96.8767811
0
LINE
8
DEFAULT_255_2_778
10
36.1573636
20
96.8767811
11
36.2155636
21
96.8050811
0
LINE
8
DEFAULT_255_2_778
10
36.2155636
20
96.8050811
11
36.2436636
21
96.7418811
0
LINE
8
DEFAULT_255_2_778
10
36.2436636
20
96.7418811
11
36.2531636
21
96.7063811
0
LINE
8
DEFAULT_255_2_778
10
36.2531636
20
96.7063811
11
36.2592636
21
96.6690811
0
LINE
8
DEFAULT_255_2_778
10
36.2592636
20
96.6690811
11
36.2568636
21
96.5624811
0
LINE
8
DEFAULT_255_2_778
10
36.2568636
20
96.5624811
11
36.2460636
21
96.5169811
0
LINE
8
DEFAULT_255_2_778
10
36.2460636
20
96.5169811
11
36.2097636
21
96.4423811
0
LINE
8
DEFAULT_255_2_778
10
36.2097636
20
96.4423811
11
36.0949636
21
96.3333811
0
LINE
8
DEFAULT_255_2_778
10
36.0949636
20
96.3333811
11
35.8835636
21
96.2515811
0
LINE
8
DEFAULT_255_2_778
10
35.8835636
20
96.2515811
11
35.7628636
21
96.2412811
0
LINE
8
DEFAULT_255_2_778
10
35.7628636
20
96.2412811
11
35.6647636
21
96.2412811
0
LINE
8
DEFAULT_255_2_778
10
35.6647636
20
96.2412811
11
35.6647636
21
95.9949811
0
LINE
8
DEFAULT_255_2_778
10
35.6647636
20
95.9949811
11
35.9817636
21
95.9737811
0
LINE
8
DEFAULT_255_2_778
10
35.9817636
20
95.9737811
11
36.1743636
21
95.8906811
0
LINE
8
DEFAULT_255_2_778
10
36.1743636
20
95.8906811
11
36.2507636
21
95.8157811
0
LINE
8
DEFAULT_255_2_778
10
36.2507636
20
95.8157811
11
36.2835636
21
95.7567811
0
LINE
8
DEFAULT_255_2_778
10
36.2835636
20
95.7567811
11
36.2976636
21
95.7123811
0
LINE
8
DEFAULT_255_2_778
10
36.2976636
20
95.7123811
11
36.3036636
21
95.6774811
0
LINE
8
DEFAULT_255_2_778
10
36.3036636
20
95.6774811
11
36.3026636
21
95.5575811
0
LINE
8
DEFAULT_255_2_778
10
36.3026636
20
95.5575811
11
36.2947636
21
95.5149811
0
LINE
8
DEFAULT_255_2_778
10
36.2947636
20
95.5149811
11
36.2790636
21
95.4631811
0
LINE
8
DEFAULT_255_2_778
10
36.2790636
20
95.4631811
11
36.2510636
21
95.4035811
0
LINE
8
DEFAULT_255_2_778
10
36.2510636
20
95.4035811
11
36.1856636
21
95.3215811
0
LINE
8
DEFAULT_255_2_778
10
36.1856636
20
95.3215811
11
36.0698636
21
95.2424811
0
LINE
8
DEFAULT_255_2_778
10
36.0698636
20
95.2424811
11
35.8896636
21
95.1958811
0
LINE
8
DEFAULT_255_2_778
10
35.8896636
20
95.1958811
11
35.6541636
21
95.2210811
0
LINE
8
DEFAULT_255_2_778
10
35.6541636
20
95.2210811
11
35.5022636
21
95.3133811
0
LINE
8
DEFAULT_255_2_778
10
35.5022636
20
95.3133811
11
35.4099636
21
95.4257811
0
LINE
8
DEFAULT_255_2_778
10
35.4099636
20
95.4257811
11
35.3607636
21
95.5300811
0
LINE
8
DEFAULT_255_2_778
10
35.3607636
20
95.5300811
11
35.3414636
21
95.5938811
0
LINE
8
DEFAULT_255_2_778
10
35.3414636
20
95.5938811
11
35.0405636
21
95.5938811
0
LINE
8
DEFAULT_255_2_778
10
35.0405636
20
95.5938811
11
35.0490636
21
95.5464811
0
LINE
8
DEFAULT_255_2_778
10
35.0490636
20
95.5464811
11
35.0601636
21
95.4996811
0
LINE
8
DEFAULT_255_2_778
10
35.0601636
20
95.4996811
11
35.0818636
21
95.4305811
0
LINE
8
DEFAULT_255_2_778
10
35.0818636
20
95.4305811
11
35.1183636
21
95.3461811
0
LINE
8
DEFAULT_255_2_778
10
35.1183636
20
95.3461811
11
35.1641636
21
95.2683811
0
LINE
8
DEFAULT_255_2_778
10
35.1641636
20
95.2683811
11
35.2350636
21
95.1807811
0
LINE
8
DEFAULT_255_2_778
10
35.2350636
20
95.1807811
11
35.3215636
21
95.1032811
0
LINE
8
DEFAULT_255_2_778
10
35.3215636
20
95.1032811
11
35.4538636
21
95.0220811
0
LINE
8
DEFAULT_255_2_778
10
35.4538636
20
95.0220811
11
35.6014636
21
94.9693811
0
LINE
8
DEFAULT_255_2_778
10
35.6014636
20
94.9693811
11
35.7925636
21
94.9445811
0
LINE
8
DEFAULT_255_2_778
10
35.7925636
20
94.9445811
11
36.0010636
21
94.9566811
0
LINE
8
DEFAULT_255_2_778
10
36.0010636
20
94.9566811
11
36.1880636
21
95.0045811
0
LINE
8
DEFAULT_255_2_778
10
36.1880636
20
95.0045811
11
36.3312636
21
95.0770811
0
LINE
8
DEFAULT_255_2_778
10
36.3312636
20
95.0770811
11
36.4306636
21
95.1577811
0
LINE
8
DEFAULT_255_2_778
10
36.4306636
20
95.1577811
11
36.4976636
21
95.2379811
0
LINE
8
DEFAULT_255_2_778
10
36.4976636
20
95.2379811
11
36.5389636
21
95.3096811
0
LINE
8
DEFAULT_255_2_778
10
36.5389636
20
95.3096811
11
36.5629636
21
95.3670811
0
LINE
8
DEFAULT_255_2_778
10
36.5629636
20
95.3670811
11
36.5815636
21
95.4281811
0
LINE
8
DEFAULT_255_2_778
10
36.5815636
20
95.4281811
11
36.5907636
21
95.4723811
0
LINE
8
DEFAULT_255_2_778
10
36.5907636
20
95.4723811
11
36.5971636
21
95.5170811
0
LINE
8
DEFAULT_255_2_778
10
36.5971636
20
95.5170811
11
36.5950636
21
95.7044811
0
LINE
8
DEFAULT_255_2_778
10
36.5950636
20
95.7044811
11
36.5846636
21
95.7589811
0
LINE
8
DEFAULT_255_2_778
10
36.5846636
20
95.7589811
11
36.5606636
21
95.8321811
0
LINE
8
DEFAULT_255_2_778
10
36.5606636
20
95.8321811
11
36.4952636
21
95.9388811
0
LINE
8
DEFAULT_255_2_778
10
36.4952636
20
95.9388811
11
36.3367636
21
96.0676811
0
LINE
8
DEFAULT_255_2_778
10
36.3367636
20
96.0676811
11
36.1933636
21
96.1195811
0
LINE
8
DEFAULT_255_2_778
10
36.1933636
20
96.1195811
11
36.3375636
21
96.2034811
0
LINE
8
DEFAULT_255_2_778
10
36.3375636
20
96.2034811
11
36.4280636
21
96.2878811
0
LINE
8
DEFAULT_255_2_778
10
36.4280636
20
96.2878811
11
36.4764636
21
96.3534811
0
LINE
8
DEFAULT_255_2_778
10
36.4764636
20
96.3534811
11
36.5129636
21
96.4240811
0
LINE
8
DEFAULT_255_2_778
10
36.5129636
20
96.4240811
11
36.5328636
21
96.4801811
0
LINE
8
DEFAULT_255_2_778
10
36.5328636
20
96.4801811
11
36.5428636
21
96.5209811
0
LINE
8
DEFAULT_255_2_778
10
36.5428636
20
96.5209811
11
36.5497636
21
96.5624811
0
LINE
8
DEFAULT_255_2_778
10
36.5497636
20
96.5624811
11
36.5476636
21
96.7450811
0
LINE
8
DEFAULT_255_2_778
10
36.5476636
20
96.7450811
11
36.5399636
21
96.7836811
0
LINE
8
DEFAULT_255_2_778
10
36.5399636
20
96.7836811
11
36.5235636
21
96.8392811
0
LINE
8
DEFAULT_255_2_778
10
36.5235636
20
96.8392811
11
36.4931636
21
96.9069811
0
LINE
8
DEFAULT_255_2_778
10
36.4931636
20
96.9069811
11
36.4529636
21
96.9693811
0
LINE
8
DEFAULT_255_2_778
10
36.4529636
20
96.9693811
11
36.3722636
21
97.0537811
0
LINE
8
DEFAULT_255_2_778
10
36.3722636
20
97.0537811
11
36.2460636
21
97.1368811
0
LINE
8
DEFAULT_255_2_778
10
36.2460636
20
97.1368811
11
36.0888636
21
97.1958811
0
LINE
8
DEFAULT_255_2_778
10
36.0888636
20
97.1958811
11
36.0650636
21
97.2016811
0
LINE
8
DEFAULT_255_2_778
10
35.7348636
20
86.0442811
11
35.5750636
21
85.9965811
0
LINE
8
DEFAULT_255_2_778
10
35.5750636
20
85.9965811
11
35.4848636
21
85.9423811
0
LINE
8
DEFAULT_255_2_778
10
35.4848636
20
85.9423811
11
35.3678636
21
85.8330811
0
LINE
8
DEFAULT_255_2_778
10
35.3678636
20
85.8330811
11
35.3850636
21
86.5408811
0
LINE
8
DEFAULT_255_2_778
10
35.3850636
20
86.5408811
11
36.3828636
21
86.5408811
0
LINE
8
DEFAULT_255_2_778
10
36.3828636
20
86.5408811
11
36.3828636
21
86.7810811
0
LINE
8
DEFAULT_255_2_778
10
36.3828636
20
86.7810811
11
35.1088636
21
86.7810811
0
LINE
8
DEFAULT_255_2_778
10
35.1088636
20
86.7810811
11
35.0900636
21
85.4946811
0
LINE
8
DEFAULT_255_2_778
10
35.0900636
20
85.4946811
11
35.3848636
21
85.4946811
0
LINE
8
DEFAULT_255_2_778
10
35.3848636
20
85.4946811
11
35.3882636
21
85.5216811
0
LINE
8
DEFAULT_255_2_778
10
35.3882636
20
85.5216811
11
35.3972636
21
85.5616811
0
LINE
8
DEFAULT_255_2_778
10
35.3972636
20
85.5616811
11
35.4154636
21
85.6113811
0
LINE
8
DEFAULT_255_2_778
10
35.4154636
20
85.6113811
11
35.4557636
21
85.6769811
0
LINE
8
DEFAULT_255_2_778
10
35.4557636
20
85.6769811
11
35.5525636
21
85.7608811
0
LINE
8
DEFAULT_255_2_778
10
35.5525636
20
85.7608811
11
35.6718636
21
85.8068811
0
LINE
8
DEFAULT_255_2_778
10
35.6718636
20
85.8068811
11
35.8554636
21
85.8089811
0
LINE
8
DEFAULT_255_2_778
10
35.8554636
20
85.8089811
11
35.9951636
21
85.7558811
0
LINE
8
DEFAULT_255_2_778
10
35.9951636
20
85.7558811
11
36.0846636
21
85.6743811
0
LINE
8
DEFAULT_255_2_778
10
36.0846636
20
85.6743811
11
36.1388636
21
85.5896811
0
LINE
8
DEFAULT_255_2_778
10
36.1388636
20
85.5896811
11
36.1671636
21
85.5200811
0
LINE
8
DEFAULT_255_2_778
10
36.1671636
20
85.5200811
11
36.1827636
21
85.4605811
0
LINE
8
DEFAULT_255_2_778
10
36.1827636
20
85.4605811
11
36.1888636
21
85.4261811
0
LINE
8
DEFAULT_255_2_778
10
36.1888636
20
85.4261811
11
36.1888636
21
85.1909811
0
LINE
8
DEFAULT_255_2_778
10
36.1888636
20
85.1909811
11
36.1796636
21
85.1422811
0
LINE
8
DEFAULT_255_2_778
10
36.1796636
20
85.1422811
11
36.1624636
21
85.0824811
0
LINE
8
DEFAULT_255_2_778
10
36.1624636
20
85.0824811
11
36.1327636
21
85.0133811
0
LINE
8
DEFAULT_255_2_778
10
36.1327636
20
85.0133811
11
36.0708636
21
84.9221811
0
LINE
8
DEFAULT_255_2_778
10
36.0708636
20
84.9221811
11
35.9766636
21
84.8440811
0
LINE
8
DEFAULT_255_2_778
10
35.9766636
20
84.8440811
11
35.8414636
21
84.7988811
0
LINE
8
DEFAULT_255_2_778
10
35.8414636
20
84.7988811
11
35.6247636
21
84.8112811
0
LINE
8
DEFAULT_255_2_778
10
35.6247636
20
84.8112811
11
35.5004636
21
84.8742811
0
LINE
8
DEFAULT_255_2_778
10
35.5004636
20
84.8742811
11
35.4139636
21
84.9670811
0
LINE
8
DEFAULT_255_2_778
10
35.4139636
20
84.9670811
11
35.3702636
21
85.0477811
0
LINE
8
DEFAULT_255_2_778
10
35.3702636
20
85.0477811
11
35.3498636
21
85.1094811
0
LINE
8
DEFAULT_255_2_778
10
35.3498636
20
85.1094811
11
35.3424636
21
85.1472811
0
LINE
8
DEFAULT_255_2_778
10
35.3424636
20
85.1472811
11
35.3408636
21
85.1599811
0
LINE
8
DEFAULT_255_2_778
10
35.3408636
20
85.1599811
11
35.0400636
21
85.1599811
0
LINE
8
DEFAULT_255_2_778
10
35.0400636
20
85.1599811
11
35.0426636
21
85.1372811
0
LINE
8
DEFAULT_255_2_778
10
35.0426636
20
85.1372811
11
35.0498636
21
85.0919811
0
LINE
8
DEFAULT_255_2_778
10
35.0498636
20
85.0919811
11
35.0598636
21
85.0469811
0
LINE
8
DEFAULT_255_2_778
10
35.0598636
20
85.0469811
11
35.0802636
21
84.9811811
0
LINE
8
DEFAULT_255_2_778
10
35.0802636
20
84.9811811
11
35.1146636
21
84.9025811
0
LINE
8
DEFAULT_255_2_778
10
35.1146636
20
84.9025811
11
35.1591636
21
84.8294811
0
LINE
8
DEFAULT_255_2_778
10
35.1591636
20
84.8294811
11
35.2289636
21
84.7477811
0
LINE
8
DEFAULT_255_2_778
10
35.2289636
20
84.7477811
11
35.3350636
21
84.6620811
0
LINE
8
DEFAULT_255_2_778
10
35.3350636
20
84.6620811
11
35.4641636
21
84.5961811
0
LINE
8
DEFAULT_255_2_778
10
35.4641636
20
84.5961811
11
35.6350636
21
84.5530811
0
LINE
8
DEFAULT_255_2_778
10
35.6350636
20
84.5530811
11
35.8483636
21
84.5471811
0
LINE
8
DEFAULT_255_2_778
10
35.8483636
20
84.5471811
11
36.0272636
21
84.5805811
0
LINE
8
DEFAULT_255_2_778
10
36.0272636
20
84.5805811
11
36.1782636
21
84.6485811
0
LINE
8
DEFAULT_255_2_778
10
36.1782636
20
84.6485811
11
36.2780636
21
84.7249811
0
LINE
8
DEFAULT_255_2_778
10
36.2780636
20
84.7249811
11
36.3523636
21
84.8083811
0
LINE
8
DEFAULT_255_2_778
10
36.3523636
20
84.8083811
11
36.4026636
21
84.8869811
0
LINE
8
DEFAULT_255_2_778
10
36.4026636
20
84.8869811
11
36.4338636
21
84.9520811
0
LINE
8
DEFAULT_255_2_778
10
36.4338636
20
84.9520811
11
36.4587636
21
85.0207811
0
LINE
8
DEFAULT_255_2_778
10
36.4587636
20
85.0207811
11
36.4717636
21
85.0678811
0
LINE
8
DEFAULT_255_2_778
10
36.4717636
20
85.0678811
11
36.4822636
21
85.1181811
0
LINE
8
DEFAULT_255_2_778
10
36.4822636
20
85.1181811
11
36.4902636
21
85.1716811
0
LINE
8
DEFAULT_255_2_778
10
36.4902636
20
85.1716811
11
36.4915636
21
85.4367811
0
LINE
8
DEFAULT_255_2_778
10
36.4915636
20
85.4367811
11
36.4875636
21
85.4689811
0
LINE
8
DEFAULT_255_2_778
10
36.4875636
20
85.4689811
11
36.4812636
21
85.5092811
0
LINE
8
DEFAULT_255_2_778
10
36.4812636
20
85.5092811
11
36.4719636
21
85.5539811
0
LINE
8
DEFAULT_255_2_778
10
36.4719636
20
85.5539811
11
36.4537636
21
85.6200811
0
LINE
8
DEFAULT_255_2_778
10
36.4537636
20
85.6200811
11
36.4222636
21
85.7018811
0
LINE
8
DEFAULT_255_2_778
10
36.4222636
20
85.7018811
11
36.3769636
21
85.7854811
0
LINE
8
DEFAULT_255_2_778
10
36.3769636
20
85.7854811
11
36.3092636
21
85.8732811
0
LINE
8
DEFAULT_255_2_778
10
36.3092636
20
85.8732811
11
36.2137636
21
85.9550811
0
LINE
8
DEFAULT_255_2_778
10
36.2137636
20
85.9550811
11
36.0682636
21
86.0238811
0
LINE
8
DEFAULT_255_2_778
10
36.0682636
20
86.0238811
11
35.8560636
21
86.0534811
0
LINE
8
DEFAULT_255_2_778
10
35.8560636
20
86.0534811
11
35.7348636
21
86.0444811
0
LINE
8
DEFAULT_255_2_778
10
35.0406875
20
76.3938052
11
36.5357875
21
76.3938052
0
LINE
8
DEFAULT_255_2_778
10
36.5357875
20
76.3938052
11
36.5357875
21
76.1242052
0
LINE
8
DEFAULT_255_2_778
10
36.5357875
20
76.1242052
11
35.6922875
21
74.1941052
0
LINE
8
DEFAULT_255_2_778
10
35.6922875
20
74.1941052
11
35.3382875
21
74.1941052
0
LINE
8
DEFAULT_255_2_778
10
35.3382875
20
74.1941052
11
36.2254875
21
76.1478052
0
LINE
8
DEFAULT_255_2_778
10
36.2254875
20
76.1478052
11
35.0403875
21
76.1478052
0
LINE
8
DEFAULT_255_2_778
10
35.0403875
20
76.1478052
11
35.0403875
21
76.3941052
0
LINE
8
DEFAULT_255_2_778
10
36.3976677
20
71.1937052
11
36.7236677
21
71.1937052
0
LINE
8
DEFAULT_255_2_778
10
36.7236677
20
71.1937052
11
35.8504677
21
68.9937052
0
LINE
8
DEFAULT_255_2_778
10
35.8504677
20
68.9937052
11
35.5136677
21
68.9937052
0
LINE
8
DEFAULT_255_2_778
10
35.5136677
20
68.9937052
11
34.6405677
21
71.1937052
0
LINE
8
DEFAULT_255_2_778
10
34.6405677
20
71.1937052
11
34.9665677
21
71.1937052
0
LINE
8
DEFAULT_255_2_778
10
34.9665677
20
71.1937052
11
35.6869677
21
69.2821052
0
LINE
8
DEFAULT_255_2_778
10
35.6869677
20
69.2821052
11
36.3979677
21
71.1937052
0
LINE
8
DEFAULT_255_2_778
10
36.6868719
20
69.4960248
11
36.4572719
21
69.4656248
0
LINE
8
DEFAULT_255_2_778
10
36.4572719
20
69.4656248
11
36.3397719
21
69.3928248
0
LINE
8
DEFAULT_255_2_778
10
36.3397719
20
69.3928248
11
36.2963719
21
69.3304248
0
LINE
8
DEFAULT_255_2_778
10
36.2963719
20
69.3304248
11
36.2802719
21
69.2846248
0
LINE
8
DEFAULT_255_2_778
10
36.2802719
20
69.2846248
11
36.2746719
21
69.2545248
0
LINE
8
DEFAULT_255_2_778
10
36.2746719
20
69.2545248
11
36.2770719
21
69.1650248
0
LINE
8
DEFAULT_255_2_778
10
36.2770719
20
69.1650248
11
36.2976719
21
69.1021248
0
LINE
8
DEFAULT_255_2_778
10
36.2976719
20
69.1021248
11
36.3847719
21
69.0084248
0
LINE
8
DEFAULT_255_2_778
10
36.3847719
20
69.0084248
11
36.5252719
21
68.9486248
0
LINE
8
DEFAULT_255_2_778
10
36.5252719
20
68.9486248
11
36.8509719
21
68.8274248
0
LINE
8
DEFAULT_255_2_778
10
36.8509719
20
68.8274248
11
36.8720719
21
68.7785248
0
LINE
8
DEFAULT_255_2_778
10
36.8720719
20
68.7785248
11
36.8699719
21
68.7219248
0
LINE
8
DEFAULT_255_2_778
10
36.8699719
20
68.7219248
11
36.8419719
21
68.6660248
0
LINE
8
DEFAULT_255_2_778
10
36.8419719
20
68.6660248
11
36.7104719
21
68.6044248
0
LINE
8
DEFAULT_255_2_778
10
36.7104719
20
68.6044248
11
36.4474719
21
68.6951248
0
LINE
8
DEFAULT_255_2_778
10
36.4474719
20
68.6951248
11
36.4270719
21
68.7623248
0
LINE
8
DEFAULT_255_2_778
10
36.4270719
20
68.7623248
11
36.4260719
21
68.7870248
0
LINE
8
DEFAULT_255_2_778
10
36.4260719
20
68.7870248
11
36.2405719
21
68.7870248
0
LINE
8
DEFAULT_255_2_778
10
36.2405719
20
68.7870248
11
36.2418719
21
68.7097248
0
LINE
8
DEFAULT_255_2_778
10
36.2418719
20
68.7097248
11
36.2548719
21
68.6652248
0
LINE
8
DEFAULT_255_2_778
10
36.2548719
20
68.6652248
11
36.2923719
21
68.6004248
0
LINE
8
DEFAULT_255_2_778
10
36.2923719
20
68.6004248
11
36.3918719
21
68.5165248
0
LINE
8
DEFAULT_255_2_778
10
36.3918719
20
68.5165248
11
36.5601719
21
68.4695248
0
LINE
8
DEFAULT_255_2_778
10
36.5601719
20
68.4695248
11
36.8067719
21
68.4856248
0
LINE
8
DEFAULT_255_2_778
10
36.8067719
20
68.4856248
11
36.9583719
21
68.5626248
0
LINE
8
DEFAULT_255_2_778
10
36.9583719
20
68.5626248
11
37.0123719
21
68.6261248
0
LINE
8
DEFAULT_255_2_778
10
37.0123719
20
68.6261248
11
37.0374719
21
68.6822248
0
LINE
8
DEFAULT_255_2_778
10
37.0374719
20
68.6822248
11
37.0459719
21
68.7155248
0
LINE
8
DEFAULT_255_2_778
10
37.0459719
20
68.7155248
11
37.0435719
21
68.8481248
0
LINE
8
DEFAULT_255_2_778
10
37.0435719
20
68.8481248
11
37.0125719
21
68.9171248
0
LINE
8
DEFAULT_255_2_778
10
37.0125719
20
68.9171248
11
36.9136719
21
69.0015248
0
LINE
8
DEFAULT_255_2_778
10
36.9136719
20
69.0015248
11
36.4704719
21
69.1703248
0
LINE
8
DEFAULT_255_2_778
10
36.4704719
20
69.1703248
11
36.4542719
21
69.2137248
0
LINE
8
DEFAULT_255_2_778
10
36.4542719
20
69.2137248
11
36.4561719
21
69.2613248
0
LINE
8
DEFAULT_255_2_778
10
36.4561719
20
69.2613248
11
36.4839719
21
69.3143248
0
LINE
8
DEFAULT_255_2_778
10
36.4839719
20
69.3143248
11
36.7202719
21
69.3579248
0
LINE
8
DEFAULT_255_2_778
10
36.7202719
20
69.3579248
11
36.8503719
21
69.2375248
0
LINE
8
DEFAULT_255_2_778
10
36.8503719
20
69.2375248
11
36.8498719
21
69.2071248
0
LINE
8
DEFAULT_255_2_778
10
36.8498719
20
69.2071248
11
37.0353719
21
69.2071248
0
LINE
8
DEFAULT_255_2_778
10
37.0353719
20
69.2071248
11
37.0337719
21
69.2444248
0
LINE
8
DEFAULT_255_2_778
10
37.0337719
20
69.2444248
11
37.0292719
21
69.2725248
0
LINE
8
DEFAULT_255_2_778
10
37.0292719
20
69.2725248
11
37.0152719
21
69.3180248
0
LINE
8
DEFAULT_255_2_778
10
37.0152719
20
69.3180248
11
36.9816719
21
69.3756248
0
LINE
8
DEFAULT_255_2_778
10
36.9816719
20
69.3756248
11
36.8940719
21
69.4463248
0
LINE
8
DEFAULT_255_2_778
10
36.8940719
20
69.4463248
11
36.7538719
21
69.4910248
0
LINE
8
DEFAULT_255_2_778
10
36.7538719
20
69.4910248
11
36.6868719
21
69.4974248
0
LINE
8
DEFAULT_255_2_778
10
36.0195719
20
80.5731248
11
36.1262719
21
80.5241248
0
LINE
8
DEFAULT_255_2_778
10
36.1262719
20
80.5241248
11
36.2024719
21
80.4543248
0
LINE
8
DEFAULT_255_2_778
10
36.2024719
20
80.4543248
11
36.2550719
21
80.3746248
0
LINE
8
DEFAULT_255_2_778
10
36.2550719
20
80.3746248
11
36.2812719
21
80.3133248
0
LINE
8
DEFAULT_255_2_778
10
36.2812719
20
80.3133248
11
36.2958719
21
80.2638248
0
LINE
8
DEFAULT_255_2_778
10
36.2958719
20
80.2638248
11
36.3029719
21
80.2302248
0
LINE
8
DEFAULT_255_2_778
10
36.3029719
20
80.2302248
11
36.3087719
21
80.1923248
0
LINE
8
DEFAULT_255_2_778
10
36.3087719
20
80.1923248
11
36.3077719
21
79.9955248
0
LINE
8
DEFAULT_255_2_778
10
36.3077719
20
79.9955248
11
36.3008719
21
79.9555248
0
LINE
8
DEFAULT_255_2_778
10
36.3008719
20
79.9555248
11
36.2894719
21
79.9092248
0
LINE
8
DEFAULT_255_2_778
10
36.2894719
20
79.9092248
11
36.2677719
21
79.8494248
0
LINE
8
DEFAULT_255_2_778
10
36.2677719
20
79.8494248
11
36.2225719
21
79.7706248
0
LINE
8
DEFAULT_255_2_778
10
36.2225719
20
79.7706248
11
36.1476719
21
79.6902248
0
LINE
8
DEFAULT_255_2_778
10
36.1476719
20
79.6902248
11
36.0436719
21
79.6285248
0
LINE
8
DEFAULT_255_2_778
10
36.0436719
20
79.6285248
11
35.8801719
21
79.5944248
0
LINE
8
DEFAULT_255_2_778
10
35.8801719
20
79.5944248
11
35.6930719
21
79.6137248
0
LINE
8
DEFAULT_255_2_778
10
35.6930719
20
79.6137248
11
35.5793719
21
79.6658248
0
LINE
8
DEFAULT_255_2_778
10
35.5793719
20
79.6658248
11
35.4877719
21
79.7486248
0
LINE
8
DEFAULT_255_2_778
10
35.4877719
20
79.7486248
11
35.4377719
21
79.8240248
0
LINE
8
DEFAULT_255_2_778
10
35.4377719
20
79.8240248
11
35.4123719
21
79.8812248
0
LINE
8
DEFAULT_255_2_778
10
35.4123719
20
79.8812248
11
35.3943719
21
79.9420248
0
LINE
8
DEFAULT_255_2_778
10
35.3943719
20
79.9420248
11
35.3872719
21
79.9772248
0
LINE
8
DEFAULT_255_2_778
10
35.3872719
20
79.9772248
11
35.3816719
21
80.0169248
0
LINE
8
DEFAULT_255_2_778
10
35.3816719
20
80.0169248
11
35.3835719
21
80.1871248
0
LINE
8
DEFAULT_255_2_778
10
35.3835719
20
80.1871248
11
35.3896719
21
80.2225248
0
LINE
8
DEFAULT_255_2_778
10
35.3896719
20
80.2225248
11
35.4023719
21
80.2715248
0
LINE
8
DEFAULT_255_2_778
10
35.4023719
20
80.2715248
11
35.4261719
21
80.3323248
0
LINE
8
DEFAULT_255_2_778
10
35.4261719
20
80.3323248
11
35.4676719
21
80.4011248
0
LINE
8
DEFAULT_255_2_778
10
35.4676719
20
80.4011248
11
35.5449719
21
80.4810248
0
LINE
8
DEFAULT_255_2_778
10
35.5449719
20
80.4810248
11
35.6690719
21
80.5522248
0
LINE
8
DEFAULT_255_2_778
10
35.6690719
20
80.5522248
11
35.8558719
21
80.5892248
0
LINE
8
DEFAULT_255_2_778
10
35.8558719
20
80.5892248
11
36.0195719
21
80.5731248
0
LINE
8
DEFAULT_255_2_778
10
36.1878719
20
81.5830248
11
36.0219719
21
81.6195248
0
LINE
8
DEFAULT_255_2_778
10
36.0219719
20
81.6195248
11
35.7944719
21
81.6203248
0
LINE
8
DEFAULT_255_2_778
10
35.7944719
20
81.6203248
11
35.6401719
21
81.5888248
0
LINE
8
DEFAULT_255_2_778
10
35.6401719
20
81.5888248
11
35.5047719
21
81.5295248
0
LINE
8
DEFAULT_255_2_778
10
35.5047719
20
81.5295248
11
35.4046719
21
81.4600248
0
LINE
8
DEFAULT_255_2_778
10
35.4046719
20
81.4600248
11
35.3139719
21
81.3684248
0
LINE
8
DEFAULT_255_2_778
10
35.3139719
20
81.3684248
11
35.2382719
21
81.2615248
0
LINE
8
DEFAULT_255_2_778
10
35.2382719
20
81.2615248
11
35.1837719
21
81.1591248
0
LINE
8
DEFAULT_255_2_778
10
35.1837719
20
81.1591248
11
35.1469719
21
81.0716248
0
LINE
8
DEFAULT_255_2_778
10
35.1469719
20
81.0716248
11
35.1168719
21
80.9813248
0
LINE
8
DEFAULT_255_2_778
10
35.1168719
20
80.9813248
11
35.0959719
21
80.9030248
0
LINE
8
DEFAULT_255_2_778
10
35.0959719
20
80.9030248
11
35.0787719
21
80.8239248
0
LINE
8
DEFAULT_255_2_778
10
35.0787719
20
80.8239248
11
35.0652719
21
80.7440248
0
LINE
8
DEFAULT_255_2_778
10
35.0652719
20
80.7440248
11
35.0596719
21
80.7038248
0
LINE
8
DEFAULT_255_2_778
10
35.0596719
20
80.7038248
11
35.0543719
21
80.6583248
0
LINE
8
DEFAULT_255_2_778
10
35.0543719
20
80.6583248
11
35.0498719
21
80.6125248
0
LINE
8
DEFAULT_255_2_778
10
35.0498719
20
80.6125248
11
35.0464719
21
80.5667248
0
LINE
8
DEFAULT_255_2_778
10
35.0464719
20
80.5667248
11
35.0464719
21
80.2241248
0
LINE
8
DEFAULT_255_2_778
10
35.0464719
20
80.2241248
11
35.0496719
21
80.1844248
0
LINE
8
DEFAULT_255_2_778
10
35.0496719
20
80.1844248
11
35.0538719
21
80.1447248
0
LINE
8
DEFAULT_255_2_778
10
35.0538719
20
80.1447248
11
35.0588719
21
80.1053248
0
LINE
8
DEFAULT_255_2_778
10
35.0588719
20
80.1053248
11
35.0700719
21
80.0365248
0
LINE
8
DEFAULT_255_2_778
10
35.0700719
20
80.0365248
11
35.0842719
21
79.9682248
0
LINE
8
DEFAULT_255_2_778
10
35.0842719
20
79.9682248
11
35.1022719
21
79.9010248
0
LINE
8
DEFAULT_255_2_778
10
35.1022719
20
79.9010248
11
35.1311719
21
79.8169248
0
LINE
8
DEFAULT_255_2_778
10
35.1311719
20
79.8169248
11
35.1636719
21
79.7423248
0
LINE
8
DEFAULT_255_2_778
10
35.1636719
20
79.7423248
11
35.2157719
21
79.6505248
0
LINE
8
DEFAULT_255_2_778
10
35.2157719
20
79.6505248
11
35.2898719
21
79.5550248
0
LINE
8
DEFAULT_255_2_778
10
35.2898719
20
79.5550248
11
35.3790719
21
79.4748248
0
LINE
8
DEFAULT_255_2_778
10
35.3790719
20
79.4748248
11
35.5010719
21
79.4047248
0
LINE
8
DEFAULT_255_2_778
10
35.5010719
20
79.4047248
11
35.6420719
21
79.3608248
0
LINE
8
DEFAULT_255_2_778
10
35.6420719
20
79.3608248
11
35.8499719
21
79.3438248
0
LINE
8
DEFAULT_255_2_778
10
35.8499719
20
79.3438248
11
36.0677719
21
79.3716248
0
LINE
8
DEFAULT_255_2_778
10
36.0677719
20
79.3716248
11
36.2100719
21
79.4219248
0
LINE
8
DEFAULT_255_2_778
10
36.2100719
20
79.4219248
11
36.3349719
21
79.4975248
0
LINE
8
DEFAULT_255_2_778
10
36.3349719
20
79.4975248
11
36.4241719
21
79.5790248
0
LINE
8
DEFAULT_255_2_778
10
36.4241719
20
79.5790248
11
36.4834719
21
79.6547248
0
LINE
8
DEFAULT_255_2_778
10
36.4834719
20
79.6547248
11
36.5204719
21
79.7174248
0
LINE
8
DEFAULT_255_2_778
10
36.5204719
20
79.7174248
11
36.5506719
21
79.7854248
0
LINE
8
DEFAULT_255_2_778
10
36.5506719
20
79.7854248
11
36.5667719
21
79.8325248
0
LINE
8
DEFAULT_255_2_778
10
36.5667719
20
79.8325248
11
36.5797719
21
79.8804248
0
LINE
8
DEFAULT_255_2_778
10
36.5797719
20
79.8804248
11
36.5905719
21
79.9344248
0
LINE
8
DEFAULT_255_2_778
10
36.5905719
20
79.9344248
11
36.5884719
21
80.2775248
0
LINE
8
DEFAULT_255_2_778
10
36.5884719
20
80.2775248
11
36.5783719
21
80.3254248
0
LINE
8
DEFAULT_255_2_778
10
36.5783719
20
80.3254248
11
36.5590719
21
80.3924248
0
LINE
8
DEFAULT_255_2_778
10
36.5590719
20
80.3924248
11
36.5336719
21
80.4572248
0
LINE
8
DEFAULT_255_2_778
10
36.5336719
20
80.4572248
11
36.4844719
21
80.5472248
0
LINE
8
DEFAULT_255_2_778
10
36.4844719
20
80.5472248
11
36.4103719
21
80.6411248
0
LINE
8
DEFAULT_255_2_778
10
36.4103719
20
80.6411248
11
36.3185719
21
80.7215248
0
LINE
8
DEFAULT_255_2_778
10
36.3185719
20
80.7215248
11
36.1931719
21
80.7892248
0
LINE
8
DEFAULT_255_2_778
10
36.1931719
20
80.7892248
11
36.0275719
21
80.8316248
0
LINE
8
DEFAULT_255_2_778
10
36.0275719
20
80.8316248
11
35.8296719
21
80.8329248
0
LINE
8
DEFAULT_255_2_778
10
35.8296719
20
80.8329248
11
35.6637719
21
80.7914248
0
LINE
8
DEFAULT_255_2_778
10
35.6637719
20
80.7914248
11
35.5330719
21
80.7205248
0
LINE
8
DEFAULT_255_2_778
10
35.5330719
20
80.7205248
11
35.4150719
21
80.6178248
0
LINE
8
DEFAULT_255_2_778
10
35.4150719
20
80.6178248
11
35.3396719
21
80.5247248
0
LINE
8
DEFAULT_255_2_778
10
35.3396719
20
80.5247248
11
35.3298719
21
80.5093248
0
LINE
8
DEFAULT_255_2_778
10
35.3298719
20
80.5093248
11
35.3327719
21
80.5456248
0
LINE
8
DEFAULT_255_2_778
10
35.3327719
20
80.5456248
11
35.3359719
21
80.5818248
0
LINE
8
DEFAULT_255_2_778
10
35.3359719
20
80.5818248
11
35.3441719
21
80.6540248
0
LINE
8
DEFAULT_255_2_778
10
35.3441719
20
80.6540248
11
35.3546719
21
80.7260248
0
LINE
8
DEFAULT_255_2_778
10
35.3546719
20
80.7260248
11
35.3663719
21
80.7892248
0
LINE
8
DEFAULT_255_2_778
10
35.3663719
20
80.7892248
11
35.3806719
21
80.8520248
0
LINE
8
DEFAULT_255_2_778
10
35.3806719
20
80.8520248
11
35.4049719
21
80.9374248
0
LINE
8
DEFAULT_255_2_778
10
35.4049719
20
80.9374248
11
35.4388719
21
81.0292248
0
LINE
8
DEFAULT_255_2_778
10
35.4388719
20
81.0292248
11
35.4949719
21
81.1403248
0
LINE
8
DEFAULT_255_2_778
10
35.4949719
20
81.1403248
11
35.5615719
21
81.2316248
0
LINE
8
DEFAULT_255_2_778
10
35.5615719
20
81.2316248
11
35.6682719
21
81.3211248
0
LINE
8
DEFAULT_255_2_778
10
35.6682719
20
81.3211248
11
35.7846719
21
81.3689248
0
LINE
8
DEFAULT_255_2_778
10
35.7846719
20
81.3689248
11
35.9526719
21
81.3806248
0
LINE
8
DEFAULT_255_2_778
10
35.9526719
20
81.3806248
11
36.0785719
21
81.3510248
0
LINE
8
DEFAULT_255_2_778
10
36.0785719
20
81.3510248
11
36.1746719
21
81.2885248
0
LINE
8
DEFAULT_255_2_778
10
36.1746719
20
81.2885248
11
36.2225719
21
81.2292248
0
LINE
8
DEFAULT_255_2_778
10
36.2225719
20
81.2292248
11
36.2452719
21
81.1822248
0
LINE
8
DEFAULT_255_2_778
10
36.2452719
20
81.1822248
11
36.2569719
21
81.1446248
0
LINE
8
DEFAULT_255_2_778
10
36.2569719
20
81.1446248
11
36.2627719
21
81.1157248
0
LINE
8
DEFAULT_255_2_778
10
36.2627719
20
81.1157248
11
36.2664719
21
81.0866248
0
LINE
8
DEFAULT_255_2_778
10
36.2664719
20
81.0866248
11
36.2682719
21
81.0430248
0
LINE
8
DEFAULT_255_2_778
10
36.2682719
20
81.0430248
11
36.5566719
21
81.0430248
0
LINE
8
DEFAULT_255_2_778
10
36.5566719
20
81.0430248
11
36.5553719
21
81.0938248
0
LINE
8
DEFAULT_255_2_778
10
36.5553719
20
81.0938248
11
36.5535719
21
81.1192248
0
LINE
8
DEFAULT_255_2_778
10
36.5535719
20
81.1192248
11
36.5506719
21
81.1446248
0
LINE
8
DEFAULT_255_2_778
10
36.5506719
20
81.1446248
11
36.5466719
21
81.1700248
0
LINE
8
DEFAULT_255_2_778
10
36.5466719
20
81.1700248
11
36.5357719
21
81.2203248
0
LINE
8
DEFAULT_255_2_778
10
36.5357719
20
81.2203248
11
36.5175719
21
81.2777248
0
LINE
8
DEFAULT_255_2_778
10
36.5175719
20
81.2777248
11
36.4929719
21
81.3324248
0
LINE
8
DEFAULT_255_2_778
10
36.4929719
20
81.3324248
11
36.4503719
21
81.3994248
0
LINE
8
DEFAULT_255_2_778
10
36.4503719
20
81.3994248
11
36.3831719
21
81.4713248
0
LINE
8
DEFAULT_255_2_778
10
36.3831719
20
81.4713248
11
36.2780719
21
81.5438248
0
LINE
8
DEFAULT_255_2_778
10
36.2780719
20
81.5438248
11
36.1878719
21
81.5830248
0
LINE
8
DEFAULT_255_2_778
10
35.2977927
20
90.5842052
11
36.0632927
21
90.5842052
0
LINE
8
DEFAULT_255_2_778
10
36.0632927
20
90.5842052
11
36.0632927
21
91.6803052
0
LINE
8
DEFAULT_255_2_778
10
36.0632927
20
91.6803052
11
35.2977927
21
90.5842052
0
LINE
8
DEFAULT_255_2_778
10
36.0103927
20
91.9936052
11
36.3579927
21
91.9936052
0
LINE
8
DEFAULT_255_2_778
10
36.3579927
20
91.9936052
11
36.3579927
21
90.5842052
0
LINE
8
DEFAULT_255_2_778
10
36.3579927
20
90.5842052
11
36.7741927
21
90.5842052
0
LINE
8
DEFAULT_255_2_778
10
36.7741927
20
90.5842052
11
36.7741927
21
90.3439052
0
LINE
8
DEFAULT_255_2_778
10
36.7741927
20
90.3439052
11
36.3579927
21
90.3439052
0
LINE
8
DEFAULT_255_2_778
10
36.3579927
20
90.3439052
11
36.3579927
21
89.7936052
0
LINE
8
DEFAULT_255_2_778
10
36.3579927
20
89.7936052
11
36.0632927
21
89.7936052
0
LINE
8
DEFAULT_255_2_778
10
36.0632927
20
89.7936052
11
36.0632927
21
90.3439052
0
LINE
8
DEFAULT_255_2_778
10
36.0632927
20
90.3439052
11
35.0403927
21
90.3439052
0
LINE
8
DEFAULT_255_2_778
10
35.0403927
20
90.3439052
11
35.0403927
21
90.6090052
0
LINE
8
DEFAULT_255_2_778
10
35.0403927
20
90.6090052
11
36.0103927
21
91.9936052
0
LINE
8
DEFAULT_255_2_778
10
35.9771625
20
112.8221312
11
35.8001625
21
112.8221312
0
LINE
8
DEFAULT_255_2_778
10
35.8001625
20
112.8221312
11
35.6559625
21
112.7943312
0
LINE
8
DEFAULT_255_2_778
10
35.6559625
20
112.7943312
11
35.5258625
21
112.7406312
0
LINE
8
DEFAULT_255_2_778
10
35.5258625
20
112.7406312
11
35.4318625
21
112.6800312
0
LINE
8
DEFAULT_255_2_778
10
35.4318625
20
112.6800312
11
35.3445625
21
112.6009312
0
LINE
8
DEFAULT_255_2_778
10
35.3445625
20
112.6009312
11
35.2683625
21
112.5080312
0
LINE
8
DEFAULT_255_2_778
10
35.2683625
20
112.5080312
11
35.2120625
21
112.4199312
0
LINE
8
DEFAULT_255_2_778
10
35.2120625
20
112.4199312
11
35.1654625
21
112.3292312
0
LINE
8
DEFAULT_255_2_778
10
35.1654625
20
112.3292312
11
35.1268625
21
112.2350312
0
LINE
8
DEFAULT_255_2_778
10
35.1268625
20
112.2350312
11
35.1032625
21
112.1638312
0
LINE
8
DEFAULT_255_2_778
10
35.1032625
20
112.1638312
11
35.0836625
21
112.0916312
0
LINE
8
DEFAULT_255_2_778
10
35.0836625
20
112.0916312
11
35.0680625
21
112.0183312
0
LINE
8
DEFAULT_255_2_778
10
35.0680625
20
112.0183312
11
35.0617625
21
111.9815312
0
LINE
8
DEFAULT_255_2_778
10
35.0617625
20
111.9815312
11
35.0548625
21
111.9344312
0
LINE
8
DEFAULT_255_2_778
10
35.0548625
20
111.9344312
11
35.0492625
21
111.8873312
0
LINE
8
DEFAULT_255_2_778
10
35.0492625
20
111.8873312
11
35.0450625
21
111.8400312
0
LINE
8
DEFAULT_255_2_778
10
35.0450625
20
111.8400312
11
35.0421625
21
111.7926312
0
LINE
8
DEFAULT_255_2_778
10
35.0421625
20
111.7926312
11
35.0421625
21
111.6008312
0
LINE
8
DEFAULT_255_2_778
10
35.0421625
20
111.6008312
11
35.0450625
21
111.5526312
0
LINE
8
DEFAULT_255_2_778
10
35.0450625
20
111.5526312
11
35.0492625
21
111.5045312
0
LINE
8
DEFAULT_255_2_778
10
35.0492625
20
111.5045312
11
35.0545625
21
111.4563312
0
LINE
8
DEFAULT_255_2_778
10
35.0545625
20
111.4563312
11
35.0614625
21
111.4084312
0
LINE
8
DEFAULT_255_2_778
10
35.0614625
20
111.4084312
11
35.0749625
21
111.3336312
0
LINE
8
DEFAULT_255_2_778
10
35.0749625
20
111.3336312
11
35.0921625
21
111.2595312
0
LINE
8
DEFAULT_255_2_778
10
35.0921625
20
111.2595312
11
35.1133625
21
111.1864312
0
LINE
8
DEFAULT_255_2_778
10
35.1133625
20
111.1864312
11
35.1376625
21
111.1169312
0
LINE
8
DEFAULT_255_2_778
10
35.1376625
20
111.1169312
11
35.1802625
21
111.0184312
0
LINE
8
DEFAULT_255_2_778
10
35.1802625
20
111.0184312
11
35.2318625
21
110.9240312
0
LINE
8
DEFAULT_255_2_778
10
35.2318625
20
110.9240312
11
35.3017625
21
110.8232312
0
LINE
8
DEFAULT_255_2_778
10
35.3017625
20
110.8232312
11
35.3845625
21
110.7330312
0
LINE
8
DEFAULT_255_2_778
10
35.3845625
20
110.7330312
11
35.4750625
21
110.6615312
0
LINE
8
DEFAULT_255_2_778
10
35.4750625
20
110.6615312
11
35.5998625
21
110.5956312
0
LINE
8
DEFAULT_255_2_778
10
35.5998625
20
110.5956312
11
35.7406625
21
110.5559312
0
LINE
8
DEFAULT_255_2_778
10
35.7406625
20
110.5559312
11
35.9181625
21
110.5440312
0
LINE
8
DEFAULT_255_2_778
10
35.9181625
20
110.5440312
11
36.0655625
21
110.5618312
0
LINE
8
DEFAULT_255_2_778
10
36.0655625
20
110.5618312
11
36.2034625
21
110.6070312
0
LINE
8
DEFAULT_255_2_778
10
36.2034625
20
110.6070312
11
36.3253625
21
110.6779312
0
LINE
8
DEFAULT_255_2_778
10
36.3253625
20
110.6779312
11
36.4145625
21
110.7546312
0
LINE
8
DEFAULT_255_2_778
10
36.4145625
20
110.7546312
11
36.4936625
21
110.8478312
0
LINE
8
DEFAULT_255_2_778
10
36.4936625
20
110.8478312
11
36.5447625
21
110.9242312
0
LINE
8
DEFAULT_255_2_778
10
36.5447625
20
110.9242312
11
36.5963625
21
111.0190312
0
LINE
8
DEFAULT_255_2_778
10
36.5963625
20
111.0190312
11
36.6389625
21
111.1179312
0
LINE
8
DEFAULT_255_2_778
10
36.6389625
20
111.1179312
11
36.6632625
21
111.1878312
0
LINE
8
DEFAULT_255_2_778
10
36.6632625
20
111.1878312
11
36.6844625
21
111.2608312
0
LINE
8
DEFAULT_255_2_778
10
36.6844625
20
111.2608312
11
36.7016625
21
111.3349312
0
LINE
8
DEFAULT_255_2_778
10
36.7016625
20
111.3349312
11
36.7151625
21
111.4098312
0
LINE
8
DEFAULT_255_2_778
10
36.7151625
20
111.4098312
11
36.7219625
21
111.4574312
0
LINE
8
DEFAULT_255_2_778
10
36.7219625
20
111.4574312
11
36.7272625
21
111.5053312
0
LINE
8
DEFAULT_255_2_778
10
36.7272625
20
111.5053312
11
36.7315625
21
111.5534312
0
LINE
8
DEFAULT_255_2_778
10
36.7315625
20
111.5534312
11
36.7344625
21
111.6016312
0
LINE
8
DEFAULT_255_2_778
10
36.7344625
20
111.6016312
11
36.7344625
21
111.7931312
0
LINE
8
DEFAULT_255_2_778
10
36.7344625
20
111.7931312
11
36.7315625
21
111.8405312
0
LINE
8
DEFAULT_255_2_778
10
36.7315625
20
111.8405312
11
36.7272625
21
111.8879312
0
LINE
8
DEFAULT_255_2_778
10
36.7272625
20
111.8879312
11
36.7217625
21
111.9350312
0
LINE
8
DEFAULT_255_2_778
10
36.7217625
20
111.9350312
11
36.7148625
21
111.9820312
0
LINE
8
DEFAULT_255_2_778
10
36.7148625
20
111.9820312
11
36.7010625
21
112.0556312
0
LINE
8
DEFAULT_255_2_778
10
36.7010625
20
112.0556312
11
36.6836625
21
112.1284312
0
LINE
8
DEFAULT_255_2_778
10
36.6836625
20
112.1284312
11
36.6621625
21
112.2001312
0
LINE
8
DEFAULT_255_2_778
10
36.6621625
20
112.2001312
11
36.6373625
21
112.2686312
0
LINE
8
DEFAULT_255_2_778
10
36.6373625
20
112.2686312
11
36.5939625
21
112.3657312
0
LINE
8
DEFAULT_255_2_778
10
36.5939625
20
112.3657312
11
36.5418625
21
112.4586312
0
LINE
8
DEFAULT_255_2_778
10
36.5418625
20
112.4586312
11
36.4722625
21
112.5562312
0
LINE
8
DEFAULT_255_2_778
10
36.4722625
20
112.5562312
11
36.3899625
21
112.6432312
0
LINE
8
DEFAULT_255_2_778
10
36.3899625
20
112.6432312
11
36.2997625
21
112.7123312
0
LINE
8
DEFAULT_255_2_778
10
36.2997625
20
112.7123312
11
36.1756625
21
112.7758312
0
LINE
8
DEFAULT_255_2_778
10
36.1756625
20
112.7758312
11
36.0353625
21
112.8142312
0
LINE
8
DEFAULT_255_2_778
10
36.0353625
20
112.8142312
11
35.9771625
21
112.8221312
0
LINE
8
DEFAULT_255_2_778
10
35.9261625
20
112.5755312
11
36.0539625
21
112.5491312
0
LINE
8
DEFAULT_255_2_778
10
36.0539625
20
112.5491312
11
36.1658625
21
112.4874312
0
LINE
8
DEFAULT_255_2_778
10
36.1658625
20
112.4874312
11
36.2362625
21
112.4218312
0
LINE
8
DEFAULT_255_2_778
10
36.2362625
20
112.4218312
11
36.2915625
21
112.3477312
0
LINE
8
DEFAULT_255_2_778
10
36.2915625
20
112.3477312
11
36.3394625
21
112.2596312
0
LINE
8
DEFAULT_255_2_778
10
36.3394625
20
112.2596312
11
36.3722625
21
112.1802312
0
LINE
8
DEFAULT_255_2_778
10
36.3722625
20
112.1802312
11
36.3984625
21
112.0985312
0
LINE
8
DEFAULT_255_2_778
10
36.3984625
20
112.0985312
11
36.4140625
21
112.0355312
0
LINE
8
DEFAULT_255_2_778
10
36.4140625
20
112.0355312
11
36.4264625
21
111.9717312
0
LINE
8
DEFAULT_255_2_778
10
36.4264625
20
111.9717312
11
36.4357625
21
111.9074312
0
LINE
8
DEFAULT_255_2_778
10
36.4357625
20
111.9074312
11
36.4396625
21
111.8720312
0
LINE
8
DEFAULT_255_2_778
10
36.4396625
20
111.8720312
11
36.4428625
21
111.8365312
0
LINE
8
DEFAULT_255_2_778
10
36.4428625
20
111.8365312
11
36.4428625
21
111.5497312
0
LINE
8
DEFAULT_255_2_778
10
36.4428625
20
111.5497312
11
36.4396625
21
111.5137312
0
LINE
8
DEFAULT_255_2_778
10
36.4396625
20
111.5137312
11
36.4357625
21
111.4778312
0
LINE
8
DEFAULT_255_2_778
10
36.4357625
20
111.4778312
11
36.4264625
21
111.4127312
0
LINE
8
DEFAULT_255_2_778
10
36.4264625
20
111.4127312
11
36.4142625
21
111.3478312
0
LINE
8
DEFAULT_255_2_778
10
36.4142625
20
111.3478312
11
36.3989625
21
111.2838312
0
LINE
8
DEFAULT_255_2_778
10
36.3989625
20
111.2838312
11
36.3817625
21
111.2256312
0
LINE
8
DEFAULT_255_2_778
10
36.3817625
20
111.2256312
11
36.3497625
21
111.1401312
0
LINE
8
DEFAULT_255_2_778
10
36.3497625
20
111.1401312
11
36.3050625
21
111.0491312
0
LINE
8
DEFAULT_255_2_778
10
36.3050625
20
111.0491312
11
36.2526625
21
110.9705312
0
LINE
8
DEFAULT_255_2_778
10
36.2526625
20
110.9705312
11
36.1814625
21
110.8965312
0
LINE
8
DEFAULT_255_2_778
10
36.1814625
20
110.8965312
11
36.0888625
21
110.8359312
0
LINE
8
DEFAULT_255_2_778
10
36.0888625
20
110.8359312
11
35.9636625
21
110.7980312
0
LINE
8
DEFAULT_255_2_778
10
35.9636625
20
110.7980312
11
35.8128625
21
110.7980312
0
LINE
8
DEFAULT_255_2_778
10
35.8128625
20
110.7980312
11
35.6877625
21
110.8359312
0
LINE
8
DEFAULT_255_2_778
10
35.6877625
20
110.8359312
11
35.5951625
21
110.8965312
0
LINE
8
DEFAULT_255_2_778
10
35.5951625
20
110.8965312
11
35.5239625
21
110.9705312
0
LINE
8
DEFAULT_255_2_778
10
35.5239625
20
110.9705312
11
35.4715625
21
111.0491312
0
LINE
8
DEFAULT_255_2_778
10
35.4715625
20
111.0491312
11
35.4392625
21
111.1124312
0
LINE
8
DEFAULT_255_2_778
10
35.4392625
20
111.1124312
11
35.4048625
21
111.1968312
0
LINE
8
DEFAULT_255_2_778
10
35.4048625
20
111.1968312
11
35.3861625
21
111.2544312
0
LINE
8
DEFAULT_255_2_778
10
35.3861625
20
111.2544312
11
35.3697625
21
111.3156312
0
LINE
8
DEFAULT_255_2_778
10
35.3697625
20
111.3156312
11
35.3559625
21
111.3799312
0
LINE
8
DEFAULT_255_2_778
10
35.3559625
20
111.3799312
11
35.3453625
21
111.4449312
0
LINE
8
DEFAULT_255_2_778
10
35.3453625
20
111.4449312
11
35.3411625
21
111.4775312
0
LINE
8
DEFAULT_255_2_778
10
35.3411625
20
111.4775312
11
35.3371625
21
111.5135312
0
LINE
8
DEFAULT_255_2_778
10
35.3371625
20
111.5135312
11
35.3339625
21
111.5495312
0
LINE
8
DEFAULT_255_2_778
10
35.3339625
20
111.5495312
11
35.3339625
21
111.8363312
0
LINE
8
DEFAULT_255_2_778
10
35.3339625
20
111.8363312
11
35.3371625
21
111.8717312
0
LINE
8
DEFAULT_255_2_778
10
35.3371625
20
111.8717312
11
35.3411625
21
111.9072312
0
LINE
8
DEFAULT_255_2_778
10
35.3411625
20
111.9072312
11
35.3503625
21
111.9715312
0
LINE
8
DEFAULT_255_2_778
10
35.3503625
20
111.9715312
11
35.3628625
21
112.0352312
0
LINE
8
DEFAULT_255_2_778
10
35.3628625
20
112.0352312
11
35.3784625
21
112.0982312
0
LINE
8
DEFAULT_255_2_778
10
35.3784625
20
112.0982312
11
35.3958625
21
112.1554312
0
LINE
8
DEFAULT_255_2_778
10
35.3958625
20
112.1554312
11
35.4281625
21
112.2392312
0
LINE
8
DEFAULT_255_2_778
10
35.4281625
20
112.2392312
11
35.4731625
21
112.3279312
0
LINE
8
DEFAULT_255_2_778
10
35.4731625
20
112.3279312
11
35.5255625
21
112.4041312
0
LINE
8
DEFAULT_255_2_778
10
35.5255625
20
112.4041312
11
35.5964625
21
112.4760312
0
LINE
8
DEFAULT_255_2_778
10
35.5964625
20
112.4760312
11
35.6887625
21
112.5348312
0
LINE
8
DEFAULT_255_2_778
10
35.6887625
20
112.5348312
11
35.8134625
21
112.5715312
0
LINE
8
DEFAULT_255_2_778
10
35.8134625
20
112.5715312
11
35.9261625
21
112.5755312
0
LINE
8
DEFAULT_255_2_778
10
35.767922
20
118.0130171
11
35.492022
21
118.0373171
0
LINE
8
DEFAULT_255_2_778
10
35.492022
20
118.0373171
11
35.247722
21
118.0172171
0
LINE
8
DEFAULT_255_2_778
10
35.247722
20
118.0172171
11
35.062522
21
117.9661171
0
LINE
8
DEFAULT_255_2_778
10
35.062522
20
117.9661171
11
34.907822
21
117.8852171
0
LINE
8
DEFAULT_255_2_778
10
34.907822
20
117.8852171
11
34.809322
21
117.8010171
0
LINE
8
DEFAULT_255_2_778
10
34.809322
20
117.8010171
11
34.756922
21
117.7346171
0
LINE
8
DEFAULT_255_2_778
10
34.756922
20
117.7346171
11
34.716722
21
117.6619171
0
LINE
8
DEFAULT_255_2_778
10
34.716722
20
117.6619171
11
34.694222
21
117.6036171
0
LINE
8
DEFAULT_255_2_778
10
34.694222
20
117.6036171
11
34.682322
21
117.5603171
0
LINE
8
DEFAULT_255_2_778
10
34.682322
20
117.5603171
11
34.673622
21
117.5161171
0
LINE
8
DEFAULT_255_2_778
10
34.673622
20
117.5161171
11
34.673622
21
117.2954171
0
LINE
8
DEFAULT_255_2_778
10
34.673622
20
117.2954171
11
34.686322
21
117.2377171
0
LINE
8
DEFAULT_255_2_778
10
34.686322
20
117.2377171
11
34.713022
21
117.1655171
0
LINE
8
DEFAULT_255_2_778
10
34.713022
20
117.1655171
11
34.765922
21
117.0782171
0
LINE
8
DEFAULT_255_2_778
10
34.765922
20
117.0782171
11
34.870722
21
116.9800171
0
LINE
8
DEFAULT_255_2_778
10
34.870722
20
116.9800171
11
35.061522
21
116.8853171
0
LINE
8
DEFAULT_255_2_778
10
35.061522
20
116.8853171
11
35.223422
21
116.8374171
0
LINE
8
DEFAULT_255_2_778
10
35.223422
20
116.8374171
11
35.790922
21
116.6927171
0
LINE
8
DEFAULT_255_2_778
10
35.790922
20
116.6927171
11
35.928022
21
116.6101171
0
LINE
8
DEFAULT_255_2_778
10
35.928022
20
116.6101171
11
35.979622
21
116.5458171
0
LINE
8
DEFAULT_255_2_778
10
35.979622
20
116.5458171
11
36.000022
21
116.4950171
0
LINE
8
DEFAULT_255_2_778
10
36.000022
20
116.4950171
11
36.007422
21
116.4625171
0
LINE
8
DEFAULT_255_2_778
10
36.007422
20
116.4625171
11
36.005522
21
116.3146171
0
LINE
8
DEFAULT_255_2_778
10
36.005522
20
116.3146171
11
35.992322
21
116.2651171
0
LINE
8
DEFAULT_255_2_778
10
35.992322
20
116.2651171
11
35.966422
21
116.2072171
0
LINE
8
DEFAULT_255_2_778
10
35.966422
20
116.2072171
11
35.912622
21
116.1371171
0
LINE
8
DEFAULT_255_2_778
10
35.912622
20
116.1371171
11
35.774822
21
116.0463171
0
LINE
8
DEFAULT_255_2_778
10
35.774822
20
116.0463171
11
35.573222
21
116.0027171
0
LINE
8
DEFAULT_255_2_778
10
35.573222
20
116.0027171
11
35.299922
21
116.0140171
0
LINE
8
DEFAULT_255_2_778
10
35.299922
20
116.0140171
11
35.085622
21
116.1109171
0
LINE
8
DEFAULT_255_2_778
10
35.085622
20
116.1109171
11
34.982922
21
116.2344171
0
LINE
8
DEFAULT_255_2_778
10
34.982922
20
116.2344171
11
34.952222
21
116.3122171
0
LINE
8
DEFAULT_255_2_778
10
34.952222
20
116.3122171
11
34.944022
21
116.3538171
0
LINE
8
DEFAULT_255_2_778
10
34.944022
20
116.3538171
11
34.943222
21
116.4318171
0
LINE
8
DEFAULT_255_2_778
10
34.943222
20
116.4318171
11
34.640822
21
116.4318171
0
LINE
8
DEFAULT_255_2_778
10
34.640822
20
116.4318171
11
34.642122
21
116.3667171
0
LINE
8
DEFAULT_255_2_778
10
34.642122
20
116.3667171
11
34.644222
21
116.3453171
0
LINE
8
DEFAULT_255_2_778
10
34.644222
20
116.3453171
11
34.650822
21
116.3030171
0
LINE
8
DEFAULT_255_2_778
10
34.650822
20
116.3030171
11
34.660422
21
116.2614171
0
LINE
8
DEFAULT_255_2_778
10
34.660422
20
116.2614171
11
34.680222
21
116.2011171
0
LINE
8
DEFAULT_255_2_778
10
34.680222
20
116.2011171
11
34.715922
21
116.1246171
0
LINE
8
DEFAULT_255_2_778
10
34.715922
20
116.1246171
11
34.775222
21
116.0352171
0
LINE
8
DEFAULT_255_2_778
10
34.775222
20
116.0352171
11
34.852522
21
115.9513171
0
LINE
8
DEFAULT_255_2_778
10
34.852522
20
115.9513171
11
34.960922
21
115.8688171
0
LINE
8
DEFAULT_255_2_778
10
34.960922
20
115.8688171
11
35.092222
21
115.8053171
0
LINE
8
DEFAULT_255_2_778
10
35.092222
20
115.8053171
11
35.281922
21
115.7611171
0
LINE
8
DEFAULT_255_2_778
10
35.281922
20
115.7611171
11
35.576122
21
115.7537171
0
LINE
8
DEFAULT_255_2_778
10
35.576122
20
115.7537171
11
35.790122
21
115.7857171
0
LINE
8
DEFAULT_255_2_778
10
35.790122
20
115.7857171
11
35.963722
21
115.8495171
0
LINE
8
DEFAULT_255_2_778
10
35.963722
20
115.8495171
11
36.080422
21
115.9228171
0
LINE
8
DEFAULT_255_2_778
10
36.080422
20
115.9228171
11
36.161122
21
115.9976171
0
LINE
8
DEFAULT_255_2_778
10
36.161122
20
115.9976171
11
36.214522
21
116.0675171
0
LINE
8
DEFAULT_255_2_778
10
36.214522
20
116.0675171
11
36.256122
21
116.1447171
0
LINE
8
DEFAULT_255_2_778
10
36.256122
20
116.1447171
11
36.279622
21
116.2061171
0
LINE
8
DEFAULT_255_2_778
10
36.279622
20
116.2061171
11
36.292322
21
116.2506171
0
LINE
8
DEFAULT_255_2_778
10
36.292322
20
116.2506171
11
36.302422
21
116.2979171
0
LINE
8
DEFAULT_255_2_778
10
36.302422
20
116.2979171
11
36.301322
21
116.5728171
0
LINE
8
DEFAULT_255_2_778
10
36.301322
20
116.5728171
11
36.287522
21
116.6257171
0
LINE
8
DEFAULT_255_2_778
10
36.287522
20
116.6257171
11
36.257422
21
116.6990171
0
LINE
8
DEFAULT_255_2_778
10
36.257422
20
116.6990171
11
36.198722
21
116.7866171
0
LINE
8
DEFAULT_255_2_778
10
36.198722
20
116.7866171
11
36.061922
21
116.8991171
0
LINE
8
DEFAULT_255_2_778
10
36.061922
20
116.8991171
11
35.829322
21
116.9959171
0
LINE
8
DEFAULT_255_2_778
10
35.829322
20
116.9959171
11
35.169722
21
117.1660171
0
LINE
8
DEFAULT_255_2_778
10
35.169722
20
117.1660171
11
35.038522
21
117.2528171
0
LINE
8
DEFAULT_255_2_778
10
35.038522
20
117.2528171
11
34.997222
21
117.3123171
0
LINE
8
DEFAULT_255_2_778
10
34.997222
20
117.3123171
11
34.979722
21
117.3621171
0
LINE
8
DEFAULT_255_2_778
10
34.979722
20
117.3621171
11
34.973922
21
117.3936171
0
LINE
8
DEFAULT_255_2_778
10
34.973922
20
117.3936171
11
34.976322
21
117.4912171
0
LINE
8
DEFAULT_255_2_778
10
34.976322
20
117.4912171
11
34.987122
21
117.5335171
0
LINE
8
DEFAULT_255_2_778
10
34.987122
20
117.5335171
11
35.015222
21
117.5941171
0
LINE
8
DEFAULT_255_2_778
10
35.015222
20
117.5941171
11
35.074422
21
117.6640171
0
LINE
8
DEFAULT_255_2_778
10
35.074422
20
117.6640171
11
35.214422
21
117.7412171
0
LINE
8
DEFAULT_255_2_778
10
35.214422
20
117.7412171
11
35.425522
21
117.7809171
0
LINE
8
DEFAULT_255_2_778
10
35.425522
20
117.7809171
11
35.625322
21
117.7701171
0
LINE
8
DEFAULT_255_2_778
10
35.625322
20
117.7701171
11
35.853622
21
117.6574171
0
LINE
8
DEFAULT_255_2_778
10
35.853622
20
117.6574171
11
35.925322
21
117.5542171
0
LINE
8
DEFAULT_255_2_778
10
35.925322
20
117.5542171
11
35.945522
21
117.4891171
0
LINE
8
DEFAULT_255_2_778
10
35.945522
20
117.4891171
11
35.949722
21
117.4592171
0
LINE
8
DEFAULT_255_2_778
10
35.949722
20
117.4592171
11
35.950722
21
117.4441171
0
LINE
8
DEFAULT_255_2_778
10
35.950722
20
117.4441171
11
36.256322
21
117.4441171
0
LINE
8
DEFAULT_255_2_778
10
36.256322
20
117.4441171
11
36.255322
21
117.5208171
0
LINE
8
DEFAULT_255_2_778
10
36.255322
20
117.5208171
11
36.253122
21
117.5396171
0
LINE
8
DEFAULT_255_2_778
10
36.253122
20
117.5396171
11
36.246522
21
117.5764171
0
LINE
8
DEFAULT_255_2_778
10
36.246522
20
117.5764171
11
36.231722
21
117.6296171
0
LINE
8
DEFAULT_255_2_778
10
36.231722
20
117.6296171
11
36.202922
21
117.6968171
0
LINE
8
DEFAULT_255_2_778
10
36.202922
20
117.6968171
11
36.154222
21
117.7740171
0
LINE
8
DEFAULT_255_2_778
10
36.154222
20
117.7740171
11
36.081422
21
117.8545171
0
LINE
8
DEFAULT_255_2_778
10
36.081422
20
117.8545171
11
35.976922
21
117.9325171
0
LINE
8
DEFAULT_255_2_778
10
35.976922
20
117.9325171
11
35.848122
21
117.9918171
0
LINE
8
DEFAULT_255_2_778
10
35.848122
20
117.9918171
11
35.768422
21
118.0138171
0
LINE
8
DEFAULT_255_2_778
10
36.770422
20
117.9936171
11
38.125422
21
117.9936171
0
LINE
8
DEFAULT_255_2_778
10
38.125422
20
117.9936171
11
38.125422
21
117.7441171
0
LINE
8
DEFAULT_255_2_778
10
38.125422
20
117.7441171
11
37.071322
21
117.7441171
0
LINE
8
DEFAULT_255_2_778
10
37.071322
20
117.7441171
11
37.071322
21
117.0504171
0
LINE
8
DEFAULT_255_2_778
10
37.071322
20
117.0504171
11
38.070622
21
117.0504171
0
LINE
8
DEFAULT_255_2_778
10
38.070622
20
117.0504171
11
38.070622
21
116.8009171
0
LINE
8
DEFAULT_255_2_778
10
38.070622
20
116.8009171
11
37.071322
21
116.8009171
0
LINE
8
DEFAULT_255_2_778
10
37.071322
20
116.8009171
11
37.071322
21
115.7936171
0
LINE
8
DEFAULT_255_2_778
10
37.071322
20
115.7936171
11
36.770422
21
115.7936171
0
LINE
8
DEFAULT_255_2_778
10
36.770422
20
115.7936171
11
36.770422
21
117.9936171
0
LINE
8
DEFAULT_255_2_778
10
26.740622
20
78.9938171
11
29.801322
21
78.9938171
0
LINE
8
DEFAULT_255_2_778
10
26.740622
20
76.7938171
11
29.801322
21
76.7938171
0
LINE
8
DEFAULT_255_2_778
10
26.740622
20
73.7937171
11
29.801322
21
73.7937171
0
LINE
8
DEFAULT_255_2_778
10
26.740622
20
71.5937171
11
29.801322
21
71.5937171
0
LINE
8
DEFAULT_255_2_778
10
26.740622
20
87.1938171
11
29.801322
21
87.1938171
0
LINE
8
DEFAULT_255_2_778
10
26.740622
20
84.1937171
11
29.801322
21
84.1937171
0
LINE
8
DEFAULT_255_2_778
10
26.740622
20
81.9939171
11
29.801322
21
81.9939171
0
LINE
8
DEFAULT_255_2_778
10
26.740622
20
97.5937171
11
29.801322
21
97.5937171
0
LINE
8
DEFAULT_255_2_778
10
26.740622
20
94.5939171
11
29.801322
21
94.5939171
0
LINE
8
DEFAULT_255_2_778
10
26.740622
20
92.3939171
11
29.801322
21
92.3939171
0
LINE
8
DEFAULT_255_2_778
10
26.740622
20
89.3938171
11
29.801322
21
89.3938171
0
LINE
8
DEFAULT_255_2_778
10
29.80135
20
119.0938243
11
29.80135
21
67.8938243
0
LINE
8
DEFAULT_255_2_778
10
29.80135
20
67.8938243
11
26.74065
21
67.8938243
0
LINE
8
DEFAULT_255_2_778
10
26.74065
20
104.9939487
11
29.80135
21
104.9939487
0
LINE
8
DEFAULT_255_2_778
10
26.74065
20
102.7939487
11
29.80135
21
102.7939487
0
LINE
8
DEFAULT_255_2_778
10
26.74065
20
99.7938487
11
29.80135
21
99.7938487
0
LINE
8
DEFAULT_255_2_778
10
26.74065
20
115.3939487
11
29.80135
21
115.3939487
0
LINE
8
DEFAULT_255_2_778
10
26.74065
20
113.1939487
11
29.80135
21
113.1939487
0
LINE
8
DEFAULT_255_2_778
10
26.74065
20
110.1938487
11
29.80135
21
110.1938487
0
LINE
8
DEFAULT_255_2_778
10
26.74065
20
107.9938487
11
29.80135
21
107.9938487
0
ARC
8
DEFAULT_255_2_778
10
28.2501696
20
75.2951304
40
0.5488398
50
89.8682888
51
180.1317112
0
ARC
8
DEFAULT_255_2_778
10
28.2526782
20
75.2952154
40
0.5487547
50
359.8593896
51
90.1301939
0
ARC
8
DEFAULT_255_2_778
10
28.2527632
20
75.2925368
40
0.5486696
50
269.8609058
51
0.1390942
0
ARC
8
DEFAULT_255_2_778
10
28.2500846
20
75.2926218
40
0.5487547
50
179.8698061
51
270.1406104
0
LINE
8
DEFAULT_255_2_778
10
27.7013313
20
75.2938687
11
27.7013313
21
75.2938687
0
ARC
8
DEFAULT_255_2_778
10
28.2501696
20
70.0950304
40
0.5488398
50
89.8682888
51
180.1317112
0
ARC
8
DEFAULT_255_2_778
10
28.2526782
20
70.0951154
40
0.5487547
50
359.8593896
51
90.1301939
0
ARC
8
DEFAULT_255_2_778
10
28.2527632
20
70.0924368
40
0.5486696
50
269.8609058
51
0.1390942
0
ARC
8
DEFAULT_255_2_778
10
28.2500846
20
70.0925218
40
0.5487547
50
179.8698061
51
270.1406104
0
LINE
8
DEFAULT_255_2_778
10
27.7013313
20
70.0937687
11
27.7013313
21
70.0937687
0
ARC
8
DEFAULT_255_2_778
10
28.2501696
20
85.6951304
40
0.5488398
50
89.8682888
51
180.1317112
0
ARC
8
DEFAULT_255_2_778
10
28.2526782
20
85.6952154
40
0.5487547
50
359.8593896
51
90.1301939
0
ARC
8
DEFAULT_255_2_778
10
28.2527632
20
85.6925368
40
0.5486696
50
269.8609058
51
0.1390942
0
ARC
8
DEFAULT_255_2_778
10
28.2500846
20
85.6926218
40
0.5487547
50
179.8698061
51
270.1406104
0
LINE
8
DEFAULT_255_2_778
10
27.7013313
20
85.6938687
11
27.7013313
21
85.6938687
0
ARC
8
DEFAULT_255_2_778
10
28.2501696
20
80.4950304
40
0.5488398
50
89.8682888
51
180.1317112
0
ARC
8
DEFAULT_255_2_778
10
28.2526782
20
80.4951154
40
0.5487547
50
359.8593896
51
90.1301939
0
ARC
8
DEFAULT_255_2_778
10
28.2527632
20
80.4924368
40
0.5486696
50
269.8609058
51
0.1390942
0
ARC
8
DEFAULT_255_2_778
10
28.2500846
20
80.4925218
40
0.5487547
50
179.8698061
51
270.1406104
0
LINE
8
DEFAULT_255_2_778
10
27.7013313
20
80.4937687
11
27.7013313
21
80.4937687
0
ARC
8
DEFAULT_255_2_778
10
28.2501696
20
96.0951304
40
0.5488398
50
89.8682888
51
180.1317112
0
ARC
8
DEFAULT_255_2_778
10
28.2526782
20
96.0952154
40
0.5487547
50
359.8593896
51
90.1301939
0
ARC
8
DEFAULT_255_2_778
10
28.2527632
20
96.0925368
40
0.5486696
50
269.8609058
51
0.1390942
0
ARC
8
DEFAULT_255_2_778
10
28.2500846
20
96.0926218
40
0.5487547
50
179.8698061
51
270.1406104
0
LINE
8
DEFAULT_255_2_778
10
27.7013313
20
96.0938687
11
27.7013313
21
96.0938687
0
ARC
8
DEFAULT_255_2_778
10
28.2501696
20
90.8950304
40
0.5488398
50
89.8682888
51
180.1317112
0
ARC
8
DEFAULT_255_2_778
10
28.2526782
20
90.8951154
40
0.5487547
50
359.8593896
51
90.1301939
0
ARC
8
DEFAULT_255_2_778
10
28.2527632
20
90.8924368
40
0.5486696
50
269.8609058
51
0.1390942
0
ARC
8
DEFAULT_255_2_778
10
28.2500846
20
90.8925218
40
0.5487547
50
179.8698061
51
270.1406104
0
LINE
8
DEFAULT_255_2_778
10
27.7013313
20
90.8937687
11
27.7013313
21
90.8937687
0
ARC
8
DEFAULT_255_2_778
10
28.2501696
20
106.4951304
40
0.5488398
50
89.8682888
51
180.1317112
0
ARC
8
DEFAULT_255_2_778
10
28.2526782
20
106.4952154
40
0.5487547
50
359.8593896
51
90.1301939
0
ARC
8
DEFAULT_255_2_778
10
28.2527632
20
106.4925368
40
0.5486696
50
269.8609058
51
0.1390942
0
ARC
8
DEFAULT_255_2_778
10
28.2500846
20
106.4926218
40
0.5487547
50
179.8698061
51
270.1406104
0
LINE
8
DEFAULT_255_2_778
10
27.7013313
20
106.4938687
11
27.7013313
21
106.4938687
0
ARC
8
DEFAULT_255_2_778
10
28.2501696
20
101.2949304
40
0.5488398
50
89.8682888
51
180.1317112
0
ARC
8
DEFAULT_255_2_778
10
28.2526782
20
101.2950154
40
0.5487547
50
359.8593896
51
90.1301939
0
ARC
8
DEFAULT_255_2_778
10
28.2527632
20
101.2923368
40
0.5486696
50
269.8609058
51
0.1390942
0
ARC
8
DEFAULT_255_2_778
10
28.2500846
20
101.2924218
40
0.5487547
50
179.8698061
51
270.1406104
0
LINE
8
DEFAULT_255_2_778
10
27.7013313
20
101.2936687
11
27.7013313
21
101.2936687
0
ARC
8
DEFAULT_255_2_778
10
28.2501696
20
116.8950304
40
0.5488398
50
89.8682888
51
180.1317112
0
ARC
8
DEFAULT_255_2_778
10
28.2526782
20
116.8951154
40
0.5487547
50
359.8593896
51
90.1301939
0
ARC
8
DEFAULT_255_2_778
10
28.2527632
20
116.8924368
40
0.5486696
50
269.8609058
51
0.1390942
0
ARC
8
DEFAULT_255_2_778
10
28.2500846
20
116.8925218
40
0.5487547
50
179.8698061
51
270.1406104
0
LINE
8
DEFAULT_255_2_778
10
27.7013313
20
116.8937687
11
27.7013313
21
116.8937687
0
ARC
8
DEFAULT_255_2_778
10
28.2501696
20
111.6949304
40
0.5488398
50
89.8682888
51
180.1317112
0
ARC
8
DEFAULT_255_2_778
10
28.2526782
20
111.6950154
40
0.5487547
50
359.8593896
51
90.1301939
0
ARC
8
DEFAULT_255_2_778
10
28.2527632
20
111.6923368
40
0.5486696
50
269.8609058
51
0.1390942
0
ARC
8
DEFAULT_255_2_778
10
28.2500846
20
111.6924218
40
0.5487547
50
179.8698061
51
270.1406104
0
LINE
8
DEFAULT_255_2_778
10
27.7013313
20
111.6936687
11
27.7013313
21
111.6936687
0
LINE
8
DEFAULT_255_2_778
10
26.7403605
20
16.5936588
11
29.8206605
21
16.5936588
0
LINE
8
DEFAULT_255_2_778
10
26.7403605
20
14.3936588
11
29.8206605
21
14.3936588
0
LINE
8
DEFAULT_255_2_778
10
26.7403605
20
11.3938588
11
29.8206605
21
11.3938588
0
LINE
8
DEFAULT_255_2_778
10
26.7403605
20
9.1938588
11
29.8206605
21
9.1938588
0
LINE
8
DEFAULT_255_2_778
10
26.7403605
20
26.9936588
11
29.8206605
21
26.9936588
0
LINE
8
DEFAULT_255_2_778
10
26.7403605
20
24.7936588
11
29.8206605
21
24.7936588
0
LINE
8
DEFAULT_255_2_778
10
26.7403605
20
21.7938588
11
29.8206605
21
21.7938588
0
LINE
8
DEFAULT_255_2_778
10
26.7403605
20
19.5938588
11
29.8206605
21
19.5938588
0
LINE
8
DEFAULT_255_2_778
10
26.7403605
20
37.3936588
11
29.8206605
21
37.3936588
0
LINE
8
DEFAULT_255_2_778
10
26.7403605
20
35.1936588
11
29.8206605
21
35.1936588
0
LINE
8
DEFAULT_255_2_778
10
26.7403605
20
32.1937588
11
29.8206605
21
32.1937588
0
LINE
8
DEFAULT_255_2_778
10
26.7403605
20
29.9937588
11
29.8206605
21
29.9937588
0
LINE
8
DEFAULT_255_2_778
10
26.7403605
20
47.7936588
11
29.8206605
21
47.7936588
0
LINE
8
DEFAULT_255_2_778
10
26.7403605
20
45.5936588
11
29.8206605
21
45.5936588
0
LINE
8
DEFAULT_255_2_778
10
26.7403605
20
42.5937588
11
29.8206605
21
42.5937588
0
LINE
8
DEFAULT_255_2_778
10
26.7403605
20
40.3937588
11
29.8206605
21
40.3937588
0
LINE
8
DEFAULT_255_2_778
10
26.7403605
20
52.9937588
11
29.8206605
21
52.9937588
0
LINE
8
DEFAULT_255_2_778
10
26.7403605
20
50.7937588
11
29.8206605
21
50.7937588
0
ARC
8
DEFAULT_255_2_778
10
28.2694696
20
12.8950304
40
0.5488398
50
89.8682888
51
180.1317112
0
ARC
8
DEFAULT_255_2_778
10
28.2719782
20
12.8951154
40
0.5487547
50
359.8593896
51
90.1301939
0
ARC
8
DEFAULT_255_2_778
10
28.2720632
20
12.8924368
40
0.5486696
50
269.8609058
51
0.1390942
0
ARC
8
DEFAULT_255_2_778
10
28.2693846
20
12.8925218
40
0.5487547
50
179.8698061
51
270.1406104
0
LINE
8
DEFAULT_255_2_778
10
27.7206313
20
12.8937687
11
27.7206313
21
12.8937687
0
ARC
8
DEFAULT_255_2_778
10
28.2694696
20
7.6949304
40
0.5488398
50
89.8682888
51
180.1317112
0
ARC
8
DEFAULT_255_2_778
10
28.2719782
20
7.6950154
40
0.5487547
50
359.8593896
51
90.1301939
0
ARC
8
DEFAULT_255_2_778
10
28.2720632
20
7.6923368
40
0.5486696
50
269.8609058
51
0.1390942
0
ARC
8
DEFAULT_255_2_778
10
28.2693846
20
7.6924218
40
0.5487547
50
179.8698061
51
270.1406104
0
LINE
8
DEFAULT_255_2_778
10
27.7206313
20
7.6936687
11
27.7206313
21
7.6936687
0
ARC
8
DEFAULT_255_2_778
10
28.2694696
20
23.2950304
40
0.5488398
50
89.8682888
51
180.1317112
0
ARC
8
DEFAULT_255_2_778
10
28.2719782
20
23.2951154
40
0.5487547
50
359.8593896
51
90.1301939
0
ARC
8
DEFAULT_255_2_778
10
28.2720632
20
23.2924368
40
0.5486696
50
269.8609058
51
0.1390942
0
ARC
8
DEFAULT_255_2_778
10
28.2693846
20
23.2925218
40
0.5487547
50
179.8698061
51
270.1406104
0
LINE
8
DEFAULT_255_2_778
10
27.7206313
20
23.2937687
11
27.7206313
21
23.2937687
0
ARC
8
DEFAULT_255_2_778
10
28.2694696
20
18.0949304
40
0.5488398
50
89.8682888
51
180.1317112
0
ARC
8
DEFAULT_255_2_778
10
28.2719782
20
18.0950154
40
0.5487547
50
359.8593896
51
90.1301939
0
ARC
8
DEFAULT_255_2_778
10
28.2720632
20
18.0923368
40
0.5486696
50
269.8609058
51
0.1390942
0
ARC
8
DEFAULT_255_2_778
10
28.2693846
20
18.0924218
40
0.5487547
50
179.8698061
51
270.1406104
0
LINE
8
DEFAULT_255_2_778
10
27.7206313
20
18.0936687
11
27.7206313
21
18.0936687
0
ARC
8
DEFAULT_255_2_778
10
28.2694696
20
33.6949304
40
0.5488398
50
89.8682888
51
180.1317112
0
ARC
8
DEFAULT_255_2_778
10
28.2719782
20
33.6950154
40
0.5487547
50
359.8593896
51
90.1301939
0
ARC
8
DEFAULT_255_2_778
10
28.2720632
20
33.6923368
40
0.5486696
50
269.8609058
51
0.1390942
0
ARC
8
DEFAULT_255_2_778
10
28.2693846
20
33.6924218
40
0.5487547
50
179.8698061
51
270.1406104
0
LINE
8
DEFAULT_255_2_778
10
27.7206313
20
33.6936687
11
27.7206313
21
33.6936687
0
ARC
8
DEFAULT_255_2_778
10
28.2694696
20
28.4948304
40
0.5488398
50
89.8682888
51
180.1317112
0
ARC
8
DEFAULT_255_2_778
10
28.2719782
20
28.4949154
40
0.5487547
50
359.8593896
51
90.1301939
0
ARC
8
DEFAULT_255_2_778
10
28.2720632
20
28.4922368
40
0.5486696
50
269.8609058
51
0.1390942
0
ARC
8
DEFAULT_255_2_778
10
28.2693846
20
28.4923218
40
0.5487547
50
179.8698061
51
270.1406104
0
LINE
8
DEFAULT_255_2_778
10
27.7206313
20
28.4935687
11
27.7206313
21
28.4935687
0
ARC
8
DEFAULT_255_2_778
10
28.2694696
20
44.0949304
40
0.5488398
50
89.8682888
51
180.1317112
0
ARC
8
DEFAULT_255_2_778
10
28.2719782
20
44.0950154
40
0.5487547
50
359.8593896
51
90.1301939
0
ARC
8
DEFAULT_255_2_778
10
28.2720632
20
44.0923368
40
0.5486696
50
269.8609058
51
0.1390942
0
ARC
8
DEFAULT_255_2_778
10
28.2693846
20
44.0924218
40
0.5487547
50
179.8698061
51
270.1406104
0
LINE
8
DEFAULT_255_2_778
10
27.7206313
20
44.0936687
11
27.7206313
21
44.0936687
0
ARC
8
DEFAULT_255_2_778
10
28.2694696
20
38.8948304
40
0.5488398
50
89.8682888
51
180.1317112
0
ARC
8
DEFAULT_255_2_778
10
28.2719782
20
38.8949154
40
0.5487547
50
359.8593896
51
90.1301939
0
ARC
8
DEFAULT_255_2_778
10
28.2720632
20
38.8922368
40
0.5486696
50
269.8609058
51
0.1390942
0
ARC
8
DEFAULT_255_2_778
10
28.2693846
20
38.8923218
40
0.5487547
50
179.8698061
51
270.1406104
0
LINE
8
DEFAULT_255_2_778
10
27.7206313
20
38.8935687
11
27.7206313
21
38.8935687
0
ARC
8
DEFAULT_255_2_778
10
28.2694696
20
54.4949304
40
0.5488398
50
89.8682888
51
180.1317112
0
ARC
8
DEFAULT_255_2_778
10
28.2719782
20
54.4950154
40
0.5487547
50
359.8593896
51
90.1301939
0
ARC
8
DEFAULT_255_2_778
10
28.2720632
20
54.4923368
40
0.5486696
50
269.8609058
51
0.1390942
0
ARC
8
DEFAULT_255_2_778
10
28.2693846
20
54.4924218
40
0.5487547
50
179.8698061
51
270.1406104
0
LINE
8
DEFAULT_255_2_778
10
27.7206313
20
54.4936687
11
27.7206313
21
54.4936687
0
ARC
8
DEFAULT_255_2_778
10
28.2694696
20
49.2948304
40
0.5488398
50
89.8682888
51
180.1317112
0
ARC
8
DEFAULT_255_2_778
10
28.2719782
20
49.2949154
40
0.5487547
50
359.8593896
51
90.1301939
0
ARC
8
DEFAULT_255_2_778
10
28.2720632
20
49.2922368
40
0.5486696
50
269.8609058
51
0.1390942
0
ARC
8
DEFAULT_255_2_778
10
28.2693846
20
49.2923218
40
0.5487547
50
179.8698061
51
270.1406104
0
LINE
8
DEFAULT_255_2_778
10
27.7206313
20
49.2935687
11
27.7206313
21
49.2935687
0
LINE
8
DEFAULT_255_2_778
10
2.4027406
20
3.2680041
11
2.2016406
21
3.2331041
0
LINE
8
DEFAULT_255_2_778
10
2.2016406
20
3.2331041
11
2.0045406
21
3.1143041
0
LINE
8
DEFAULT_255_2_778
10
2.0045406
20
3.1143041
11
1.9280406
21
3.0063041
0
LINE
8
DEFAULT_255_2_778
10
1.9280406
20
3.0063041
11
1.8994406
21
2.9256041
0
LINE
8
DEFAULT_255_2_778
10
1.8994406
20
2.9256041
11
1.8902406
21
2.8780041
0
LINE
8
DEFAULT_255_2_778
10
1.8902406
20
2.8780041
11
1.8870406
21
2.8492041
0
LINE
8
DEFAULT_255_2_778
10
1.8870406
20
2.8492041
11
1.8857406
21
2.8013041
0
LINE
8
DEFAULT_255_2_778
10
1.8857406
20
2.8013041
11
2.1061406
21
2.8013041
0
LINE
8
DEFAULT_255_2_778
10
2.1061406
20
2.8013041
11
2.1079406
21
2.8394041
0
LINE
8
DEFAULT_255_2_778
10
2.1079406
20
2.8394041
11
2.1127406
21
2.8677041
0
LINE
8
DEFAULT_255_2_778
10
2.1127406
20
2.8677041
11
2.1302406
21
2.9195041
0
LINE
8
DEFAULT_255_2_778
10
2.1302406
20
2.9195041
11
2.1820406
21
2.9923041
0
LINE
8
DEFAULT_255_2_778
10
2.1820406
20
2.9923041
11
2.2987406
21
3.0632041
0
LINE
8
DEFAULT_255_2_778
10
2.2987406
20
3.0632041
11
2.5083406
21
3.0820041
0
LINE
8
DEFAULT_255_2_778
10
2.5083406
20
3.0820041
11
2.6718406
21
3.0217041
0
LINE
8
DEFAULT_255_2_778
10
2.6718406
20
3.0217041
11
2.7408406
21
2.9508041
0
LINE
8
DEFAULT_255_2_778
10
2.7408406
20
2.9508041
11
2.7670406
21
2.8944041
0
LINE
8
DEFAULT_255_2_778
10
2.7670406
20
2.8944041
11
2.7763406
21
2.8574041
0
LINE
8
DEFAULT_255_2_778
10
2.7763406
20
2.8574041
11
2.7747406
21
2.7415041
0
LINE
8
DEFAULT_255_2_778
10
2.7747406
20
2.7415041
11
2.7522406
21
2.6812041
0
LINE
8
DEFAULT_255_2_778
10
2.7522406
20
2.6812041
11
2.6522406
21
2.5788041
0
LINE
8
DEFAULT_255_2_778
10
2.6522406
20
2.5788041
11
2.4268406
21
2.5084041
0
LINE
8
DEFAULT_255_2_778
10
2.4268406
20
2.5084041
11
2.3196406
21
2.5076041
0
LINE
8
DEFAULT_255_2_778
10
2.3196406
20
2.5076041
11
2.3196406
21
2.3174041
0
LINE
8
DEFAULT_255_2_778
10
2.3196406
20
2.3174041
11
2.6141406
21
2.2867041
0
LINE
8
DEFAULT_255_2_778
10
2.6141406
20
2.2867041
11
2.7496406
21
2.2062041
0
LINE
8
DEFAULT_255_2_778
10
2.7496406
20
2.2062041
11
2.7945406
21
2.1414041
0
LINE
8
DEFAULT_255_2_778
10
2.7945406
20
2.1414041
11
2.8088406
21
2.0991041
0
LINE
8
DEFAULT_255_2_778
10
2.8088406
20
2.0991041
11
2.8067406
21
1.9464041
0
LINE
8
DEFAULT_255_2_778
10
2.8067406
20
1.9464041
11
2.7871406
21
1.8874041
0
LINE
8
DEFAULT_255_2_778
10
2.7871406
20
1.8874041
11
2.7437406
21
1.8189041
0
LINE
8
DEFAULT_255_2_778
10
2.7437406
20
1.8189041
11
2.6331406
21
1.7358041
0
LINE
8
DEFAULT_255_2_778
10
2.6331406
20
1.7358041
11
2.3826406
21
1.7019041
0
LINE
8
DEFAULT_255_2_778
10
2.3826406
20
1.7019041
11
2.2016406
21
1.7845041
0
LINE
8
DEFAULT_255_2_778
10
2.2016406
20
1.7845041
11
2.1138406
21
1.8943041
0
LINE
8
DEFAULT_255_2_778
10
2.1138406
20
1.8943041
11
2.0757406
21
1.9877041
0
LINE
8
DEFAULT_255_2_778
10
2.0757406
20
1.9877041
11
2.0704406
21
2.0075041
0
LINE
8
DEFAULT_255_2_778
10
2.0704406
20
2.0075041
11
1.8378406
21
2.0075041
0
LINE
8
DEFAULT_255_2_778
10
1.8378406
20
2.0075041
11
1.8441406
21
1.9710041
0
LINE
8
DEFAULT_255_2_778
10
1.8441406
20
1.9710041
11
1.8576406
21
1.9168041
0
LINE
8
DEFAULT_255_2_778
10
1.8576406
20
1.9168041
11
1.8828406
21
1.8477041
0
LINE
8
DEFAULT_255_2_778
10
1.8828406
20
1.8477041
11
1.9235406
21
1.7705041
0
LINE
8
DEFAULT_255_2_778
10
1.9235406
20
1.7705041
11
1.9878406
21
1.6882041
0
LINE
8
DEFAULT_255_2_778
10
1.9878406
20
1.6882041
11
2.0873406
21
1.6048041
0
LINE
8
DEFAULT_255_2_778
10
2.0873406
20
1.6048041
11
2.2130406
21
1.5421041
0
LINE
8
DEFAULT_255_2_778
10
2.2130406
20
1.5421041
11
2.3757406
21
1.5080041
0
LINE
8
DEFAULT_255_2_778
10
2.3757406
20
1.5080041
11
2.5797406
21
1.5149041
0
LINE
8
DEFAULT_255_2_778
10
2.5797406
20
1.5149041
11
2.7750406
21
1.5739041
0
LINE
8
DEFAULT_255_2_778
10
2.7750406
20
1.5739041
11
2.9001406
21
1.6591041
0
LINE
8
DEFAULT_255_2_778
10
2.9001406
20
1.6591041
11
2.9633406
21
1.7324041
0
LINE
8
DEFAULT_255_2_778
10
2.9633406
20
1.7324041
11
3.0020406
21
1.8022041
0
LINE
8
DEFAULT_255_2_778
10
3.0020406
20
1.8022041
11
3.0237406
21
1.8623041
0
LINE
8
DEFAULT_255_2_778
10
3.0237406
20
1.8623041
11
3.0321406
21
1.8961041
0
LINE
8
DEFAULT_255_2_778
10
3.0321406
20
1.8961041
11
3.0382406
21
1.9305041
0
LINE
8
DEFAULT_255_2_778
10
3.0382406
20
1.9305041
11
3.0419406
21
1.9652041
0
LINE
8
DEFAULT_255_2_778
10
3.0419406
20
1.9652041
11
3.0409406
21
2.0739041
0
LINE
8
DEFAULT_255_2_778
10
3.0409406
20
2.0739041
11
3.0342406
21
2.1179041
0
LINE
8
DEFAULT_255_2_778
10
3.0342406
20
2.1179041
11
3.0152406
21
2.1832041
0
LINE
8
DEFAULT_255_2_778
10
3.0152406
20
2.1832041
11
2.9453406
21
2.2920041
0
LINE
8
DEFAULT_255_2_778
10
2.9453406
20
2.2920041
11
2.7525406
21
2.4076041
0
LINE
8
DEFAULT_255_2_778
10
2.7525406
20
2.4076041
11
2.7281406
21
2.4131041
0
LINE
8
DEFAULT_255_2_778
10
2.7281406
20
2.4131041
11
2.8644406
21
2.4981041
0
LINE
8
DEFAULT_255_2_778
10
2.8644406
20
2.4981041
11
2.9295406
21
2.5679041
0
LINE
8
DEFAULT_255_2_778
10
2.9295406
20
2.5679041
11
2.9689406
21
2.6343041
0
LINE
8
DEFAULT_255_2_778
10
2.9689406
20
2.6343041
11
2.9906406
21
2.6917041
0
LINE
8
DEFAULT_255_2_778
10
2.9906406
20
2.6917041
11
2.9983406
21
2.7232041
0
LINE
8
DEFAULT_255_2_778
10
2.9983406
20
2.7232041
11
3.0036406
21
2.7552041
0
LINE
8
DEFAULT_255_2_778
10
3.0036406
20
2.7552041
11
3.0020406
21
2.8963041
0
LINE
8
DEFAULT_255_2_778
10
3.0020406
20
2.8963041
11
2.9961406
21
2.9262041
0
LINE
8
DEFAULT_255_2_778
10
2.9961406
20
2.9262041
11
2.9834406
21
2.9690041
0
LINE
8
DEFAULT_255_2_778
10
2.9834406
20
2.9690041
11
2.9530406
21
3.0338041
0
LINE
8
DEFAULT_255_2_778
10
2.9530406
20
3.0338041
11
2.8996406
21
3.1037041
0
LINE
8
DEFAULT_255_2_778
10
2.8996406
20
3.1037041
11
2.8004406
21
3.1815041
0
LINE
8
DEFAULT_255_2_778
10
2.8004406
20
3.1815041
11
2.6474406
21
3.2445041
0
LINE
8
DEFAULT_255_2_778
10
2.6474406
20
3.2445041
11
2.4246406
21
3.2680041
0
LINE
8
DEFAULT_255_2_778
10
2.4246406
20
3.2680041
11
2.4029406
21
3.2672041
0
LINE
8
DEFAULT_255_2_778
10
5.5398625
20
3.2341114
11
5.7327625
21
3.2341114
0
LINE
8
DEFAULT_255_2_778
10
5.7327625
20
3.2341114
11
5.7327625
21
1.5437114
0
LINE
8
DEFAULT_255_2_778
10
5.7327625
20
1.5437114
11
5.5049625
21
1.5437114
0
LINE
8
DEFAULT_255_2_778
10
5.5049625
20
1.5437114
11
5.5049625
21
2.9714114
0
LINE
8
DEFAULT_255_2_778
10
5.5049625
20
2.9714114
11
5.2371625
21
2.8044114
0
LINE
8
DEFAULT_255_2_778
10
5.2371625
20
2.8044114
11
5.1326625
21
2.7608114
0
LINE
8
DEFAULT_255_2_778
10
5.1326625
20
2.7608114
11
5.1326625
21
2.9727114
0
LINE
8
DEFAULT_255_2_778
10
5.1326625
20
2.9727114
11
5.4414625
21
3.1484114
0
LINE
8
DEFAULT_255_2_778
10
5.4414625
20
3.1484114
11
5.5398625
21
3.2341114
0
LINE
8
DEFAULT_255_2_778
10
6.4195385
20
2.2630687
11
7.0050385
21
2.2630687
0
LINE
8
DEFAULT_255_2_778
10
7.0050385
20
2.2630687
11
7.0050385
21
2.1027687
0
LINE
8
DEFAULT_255_2_778
10
7.0050385
20
2.1027687
11
6.4195385
21
2.1027687
0
LINE
8
DEFAULT_255_2_778
10
6.4195385
20
2.1027687
11
6.4195385
21
2.2630687
0
LINE
8
DEFAULT_255_2_778
10
14.3218625
20
3.2341114
11
14.5147625
21
3.2341114
0
LINE
8
DEFAULT_255_2_778
10
14.5147625
20
3.2341114
11
14.5147625
21
1.5437114
0
LINE
8
DEFAULT_255_2_778
10
14.5147625
20
1.5437114
11
14.2869625
21
1.5437114
0
LINE
8
DEFAULT_255_2_778
10
14.2869625
20
1.5437114
11
14.2869625
21
2.9714114
0
LINE
8
DEFAULT_255_2_778
10
14.2869625
20
2.9714114
11
14.0191625
21
2.8044114
0
LINE
8
DEFAULT_255_2_778
10
14.0191625
20
2.8044114
11
13.9146625
21
2.7608114
0
LINE
8
DEFAULT_255_2_778
10
13.9146625
20
2.7608114
11
13.9146625
21
2.9727114
0
LINE
8
DEFAULT_255_2_778
10
13.9146625
20
2.9727114
11
14.2234625
21
3.1484114
0
LINE
8
DEFAULT_255_2_778
10
14.2234625
20
3.1484114
11
14.3218625
21
3.2341114
0
LINE
8
DEFAULT_255_2_778
10
15.2013387
20
2.2630802
11
15.7868387
21
2.2630802
0
LINE
8
DEFAULT_255_2_778
10
15.7868387
20
2.2630802
11
15.7868387
21
2.1027802
0
LINE
8
DEFAULT_255_2_778
10
15.7868387
20
2.1027802
11
15.2013387
21
2.1027802
0
LINE
8
DEFAULT_255_2_778
10
15.2013387
20
2.1027802
11
15.2013387
21
2.2630802
0
LINE
8
DEFAULT_255_2_778
10
3.9861387
20
3.0845802
11
4.1872387
21
3.0515802
0
LINE
8
DEFAULT_255_2_778
10
4.1872387
20
3.0515802
11
4.2872387
21
2.9684802
0
LINE
8
DEFAULT_255_2_778
10
4.2872387
20
2.9684802
11
4.3174387
21
2.9080802
0
LINE
8
DEFAULT_255_2_778
10
4.3174387
20
2.9080802
11
4.3285387
21
2.8644802
0
LINE
8
DEFAULT_255_2_778
10
4.3285387
20
2.8644802
11
4.3275387
21
2.7602802
0
LINE
8
DEFAULT_255_2_778
10
4.3275387
20
2.7602802
11
4.3200387
21
2.7281802
0
LINE
8
DEFAULT_255_2_778
10
4.3200387
20
2.7281802
11
4.2981387
21
2.6660802
0
LINE
8
DEFAULT_255_2_778
10
4.2981387
20
2.6660802
11
4.2555387
21
2.5824802
0
LINE
8
DEFAULT_255_2_778
10
4.2555387
20
2.5824802
11
4.1676387
21
2.4556802
0
LINE
8
DEFAULT_255_2_778
10
4.1676387
20
2.4556802
11
4.0229387
21
2.2871802
0
LINE
8
DEFAULT_255_2_778
10
4.0229387
20
2.2871802
11
3.7927387
21
2.0603802
0
LINE
8
DEFAULT_255_2_778
10
3.7927387
20
2.0603802
11
3.5141387
21
1.8233802
0
LINE
8
DEFAULT_255_2_778
10
3.5141387
20
1.8233802
11
3.4157387
21
1.7471802
0
LINE
8
DEFAULT_255_2_778
10
3.4157387
20
1.7471802
11
3.4157387
21
1.5433802
0
LINE
8
DEFAULT_255_2_778
10
3.4157387
20
1.5433802
11
4.5881387
21
1.5433802
0
LINE
8
DEFAULT_255_2_778
10
4.5881387
20
1.5433802
11
4.5881387
21
1.7288802
0
LINE
8
DEFAULT_255_2_778
10
4.5881387
20
1.7288802
11
3.6930387
21
1.7288802
0
LINE
8
DEFAULT_255_2_778
10
3.6930387
20
1.7288802
11
4.0999387
21
2.0646802
0
LINE
8
DEFAULT_255_2_778
10
4.0999387
20
2.0646802
11
4.2640387
21
2.2252802
0
LINE
8
DEFAULT_255_2_778
10
4.2640387
20
2.2252802
11
4.3690387
21
2.3530802
0
LINE
8
DEFAULT_255_2_778
10
4.3690387
20
2.3530802
11
4.4415387
21
2.4641802
0
LINE
8
DEFAULT_255_2_778
10
4.4415387
20
2.4641802
11
4.4976387
21
2.5757802
0
LINE
8
DEFAULT_255_2_778
10
4.4976387
20
2.5757802
11
4.5219387
21
2.6400802
0
LINE
8
DEFAULT_255_2_778
10
4.5219387
20
2.6400802
11
4.5346387
21
2.6837802
0
LINE
8
DEFAULT_255_2_778
10
4.5346387
20
2.6837802
11
4.5444387
21
2.7279802
0
LINE
8
DEFAULT_255_2_778
10
4.5444387
20
2.7279802
11
4.5481387
21
2.7501802
0
LINE
8
DEFAULT_255_2_778
10
4.5481387
20
2.7501802
11
4.5481387
21
2.8962802
0
LINE
8
DEFAULT_255_2_778
10
4.5481387
20
2.8962802
11
4.5404387
21
2.9350802
0
LINE
8
DEFAULT_255_2_778
10
4.5404387
20
2.9350802
11
4.5299387
21
2.9716802
0
LINE
8
DEFAULT_255_2_778
10
4.5299387
20
2.9716802
11
4.5090387
21
3.0218802
0
LINE
8
DEFAULT_255_2_778
10
4.5090387
20
3.0218802
11
4.4706387
21
3.0832802
0
LINE
8
DEFAULT_255_2_778
10
4.4706387
20
3.0832802
11
4.4063387
21
3.1486802
0
LINE
8
DEFAULT_255_2_778
10
4.4063387
20
3.1486802
11
4.3052387
21
3.2121802
0
LINE
8
DEFAULT_255_2_778
10
4.3052387
20
3.2121802
11
4.1626387
21
3.2565802
0
LINE
8
DEFAULT_255_2_778
10
4.1626387
20
3.2565802
11
3.9703387
21
3.2671802
0
LINE
8
DEFAULT_255_2_778
10
3.9703387
20
3.2671802
11
3.8083387
21
3.2383802
0
LINE
8
DEFAULT_255_2_778
10
3.8083387
20
3.2383802
11
3.6909387
21
3.1835802
0
LINE
8
DEFAULT_255_2_778
10
3.6909387
20
3.1835802
11
3.5543387
21
3.0478802
0
LINE
8
DEFAULT_255_2_778
10
3.5543387
20
3.0478802
11
3.5078387
21
2.9443802
0
LINE
8
DEFAULT_255_2_778
10
3.5078387
20
2.9443802
11
3.4930387
21
2.8800802
0
LINE
8
DEFAULT_255_2_778
10
3.4930387
20
2.8800802
11
3.4882387
21
2.8417802
0
LINE
8
DEFAULT_255_2_778
10
3.4882387
20
2.8417802
11
3.4861387
21
2.7842802
0
LINE
8
DEFAULT_255_2_778
10
3.4861387
20
2.7842802
11
3.7065387
21
2.7842802
0
LINE
8
DEFAULT_255_2_778
10
3.7065387
20
2.7842802
11
3.7086387
21
2.8276802
0
LINE
8
DEFAULT_255_2_778
10
3.7086387
20
2.8276802
11
3.7136387
21
2.8602802
0
LINE
8
DEFAULT_255_2_778
10
3.7136387
20
2.8602802
11
3.7295387
21
2.9128802
0
LINE
8
DEFAULT_255_2_778
10
3.7295387
20
2.9128802
11
3.7747387
21
2.9861802
0
LINE
8
DEFAULT_255_2_778
10
3.7747387
20
2.9861802
11
3.8745387
21
3.0581802
0
LINE
8
DEFAULT_255_2_778
10
3.8745387
20
3.0581802
11
3.9867387
21
3.0843802
0
LINE
8
DEFAULT_255_2_778
10
11.5445387
20
3.2436802
11
11.7771387
21
3.2436802
0
LINE
8
DEFAULT_255_2_778
10
11.7771387
20
3.2436802
11
11.7771387
21
1.5436802
0
LINE
8
DEFAULT_255_2_778
10
11.7771387
20
1.5436802
11
11.5445387
21
1.5436802
0
LINE
8
DEFAULT_255_2_778
10
11.5445387
20
1.5436802
11
11.5445387
21
2.3196802
0
LINE
8
DEFAULT_255_2_778
10
11.5445387
20
2.3196802
11
10.6685387
21
2.3196802
0
LINE
8
DEFAULT_255_2_778
10
10.6685387
20
2.3196802
11
10.6685387
21
1.5436802
0
LINE
8
DEFAULT_255_2_778
10
10.6685387
20
1.5436802
11
10.4359387
21
1.5436802
0
LINE
8
DEFAULT_255_2_778
10
10.4359387
20
1.5436802
11
10.4359387
21
3.2436802
0
LINE
8
DEFAULT_255_2_778
10
10.4359387
20
3.2436802
11
10.6685387
21
3.2436802
0
LINE
8
DEFAULT_255_2_778
10
10.6685387
20
3.2436802
11
10.6685387
21
2.5170802
0
LINE
8
DEFAULT_255_2_778
10
10.6685387
20
2.5170802
11
11.5445387
21
2.5170802
0
LINE
8
DEFAULT_255_2_778
10
11.5445387
20
2.5170802
11
11.5445387
21
3.2436802
0
LINE
8
DEFAULT_255_2_778
10
7.3241387
20
3.2436802
11
8.4796387
21
3.2436802
0
LINE
8
DEFAULT_255_2_778
10
8.4796387
20
3.2436802
11
8.4796387
21
3.0351802
0
LINE
8
DEFAULT_255_2_778
10
8.4796387
20
3.0351802
11
7.8276387
21
1.5436802
0
LINE
8
DEFAULT_255_2_778
10
7.8276387
20
1.5436802
11
7.5540387
21
1.5436802
0
LINE
8
DEFAULT_255_2_778
10
7.5540387
20
1.5436802
11
8.2396387
21
3.0533802
0
LINE
8
DEFAULT_255_2_778
10
8.2396387
20
3.0533802
11
7.3239387
21
3.0533802
0
LINE
8
DEFAULT_255_2_778
10
7.3239387
20
3.0533802
11
7.3239387
21
3.2436802
0
LINE
8
DEFAULT_255_2_778
10
21.550899
20
3.2674617
11
21.416699
21
3.2441617
0
LINE
8
DEFAULT_255_2_778
10
21.416699
20
3.2441617
11
21.297399
21
3.1920617
0
LINE
8
DEFAULT_255_2_778
10
21.297399
20
3.1920617
11
21.209299
21
3.1272617
0
LINE
8
DEFAULT_255_2_778
10
21.209299
20
3.1272617
11
21.131199
21
3.0417617
0
LINE
8
DEFAULT_255_2_778
10
21.131199
20
3.0417617
11
21.073799
21
2.9549617
0
LINE
8
DEFAULT_255_2_778
10
21.073799
20
2.9549617
11
21.026999
21
2.8607617
0
LINE
8
DEFAULT_255_2_778
10
21.026999
20
2.8607617
11
20.998399
21
2.7845617
0
LINE
8
DEFAULT_255_2_778
10
20.998399
20
2.7845617
11
20.981699
21
2.7290617
0
LINE
8
DEFAULT_255_2_778
10
20.981699
20
2.7290617
11
20.968199
21
2.6726617
0
LINE
8
DEFAULT_255_2_778
10
20.968199
20
2.6726617
11
20.957699
21
2.6157617
0
LINE
8
DEFAULT_255_2_778
10
20.957699
20
2.6157617
11
20.952399
21
2.5795617
0
LINE
8
DEFAULT_255_2_778
10
20.952399
20
2.5795617
11
20.948099
21
2.5430617
0
LINE
8
DEFAULT_255_2_778
10
20.948099
20
2.5430617
11
20.944999
21
2.5065617
0
LINE
8
DEFAULT_255_2_778
10
20.944999
20
2.5065617
11
20.944699
21
2.2845617
0
LINE
8
DEFAULT_255_2_778
10
20.944699
20
2.2845617
11
20.947899
21
2.2472617
0
LINE
8
DEFAULT_255_2_778
10
20.947899
20
2.2472617
11
20.952099
21
2.2101617
0
LINE
8
DEFAULT_255_2_778
10
20.952099
20
2.2101617
11
20.957399
21
2.1731617
0
LINE
8
DEFAULT_255_2_778
10
20.957399
20
2.1731617
11
20.967999
21
2.1154617
0
LINE
8
DEFAULT_255_2_778
10
20.967999
20
2.1154617
11
20.981199
21
2.0583617
0
LINE
8
DEFAULT_255_2_778
10
20.981199
20
2.0583617
11
20.997599
21
2.0019617
0
LINE
8
DEFAULT_255_2_778
10
20.997599
20
2.0019617
11
21.026699
21
1.9225617
0
LINE
8
DEFAULT_255_2_778
10
21.026699
20
1.9225617
11
21.061899
21
1.8474617
0
LINE
8
DEFAULT_255_2_778
10
21.061899
20
1.8474617
11
21.115099
21
1.7593617
0
LINE
8
DEFAULT_255_2_778
10
21.115099
20
1.7593617
11
21.173799
21
1.6852617
0
LINE
8
DEFAULT_255_2_778
10
21.173799
20
1.6852617
11
21.258999
21
1.6087617
0
LINE
8
DEFAULT_255_2_778
10
21.258999
20
1.6087617
11
21.373299
21
1.5455617
0
LINE
8
DEFAULT_255_2_778
10
21.373299
20
1.5455617
11
21.504799
21
1.5111617
0
LINE
8
DEFAULT_255_2_778
10
21.504799
20
1.5111617
11
21.665399
21
1.5085617
0
LINE
8
DEFAULT_255_2_778
10
21.665399
20
1.5085617
11
21.799599
21
1.5378617
0
LINE
8
DEFAULT_255_2_778
10
21.799599
20
1.5378617
11
21.916499
21
1.5963617
0
LINE
8
DEFAULT_255_2_778
10
21.916499
20
1.5963617
11
22.003299
21
1.6680617
0
LINE
8
DEFAULT_255_2_778
10
22.003299
20
1.6680617
11
22.078199
21
1.7593617
0
LINE
8
DEFAULT_255_2_778
10
22.078199
20
1.7593617
11
22.131099
21
1.8474617
0
LINE
8
DEFAULT_255_2_778
10
22.131099
20
1.8474617
11
22.166299
21
1.9228617
0
LINE
8
DEFAULT_255_2_778
10
22.166299
20
1.9228617
11
22.195399
21
2.0024617
0
LINE
8
DEFAULT_255_2_778
10
22.195399
20
2.0024617
11
22.211799
21
2.0588617
0
LINE
8
DEFAULT_255_2_778
10
22.211799
20
2.0588617
11
22.224999
21
2.1159617
0
LINE
8
DEFAULT_255_2_778
10
22.224999
20
2.1159617
11
22.235599
21
2.1736617
0
LINE
8
DEFAULT_255_2_778
10
22.235599
20
2.1736617
11
22.240899
21
2.2104617
0
LINE
8
DEFAULT_255_2_778
10
22.240899
20
2.2104617
11
22.245099
21
2.2474617
0
LINE
8
DEFAULT_255_2_778
10
22.245099
20
2.2474617
11
22.248299
21
2.2845617
0
LINE
8
DEFAULT_255_2_778
10
22.248299
20
2.2845617
11
22.248299
21
2.5062617
0
LINE
8
DEFAULT_255_2_778
10
22.248299
20
2.5062617
11
22.245099
21
2.5427617
0
LINE
8
DEFAULT_255_2_778
10
22.245099
20
2.5427617
11
22.240899
21
2.5792617
0
LINE
8
DEFAULT_255_2_778
10
22.240899
20
2.5792617
11
22.235599
21
2.6155617
0
LINE
8
DEFAULT_255_2_778
10
22.235599
20
2.6155617
11
22.224999
21
2.6724617
0
LINE
8
DEFAULT_255_2_778
10
22.224999
20
2.6724617
11
22.211499
21
2.7287617
0
LINE
8
DEFAULT_255_2_778
10
22.211499
20
2.7287617
11
22.194899
21
2.7843617
0
LINE
8
DEFAULT_255_2_778
10
22.194899
20
2.7843617
11
22.165199
21
2.8626617
0
LINE
8
DEFAULT_255_2_778
10
22.165199
20
2.8626617
11
22.129499
21
2.9367617
0
LINE
8
DEFAULT_255_2_778
10
22.129499
20
2.9367617
11
22.076099
21
3.0227617
0
LINE
8
DEFAULT_255_2_778
10
22.076099
20
3.0227617
11
22.001399
21
3.1110617
0
LINE
8
DEFAULT_255_2_778
10
22.001399
20
3.1110617
11
21.914899
21
3.1804617
0
LINE
8
DEFAULT_255_2_778
10
21.914899
20
3.1804617
11
21.798799
21
3.2370617
0
LINE
8
DEFAULT_255_2_778
10
21.798799
20
3.2370617
11
21.642699
21
3.2671617
0
LINE
8
DEFAULT_255_2_778
10
21.642699
20
3.2671617
11
21.550899
21
3.2674617
0
LINE
8
DEFAULT_255_2_778
10
21.552999
20
3.0737617
11
21.696899
21
3.0631617
0
LINE
8
DEFAULT_255_2_778
10
21.696899
20
3.0631617
11
21.799299
21
3.0153617
0
LINE
8
DEFAULT_255_2_778
10
21.799299
20
3.0153617
11
21.865199
21
2.9563617
0
LINE
8
DEFAULT_255_2_778
10
21.865199
20
2.9563617
11
21.917299
21
2.8838617
0
LINE
8
DEFAULT_255_2_778
10
21.917299
20
2.8838617
11
21.954099
21
2.8107617
0
LINE
8
DEFAULT_255_2_778
10
21.954099
20
2.8107617
11
21.977599
21
2.7486617
0
LINE
8
DEFAULT_255_2_778
10
21.977599
20
2.7486617
11
21.996899
21
2.6821617
0
LINE
8
DEFAULT_255_2_778
10
21.996899
20
2.6821617
11
22.007799
21
2.6332617
0
LINE
8
DEFAULT_255_2_778
10
22.007799
20
2.6332617
11
22.016299
21
2.5837617
0
LINE
8
DEFAULT_255_2_778
10
22.016299
20
2.5837617
11
22.022599
21
2.5316617
0
LINE
8
DEFAULT_255_2_778
10
22.022599
20
2.5316617
11
22.022599
21
2.2548617
0
LINE
8
DEFAULT_255_2_778
10
22.022599
20
2.2548617
11
22.016299
21
2.2019617
0
LINE
8
DEFAULT_255_2_778
10
22.016299
20
2.2019617
11
22.008099
21
2.1517617
0
LINE
8
DEFAULT_255_2_778
10
22.008099
20
2.1517617
11
21.997499
21
2.1019617
0
LINE
8
DEFAULT_255_2_778
10
21.997499
20
2.1019617
11
21.977899
21
2.0323617
0
LINE
8
DEFAULT_255_2_778
10
21.977899
20
2.0323617
11
21.953299
21
1.9664617
0
LINE
8
DEFAULT_255_2_778
10
21.953299
20
1.9664617
11
21.909399
21
1.8805617
0
LINE
8
DEFAULT_255_2_778
10
21.909399
20
1.8805617
11
21.844299
21
1.7976617
0
LINE
8
DEFAULT_255_2_778
10
21.844299
20
1.7976617
11
21.751699
21
1.7315617
0
LINE
8
DEFAULT_255_2_778
10
21.751699
20
1.7315617
11
21.625999
21
1.6992617
0
LINE
8
DEFAULT_255_2_778
10
21.625999
20
1.6992617
11
21.482099
21
1.7154617
0
LINE
8
DEFAULT_255_2_778
10
21.482099
20
1.7154617
11
21.381499
21
1.7693617
0
LINE
8
DEFAULT_255_2_778
10
21.381499
20
1.7693617
11
21.315399
21
1.8355617
0
LINE
8
DEFAULT_255_2_778
10
21.315399
20
1.8355617
11
21.265899
21
1.9122617
0
LINE
8
DEFAULT_255_2_778
10
21.265899
20
1.9122617
11
21.231199
21
1.9881617
0
LINE
8
DEFAULT_255_2_778
10
21.231199
20
1.9881617
11
21.208499
21
2.0548617
0
LINE
8
DEFAULT_255_2_778
10
21.208499
20
2.0548617
11
21.190199
21
2.1268617
0
LINE
8
DEFAULT_255_2_778
10
21.190199
20
2.1268617
11
21.180699
21
2.1768617
0
LINE
8
DEFAULT_255_2_778
10
21.180699
20
2.1768617
11
21.173599
21
2.2271617
0
LINE
8
DEFAULT_255_2_778
10
21.173599
20
2.2271617
11
21.170699
21
2.2548617
0
LINE
8
DEFAULT_255_2_778
10
21.170699
20
2.2548617
11
21.170699
21
2.5316617
0
LINE
8
DEFAULT_255_2_778
10
21.170699
20
2.5316617
11
21.176999
21
2.5837617
0
LINE
8
DEFAULT_255_2_778
10
21.176999
20
2.5837617
11
21.185499
21
2.6332617
0
LINE
8
DEFAULT_255_2_778
10
21.185499
20
2.6332617
11
21.196299
21
2.6821617
0
LINE
8
DEFAULT_255_2_778
10
21.196299
20
2.6821617
11
21.216199
21
2.7507617
0
LINE
8
DEFAULT_255_2_778
10
21.216199
20
2.7507617
11
21.240999
21
2.8155617
0
LINE
8
DEFAULT_255_2_778
10
21.240999
20
2.8155617
11
21.285199
21
2.8994617
0
LINE
8
DEFAULT_255_2_778
10
21.285199
20
2.8994617
11
21.349999
21
2.9798617
0
LINE
8
DEFAULT_255_2_778
10
21.349999
20
2.9798617
11
21.442399
21
3.0441617
0
LINE
8
DEFAULT_255_2_778
10
21.442399
20
3.0441617
11
21.552999
21
3.0737617
0
LINE
8
DEFAULT_255_2_778
10
20.2879792
20
1.5519739
11
20.1291792
21
1.5437739
0
LINE
8
DEFAULT_255_2_778
10
20.1291792
20
1.5437739
11
19.4917792
21
1.5437739
0
LINE
8
DEFAULT_255_2_778
10
19.4917792
20
1.5437739
11
19.4917792
21
3.2436739
0
LINE
8
DEFAULT_255_2_778
10
19.4917792
20
3.2436739
11
20.2474792
21
3.2312739
0
LINE
8
DEFAULT_255_2_778
10
20.2474792
20
3.2312739
11
20.4749792
21
3.1592739
0
LINE
8
DEFAULT_255_2_778
10
20.4749792
20
3.1592739
11
20.5707792
21
3.0880739
0
LINE
8
DEFAULT_255_2_778
10
20.5707792
20
3.0880739
11
20.6167792
21
3.0264739
0
LINE
8
DEFAULT_255_2_778
10
20.6167792
20
3.0264739
11
20.6424792
21
2.9679739
0
LINE
8
DEFAULT_255_2_778
10
20.6424792
20
2.9679739
11
20.6559792
21
2.9176739
0
LINE
8
DEFAULT_255_2_778
10
20.6559792
20
2.9176739
11
20.6620792
21
2.8787739
0
LINE
8
DEFAULT_255_2_778
10
20.6620792
20
2.8787739
11
20.6612792
21
2.7576739
0
LINE
8
DEFAULT_255_2_778
10
20.6612792
20
2.7576739
11
20.6538792
21
2.7173739
0
LINE
8
DEFAULT_255_2_778
10
20.6538792
20
2.7173739
11
20.6374792
21
2.6660739
0
LINE
8
DEFAULT_255_2_778
10
20.6374792
20
2.6660739
11
20.6009792
21
2.5993739
0
LINE
8
DEFAULT_255_2_778
10
20.6009792
20
2.5993739
11
20.5215792
21
2.5163739
0
LINE
8
DEFAULT_255_2_778
10
20.5215792
20
2.5163739
11
20.3908792
21
2.4467739
0
LINE
8
DEFAULT_255_2_778
10
20.3908792
20
2.4467739
11
20.3654792
21
2.4395739
0
LINE
8
DEFAULT_255_2_778
10
20.3654792
20
2.4395739
11
20.5194792
21
2.3816739
0
LINE
8
DEFAULT_255_2_778
10
20.5194792
20
2.3816739
11
20.6218792
21
2.3027739
0
LINE
8
DEFAULT_255_2_778
10
20.6218792
20
2.3027739
11
20.6752792
21
2.2295739
0
LINE
8
DEFAULT_255_2_778
10
20.6752792
20
2.2295739
11
20.7059792
21
2.1580739
0
LINE
8
DEFAULT_255_2_778
10
20.7059792
20
2.1580739
11
20.7173792
21
2.1146739
0
LINE
8
DEFAULT_255_2_778
10
20.7173792
20
2.1146739
11
20.7228792
21
2.0834739
0
LINE
8
DEFAULT_255_2_778
10
20.7228792
20
2.0834739
11
20.7223792
21
1.9183739
0
LINE
8
DEFAULT_255_2_778
10
20.7223792
20
1.9183739
11
20.7146792
21
1.8762739
0
LINE
8
DEFAULT_255_2_778
10
20.7146792
20
1.8762739
11
20.6988792
21
1.8223739
0
LINE
8
DEFAULT_255_2_778
10
20.6988792
20
1.8223739
11
20.6689792
21
1.7596739
0
LINE
8
DEFAULT_255_2_778
10
20.6689792
20
1.7596739
11
20.6099792
21
1.6873739
0
LINE
8
DEFAULT_255_2_778
10
20.6099792
20
1.6873739
11
20.4617792
21
1.5945739
0
LINE
8
DEFAULT_255_2_778
10
20.4617792
20
1.5945739
11
20.2879792
21
1.5519739
0
LINE
8
DEFAULT_255_2_778
10
20.2204792
20
1.7426739
11
20.1087792
21
1.7365739
0
LINE
8
DEFAULT_255_2_778
10
20.1087792
20
1.7365739
11
19.7243792
21
1.7365739
0
LINE
8
DEFAULT_255_2_778
10
19.7243792
20
1.7365739
11
19.7243792
21
2.3281739
0
LINE
8
DEFAULT_255_2_778
10
19.7243792
20
2.3281739
11
20.2490792
21
2.3123739
0
LINE
8
DEFAULT_255_2_778
10
20.2490792
20
2.3123739
11
20.4114792
21
2.2374739
0
LINE
8
DEFAULT_255_2_778
10
20.4114792
20
2.2374739
11
20.4622792
21
2.1755739
0
LINE
8
DEFAULT_255_2_778
10
20.4622792
20
2.1755739
11
20.4847792
21
2.1167739
0
LINE
8
DEFAULT_255_2_778
10
20.4847792
20
2.1167739
11
20.4919792
21
2.0808739
0
LINE
8
DEFAULT_255_2_778
10
20.4919792
20
2.0808739
11
20.4897792
21
1.9620739
0
LINE
8
DEFAULT_255_2_778
10
20.4897792
20
1.9620739
11
20.4773792
21
1.9143739
0
LINE
8
DEFAULT_255_2_778
10
20.4773792
20
1.9143739
11
20.4450792
21
1.8503739
0
LINE
8
DEFAULT_255_2_778
10
20.4450792
20
1.8503739
11
20.3739792
21
1.7868739
0
LINE
8
DEFAULT_255_2_778
10
20.3739792
20
1.7868739
11
20.2204792
21
1.7426739
0
LINE
8
DEFAULT_255_2_778
10
20.1516792
20
2.5308739
11
20.0561792
21
2.5258739
0
LINE
8
DEFAULT_255_2_778
10
20.0561792
20
2.5258739
11
19.7243792
21
2.5258739
0
LINE
8
DEFAULT_255_2_778
10
19.7243792
20
2.5258739
11
19.7243792
21
3.0510739
0
LINE
8
DEFAULT_255_2_778
10
19.7243792
20
3.0510739
11
20.2220792
21
3.0325739
0
LINE
8
DEFAULT_255_2_778
10
20.2220792
20
3.0325739
11
20.3678792
21
2.9555739
0
LINE
8
DEFAULT_255_2_778
10
20.3678792
20
2.9555739
11
20.4125792
21
2.8896739
0
LINE
8
DEFAULT_255_2_778
10
20.4125792
20
2.8896739
11
20.4268792
21
2.8441739
0
LINE
8
DEFAULT_255_2_778
10
20.4268792
20
2.8441739
11
20.4315792
21
2.8121739
0
LINE
8
DEFAULT_255_2_778
10
20.4315792
20
2.8121739
11
20.4297792
21
2.7393739
0
LINE
8
DEFAULT_255_2_778
10
20.4297792
20
2.7393739
11
20.4210792
21
2.7004739
0
LINE
8
DEFAULT_255_2_778
10
20.4210792
20
2.7004739
11
20.3942792
21
2.6446739
0
LINE
8
DEFAULT_255_2_778
10
20.3942792
20
2.6446739
11
20.2596792
21
2.5536739
0
LINE
8
DEFAULT_255_2_778
10
20.2596792
20
2.5536739
11
20.1516792
21
2.5308739
0
LINE
8
DEFAULT_255_2_778
10
18.2339792
20
3.2436739
11
18.4892792
21
3.2436739
0
LINE
8
DEFAULT_255_2_778
10
18.4892792
20
3.2436739
11
19.1869792
21
1.5437739
0
LINE
8
DEFAULT_255_2_778
10
19.1869792
20
1.5437739
11
18.9340792
21
1.5437739
0
LINE
8
DEFAULT_255_2_778
10
18.9340792
20
1.5437739
11
18.7628792
21
1.9871739
0
LINE
8
DEFAULT_255_2_778
10
18.7628792
20
1.9871739
11
17.9627792
21
1.9871739
0
LINE
8
DEFAULT_255_2_778
10
17.9627792
20
1.9871739
11
17.7939792
21
1.5437739
0
LINE
8
DEFAULT_255_2_778
10
17.7939792
20
1.5437739
11
17.5362792
21
1.5437739
0
LINE
8
DEFAULT_255_2_778
10
17.5362792
20
1.5437739
11
18.2339792
21
3.2436739
0
LINE
8
DEFAULT_255_2_778
10
18.0376792
20
2.1797739
11
18.6895792
21
2.1797739
0
LINE
8
DEFAULT_255_2_778
10
18.6895792
20
2.1797739
11
18.3630792
21
3.0243739
0
LINE
8
DEFAULT_255_2_778
10
18.3630792
20
3.0243739
11
18.0376792
21
2.1797739
0
LINE
8
DEFAULT_255_2_778
10
16.636499
20
3.2674617
11
16.502299
21
3.2441617
0
LINE
8
DEFAULT_255_2_778
10
16.502299
20
3.2441617
11
16.382999
21
3.1920617
0
LINE
8
DEFAULT_255_2_778
10
16.382999
20
3.1920617
11
16.294899
21
3.1272617
0
LINE
8
DEFAULT_255_2_778
10
16.294899
20
3.1272617
11
16.216799
21
3.0417617
0
LINE
8
DEFAULT_255_2_778
10
16.216799
20
3.0417617
11
16.159399
21
2.9549617
0
LINE
8
DEFAULT_255_2_778
10
16.159399
20
2.9549617
11
16.112599
21
2.8607617
0
LINE
8
DEFAULT_255_2_778
10
16.112599
20
2.8607617
11
16.083999
21
2.7845617
0
LINE
8
DEFAULT_255_2_778
10
16.083999
20
2.7845617
11
16.067299
21
2.7290617
0
LINE
8
DEFAULT_255_2_778
10
16.067299
20
2.7290617
11
16.053799
21
2.6726617
0
LINE
8
DEFAULT_255_2_778
10
16.053799
20
2.6726617
11
16.043299
21
2.6157617
0
LINE
8
DEFAULT_255_2_778
10
16.043299
20
2.6157617
11
16.037999
21
2.5795617
0
LINE
8
DEFAULT_255_2_778
10
16.037999
20
2.5795617
11
16.033699
21
2.5430617
0
LINE
8
DEFAULT_255_2_778
10
16.033699
20
2.5430617
11
16.030599
21
2.5065617
0
LINE
8
DEFAULT_255_2_778
10
16.030599
20
2.5065617
11
16.030299
21
2.2845617
0
LINE
8
DEFAULT_255_2_778
10
16.030299
20
2.2845617
11
16.033499
21
2.2472617
0
LINE
8
DEFAULT_255_2_778
10
16.033499
20
2.2472617
11
16.037699
21
2.2101617
0
LINE
8
DEFAULT_255_2_778
10
16.037699
20
2.2101617
11
16.042999
21
2.1731617
0
LINE
8
DEFAULT_255_2_778
10
16.042999
20
2.1731617
11
16.053599
21
2.1154617
0
LINE
8
DEFAULT_255_2_778
10
16.053599
20
2.1154617
11
16.066799
21
2.0583617
0
LINE
8
DEFAULT_255_2_778
10
16.066799
20
2.0583617
11
16.083199
21
2.0019617
0
LINE
8
DEFAULT_255_2_778
10
16.083199
20
2.0019617
11
16.112299
21
1.9225617
0
LINE
8
DEFAULT_255_2_778
10
16.112299
20
1.9225617
11
16.147499
21
1.8474617
0
LINE
8
DEFAULT_255_2_778
10
16.147499
20
1.8474617
11
16.200699
21
1.7593617
0
LINE
8
DEFAULT_255_2_778
10
16.200699
20
1.7593617
11
16.259399
21
1.6852617
0
LINE
8
DEFAULT_255_2_778
10
16.259399
20
1.6852617
11
16.344599
21
1.6087617
0
LINE
8
DEFAULT_255_2_778
10
16.344599
20
1.6087617
11
16.458899
21
1.5455617
0
LINE
8
DEFAULT_255_2_778
10
16.458899
20
1.5455617
11
16.590399
21
1.5111617
0
LINE
8
DEFAULT_255_2_778
10
16.590399
20
1.5111617
11
16.750999
21
1.5085617
0
LINE
8
DEFAULT_255_2_778
10
16.750999
20
1.5085617
11
16.885199
21
1.5378617
0
LINE
8
DEFAULT_255_2_778
10
16.885199
20
1.5378617
11
17.002099
21
1.5963617
0
LINE
8
DEFAULT_255_2_778
10
17.002099
20
1.5963617
11
17.088899
21
1.6680617
0
LINE
8
DEFAULT_255_2_778
10
17.088899
20
1.6680617
11
17.163799
21
1.7593617
0
LINE
8
DEFAULT_255_2_778
10
17.163799
20
1.7593617
11
17.216699
21
1.8474617
0
LINE
8
DEFAULT_255_2_778
10
17.216699
20
1.8474617
11
17.251899
21
1.9228617
0
LINE
8
DEFAULT_255_2_778
10
17.251899
20
1.9228617
11
17.280999
21
2.0024617
0
LINE
8
DEFAULT_255_2_778
10
17.280999
20
2.0024617
11
17.297399
21
2.0588617
0
LINE
8
DEFAULT_255_2_778
10
17.297399
20
2.0588617
11
17.310599
21
2.1159617
0
LINE
8
DEFAULT_255_2_778
10
17.310599
20
2.1159617
11
17.321199
21
2.1736617
0
LINE
8
DEFAULT_255_2_778
10
17.321199
20
2.1736617
11
17.326499
21
2.2104617
0
LINE
8
DEFAULT_255_2_778
10
17.326499
20
2.2104617
11
17.330699
21
2.2474617
0
LINE
8
DEFAULT_255_2_778
10
17.330699
20
2.2474617
11
17.333899
21
2.2845617
0
LINE
8
DEFAULT_255_2_778
10
17.333899
20
2.2845617
11
17.333899
21
2.5062617
0
LINE
8
DEFAULT_255_2_778
10
17.333899
20
2.5062617
11
17.330699
21
2.5427617
0
LINE
8
DEFAULT_255_2_778
10
17.330699
20
2.5427617
11
17.326499
21
2.5792617
0
LINE
8
DEFAULT_255_2_778
10
17.326499
20
2.5792617
11
17.321199
21
2.6155617
0
LINE
8
DEFAULT_255_2_778
10
17.321199
20
2.6155617
11
17.310599
21
2.6724617
0
LINE
8
DEFAULT_255_2_778
10
17.310599
20
2.6724617
11
17.297099
21
2.7287617
0
LINE
8
DEFAULT_255_2_778
10
17.297099
20
2.7287617
11
17.280499
21
2.7843617
0
LINE
8
DEFAULT_255_2_778
10
17.280499
20
2.7843617
11
17.250799
21
2.8626617
0
LINE
8
DEFAULT_255_2_778
10
17.250799
20
2.8626617
11
17.215099
21
2.9367617
0
LINE
8
DEFAULT_255_2_778
10
17.215099
20
2.9367617
11
17.161699
21
3.0227617
0
LINE
8
DEFAULT_255_2_778
10
17.161699
20
3.0227617
11
17.086999
21
3.1110617
0
LINE
8
DEFAULT_255_2_778
10
17.086999
20
3.1110617
11
17.000499
21
3.1804617
0
LINE
8
DEFAULT_255_2_778
10
17.000499
20
3.1804617
11
16.884399
21
3.2370617
0
LINE
8
DEFAULT_255_2_778
10
16.884399
20
3.2370617
11
16.728299
21
3.2671617
0
LINE
8
DEFAULT_255_2_778
10
16.728299
20
3.2671617
11
16.636499
21
3.2674617
0
LINE
8
DEFAULT_255_2_778
10
16.638599
20
3.0737617
11
16.782499
21
3.0631617
0
LINE
8
DEFAULT_255_2_778
10
16.782499
20
3.0631617
11
16.884899
21
3.0153617
0
LINE
8
DEFAULT_255_2_778
10
16.884899
20
3.0153617
11
16.950799
21
2.9563617
0
LINE
8
DEFAULT_255_2_778
10
16.950799
20
2.9563617
11
17.002899
21
2.8838617
0
LINE
8
DEFAULT_255_2_778
10
17.002899
20
2.8838617
11
17.039699
21
2.8107617
0
LINE
8
DEFAULT_255_2_778
10
17.039699
20
2.8107617
11
17.063199
21
2.7486617
0
LINE
8
DEFAULT_255_2_778
10
17.063199
20
2.7486617
11
17.082499
21
2.6821617
0
LINE
8
DEFAULT_255_2_778
10
17.082499
20
2.6821617
11
17.093399
21
2.6332617
0
LINE
8
DEFAULT_255_2_778
10
17.093399
20
2.6332617
11
17.101899
21
2.5837617
0
LINE
8
DEFAULT_255_2_778
10
17.101899
20
2.5837617
11
17.108199
21
2.5316617
0
LINE
8
DEFAULT_255_2_778
10
17.108199
20
2.5316617
11
17.108199
21
2.2548617
0
LINE
8
DEFAULT_255_2_778
10
17.108199
20
2.2548617
11
17.101899
21
2.2019617
0
LINE
8
DEFAULT_255_2_778
10
17.101899
20
2.2019617
11
17.093699
21
2.1517617
0
LINE
8
DEFAULT_255_2_778
10
17.093699
20
2.1517617
11
17.083099
21
2.1019617
0
LINE
8
DEFAULT_255_2_778
10
17.083099
20
2.1019617
11
17.063499
21
2.0323617
0
LINE
8
DEFAULT_255_2_778
10
17.063499
20
2.0323617
11
17.038899
21
1.9664617
0
LINE
8
DEFAULT_255_2_778
10
17.038899
20
1.9664617
11
16.994999
21
1.8805617
0
LINE
8
DEFAULT_255_2_778
10
16.994999
20
1.8805617
11
16.929899
21
1.7976617
0
LINE
8
DEFAULT_255_2_778
10
16.929899
20
1.7976617
11
16.837299
21
1.7315617
0
LINE
8
DEFAULT_255_2_778
10
16.837299
20
1.7315617
11
16.711599
21
1.6992617
0
LINE
8
DEFAULT_255_2_778
10
16.711599
20
1.6992617
11
16.567699
21
1.7154617
0
LINE
8
DEFAULT_255_2_778
10
16.567699
20
1.7154617
11
16.467099
21
1.7693617
0
LINE
8
DEFAULT_255_2_778
10
16.467099
20
1.7693617
11
16.400999
21
1.8355617
0
LINE
8
DEFAULT_255_2_778
10
16.400999
20
1.8355617
11
16.351499
21
1.9122617
0
LINE
8
DEFAULT_255_2_778
10
16.351499
20
1.9122617
11
16.316799
21
1.9881617
0
LINE
8
DEFAULT_255_2_778
10
16.316799
20
1.9881617
11
16.294099
21
2.0548617
0
LINE
8
DEFAULT_255_2_778
10
16.294099
20
2.0548617
11
16.275799
21
2.1268617
0
LINE
8
DEFAULT_255_2_778
10
16.275799
20
2.1268617
11
16.266299
21
2.1768617
0
LINE
8
DEFAULT_255_2_778
10
16.266299
20
2.1768617
11
16.259199
21
2.2271617
0
LINE
8
DEFAULT_255_2_778
10
16.259199
20
2.2271617
11
16.256299
21
2.2548617
0
LINE
8
DEFAULT_255_2_778
10
16.256299
20
2.2548617
11
16.256299
21
2.5316617
0
LINE
8
DEFAULT_255_2_778
10
16.256299
20
2.5316617
11
16.262599
21
2.5837617
0
LINE
8
DEFAULT_255_2_778
10
16.262599
20
2.5837617
11
16.271099
21
2.6332617
0
LINE
8
DEFAULT_255_2_778
10
16.271099
20
2.6332617
11
16.281899
21
2.6821617
0
LINE
8
DEFAULT_255_2_778
10
16.281899
20
2.6821617
11
16.301799
21
2.7507617
0
LINE
8
DEFAULT_255_2_778
10
16.301799
20
2.7507617
11
16.326599
21
2.8155617
0
LINE
8
DEFAULT_255_2_778
10
16.326599
20
2.8155617
11
16.370799
21
2.8994617
0
LINE
8
DEFAULT_255_2_778
10
16.370799
20
2.8994617
11
16.435599
21
2.9798617
0
LINE
8
DEFAULT_255_2_778
10
16.435599
20
2.9798617
11
16.527999
21
3.0441617
0
LINE
8
DEFAULT_255_2_778
10
16.527999
20
3.0441617
11
16.638599
21
3.0737617
0
LINE
8
DEFAULT_255_2_778
10
12.723299
20
3.2674617
11
12.589099
21
3.2441617
0
LINE
8
DEFAULT_255_2_778
10
12.589099
20
3.2441617
11
12.469799
21
3.1920617
0
LINE
8
DEFAULT_255_2_778
10
12.469799
20
3.1920617
11
12.381699
21
3.1272617
0
LINE
8
DEFAULT_255_2_778
10
12.381699
20
3.1272617
11
12.303599
21
3.0417617
0
LINE
8
DEFAULT_255_2_778
10
12.303599
20
3.0417617
11
12.246199
21
2.9549617
0
LINE
8
DEFAULT_255_2_778
10
12.246199
20
2.9549617
11
12.199399
21
2.8607617
0
LINE
8
DEFAULT_255_2_778
10
12.199399
20
2.8607617
11
12.170799
21
2.7845617
0
LINE
8
DEFAULT_255_2_778
10
12.170799
20
2.7845617
11
12.154099
21
2.7290617
0
LINE
8
DEFAULT_255_2_778
10
12.154099
20
2.7290617
11
12.140599
21
2.6726617
0
LINE
8
DEFAULT_255_2_778
10
12.140599
20
2.6726617
11
12.130099
21
2.6157617
0
LINE
8
DEFAULT_255_2_778
10
12.130099
20
2.6157617
11
12.124799
21
2.5795617
0
LINE
8
DEFAULT_255_2_778
10
12.124799
20
2.5795617
11
12.120499
21
2.5430617
0
LINE
8
DEFAULT_255_2_778
10
12.120499
20
2.5430617
11
12.117399
21
2.5065617
0
LINE
8
DEFAULT_255_2_778
10
12.117399
20
2.5065617
11
12.117099
21
2.2845617
0
LINE
8
DEFAULT_255_2_778
10
12.117099
20
2.2845617
11
12.120299
21
2.2472617
0
LINE
8
DEFAULT_255_2_778
10
12.120299
20
2.2472617
11
12.124499
21
2.2101617
0
LINE
8
DEFAULT_255_2_778
10
12.124499
20
2.2101617
11
12.129799
21
2.1731617
0
LINE
8
DEFAULT_255_2_778
10
12.129799
20
2.1731617
11
12.140399
21
2.1154617
0
LINE
8
DEFAULT_255_2_778
10
12.140399
20
2.1154617
11
12.153599
21
2.0583617
0
LINE
8
DEFAULT_255_2_778
10
12.153599
20
2.0583617
11
12.169999
21
2.0019617
0
LINE
8
DEFAULT_255_2_778
10
12.169999
20
2.0019617
11
12.199099
21
1.9225617
0
LINE
8
DEFAULT_255_2_778
10
12.199099
20
1.9225617
11
12.234299
21
1.8474617
0
LINE
8
DEFAULT_255_2_778
10
12.234299
20
1.8474617
11
12.287499
21
1.7593617
0
LINE
8
DEFAULT_255_2_778
10
12.287499
20
1.7593617
11
12.346199
21
1.6852617
0
LINE
8
DEFAULT_255_2_778
10
12.346199
20
1.6852617
11
12.431399
21
1.6087617
0
LINE
8
DEFAULT_255_2_778
10
12.431399
20
1.6087617
11
12.545699
21
1.5455617
0
LINE
8
DEFAULT_255_2_778
10
12.545699
20
1.5455617
11
12.677199
21
1.5111617
0
LINE
8
DEFAULT_255_2_778
10
12.677199
20
1.5111617
11
12.837799
21
1.5085617
0
LINE
8
DEFAULT_255_2_778
10
12.837799
20
1.5085617
11
12.971999
21
1.5378617
0
LINE
8
DEFAULT_255_2_778
10
12.971999
20
1.5378617
11
13.088899
21
1.5963617
0
LINE
8
DEFAULT_255_2_778
10
13.088899
20
1.5963617
11
13.175699
21
1.6680617
0
LINE
8
DEFAULT_255_2_778
10
13.175699
20
1.6680617
11
13.250599
21
1.7593617
0
LINE
8
DEFAULT_255_2_778
10
13.250599
20
1.7593617
11
13.303499
21
1.8474617
0
LINE
8
DEFAULT_255_2_778
10
13.303499
20
1.8474617
11
13.338699
21
1.9228617
0
LINE
8
DEFAULT_255_2_778
10
13.338699
20
1.9228617
11
13.367799
21
2.0024617
0
LINE
8
DEFAULT_255_2_778
10
13.367799
20
2.0024617
11
13.384199
21
2.0588617
0
LINE
8
DEFAULT_255_2_778
10
13.384199
20
2.0588617
11
13.397399
21
2.1159617
0
LINE
8
DEFAULT_255_2_778
10
13.397399
20
2.1159617
11
13.407999
21
2.1736617
0
LINE
8
DEFAULT_255_2_778
10
13.407999
20
2.1736617
11
13.413299
21
2.2104617
0
LINE
8
DEFAULT_255_2_778
10
13.413299
20
2.2104617
11
13.417499
21
2.2474617
0
LINE
8
DEFAULT_255_2_778
10
13.417499
20
2.2474617
11
13.420699
21
2.2845617
0
LINE
8
DEFAULT_255_2_778
10
13.420699
20
2.2845617
11
13.420699
21
2.5062617
0
LINE
8
DEFAULT_255_2_778
10
13.420699
20
2.5062617
11
13.417499
21
2.5427617
0
LINE
8
DEFAULT_255_2_778
10
13.417499
20
2.5427617
11
13.413299
21
2.5792617
0
LINE
8
DEFAULT_255_2_778
10
13.413299
20
2.5792617
11
13.407999
21
2.6155617
0
LINE
8
DEFAULT_255_2_778
10
13.407999
20
2.6155617
11
13.397399
21
2.6724617
0
LINE
8
DEFAULT_255_2_778
10
13.397399
20
2.6724617
11
13.383899
21
2.7287617
0
LINE
8
DEFAULT_255_2_778
10
13.383899
20
2.7287617
11
13.367299
21
2.7843617
0
LINE
8
DEFAULT_255_2_778
10
13.367299
20
2.7843617
11
13.337599
21
2.8626617
0
LINE
8
DEFAULT_255_2_778
10
13.337599
20
2.8626617
11
13.301899
21
2.9367617
0
LINE
8
DEFAULT_255_2_778
10
13.301899
20
2.9367617
11
13.248499
21
3.0227617
0
LINE
8
DEFAULT_255_2_778
10
13.248499
20
3.0227617
11
13.173799
21
3.1110617
0
LINE
8
DEFAULT_255_2_778
10
13.173799
20
3.1110617
11
13.087299
21
3.1804617
0
LINE
8
DEFAULT_255_2_778
10
13.087299
20
3.1804617
11
12.971199
21
3.2370617
0
LINE
8
DEFAULT_255_2_778
10
12.971199
20
3.2370617
11
12.815099
21
3.2671617
0
LINE
8
DEFAULT_255_2_778
10
12.815099
20
3.2671617
11
12.723299
21
3.2674617
0
LINE
8
DEFAULT_255_2_778
10
12.725399
20
3.0737617
11
12.869299
21
3.0631617
0
LINE
8
DEFAULT_255_2_778
10
12.869299
20
3.0631617
11
12.971699
21
3.0153617
0
LINE
8
DEFAULT_255_2_778
10
12.971699
20
3.0153617
11
13.037599
21
2.9563617
0
LINE
8
DEFAULT_255_2_778
10
13.037599
20
2.9563617
11
13.089699
21
2.8838617
0
LINE
8
DEFAULT_255_2_778
10
13.089699
20
2.8838617
11
13.126499
21
2.8107617
0
LINE
8
DEFAULT_255_2_778
10
13.126499
20
2.8107617
11
13.149999
21
2.7486617
0
LINE
8
DEFAULT_255_2_778
10
13.149999
20
2.7486617
11
13.169299
21
2.6821617
0
LINE
8
DEFAULT_255_2_778
10
13.169299
20
2.6821617
11
13.180199
21
2.6332617
0
LINE
8
DEFAULT_255_2_778
10
13.180199
20
2.6332617
11
13.188699
21
2.5837617
0
LINE
8
DEFAULT_255_2_778
10
13.188699
20
2.5837617
11
13.194999
21
2.5316617
0
LINE
8
DEFAULT_255_2_778
10
13.194999
20
2.5316617
11
13.194999
21
2.2548617
0
LINE
8
DEFAULT_255_2_778
10
13.194999
20
2.2548617
11
13.188699
21
2.2019617
0
LINE
8
DEFAULT_255_2_778
10
13.188699
20
2.2019617
11
13.180499
21
2.1517617
0
LINE
8
DEFAULT_255_2_778
10
13.180499
20
2.1517617
11
13.169899
21
2.1019617
0
LINE
8
DEFAULT_255_2_778
10
13.169899
20
2.1019617
11
13.150299
21
2.0323617
0
LINE
8
DEFAULT_255_2_778
10
13.150299
20
2.0323617
11
13.125699
21
1.9664617
0
LINE
8
DEFAULT_255_2_778
10
13.125699
20
1.9664617
11
13.081799
21
1.8805617
0
LINE
8
DEFAULT_255_2_778
10
13.081799
20
1.8805617
11
13.016699
21
1.7976617
0
LINE
8
DEFAULT_255_2_778
10
13.016699
20
1.7976617
11
12.924099
21
1.7315617
0
LINE
8
DEFAULT_255_2_778
10
12.924099
20
1.7315617
11
12.798399
21
1.6992617
0
LINE
8
DEFAULT_255_2_778
10
12.798399
20
1.6992617
11
12.654499
21
1.7154617
0
LINE
8
DEFAULT_255_2_778
10
12.654499
20
1.7154617
11
12.553899
21
1.7693617
0
LINE
8
DEFAULT_255_2_778
10
12.553899
20
1.7693617
11
12.487799
21
1.8355617
0
LINE
8
DEFAULT_255_2_778
10
12.487799
20
1.8355617
11
12.438299
21
1.9122617
0
LINE
8
DEFAULT_255_2_778
10
12.438299
20
1.9122617
11
12.403599
21
1.9881617
0
LINE
8
DEFAULT_255_2_778
10
12.403599
20
1.9881617
11
12.380899
21
2.0548617
0
LINE
8
DEFAULT_255_2_778
10
12.380899
20
2.0548617
11
12.362599
21
2.1268617
0
LINE
8
DEFAULT_255_2_778
10
12.362599
20
2.1268617
11
12.353099
21
2.1768617
0
LINE
8
DEFAULT_255_2_778
10
12.353099
20
2.1768617
11
12.345999
21
2.2271617
0
LINE
8
DEFAULT_255_2_778
10
12.345999
20
2.2271617
11
12.343099
21
2.2548617
0
LINE
8
DEFAULT_255_2_778
10
12.343099
20
2.2548617
11
12.343099
21
2.5316617
0
LINE
8
DEFAULT_255_2_778
10
12.343099
20
2.5316617
11
12.349399
21
2.5837617
0
LINE
8
DEFAULT_255_2_778
10
12.349399
20
2.5837617
11
12.357899
21
2.6332617
0
LINE
8
DEFAULT_255_2_778
10
12.357899
20
2.6332617
11
12.368699
21
2.6821617
0
LINE
8
DEFAULT_255_2_778
10
12.368699
20
2.6821617
11
12.388599
21
2.7507617
0
LINE
8
DEFAULT_255_2_778
10
12.388599
20
2.7507617
11
12.413399
21
2.8155617
0
LINE
8
DEFAULT_255_2_778
10
12.413399
20
2.8155617
11
12.457599
21
2.8994617
0
LINE
8
DEFAULT_255_2_778
10
12.457599
20
2.8994617
11
12.522399
21
2.9798617
0
LINE
8
DEFAULT_255_2_778
10
12.522399
20
2.9798617
11
12.614799
21
3.0441617
0
LINE
8
DEFAULT_255_2_778
10
12.614799
20
3.0441617
11
12.725399
21
3.0737617
0
LINE
8
DEFAULT_255_2_778
10
9.6654752
20
1.549815
11
9.5262752
21
1.543715
0
LINE
8
DEFAULT_255_2_778
10
9.5262752
20
1.543715
11
8.8888752
21
1.543715
0
LINE
8
DEFAULT_255_2_778
10
8.8888752
20
1.543715
11
8.8888752
21
3.243615
0
LINE
8
DEFAULT_255_2_778
10
8.8888752
20
3.243615
11
9.6445752
21
3.231215
0
LINE
8
DEFAULT_255_2_778
10
9.6445752
20
3.231215
11
9.8720752
21
3.159215
0
LINE
8
DEFAULT_255_2_778
10
9.8720752
20
3.159215
11
9.9678752
21
3.088015
0
LINE
8
DEFAULT_255_2_778
10
9.9678752
20
3.088015
11
10.0138752
21
3.026415
0
LINE
8
DEFAULT_255_2_778
10
10.0138752
20
3.026415
11
10.0395752
21
2.967915
0
LINE
8
DEFAULT_255_2_778
10
10.0395752
20
2.967915
11
10.0530752
21
2.917715
0
LINE
8
DEFAULT_255_2_778
10
10.0530752
20
2.917715
11
10.0591752
21
2.878815
0
LINE
8
DEFAULT_255_2_778
10
10.0591752
20
2.878815
11
10.0583752
21
2.757615
0
LINE
8
DEFAULT_255_2_778
10
10.0583752
20
2.757615
11
10.0509752
21
2.717415
0
LINE
8
DEFAULT_255_2_778
10
10.0509752
20
2.717415
11
10.0345752
21
2.666015
0
LINE
8
DEFAULT_255_2_778
10
10.0345752
20
2.666015
11
9.9980752
21
2.599415
0
LINE
8
DEFAULT_255_2_778
10
9.9980752
20
2.599415
11
9.9186752
21
2.516315
0
LINE
8
DEFAULT_255_2_778
10
9.9186752
20
2.516315
11
9.7879752
21
2.446715
0
LINE
8
DEFAULT_255_2_778
10
9.7879752
20
2.446715
11
9.7625752
21
2.439515
0
LINE
8
DEFAULT_255_2_778
10
9.7625752
20
2.439515
11
9.9165752
21
2.381615
0
LINE
8
DEFAULT_255_2_778
10
9.9165752
20
2.381615
11
10.0189752
21
2.302815
0
LINE
8
DEFAULT_255_2_778
10
10.0189752
20
2.302815
11
10.0723752
21
2.229515
0
LINE
8
DEFAULT_255_2_778
10
10.0723752
20
2.229515
11
10.1030752
21
2.158015
0
LINE
8
DEFAULT_255_2_778
10
10.1030752
20
2.158015
11
10.1144752
21
2.114615
0
LINE
8
DEFAULT_255_2_778
10
10.1144752
20
2.114615
11
10.1199752
21
2.083415
0
LINE
8
DEFAULT_255_2_778
10
10.1199752
20
2.083415
11
10.1194752
21
1.918315
0
LINE
8
DEFAULT_255_2_778
10
10.1194752
20
1.918315
11
10.1117752
21
1.876315
0
LINE
8
DEFAULT_255_2_778
10
10.1117752
20
1.876315
11
10.0959752
21
1.822315
0
LINE
8
DEFAULT_255_2_778
10
10.0959752
20
1.822315
11
10.0660752
21
1.759615
0
LINE
8
DEFAULT_255_2_778
10
10.0660752
20
1.759615
11
10.0070752
21
1.687315
0
LINE
8
DEFAULT_255_2_778
10
10.0070752
20
1.687315
11
9.8588752
21
1.594515
0
LINE
8
DEFAULT_255_2_778
10
9.8588752
20
1.594515
11
9.6654752
21
1.549815
0
LINE
8
DEFAULT_255_2_778
10
9.5990752
20
1.740515
11
9.5058752
21
1.736315
0
LINE
8
DEFAULT_255_2_778
10
9.5058752
20
1.736315
11
9.1214752
21
1.736315
0
LINE
8
DEFAULT_255_2_778
10
9.1214752
20
1.736315
11
9.1214752
21
2.327915
0
LINE
8
DEFAULT_255_2_778
10
9.1214752
20
2.327915
11
9.6461752
21
2.312015
0
LINE
8
DEFAULT_255_2_778
10
9.6461752
20
2.312015
11
9.8085752
21
2.237115
0
LINE
8
DEFAULT_255_2_778
10
9.8085752
20
2.237115
11
9.8593752
21
2.175215
0
LINE
8
DEFAULT_255_2_778
10
9.8593752
20
2.175215
11
9.8818752
21
2.116515
0
LINE
8
DEFAULT_255_2_778
10
9.8818752
20
2.116515
11
9.8890752
21
2.080515
0
LINE
8
DEFAULT_255_2_778
10
9.8890752
20
2.080515
11
9.8868752
21
1.961715
0
LINE
8
DEFAULT_255_2_778
10
9.8868752
20
1.961715
11
9.8744752
21
1.914115
0
LINE
8
DEFAULT_255_2_778
10
9.8744752
20
1.914115
11
9.8421752
21
1.850115
0
LINE
8
DEFAULT_255_2_778
10
9.8421752
20
1.850115
11
9.7710752
21
1.786615
0
LINE
8
DEFAULT_255_2_778
10
9.7710752
20
1.786615
11
9.6175752
21
1.742115
0
LINE
8
DEFAULT_255_2_778
10
9.6175752
20
1.742115
11
9.5990752
21
1.740515
0
LINE
8
DEFAULT_255_2_778
10
9.5352752
20
2.529215
11
9.4532752
21
2.525515
0
LINE
8
DEFAULT_255_2_778
10
9.4532752
20
2.525515
11
9.1214752
21
2.525515
0
LINE
8
DEFAULT_255_2_778
10
9.1214752
20
2.525515
11
9.1214752
21
3.050715
0
LINE
8
DEFAULT_255_2_778
10
9.1214752
20
3.050715
11
9.6191752
21
3.032215
0
LINE
8
DEFAULT_255_2_778
10
9.6191752
20
3.032215
11
9.7649752
21
2.955215
0
LINE
8
DEFAULT_255_2_778
10
9.7649752
20
2.955215
11
9.8096752
21
2.889315
0
LINE
8
DEFAULT_255_2_778
10
9.8096752
20
2.889315
11
9.8239752
21
2.843815
0
LINE
8
DEFAULT_255_2_778
10
9.8239752
20
2.843815
11
9.8286752
21
2.811815
0
LINE
8
DEFAULT_255_2_778
10
9.8286752
20
2.811815
11
9.8268752
21
2.739115
0
LINE
8
DEFAULT_255_2_778
10
9.8268752
20
2.739115
11
9.8180752
21
2.700215
0
LINE
8
DEFAULT_255_2_778
10
9.8180752
20
2.700215
11
9.7913752
21
2.644315
0
LINE
8
DEFAULT_255_2_778
10
9.7913752
20
2.644315
11
9.6567752
21
2.553315
0
LINE
8
DEFAULT_255_2_778
10
9.6567752
20
2.553315
11
9.5352752
21
2.529215
0
LINE
8
DEFAULT_255_2_778
10
15.9865752
20
119.210815
11
15.8127752
21
119.215815
0
LINE
8
DEFAULT_255_2_778
10
15.8127752
20
119.215815
11
15.6889752
21
119.188515
0
LINE
8
DEFAULT_255_2_778
10
15.6889752
20
119.188515
11
15.5849752
21
119.134815
0
LINE
8
DEFAULT_255_2_778
10
15.5849752
20
119.134815
11
15.4603752
21
118.998015
0
LINE
8
DEFAULT_255_2_778
10
15.4603752
20
118.998015
11
15.4182752
21
118.894315
0
LINE
8
DEFAULT_255_2_778
10
15.4182752
20
118.894315
11
15.4060752
21
118.836915
0
LINE
8
DEFAULT_255_2_778
10
15.4060752
20
118.836915
11
15.4010752
21
118.795915
0
LINE
8
DEFAULT_255_2_778
10
15.4010752
20
118.795915
11
15.3986752
21
118.734515
0
LINE
8
DEFAULT_255_2_778
10
15.3986752
20
118.734515
11
15.5971752
21
118.734515
0
LINE
8
DEFAULT_255_2_778
10
15.5971752
20
118.734515
11
15.5989752
21
118.777915
0
LINE
8
DEFAULT_255_2_778
10
15.5989752
20
118.777915
11
15.6034752
21
118.810415
0
LINE
8
DEFAULT_255_2_778
10
15.6034752
20
118.810415
11
15.6161752
21
118.858915
0
LINE
8
DEFAULT_255_2_778
10
15.6161752
20
118.858915
11
15.6582752
21
118.936415
0
LINE
8
DEFAULT_255_2_778
10
15.6582752
20
118.936415
11
15.7685752
21
119.017315
0
LINE
8
DEFAULT_255_2_778
10
15.7685752
20
119.017315
11
15.9815752
21
119.021615
0
LINE
8
DEFAULT_255_2_778
10
15.9815752
20
119.021615
11
16.1008752
21
118.944115
0
LINE
8
DEFAULT_255_2_778
10
16.1008752
20
118.944115
11
16.1419752
21
118.873715
0
LINE
8
DEFAULT_255_2_778
10
16.1419752
20
118.873715
11
16.1556752
21
118.823415
0
LINE
8
DEFAULT_255_2_778
10
16.1556752
20
118.823415
11
16.1596752
21
118.795615
0
LINE
8
DEFAULT_255_2_778
10
16.1596752
20
118.795615
11
16.1585752
21
118.726015
0
LINE
8
DEFAULT_255_2_778
10
16.1585752
20
118.726015
11
16.1532752
21
118.694015
0
LINE
8
DEFAULT_255_2_778
10
16.1532752
20
118.694015
11
16.1408752
21
118.646715
0
LINE
8
DEFAULT_255_2_778
10
16.1408752
20
118.646715
11
16.1138752
21
118.577615
0
LINE
8
DEFAULT_255_2_778
10
16.1138752
20
118.577615
11
16.0670752
21
118.489215
0
LINE
8
DEFAULT_255_2_778
10
16.0670752
20
118.489215
11
15.9876752
21
118.371015
0
LINE
8
DEFAULT_255_2_778
10
15.9876752
20
118.371015
11
15.8267752
21
118.172815
0
LINE
8
DEFAULT_255_2_778
10
15.8267752
20
118.172815
11
15.5939752
21
117.929915
0
LINE
8
DEFAULT_255_2_778
10
15.5939752
20
117.929915
11
15.3357752
21
117.697115
0
LINE
8
DEFAULT_255_2_778
10
15.3357752
20
117.697115
11
15.3357752
21
117.493315
0
LINE
8
DEFAULT_255_2_778
10
15.3357752
20
117.493315
11
16.3908752
21
117.493315
0
LINE
8
DEFAULT_255_2_778
10
16.3908752
20
117.493315
11
16.3908752
21
117.678815
0
LINE
8
DEFAULT_255_2_778
10
16.3908752
20
117.678815
11
15.5852752
21
117.678815
0
LINE
8
DEFAULT_255_2_778
10
15.5852752
20
117.678815
11
15.9466752
21
118.009315
0
LINE
8
DEFAULT_255_2_778
10
15.9466752
20
118.009315
11
16.1059752
21
118.184215
0
LINE
8
DEFAULT_255_2_778
10
16.1059752
20
118.184215
11
16.1876752
21
118.294515
0
LINE
8
DEFAULT_255_2_778
10
16.1876752
20
118.294515
11
16.2416752
21
118.382315
0
LINE
8
DEFAULT_255_2_778
10
16.2416752
20
118.382315
11
16.2937752
21
118.487615
0
LINE
8
DEFAULT_255_2_778
10
16.2937752
20
118.487615
11
16.3202752
21
118.555615
0
LINE
8
DEFAULT_255_2_778
10
16.3202752
20
118.555615
11
16.3408752
21
118.625215
0
LINE
8
DEFAULT_255_2_778
10
16.3408752
20
118.625215
11
16.3506752
21
118.672315
0
LINE
8
DEFAULT_255_2_778
10
16.3506752
20
118.672315
11
16.3482752
21
118.885315
0
LINE
8
DEFAULT_255_2_778
10
16.3482752
20
118.885315
11
16.3387752
21
118.921615
0
LINE
8
DEFAULT_255_2_778
10
16.3387752
20
118.921615
11
16.3202752
21
118.971615
0
LINE
8
DEFAULT_255_2_778
10
16.3202752
20
118.971615
11
16.2855752
21
119.033215
0
LINE
8
DEFAULT_255_2_778
10
16.2855752
20
119.033215
11
16.2276752
21
119.098615
0
LINE
8
DEFAULT_255_2_778
10
16.2276752
20
119.098615
11
16.1366752
21
119.162115
0
LINE
8
DEFAULT_255_2_778
10
16.1366752
20
119.162115
11
16.0080752
21
119.206515
0
LINE
8
DEFAULT_255_2_778
10
16.0080752
20
119.206515
11
15.9868752
21
119.210515
0
LINE
8
DEFAULT_255_2_778
10
8.8621752
20
119.184015
11
8.6885752
21
119.184015
0
LINE
8
DEFAULT_255_2_778
10
8.6885752
20
119.184015
11
8.4544752
21
118.991215
0
LINE
8
DEFAULT_255_2_778
10
8.4544752
20
118.991215
11
8.3221752
21
118.922415
0
LINE
8
DEFAULT_255_2_778
10
8.3221752
20
118.922415
11
8.3221752
21
118.710415
0
LINE
8
DEFAULT_255_2_778
10
8.3221752
20
118.710415
11
8.6242752
21
118.891915
0
LINE
8
DEFAULT_255_2_778
10
8.6242752
20
118.891915
11
8.6571752
21
118.921315
0
LINE
8
DEFAULT_255_2_778
10
8.6571752
20
118.921315
11
8.6571752
21
117.493615
0
LINE
8
DEFAULT_255_2_778
10
8.6571752
20
117.493615
11
8.8621752
21
117.493615
0
LINE
8
DEFAULT_255_2_778
10
8.8621752
20
117.493615
11
8.8621752
21
119.184015
0
LINE
8
DEFAULT_255_2_778
10
11.6892752
20
118.678115
11
11.9146752
21
118.678115
0
LINE
8
DEFAULT_255_2_778
10
11.9146752
20
118.678115
11
11.5146752
21
118.110615
0
LINE
8
DEFAULT_255_2_778
10
11.5146752
20
118.110615
11
11.9321752
21
117.493915
0
LINE
8
DEFAULT_255_2_778
10
11.9321752
20
117.493915
11
11.6836752
21
117.493915
0
LINE
8
DEFAULT_255_2_778
10
11.6836752
20
117.493915
11
11.3778752
21
117.973315
0
LINE
8
DEFAULT_255_2_778
10
11.3778752
20
117.973315
11
11.0740752
21
117.493915
0
LINE
8
DEFAULT_255_2_778
10
11.0740752
20
117.493915
11
10.8441752
21
117.493915
0
LINE
8
DEFAULT_255_2_778
10
10.8441752
20
117.493915
11
11.2735752
21
118.099815
0
LINE
8
DEFAULT_255_2_778
10
11.2735752
20
118.099815
11
10.8735752
21
118.678115
0
LINE
8
DEFAULT_255_2_778
10
10.8735752
20
118.678115
11
11.1314752
21
118.678115
0
LINE
8
DEFAULT_255_2_778
10
11.1314752
20
118.678115
11
11.4079752
21
118.240815
0
LINE
8
DEFAULT_255_2_778
10
11.4079752
20
118.240815
11
11.6887752
21
118.678115
0
LINE
8
DEFAULT_255_2_778
10
6.8399752
20
119.193815
11
7.0492752
21
119.193815
0
LINE
8
DEFAULT_255_2_778
10
7.0492752
20
119.193815
11
7.0492752
21
117.493915
0
LINE
8
DEFAULT_255_2_778
10
7.0492752
20
117.493915
11
6.8399752
21
117.493915
0
LINE
8
DEFAULT_255_2_778
10
6.8399752
20
117.493915
11
6.8399752
21
119.193815
0
LINE
8
DEFAULT_255_2_778
10
14.5300752
20
119.026115
11
14.6689752
21
118.979815
0
LINE
8
DEFAULT_255_2_778
10
14.6689752
20
118.979815
11
14.7472752
21
118.915515
0
LINE
8
DEFAULT_255_2_778
10
14.7472752
20
118.915515
11
14.7806752
21
118.862015
0
LINE
8
DEFAULT_255_2_778
10
14.7806752
20
118.862015
11
14.7951752
21
118.821615
0
LINE
8
DEFAULT_255_2_778
10
14.7951752
20
118.821615
11
14.8020752
21
118.788015
0
LINE
8
DEFAULT_255_2_778
10
14.8020752
20
118.788015
11
14.8047752
21
118.742715
0
LINE
8
DEFAULT_255_2_778
10
14.8047752
20
118.742715
11
15.0192752
21
118.742715
0
LINE
8
DEFAULT_255_2_778
10
15.0192752
20
118.742715
11
15.0176752
21
118.793815
0
LINE
8
DEFAULT_255_2_778
10
15.0176752
20
118.793815
11
15.0137752
21
118.827915
0
LINE
8
DEFAULT_255_2_778
10
15.0137752
20
118.827915
11
15.0071752
21
118.861815
0
LINE
8
DEFAULT_255_2_778
10
15.0071752
20
118.861815
11
14.9925752
21
118.911815
0
LINE
8
DEFAULT_255_2_778
10
14.9925752
20
118.911815
11
14.9719752
21
118.960715
0
LINE
8
DEFAULT_255_2_778
10
14.9719752
20
118.960715
11
14.9351752
21
119.020815
0
LINE
8
DEFAULT_255_2_778
10
14.9351752
20
119.020815
11
14.8734752
21
119.086715
0
LINE
8
DEFAULT_255_2_778
10
14.8734752
20
119.086715
11
14.7750752
21
119.153115
0
LINE
8
DEFAULT_255_2_778
10
14.7750752
20
119.153115
11
14.6292752
21
119.206315
0
LINE
8
DEFAULT_255_2_778
10
14.6292752
20
119.206315
11
14.3916752
21
119.226115
0
LINE
8
DEFAULT_255_2_778
10
14.3916752
20
119.226115
11
14.2043752
21
119.192015
0
LINE
8
DEFAULT_255_2_778
10
14.2043752
20
119.192015
11
14.0808752
21
119.132715
0
LINE
8
DEFAULT_255_2_778
10
14.0808752
20
119.132715
11
13.9876752
21
119.057615
0
LINE
8
DEFAULT_255_2_778
10
13.9876752
20
119.057615
11
13.9106752
21
118.964415
0
LINE
8
DEFAULT_255_2_778
10
13.9106752
20
118.964415
11
13.8606752
21
118.880315
0
LINE
8
DEFAULT_255_2_778
10
13.8606752
20
118.880315
11
13.8215752
21
118.790615
0
LINE
8
DEFAULT_255_2_778
10
13.8215752
20
118.790615
11
13.7963752
21
118.713315
0
LINE
8
DEFAULT_255_2_778
10
13.7963752
20
118.713315
11
13.7831752
21
118.660715
0
LINE
8
DEFAULT_255_2_778
10
13.7831752
20
118.660715
11
13.7725752
21
118.607515
0
LINE
8
DEFAULT_255_2_778
10
13.7725752
20
118.607515
11
13.7630752
21
118.545915
0
LINE
8
DEFAULT_255_2_778
10
13.7630752
20
118.545915
11
13.7588752
21
118.510915
0
LINE
8
DEFAULT_255_2_778
10
13.7588752
20
118.510915
11
13.7556752
21
118.476015
0
LINE
8
DEFAULT_255_2_778
10
13.7556752
20
118.476015
11
13.7556752
21
118.195515
0
LINE
8
DEFAULT_255_2_778
10
13.7556752
20
118.195515
11
13.7588752
21
118.160915
0
LINE
8
DEFAULT_255_2_778
10
13.7588752
20
118.160915
11
13.7630752
21
118.126215
0
LINE
8
DEFAULT_255_2_778
10
13.7630752
20
118.126215
11
13.7725752
21
118.065115
0
LINE
8
DEFAULT_255_2_778
10
13.7725752
20
118.065115
11
13.7834752
21
118.012515
0
LINE
8
DEFAULT_255_2_778
10
13.7834752
20
118.012515
11
13.7966752
21
117.960315
0
LINE
8
DEFAULT_255_2_778
10
13.7966752
20
117.960315
11
13.8217752
21
117.883915
0
LINE
8
DEFAULT_255_2_778
10
13.8217752
20
117.883915
11
13.8503752
21
117.816915
0
LINE
8
DEFAULT_255_2_778
10
13.8503752
20
117.816915
11
13.8979752
21
117.732515
0
LINE
8
DEFAULT_255_2_778
10
13.8979752
20
117.732515
11
13.9744752
21
117.636515
0
LINE
8
DEFAULT_255_2_778
10
13.9744752
20
117.636515
11
14.0646752
21
117.560815
0
LINE
8
DEFAULT_255_2_778
10
14.0646752
20
117.560815
11
14.2043752
21
117.493315
0
LINE
8
DEFAULT_255_2_778
10
14.2043752
20
117.493315
11
14.3631752
21
117.462415
0
LINE
8
DEFAULT_255_2_778
10
14.3631752
20
117.462415
11
14.5562752
21
117.467915
0
LINE
8
DEFAULT_255_2_778
10
14.5562752
20
117.467915
11
14.7105752
21
117.509215
0
LINE
8
DEFAULT_255_2_778
10
14.7105752
20
117.509215
11
14.8393752
21
117.582215
0
LINE
8
DEFAULT_255_2_778
10
14.8393752
20
117.582215
11
14.9184752
21
117.657115
0
LINE
8
DEFAULT_255_2_778
10
14.9184752
20
117.657115
11
14.9586752
21
117.715315
0
LINE
8
DEFAULT_255_2_778
10
14.9586752
20
117.715315
11
14.9885752
21
117.778815
0
LINE
8
DEFAULT_255_2_778
10
14.9885752
20
117.778815
11
15.0049752
21
117.831715
0
LINE
8
DEFAULT_255_2_778
10
15.0049752
20
117.831715
11
15.0126752
21
117.868815
0
LINE
8
DEFAULT_255_2_778
10
15.0126752
20
117.868815
11
15.0153752
21
117.887615
0
LINE
8
DEFAULT_255_2_778
10
15.0153752
20
117.887615
11
15.0171752
21
117.906415
0
LINE
8
DEFAULT_255_2_778
10
15.0171752
20
117.906415
11
15.0187752
21
117.943915
0
LINE
8
DEFAULT_255_2_778
10
15.0187752
20
117.943915
11
14.8041752
21
117.943915
0
LINE
8
DEFAULT_255_2_778
10
14.8041752
20
117.943915
11
14.8007752
21
117.917715
0
LINE
8
DEFAULT_255_2_778
10
14.8007752
20
117.917715
11
14.7917752
21
117.878815
0
LINE
8
DEFAULT_255_2_778
10
14.7917752
20
117.878815
11
14.7737752
21
117.831215
0
LINE
8
DEFAULT_255_2_778
10
14.7737752
20
117.831215
11
14.7345752
21
117.769815
0
LINE
8
DEFAULT_255_2_778
10
14.7345752
20
117.769815
11
14.6478752
21
117.700015
0
LINE
8
DEFAULT_255_2_778
10
14.6478752
20
117.700015
11
14.5345752
21
117.660815
0
LINE
8
DEFAULT_255_2_778
10
14.5345752
20
117.660815
11
14.3517752
21
117.661915
0
LINE
8
DEFAULT_255_2_778
10
14.3517752
20
117.661915
11
14.2236752
21
117.709515
0
LINE
8
DEFAULT_255_2_778
10
14.2236752
20
117.709515
11
14.1411752
21
117.774915
0
LINE
8
DEFAULT_255_2_778
10
14.1411752
20
117.774915
11
14.0747752
21
117.863515
0
LINE
8
DEFAULT_255_2_778
10
14.0747752
20
117.863515
11
14.0350752
21
117.943415
0
LINE
8
DEFAULT_255_2_778
10
14.0350752
20
117.943415
11
14.0104752
21
118.012515
0
LINE
8
DEFAULT_255_2_778
10
14.0104752
20
118.012515
11
13.9924752
21
118.081015
0
LINE
8
DEFAULT_255_2_778
10
13.9924752
20
118.081015
11
13.9834752
21
118.127615
0
LINE
8
DEFAULT_255_2_778
10
13.9834752
20
118.127615
11
13.9762752
21
118.174415
0
LINE
8
DEFAULT_255_2_778
10
13.9762752
20
118.174415
11
13.9704752
21
118.228115
0
LINE
8
DEFAULT_255_2_778
10
13.9704752
20
118.228115
11
13.9725752
21
118.509115
0
LINE
8
DEFAULT_255_2_778
10
13.9725752
20
118.509115
11
13.9802752
21
118.565215
0
LINE
8
DEFAULT_255_2_778
10
13.9802752
20
118.565215
11
13.9919752
21
118.624215
0
LINE
8
DEFAULT_255_2_778
10
13.9919752
20
118.624215
11
14.0077752
21
118.682115
0
LINE
8
DEFAULT_255_2_778
10
14.0077752
20
118.682115
11
14.0376752
21
118.760215
0
LINE
8
DEFAULT_255_2_778
10
14.0376752
20
118.760215
11
14.0908752
21
118.852515
0
LINE
8
DEFAULT_255_2_778
10
14.0908752
20
118.852515
11
14.1741752
21
118.941115
0
LINE
8
DEFAULT_255_2_778
10
14.1741752
20
118.941115
11
14.3009752
21
119.007815
0
LINE
8
DEFAULT_255_2_778
10
14.3009752
20
119.007815
11
14.5001752
21
119.028215
0
LINE
8
DEFAULT_255_2_778
10
14.5001752
20
119.028215
11
14.5295752
21
119.025015
0
LINE
8
DEFAULT_255_2_778
10
19.2306752
20
119.193815
11
19.4573752
21
119.193815
0
LINE
8
DEFAULT_255_2_778
10
19.4573752
20
119.193815
11
18.8501752
21
117.493915
0
LINE
8
DEFAULT_255_2_778
10
18.8501752
20
117.493915
11
18.6160752
21
117.493915
0
LINE
8
DEFAULT_255_2_778
10
18.6160752
20
117.493915
11
18.0088752
21
119.193815
0
LINE
8
DEFAULT_255_2_778
10
18.0088752
20
119.193815
11
18.2355752
21
119.193815
0
LINE
8
DEFAULT_255_2_778
10
18.2355752
20
119.193815
11
18.7364752
21
117.716715
0
LINE
8
DEFAULT_255_2_778
10
18.7364752
20
117.716715
11
19.2309752
21
119.193815
0
LINE
8
DEFAULT_255_2_778
10
5.8729646
20
119.1853739
11
6.0417646
21
119.1475739
0
LINE
8
DEFAULT_255_2_778
10
6.0417646
20
119.1475739
11
6.1713646
21
119.0853739
0
LINE
8
DEFAULT_255_2_778
10
6.1713646
20
119.0853739
11
6.2726646
21
119.0027739
0
LINE
8
DEFAULT_255_2_778
10
6.2726646
20
119.0027739
11
6.3433646
21
118.9186739
0
LINE
8
DEFAULT_255_2_778
10
6.3433646
20
118.9186739
11
6.3999646
21
118.8247739
0
LINE
8
DEFAULT_255_2_778
10
6.3999646
20
118.8247739
11
6.4322646
21
118.7514739
0
LINE
8
DEFAULT_255_2_778
10
6.4322646
20
118.7514739
11
6.4507646
21
118.6963739
0
LINE
8
DEFAULT_255_2_778
10
6.4507646
20
118.6963739
11
6.4653646
21
118.6403739
0
LINE
8
DEFAULT_255_2_778
10
6.4653646
20
118.6403739
11
6.4764646
21
118.5831739
0
LINE
8
DEFAULT_255_2_778
10
6.4764646
20
118.5831739
11
6.4846646
21
118.5252739
0
LINE
8
DEFAULT_255_2_778
10
6.4846646
20
118.5252739
11
6.4835646
21
118.1124739
0
LINE
8
DEFAULT_255_2_778
10
6.4835646
20
118.1124739
11
6.4745646
21
118.0545739
0
LINE
8
DEFAULT_255_2_778
10
6.4745646
20
118.0545739
11
6.4623646
21
117.9976739
0
LINE
8
DEFAULT_255_2_778
10
6.4623646
20
117.9976739
11
6.4462646
21
117.9418739
0
LINE
8
DEFAULT_255_2_778
10
6.4462646
20
117.9418739
11
6.4258646
21
117.8873739
0
LINE
8
DEFAULT_255_2_778
10
6.4258646
20
117.8873739
11
6.3832646
21
117.8026739
0
LINE
8
DEFAULT_255_2_778
10
6.3832646
20
117.8026739
11
6.3197646
21
117.7129739
0
LINE
8
DEFAULT_255_2_778
10
6.3197646
20
117.7129739
11
6.2422646
21
117.6356739
0
LINE
8
DEFAULT_255_2_778
10
6.2422646
20
117.6356739
11
6.1499646
21
117.5735739
0
LINE
8
DEFAULT_255_2_778
10
6.1499646
20
117.5735739
11
6.0120646
21
117.5213739
0
LINE
8
DEFAULT_255_2_778
10
6.0120646
20
117.5213739
11
5.7665646
21
117.4936739
0
LINE
8
DEFAULT_255_2_778
10
5.7665646
20
117.4936739
11
5.2405646
21
117.4936739
0
LINE
8
DEFAULT_255_2_778
10
5.2405646
20
117.4936739
11
5.2405646
21
119.1935739
0
LINE
8
DEFAULT_255_2_778
10
5.2405646
20
119.1935739
11
5.8729646
21
119.1853739
0
LINE
8
DEFAULT_255_2_778
10
5.8329646
20
118.9945739
11
5.9890646
21
118.9533739
0
LINE
8
DEFAULT_255_2_778
10
5.9890646
20
118.9533739
11
6.0914646
21
118.8892739
0
LINE
8
DEFAULT_255_2_778
10
6.0914646
20
118.8892739
11
6.1721646
21
118.8011739
0
LINE
8
DEFAULT_255_2_778
10
6.1721646
20
118.8011739
11
6.2160646
21
118.7276739
0
LINE
8
DEFAULT_255_2_778
10
6.2160646
20
118.7276739
11
6.2409646
21
118.6696739
0
LINE
8
DEFAULT_255_2_778
10
6.2409646
20
118.6696739
11
6.2549646
21
118.6260739
0
LINE
8
DEFAULT_255_2_778
10
6.2549646
20
118.6260739
11
6.2658646
21
118.5813739
0
LINE
8
DEFAULT_255_2_778
10
6.2658646
20
118.5813739
11
6.2740646
21
118.5360739
0
LINE
8
DEFAULT_255_2_778
10
6.2740646
20
118.5360739
11
6.2798646
21
118.4902739
0
LINE
8
DEFAULT_255_2_778
10
6.2798646
20
118.4902739
11
6.2777646
21
118.1860739
0
LINE
8
DEFAULT_255_2_778
10
6.2777646
20
118.1860739
11
6.2703646
21
118.1296739
0
LINE
8
DEFAULT_255_2_778
10
6.2703646
20
118.1296739
11
6.2618646
21
118.0830739
0
LINE
8
DEFAULT_255_2_778
10
6.2618646
20
118.0830739
11
6.2509646
21
118.0370739
0
LINE
8
DEFAULT_255_2_778
10
6.2509646
20
118.0370739
11
6.2314646
21
117.9754739
0
LINE
8
DEFAULT_255_2_778
10
6.2314646
20
117.9754739
11
6.2033646
21
117.9119739
0
LINE
8
DEFAULT_255_2_778
10
6.2033646
20
117.9119739
11
6.1573646
21
117.8420739
0
LINE
8
DEFAULT_255_2_778
10
6.1573646
20
117.8420739
11
6.0885646
21
117.7761739
0
LINE
8
DEFAULT_255_2_778
10
6.0885646
20
117.7761739
11
5.9713646
21
117.7161739
0
LINE
8
DEFAULT_255_2_778
10
5.9713646
20
117.7161739
11
5.8109646
21
117.6875739
0
LINE
8
DEFAULT_255_2_778
10
5.8109646
20
117.6875739
11
5.4500646
21
117.6864739
0
LINE
8
DEFAULT_255_2_778
10
5.4500646
20
117.6864739
11
5.4500646
21
119.0009739
0
LINE
8
DEFAULT_255_2_778
10
5.4500646
20
119.0009739
11
5.8329646
21
118.9945739
0
LINE
8
DEFAULT_255_2_778
10
10.1732542
20
118.4162875
11
10.3023542
21
118.3678875
0
LINE
8
DEFAULT_255_2_778
10
10.3023542
20
118.3678875
11
10.3685542
21
118.2947875
0
LINE
8
DEFAULT_255_2_778
10
10.3685542
20
118.2947875
11
10.4015542
21
118.2296875
0
LINE
8
DEFAULT_255_2_778
10
10.4015542
20
118.2296875
11
10.4174542
21
118.1794875
0
LINE
8
DEFAULT_255_2_778
10
10.4174542
20
118.1794875
11
10.4254542
21
118.1405875
0
LINE
8
DEFAULT_255_2_778
10
10.4254542
20
118.1405875
11
10.4293542
21
118.1111875
0
LINE
8
DEFAULT_255_2_778
10
10.4293542
20
118.1111875
11
10.4288542
21
117.9590875
0
LINE
8
DEFAULT_255_2_778
10
10.4288542
20
117.9590875
11
10.4217542
21
117.9161875
0
LINE
8
DEFAULT_255_2_778
10
10.4217542
20
117.9161875
11
10.4052542
21
117.8576875
0
LINE
8
DEFAULT_255_2_778
10
10.4052542
20
117.8576875
11
10.3695542
21
117.7854875
0
LINE
8
DEFAULT_255_2_778
10
10.3695542
20
117.7854875
11
10.3015542
21
117.7095875
0
LINE
8
DEFAULT_255_2_778
10
10.3015542
20
117.7095875
11
10.1915542
21
117.6573875
0
LINE
8
DEFAULT_255_2_778
10
10.1915542
20
117.6573875
11
10.0232542
21
117.6573875
0
LINE
8
DEFAULT_255_2_778
10
10.0232542
20
117.6573875
11
9.9126542
21
117.7108875
0
LINE
8
DEFAULT_255_2_778
10
9.9126542
20
117.7108875
11
9.8451542
21
117.7867875
0
LINE
8
DEFAULT_255_2_778
10
9.8451542
20
117.7867875
11
9.8131542
21
117.8494875
0
LINE
8
DEFAULT_255_2_778
10
9.8131542
20
117.8494875
11
9.7964542
21
117.9023875
0
LINE
8
DEFAULT_255_2_778
10
9.7964542
20
117.9023875
11
9.7880542
21
117.9447875
0
LINE
8
DEFAULT_255_2_778
10
9.7880542
20
117.9447875
11
9.7896542
21
118.1341875
0
LINE
8
DEFAULT_255_2_778
10
9.7896542
20
118.1341875
11
9.8017542
21
118.1839875
0
LINE
8
DEFAULT_255_2_778
10
9.8017542
20
118.1839875
11
9.8255542
21
118.2413875
0
LINE
8
DEFAULT_255_2_778
10
9.8255542
20
118.2413875
11
9.8808542
21
118.3180875
0
LINE
8
DEFAULT_255_2_778
10
9.8808542
20
118.3180875
11
9.9835542
21
118.3889875
0
LINE
8
DEFAULT_255_2_778
10
9.9835542
20
118.3889875
11
10.1732542
21
118.4162875
0
LINE
8
DEFAULT_255_2_778
10
10.2513542
20
119.2110875
11
10.0534542
21
119.2123875
0
LINE
8
DEFAULT_255_2_778
10
10.0534542
20
119.2123875
11
9.9152542
21
119.1700875
0
LINE
8
DEFAULT_255_2_778
10
9.9152542
20
119.1700875
11
9.8134542
21
119.1022875
0
LINE
8
DEFAULT_255_2_778
10
9.8134542
20
119.1022875
11
9.7369542
21
119.0194875
0
LINE
8
DEFAULT_255_2_778
10
9.7369542
20
119.0194875
11
9.6755542
21
118.9199875
0
LINE
8
DEFAULT_255_2_778
10
9.6755542
20
118.9199875
11
9.6443542
21
118.8519875
0
LINE
8
DEFAULT_255_2_778
10
9.6443542
20
118.8519875
11
9.6160542
21
118.7742875
0
LINE
8
DEFAULT_255_2_778
10
9.6160542
20
118.7742875
11
9.5927542
21
118.6911875
0
LINE
8
DEFAULT_255_2_778
10
9.5927542
20
118.6911875
11
9.5795542
21
118.6302875
0
LINE
8
DEFAULT_255_2_778
10
9.5795542
20
118.6302875
11
9.5689542
21
118.5688875
0
LINE
8
DEFAULT_255_2_778
10
9.5689542
20
118.5688875
11
9.5607542
21
118.5069875
0
LINE
8
DEFAULT_255_2_778
10
9.5607542
20
118.5069875
11
9.5570542
21
118.4717875
0
LINE
8
DEFAULT_255_2_778
10
9.5570542
20
118.4717875
11
9.5562542
21
118.0788875
0
LINE
8
DEFAULT_255_2_778
10
9.5562542
20
118.0788875
11
9.5602542
21
118.0447875
0
LINE
8
DEFAULT_255_2_778
10
9.5602542
20
118.0447875
11
9.5678542
21
117.9918875
0
LINE
8
DEFAULT_255_2_778
10
9.5678542
20
117.9918875
11
9.5779542
21
117.9391875
0
LINE
8
DEFAULT_255_2_778
10
9.5779542
20
117.9391875
11
9.5903542
21
117.8870875
0
LINE
8
DEFAULT_255_2_778
10
9.5903542
20
117.8870875
11
9.6173542
21
117.8026875
0
LINE
8
DEFAULT_255_2_778
10
9.6173542
20
117.8026875
11
9.6507542
21
117.7272875
0
LINE
8
DEFAULT_255_2_778
10
9.6507542
20
117.7272875
11
9.6985542
21
117.6483875
0
LINE
8
DEFAULT_255_2_778
10
9.6985542
20
117.6483875
11
9.7816542
21
117.5587875
0
LINE
8
DEFAULT_255_2_778
10
9.7816542
20
117.5587875
11
9.8994542
21
117.4896875
0
LINE
8
DEFAULT_255_2_778
10
9.8994542
20
117.4896875
11
10.0729542
21
117.4565875
0
LINE
8
DEFAULT_255_2_778
10
10.0729542
20
117.4565875
11
10.2618542
21
117.4780875
0
LINE
8
DEFAULT_255_2_778
10
10.2618542
20
117.4780875
11
10.3915542
21
117.5343875
0
LINE
8
DEFAULT_255_2_778
10
10.3915542
20
117.5343875
11
10.4862542
21
117.6116875
0
LINE
8
DEFAULT_255_2_778
10
10.4862542
20
117.6116875
11
10.5415542
21
117.6820875
0
LINE
8
DEFAULT_255_2_778
10
10.5415542
20
117.6820875
11
10.5767542
21
117.7455875
0
LINE
8
DEFAULT_255_2_778
10
10.5767542
20
117.7455875
11
10.5979542
21
117.7984875
0
LINE
8
DEFAULT_255_2_778
10
10.5979542
20
117.7984875
11
10.6137542
21
117.8531875
0
LINE
8
DEFAULT_255_2_778
10
10.6137542
20
117.8531875
11
10.6219542
21
117.8926875
0
LINE
8
DEFAULT_255_2_778
10
10.6219542
20
117.8926875
11
10.6283542
21
117.9346875
0
LINE
8
DEFAULT_255_2_778
10
10.6283542
20
117.9346875
11
10.6272542
21
118.1563875
0
LINE
8
DEFAULT_255_2_778
10
10.6272542
20
118.1563875
11
10.6206542
21
118.1979875
0
LINE
8
DEFAULT_255_2_778
10
10.6206542
20
118.1979875
11
10.6087542
21
118.2500875
0
LINE
8
DEFAULT_255_2_778
10
10.6087542
20
118.2500875
11
10.5860542
21
118.3175875
0
LINE
8
DEFAULT_255_2_778
10
10.5860542
20
118.3175875
11
10.5442542
21
118.3995875
0
LINE
8
DEFAULT_255_2_778
10
10.5442542
20
118.3995875
11
10.4698542
21
118.4921875
0
LINE
8
DEFAULT_255_2_778
10
10.4698542
20
118.4921875
11
10.3624542
21
118.5678875
0
LINE
8
DEFAULT_255_2_778
10
10.3624542
20
118.5678875
11
10.2028542
21
118.6101875
0
LINE
8
DEFAULT_255_2_778
10
10.2028542
20
118.6101875
11
10.0367542
21
118.5958875
0
LINE
8
DEFAULT_255_2_778
10
10.0367542
20
118.5958875
11
9.9025542
21
118.5305875
0
LINE
8
DEFAULT_255_2_778
10
9.9025542
20
118.5305875
11
9.7972542
21
118.4286875
0
LINE
8
DEFAULT_255_2_778
10
9.7972542
20
118.4286875
11
9.7486542
21
118.3574875
0
LINE
8
DEFAULT_255_2_778
10
9.7486542
20
118.3574875
11
9.7528542
21
118.4133875
0
LINE
8
DEFAULT_255_2_778
10
9.7528542
20
118.4133875
11
9.7583542
21
118.4691875
0
LINE
8
DEFAULT_255_2_778
10
9.7583542
20
118.4691875
11
9.7657542
21
118.5246875
0
LINE
8
DEFAULT_255_2_778
10
9.7657542
20
118.5246875
11
9.7787542
21
118.5979875
0
LINE
8
DEFAULT_255_2_778
10
9.7787542
20
118.5979875
11
9.8009542
21
118.6882875
0
LINE
8
DEFAULT_255_2_778
10
9.8009542
20
118.6882875
11
9.8314542
21
118.7763875
0
LINE
8
DEFAULT_255_2_778
10
9.8314542
20
118.7763875
11
9.8774542
21
118.8689875
0
LINE
8
DEFAULT_255_2_778
10
9.8774542
20
118.8689875
11
9.9576542
21
118.9644875
0
LINE
8
DEFAULT_255_2_778
10
9.9576542
20
118.9644875
11
10.0713542
21
119.0231875
0
LINE
8
DEFAULT_255_2_778
10
10.0713542
20
119.0231875
11
10.2285542
21
119.0223875
0
LINE
8
DEFAULT_255_2_778
10
10.2285542
20
119.0223875
11
10.3222542
21
118.9731875
0
LINE
8
DEFAULT_255_2_778
10
10.3222542
20
118.9731875
11
10.3695542
21
118.9136875
0
LINE
8
DEFAULT_255_2_778
10
10.3695542
20
118.9136875
11
10.3883542
21
118.8675875
0
LINE
8
DEFAULT_255_2_778
10
10.3883542
20
118.8675875
11
10.3960542
21
118.8353875
0
LINE
8
DEFAULT_255_2_778
10
10.3960542
20
118.8353875
11
10.3994542
21
118.8091875
0
LINE
8
DEFAULT_255_2_778
10
10.3994542
20
118.8091875
11
10.4013542
21
118.7697875
0
LINE
8
DEFAULT_255_2_778
10
10.4013542
20
118.7697875
11
10.6018542
21
118.7697875
0
LINE
8
DEFAULT_255_2_778
10
10.6018542
20
118.7697875
11
10.5995542
21
118.8284875
0
LINE
8
DEFAULT_255_2_778
10
10.5995542
20
118.8284875
11
10.5973542
21
118.8480875
0
LINE
8
DEFAULT_255_2_778
10
10.5973542
20
118.8480875
11
10.5912542
21
118.8871875
0
LINE
8
DEFAULT_255_2_778
10
10.5912542
20
118.8871875
11
10.5828542
21
118.9234875
0
LINE
8
DEFAULT_255_2_778
10
10.5828542
20
118.9234875
11
10.5661542
21
118.9731875
0
LINE
8
DEFAULT_255_2_778
10
10.5661542
20
118.9731875
11
10.5346542
21
119.0342875
0
LINE
8
DEFAULT_255_2_778
10
10.5346542
20
119.0342875
11
10.4825542
21
119.0988875
0
LINE
8
DEFAULT_255_2_778
10
10.4825542
20
119.0988875
11
10.3947542
21
119.1641875
0
LINE
8
DEFAULT_255_2_778
10
10.3947542
20
119.1641875
11
10.2724542
21
119.2078875
0
LINE
8
DEFAULT_255_2_778
10
10.2724542
20
119.2078875
11
10.2513542
21
119.2110875
0
LINE
8
DEFAULT_255_2_778
10
12.8344646
20
119.1853739
11
13.0032646
21
119.1475739
0
LINE
8
DEFAULT_255_2_778
10
13.0032646
20
119.1475739
11
13.1328646
21
119.0853739
0
LINE
8
DEFAULT_255_2_778
10
13.1328646
20
119.0853739
11
13.2341646
21
119.0027739
0
LINE
8
DEFAULT_255_2_778
10
13.2341646
20
119.0027739
11
13.3048646
21
118.9186739
0
LINE
8
DEFAULT_255_2_778
10
13.3048646
20
118.9186739
11
13.3614646
21
118.8247739
0
LINE
8
DEFAULT_255_2_778
10
13.3614646
20
118.8247739
11
13.3937646
21
118.7514739
0
LINE
8
DEFAULT_255_2_778
10
13.3937646
20
118.7514739
11
13.4122646
21
118.6963739
0
LINE
8
DEFAULT_255_2_778
10
13.4122646
20
118.6963739
11
13.4268646
21
118.6403739
0
LINE
8
DEFAULT_255_2_778
10
13.4268646
20
118.6403739
11
13.4379646
21
118.5831739
0
LINE
8
DEFAULT_255_2_778
10
13.4379646
20
118.5831739
11
13.4461646
21
118.5252739
0
LINE
8
DEFAULT_255_2_778
10
13.4461646
20
118.5252739
11
13.4450646
21
118.1124739
0
LINE
8
DEFAULT_255_2_778
10
13.4450646
20
118.1124739
11
13.4360646
21
118.0545739
0
LINE
8
DEFAULT_255_2_778
10
13.4360646
20
118.0545739
11
13.4238646
21
117.9976739
0
LINE
8
DEFAULT_255_2_778
10
13.4238646
20
117.9976739
11
13.4077646
21
117.9418739
0
LINE
8
DEFAULT_255_2_778
10
13.4077646
20
117.9418739
11
13.3873646
21
117.8873739
0
LINE
8
DEFAULT_255_2_778
10
13.3873646
20
117.8873739
11
13.3447646
21
117.8026739
0
LINE
8
DEFAULT_255_2_778
10
13.3447646
20
117.8026739
11
13.2812646
21
117.7129739
0
LINE
8
DEFAULT_255_2_778
10
13.2812646
20
117.7129739
11
13.2037646
21
117.6356739
0
LINE
8
DEFAULT_255_2_778
10
13.2037646
20
117.6356739
11
13.1114646
21
117.5735739
0
LINE
8
DEFAULT_255_2_778
10
13.1114646
20
117.5735739
11
12.9735646
21
117.5213739
0
LINE
8
DEFAULT_255_2_778
10
12.9735646
20
117.5213739
11
12.7280646
21
117.4936739
0
LINE
8
DEFAULT_255_2_778
10
12.7280646
20
117.4936739
11
12.2020646
21
117.4936739
0
LINE
8
DEFAULT_255_2_778
10
12.2020646
20
117.4936739
11
12.2020646
21
119.1935739
0
LINE
8
DEFAULT_255_2_778
10
12.2020646
20
119.1935739
11
12.8344646
21
119.1853739
0
LINE
8
DEFAULT_255_2_778
10
12.7944646
20
118.9945739
11
12.9505646
21
118.9533739
0
LINE
8
DEFAULT_255_2_778
10
12.9505646
20
118.9533739
11
13.0529646
21
118.8892739
0
LINE
8
DEFAULT_255_2_778
10
13.0529646
20
118.8892739
11
13.1336646
21
118.8011739
0
LINE
8
DEFAULT_255_2_778
10
13.1336646
20
118.8011739
11
13.1775646
21
118.7276739
0
LINE
8
DEFAULT_255_2_778
10
13.1775646
20
118.7276739
11
13.2024646
21
118.6696739
0
LINE
8
DEFAULT_255_2_778
10
13.2024646
20
118.6696739
11
13.2164646
21
118.6260739
0
LINE
8
DEFAULT_255_2_778
10
13.2164646
20
118.6260739
11
13.2273646
21
118.5813739
0
LINE
8
DEFAULT_255_2_778
10
13.2273646
20
118.5813739
11
13.2355646
21
118.5360739
0
LINE
8
DEFAULT_255_2_778
10
13.2355646
20
118.5360739
11
13.2413646
21
118.4902739
0
LINE
8
DEFAULT_255_2_778
10
13.2413646
20
118.4902739
11
13.2392646
21
118.1860739
0
LINE
8
DEFAULT_255_2_778
10
13.2392646
20
118.1860739
11
13.2318646
21
118.1296739
0
LINE
8
DEFAULT_255_2_778
10
13.2318646
20
118.1296739
11
13.2233646
21
118.0830739
0
LINE
8
DEFAULT_255_2_778
10
13.2233646
20
118.0830739
11
13.2124646
21
118.0370739
0
LINE
8
DEFAULT_255_2_778
10
13.2124646
20
118.0370739
11
13.1929646
21
117.9754739
0
LINE
8
DEFAULT_255_2_778
10
13.1929646
20
117.9754739
11
13.1648646
21
117.9119739
0
LINE
8
DEFAULT_255_2_778
10
13.1648646
20
117.9119739
11
13.1188646
21
117.8420739
0
LINE
8
DEFAULT_255_2_778
10
13.1188646
20
117.8420739
11
13.0500646
21
117.7761739
0
LINE
8
DEFAULT_255_2_778
10
13.0500646
20
117.7761739
11
12.9328646
21
117.7161739
0
LINE
8
DEFAULT_255_2_778
10
12.9328646
20
117.7161739
11
12.7724646
21
117.6875739
0
LINE
8
DEFAULT_255_2_778
10
12.7724646
20
117.6875739
11
12.4115646
21
117.6864739
0
LINE
8
DEFAULT_255_2_778
10
12.4115646
20
117.6864739
11
12.4115646
21
119.0009739
0
LINE
8
DEFAULT_255_2_778
10
12.4115646
20
119.0009739
11
12.7944646
21
118.9945739
0
LINE
8
DEFAULT_255_2_778
10
17.3233387
20
119.193902
11
17.5651387
21
119.193902
0
LINE
8
DEFAULT_255_2_778
10
17.5651387
20
119.193902
11
17.5651387
21
118.104902
0
LINE
8
DEFAULT_255_2_778
10
17.5651387
20
118.104902
11
17.8546387
21
118.104902
0
LINE
8
DEFAULT_255_2_778
10
17.8546387
20
118.104902
11
17.8546387
21
117.919402
0
LINE
8
DEFAULT_255_2_778
10
17.8546387
20
117.919402
11
17.5651387
21
117.919402
0
LINE
8
DEFAULT_255_2_778
10
17.5651387
20
117.919402
11
17.5651387
21
117.494202
0
LINE
8
DEFAULT_255_2_778
10
17.5651387
20
117.494202
11
17.3601387
21
117.494202
0
LINE
8
DEFAULT_255_2_778
10
17.3601387
20
117.494202
11
17.3601387
21
117.919402
0
LINE
8
DEFAULT_255_2_778
10
17.3601387
20
117.919402
11
16.6489387
21
117.919402
0
LINE
8
DEFAULT_255_2_778
10
16.6489387
20
117.919402
11
16.6489387
21
118.124202
0
LINE
8
DEFAULT_255_2_778
10
16.6489387
20
118.124202
11
17.3233387
21
119.193902
0
LINE
8
DEFAULT_255_2_778
10
16.8278387
20
118.104602
11
17.3601387
21
118.104602
0
LINE
8
DEFAULT_255_2_778
10
17.3601387
20
118.104602
11
17.3601387
21
118.951802
0
LINE
8
DEFAULT_255_2_778
10
17.3601387
20
118.951802
11
16.8278387
21
118.104602
0
LINE
8
DEFAULT_255_2_778
10
19.7400387
20
123.809802
11
4.8289387
21
123.809802
0
LINE
8
DEFAULT_255_2_778
10
4.8289387
20
123.809802
11
4.8289387
21
119.705802
0
LINE
8
DEFAULT_255_2_778
10
4.8289387
20
119.705802
11
19.7400387
21
119.705802
0
LINE
8
DEFAULT_255_2_778
10
19.7400387
20
119.705802
11
19.7400387
21
123.809802
0
LINE
8
DEFAULT_255_2_778
10
11.463595
20
122.6606062
11
10.765895
21
122.6606062
0
LINE
8
DEFAULT_255_2_778
10
10.765895
20
122.6606062
11
10.765895
21
120.7318062
0
LINE
8
DEFAULT_255_2_778
10
10.765895
20
120.7318062
11
11.155895
21
120.7318062
0
LINE
8
DEFAULT_255_2_778
10
11.155895
20
120.7318062
11
11.155895
21
121.9629062
0
LINE
8
DEFAULT_255_2_778
10
11.155895
20
121.9629062
11
11.689295
21
120.7112062
0
LINE
8
DEFAULT_255_2_778
10
11.689295
20
120.7112062
11
12.037995
21
120.7112062
0
LINE
8
DEFAULT_255_2_778
10
12.037995
20
120.7112062
11
12.592095
21
121.9833062
0
LINE
8
DEFAULT_255_2_778
10
12.592095
20
121.9833062
11
12.592095
21
120.7316062
0
LINE
8
DEFAULT_255_2_778
10
12.592095
20
120.7316062
11
13.146095
21
120.7316062
0
LINE
8
DEFAULT_255_2_778
10
13.146095
20
120.7316062
11
13.146095
21
122.6604062
0
LINE
8
DEFAULT_255_2_778
10
13.146095
20
122.6604062
11
12.448395
21
122.6604062
0
LINE
8
DEFAULT_255_2_778
10
12.448395
20
122.6604062
11
11.976395
21
121.4907062
0
LINE
8
DEFAULT_255_2_778
10
11.976395
20
121.4907062
11
11.463395
21
122.6604062
0
LINE
8
DEFAULT_255_2_778
10
18.475295
20
122.3540062
11
18.571695
21
122.3357062
0
LINE
8
DEFAULT_255_2_778
10
18.571695
20
122.3357062
11
18.676195
21
122.3082062
0
LINE
8
DEFAULT_255_2_778
10
18.676195
20
122.3082062
11
18.789095
21
122.2706062
0
LINE
8
DEFAULT_255_2_778
10
18.789095
20
122.2706062
11
18.789095
21
122.6403062
0
LINE
8
DEFAULT_255_2_778
10
18.789095
20
122.6403062
11
18.523795
21
122.6837062
0
LINE
8
DEFAULT_255_2_778
10
18.523795
20
122.6837062
11
18.281095
21
122.7085062
0
LINE
8
DEFAULT_255_2_778
10
18.281095
20
122.7085062
11
18.065495
21
122.6998062
0
LINE
8
DEFAULT_255_2_778
10
18.065495
20
122.6998062
11
17.879795
21
122.6614062
0
LINE
8
DEFAULT_255_2_778
10
17.879795
20
122.6614062
11
17.725795
21
122.5995062
0
LINE
8
DEFAULT_255_2_778
10
17.725795
20
122.5995062
11
17.603495
21
122.5199062
0
LINE
8
DEFAULT_255_2_778
10
17.603495
20
122.5199062
11
17.514095
21
122.4283062
0
LINE
8
DEFAULT_255_2_778
10
17.514095
20
122.4283062
11
17.452695
21
122.3230062
0
LINE
8
DEFAULT_255_2_778
10
17.452695
20
122.3230062
11
17.417795
21
122.2008062
0
LINE
8
DEFAULT_255_2_778
10
17.417795
20
122.2008062
11
17.412295
21
122.0653062
0
LINE
8
DEFAULT_255_2_778
10
17.412295
20
122.0653062
11
17.436095
21
121.9391062
0
LINE
8
DEFAULT_255_2_778
10
17.436095
20
121.9391062
11
17.489995
21
121.8259062
0
LINE
8
DEFAULT_255_2_778
10
17.489995
20
121.8259062
11
17.573395
21
121.7235062
0
LINE
8
DEFAULT_255_2_778
10
17.573395
20
121.7235062
11
17.668395
21
121.6465062
0
LINE
8
DEFAULT_255_2_778
10
17.668395
20
121.6465062
11
17.760395
21
121.5930062
0
LINE
8
DEFAULT_255_2_778
10
17.760395
20
121.5930062
11
18.240395
21
121.3769062
0
LINE
8
DEFAULT_255_2_778
10
18.240395
20
121.3769062
11
18.286995
21
121.3507062
0
LINE
8
DEFAULT_255_2_778
10
18.286995
20
121.3507062
11
18.327195
21
121.3229062
0
LINE
8
DEFAULT_255_2_778
10
18.327195
20
121.3229062
11
18.358895
21
121.2914062
0
LINE
8
DEFAULT_255_2_778
10
18.358895
20
121.2914062
11
18.380395
21
121.2573062
0
LINE
8
DEFAULT_255_2_778
10
18.380395
20
121.2573062
11
18.388795
21
121.2226062
0
LINE
8
DEFAULT_255_2_778
10
18.388795
20
121.2226062
11
18.382695
21
121.1877062
0
LINE
8
DEFAULT_255_2_778
10
18.382695
20
121.1877062
11
18.362595
21
121.1538062
0
LINE
8
DEFAULT_255_2_778
10
18.362595
20
121.1538062
11
18.328995
21
121.1250062
0
LINE
8
DEFAULT_255_2_778
10
18.328995
20
121.1250062
11
18.285395
21
121.1017062
0
LINE
8
DEFAULT_255_2_778
10
18.285395
20
121.1017062
11
18.234295
21
121.0832062
0
LINE
8
DEFAULT_255_2_778
10
18.234295
20
121.0832062
11
18.112095
21
121.0570062
0
LINE
8
DEFAULT_255_2_778
10
18.112095
20
121.0570062
11
17.961495
21
121.0451062
0
LINE
8
DEFAULT_255_2_778
10
17.961495
20
121.0451062
11
17.874495
21
121.0464062
0
LINE
8
DEFAULT_255_2_778
10
17.874495
20
121.0464062
11
17.778695
21
121.0544062
0
LINE
8
DEFAULT_255_2_778
10
17.778695
20
121.0544062
11
17.673695
21
121.0713062
0
LINE
8
DEFAULT_255_2_778
10
17.673695
20
121.0713062
11
17.559095
21
121.0999062
0
LINE
8
DEFAULT_255_2_778
10
17.559095
20
121.0999062
11
17.434995
21
121.1425062
0
LINE
8
DEFAULT_255_2_778
10
17.434995
20
121.1425062
11
17.434995
21
120.7731062
0
LINE
8
DEFAULT_255_2_778
10
17.434995
20
120.7731062
11
17.717595
21
120.7085062
0
LINE
8
DEFAULT_255_2_778
10
17.717595
20
120.7085062
11
17.972395
21
120.6837062
0
LINE
8
DEFAULT_255_2_778
10
17.972395
20
120.6837062
11
18.198095
21
120.6924062
0
LINE
8
DEFAULT_255_2_778
10
18.198095
20
120.6924062
11
18.394395
21
120.7279062
0
LINE
8
DEFAULT_255_2_778
10
18.394395
20
120.7279062
11
18.560495
21
120.7855062
0
LINE
8
DEFAULT_255_2_778
10
18.560495
20
120.7855062
11
18.695995
21
120.8615062
0
LINE
8
DEFAULT_255_2_778
10
18.695995
20
120.8615062
11
18.797895
21
120.9512062
0
LINE
8
DEFAULT_255_2_778
10
18.797895
20
120.9512062
11
18.867195
21
121.0520062
0
LINE
8
DEFAULT_255_2_778
10
18.867195
20
121.0520062
11
18.909495
21
121.1663062
0
LINE
8
DEFAULT_255_2_778
10
18.909495
20
121.1663062
11
18.924595
21
121.2999062
0
LINE
8
DEFAULT_255_2_778
10
18.924595
20
121.2999062
11
18.910595
21
121.4330062
0
LINE
8
DEFAULT_255_2_778
10
18.910595
20
121.4330062
11
18.868295
21
121.5515062
0
LINE
8
DEFAULT_255_2_778
10
18.868295
20
121.5515062
11
18.795995
21
121.6610062
0
LINE
8
DEFAULT_255_2_778
10
18.795995
20
121.6610062
11
18.702595
21
121.7513062
0
LINE
8
DEFAULT_255_2_778
10
18.702595
20
121.7513062
11
18.605795
21
121.8145062
0
LINE
8
DEFAULT_255_2_778
10
18.605795
20
121.8145062
11
18.430895
21
121.9023062
0
LINE
8
DEFAULT_255_2_778
10
18.430895
20
121.9023062
11
18.153595
21
122.0270062
0
LINE
8
DEFAULT_255_2_778
10
18.153595
20
122.0270062
11
18.050195
21
122.0854062
0
LINE
8
DEFAULT_255_2_778
10
18.050195
20
122.0854062
11
18.009895
21
122.1182062
0
LINE
8
DEFAULT_255_2_778
10
18.009895
20
122.1182062
11
17.980795
21
122.1553062
0
LINE
8
DEFAULT_255_2_778
10
17.980795
20
122.1553062
11
17.965195
21
122.1942062
0
LINE
8
DEFAULT_255_2_778
10
17.965195
20
122.1942062
11
17.964995
21
122.2331062
0
LINE
8
DEFAULT_255_2_778
10
17.964995
20
122.2331062
11
17.979795
21
122.2725062
0
LINE
8
DEFAULT_255_2_778
10
17.979795
20
122.2725062
11
18.009395
21
122.3080062
0
LINE
8
DEFAULT_255_2_778
10
18.009395
20
122.3080062
11
18.051995
21
122.3336062
0
LINE
8
DEFAULT_255_2_778
10
18.051995
20
122.3336062
11
18.105695
21
122.3508062
0
LINE
8
DEFAULT_255_2_778
10
18.105695
20
122.3508062
11
18.166295
21
122.3622062
0
LINE
8
DEFAULT_255_2_778
10
18.166295
20
122.3622062
11
18.232695
21
122.3680062
0
LINE
8
DEFAULT_255_2_778
10
18.232695
20
122.3680062
11
18.386695
21
122.3646062
0
LINE
8
DEFAULT_255_2_778
10
18.386695
20
122.3646062
11
18.475095
21
122.3543062
0
LINE
8
DEFAULT_255_2_778
10
6.837395
20
122.3545062
11
6.895295
21
122.3662062
0
LINE
8
DEFAULT_255_2_778
10
6.895295
20
122.3662062
11
6.960395
21
122.3725062
0
LINE
8
DEFAULT_255_2_778
10
6.960395
20
122.3725062
11
7.032395
21
122.3725062
0
LINE
8
DEFAULT_255_2_778
10
7.032395
20
122.3725062
11
7.111495
21
122.3662062
0
LINE
8
DEFAULT_255_2_778
10
7.111495
20
122.3662062
11
7.197695
21
122.3535062
0
LINE
8
DEFAULT_255_2_778
10
7.197695
20
122.3535062
11
7.291695
21
122.3336062
0
LINE
8
DEFAULT_255_2_778
10
7.291695
20
122.3336062
11
7.393295
21
122.3061062
0
LINE
8
DEFAULT_255_2_778
10
7.393295
20
122.3061062
11
7.502795
21
122.2706062
0
LINE
8
DEFAULT_255_2_778
10
7.502795
20
122.2706062
11
7.502795
21
122.6403062
0
LINE
8
DEFAULT_255_2_778
10
7.502795
20
122.6403062
11
7.241095
21
122.6852062
0
LINE
8
DEFAULT_255_2_778
10
7.241095
20
122.6852062
11
7.001995
21
122.7125062
0
LINE
8
DEFAULT_255_2_778
10
7.001995
20
122.7125062
11
6.788395
21
122.7075062
0
LINE
8
DEFAULT_255_2_778
10
6.788395
20
122.7075062
11
6.603195
21
122.6747062
0
LINE
8
DEFAULT_255_2_778
10
6.603195
20
122.6747062
11
6.447095
21
122.6196062
0
LINE
8
DEFAULT_255_2_778
10
6.447095
20
122.6196062
11
6.321395
21
122.5463062
0
LINE
8
DEFAULT_255_2_778
10
6.321395
20
122.5463062
11
6.226995
21
122.4593062
0
LINE
8
DEFAULT_255_2_778
10
6.226995
20
122.4593062
11
6.160595
21
122.3566062
0
LINE
8
DEFAULT_255_2_778
10
6.160595
20
122.3566062
11
6.119795
21
122.2368062
0
LINE
8
DEFAULT_255_2_778
10
6.119795
20
122.2368062
11
6.107395
21
122.1008062
0
LINE
8
DEFAULT_255_2_778
10
6.107395
20
122.1008062
11
6.122695
21
121.9730062
0
LINE
8
DEFAULT_255_2_778
10
6.122695
20
121.9730062
11
6.165295
21
121.8608062
0
LINE
8
DEFAULT_255_2_778
10
6.165295
20
121.8608062
11
6.238895
21
121.7544062
0
LINE
8
DEFAULT_255_2_778
10
6.238895
20
121.7544062
11
6.331795
21
121.6685062
0
LINE
8
DEFAULT_255_2_778
10
6.331795
20
121.6685062
11
6.425995
21
121.6087062
0
LINE
8
DEFAULT_255_2_778
10
6.425995
20
121.6087062
11
6.596595
21
121.5256062
0
LINE
8
DEFAULT_255_2_778
10
6.596595
20
121.5256062
11
6.921795
21
121.3819062
0
LINE
8
DEFAULT_255_2_778
10
6.921795
20
121.3819062
11
6.969895
21
121.3549062
0
LINE
8
DEFAULT_255_2_778
10
6.969895
20
121.3549062
11
7.011695
21
121.3263062
0
LINE
8
DEFAULT_255_2_778
10
7.011695
20
121.3263062
11
7.044795
21
121.2946062
0
LINE
8
DEFAULT_255_2_778
10
7.044795
20
121.2946062
11
7.067795
21
121.2594062
0
LINE
8
DEFAULT_255_2_778
10
7.067795
20
121.2594062
11
7.077895
21
121.2247062
0
LINE
8
DEFAULT_255_2_778
10
7.077895
20
121.2247062
11
7.074495
21
121.1906062
0
LINE
8
DEFAULT_255_2_778
10
7.074495
20
121.1906062
11
7.057495
21
121.1557062
0
LINE
8
DEFAULT_255_2_778
10
7.057495
20
121.1557062
11
7.026295
21
121.1247062
0
LINE
8
DEFAULT_255_2_778
10
7.026295
20
121.1247062
11
6.983695
21
121.0996062
0
LINE
8
DEFAULT_255_2_778
10
6.983695
20
121.0996062
11
6.932895
21
121.0798062
0
LINE
8
DEFAULT_255_2_778
10
6.932895
20
121.0798062
11
6.874695
21
121.0647062
0
LINE
8
DEFAULT_255_2_778
10
6.874695
20
121.0647062
11
6.737395
21
121.0462062
0
LINE
8
DEFAULT_255_2_778
10
6.737395
20
121.0462062
11
6.570195
21
121.0446062
0
LINE
8
DEFAULT_255_2_778
10
6.570195
20
121.0446062
11
6.473795
21
121.0528062
0
LINE
8
DEFAULT_255_2_778
10
6.473795
20
121.0528062
11
6.368295
21
121.0702062
0
LINE
8
DEFAULT_255_2_778
10
6.368295
20
121.0702062
11
6.253195
21
121.0993062
0
LINE
8
DEFAULT_255_2_778
10
6.253195
20
121.0993062
11
6.128595
21
121.1427062
0
LINE
8
DEFAULT_255_2_778
10
6.128595
20
121.1427062
11
6.128595
21
120.7734062
0
LINE
8
DEFAULT_255_2_778
10
6.128595
20
120.7734062
11
6.414095
21
120.7075062
0
LINE
8
DEFAULT_255_2_778
10
6.414095
20
120.7075062
11
6.671495
21
120.6821062
0
LINE
8
DEFAULT_255_2_778
10
6.671495
20
120.6821062
11
6.899595
21
120.6908062
0
LINE
8
DEFAULT_255_2_778
10
6.899595
20
120.6908062
11
7.097695
21
120.7265062
0
LINE
8
DEFAULT_255_2_778
10
7.097695
20
120.7265062
11
7.265495
21
120.7847062
0
LINE
8
DEFAULT_255_2_778
10
7.265495
20
120.7847062
11
7.402295
21
120.8609062
0
LINE
8
DEFAULT_255_2_778
10
7.402295
20
120.8609062
11
7.506495
21
120.9517062
0
LINE
8
DEFAULT_255_2_778
10
7.506495
20
120.9517062
11
7.578495
21
121.0544062
0
LINE
8
DEFAULT_255_2_778
10
7.578495
20
121.0544062
11
7.621295
21
121.1689062
0
LINE
8
DEFAULT_255_2_778
10
7.621295
20
121.1689062
11
7.636395
21
121.2994062
0
LINE
8
DEFAULT_255_2_778
10
7.636395
20
121.2994062
11
7.622395
21
121.4343062
0
LINE
8
DEFAULT_255_2_778
10
7.622395
20
121.4343062
11
7.578195
21
121.5568062
0
LINE
8
DEFAULT_255_2_778
10
7.578195
20
121.5568062
11
7.504695
21
121.6669062
0
LINE
8
DEFAULT_255_2_778
10
7.504695
20
121.6669062
11
7.413895
21
121.7539062
0
LINE
8
DEFAULT_255_2_778
10
7.413895
20
121.7539062
11
7.322095
21
121.8148062
0
LINE
8
DEFAULT_255_2_778
10
7.322095
20
121.8148062
11
7.155395
21
121.9005062
0
LINE
8
DEFAULT_255_2_778
10
7.155395
20
121.9005062
11
6.835795
21
122.0465062
0
LINE
8
DEFAULT_255_2_778
10
6.835795
20
122.0465062
11
6.745295
21
122.1008062
0
LINE
8
DEFAULT_255_2_778
10
6.745295
20
122.1008062
11
6.710395
21
122.1309062
0
LINE
8
DEFAULT_255_2_778
10
6.710395
20
122.1309062
11
6.684195
21
122.1643062
0
LINE
8
DEFAULT_255_2_778
10
6.684195
20
122.1643062
11
6.669095
21
122.1984062
0
LINE
8
DEFAULT_255_2_778
10
6.669095
20
122.1984062
11
6.666995
21
122.2325062
0
LINE
8
DEFAULT_255_2_778
10
6.666995
20
122.2325062
11
6.678595
21
122.2661062
0
LINE
8
DEFAULT_255_2_778
10
6.678595
20
122.2661062
11
6.703995
21
122.2958062
0
LINE
8
DEFAULT_255_2_778
10
6.703995
20
122.2958062
11
6.741095
21
122.3204062
0
LINE
8
DEFAULT_255_2_778
10
6.741095
20
122.3204062
11
6.786095
21
122.3397062
0
LINE
8
DEFAULT_255_2_778
10
6.786095
20
122.3397062
11
6.837595
21
122.3553062
0
LINE
8
DEFAULT_255_2_778
10
16.018995
20
122.6606062
11
15.382895
21
122.6606062
0
LINE
8
DEFAULT_255_2_778
10
15.382895
20
122.6606062
11
15.382895
21
120.7318062
0
LINE
8
DEFAULT_255_2_778
10
15.382895
20
120.7318062
11
15.772895
21
120.7318062
0
LINE
8
DEFAULT_255_2_778
10
15.772895
20
120.7318062
11
15.772895
21
121.9629062
0
LINE
8
DEFAULT_255_2_778
10
15.772895
20
121.9629062
11
16.470595
21
120.7318062
0
LINE
8
DEFAULT_255_2_778
10
16.470595
20
120.7318062
11
17.106695
21
120.7318062
0
LINE
8
DEFAULT_255_2_778
10
17.106695
20
120.7318062
11
17.106695
21
122.6606062
0
LINE
8
DEFAULT_255_2_778
10
17.106695
20
122.6606062
11
16.696295
21
122.6606062
0
LINE
8
DEFAULT_255_2_778
10
16.696295
20
122.6606062
11
16.696295
21
121.4705062
0
LINE
8
DEFAULT_255_2_778
10
16.696295
20
121.4705062
11
16.019195
21
122.6606062
0
LINE
8
DEFAULT_255_2_778
10
15.034195
20
122.6606062
11
13.597795
21
122.6606062
0
LINE
8
DEFAULT_255_2_778
10
13.597795
20
122.6606062
11
13.597795
21
120.7318062
0
LINE
8
DEFAULT_255_2_778
10
13.597795
20
120.7318062
11
15.054495
21
120.7318062
0
LINE
8
DEFAULT_255_2_778
10
15.054495
20
120.7318062
11
15.054495
21
121.0806062
0
LINE
8
DEFAULT_255_2_778
10
15.054495
20
121.0806062
11
14.172195
21
121.0806062
0
LINE
8
DEFAULT_255_2_778
10
14.172195
20
121.0806062
11
14.172195
21
121.5526062
0
LINE
8
DEFAULT_255_2_778
10
14.172195
20
121.5526062
11
14.931495
21
121.5526062
0
LINE
8
DEFAULT_255_2_778
10
14.931495
20
121.5526062
11
14.931495
21
121.8603062
0
LINE
8
DEFAULT_255_2_778
10
14.931495
20
121.8603062
11
14.172195
21
121.8603062
0
LINE
8
DEFAULT_255_2_778
10
14.172195
20
121.8603062
11
14.172195
21
122.3119062
0
LINE
8
DEFAULT_255_2_778
10
14.172195
20
122.3119062
11
15.033895
21
122.3119062
0
LINE
8
DEFAULT_255_2_778
10
15.033895
20
122.3119062
11
15.033895
21
122.6606062
0
LINE
8
DEFAULT_255_2_778
10
10.396595
20
122.6606062
11
8.980795
21
122.6606062
0
LINE
8
DEFAULT_255_2_778
10
8.980795
20
122.6606062
11
8.980795
21
120.7318062
0
LINE
8
DEFAULT_255_2_778
10
8.980795
20
120.7318062
11
10.417195
21
120.7318062
0
LINE
8
DEFAULT_255_2_778
10
10.417195
20
120.7318062
11
10.417195
21
121.0806062
0
LINE
8
DEFAULT_255_2_778
10
10.417195
20
121.0806062
11
9.534795
21
121.0806062
0
LINE
8
DEFAULT_255_2_778
10
9.534795
20
121.0806062
11
9.534795
21
121.5526062
0
LINE
8
DEFAULT_255_2_778
10
9.534795
20
121.5526062
11
10.294195
21
121.5526062
0
LINE
8
DEFAULT_255_2_778
10
10.294195
20
121.5526062
11
10.294195
21
121.8603062
0
LINE
8
DEFAULT_255_2_778
10
10.294195
20
121.8603062
11
9.534795
21
121.8603062
0
LINE
8
DEFAULT_255_2_778
10
9.534795
20
121.8603062
11
9.534795
21
122.3119062
0
LINE
8
DEFAULT_255_2_778
10
9.534795
20
122.3119062
11
10.396595
21
122.3119062
0
LINE
8
DEFAULT_255_2_778
10
10.396595
20
122.3119062
11
10.396595
21
122.6606062
0
LINE
8
DEFAULT_255_2_778
10
8.529095
20
122.6606062
11
7.934095
21
122.6606062
0
LINE
8
DEFAULT_255_2_778
10
7.934095
20
122.6606062
11
7.934095
21
120.7318062
0
LINE
8
DEFAULT_255_2_778
10
7.934095
20
120.7318062
11
8.529095
21
120.7318062
0
LINE
8
DEFAULT_255_2_778
10
8.529095
20
120.7318062
11
8.529095
21
122.6606062
0
ENDSEC
0
EOF