0
SECTION
2
HEADER
9
$MEASUREMENT
70
1
0
ENDSEC
0
SECTION
2
TABLES
0
TABLE
2
LTYPE
0
LTYPE
72
65
70
64
2
CONTINUOUS
3
______
73
0
40
0
0
ENDTAB
0
TABLE
2
LAYER
0
LAYER
2
DEFAULT_255_2_778
70
0
62
255
6
CONTINUOUS
0
ENDTAB
0
ENDSEC
0
SECTION
2
ENTITIES
0
ARC
8
DEFAULT_255_2_778
10
76.4552808
20
124.4936961
40
0.3001094
50
90.0208901
51
179.9791099
0
ARC
8
DEFAULT_255_2_778
10
17.8577289
20
29.5732702
40
2.4946414
50
284.9710369
51
310.4039811
0
ARC
8
DEFAULT_255_2_778
10
17.8542425
20
29.578585
40
2.5009487
50
310.3858818
51
353.3987982
0
ARC
8
DEFAULT_255_2_778
10
17.8439149
20
29.5781338
40
2.5111565
50
353.4361131
51
0.0016369
0
ARC
8
DEFAULT_255_2_778
10
17.8603162
20
46.7504852
40
2.4947556
50
359.9683143
51
25.4002646
0
ARC
8
DEFAULT_255_2_778
10
17.8544244
20
46.7485755
40
2.5008971
50
25.3818874
51
68.3955654
0
ARC
8
DEFAULT_255_2_778
10
17.852207
20
46.7384962
40
2.5110853
50
68.4332024
51
74.9988721
0
LINE
8
DEFAULT_255_2_778
10
0.1551714
20
18.7028056
11
3.5550714
21
19.6137056
0
LINE
8
DEFAULT_255_2_778
10
3.5550714
20
19.6137056
11
5.0549714
21
19.6137056
0
LINE
8
DEFAULT_255_2_778
10
5.0549714
20
19.6137056
11
5.0549714
21
57.1637056
0
LINE
8
DEFAULT_255_2_778
10
5.0549714
20
57.1637056
11
0.1551714
21
58.2138056
0
LINE
8
DEFAULT_255_2_778
10
76.4551714
20
-0.2061944
11
117.0552714
21
-0.2061944
0
LINE
8
DEFAULT_255_2_778
10
117.0552714
20
-0.2061944
11
117.0552714
21
124.7938056
0
LINE
8
DEFAULT_255_2_778
10
117.0552714
20
124.7938056
11
76.4551714
21
124.7938056
0
LINE
8
DEFAULT_255_2_778
10
5.0552714
20
23.9100056
11
6.1551714
21
25.0099056
0
LINE
8
DEFAULT_255_2_778
10
6.1551714
20
25.0099056
11
12.5551714
21
25.5698056
0
LINE
8
DEFAULT_255_2_778
10
12.5551714
20
25.5698056
11
18.5021714
21
27.1633056
0
LINE
8
DEFAULT_255_2_778
10
20.3550714
20
29.5782056
11
20.3550714
21
46.7491056
0
LINE
8
DEFAULT_255_2_778
10
18.5021714
20
49.1640056
11
12.5551714
21
50.7576056
0
LINE
8
DEFAULT_255_2_778
10
12.5551714
20
50.7576056
11
8.2551714
21
51.1338056
0
LINE
8
DEFAULT_255_2_778
10
8.2551714
20
51.1338056
11
6.0550714
21
53.3338056
0
LINE
8
DEFAULT_255_2_778
10
6.0550714
20
53.3338056
11
5.0552714
21
53.4214056
0
LINE
8
DEFAULT_255_2_778
10
0.1551584
20
23.1139
11
5.0552584
21
23.1139
0
ARC
8
DEFAULT_255_2_778
10
6.0550917
20
120.2933949
40
0.4996894
50
224.9765911
51
270.0025105
0
ARC
8
DEFAULT_255_2_778
10
6.054861
20
120.2937077
40
0.4997474
50
179.9887792
51
225.0206486
0
ARC
8
DEFAULT_255_2_778
10
6.054861
20
124.2938034
40
0.4997474
50
134.9793514
51
180.0112208
0
ARC
8
DEFAULT_255_2_778
10
6.0550917
20
124.2941157
40
0.4996898
50
89.9974993
51
135.0233811
0
ARC
8
DEFAULT_255_2_778
10
2.1528376
20
77.2870042
40
1.9933
50
245.6880055
51
270.0682938
0
ARC
8
DEFAULT_255_2_778
10
2.1576806
20
77.2954895
40
2.0030269
50
189.803615
51
245.6616895
0
ARC
8
DEFAULT_255_2_778
10
2.1683233
20
77.2930891
40
2.0131097
50
179.9824561
51
189.6847188
0
ARC
8
DEFAULT_255_2_778
10
2.1481278
20
99.6963584
40
1.9929158
50
155.6886011
51
180.073395
0
ARC
8
DEFAULT_255_2_778
10
2.156971
20
99.6913053
40
2.0030556
50
99.8027899
51
155.6610177
0
ARC
8
DEFAULT_255_2_778
10
2.1545986
20
99.6806441
40
2.0131615
50
89.9824967
51
99.6845929
0
ARC
8
DEFAULT_255_2_778
10
8.7284808
20
106.2939755
40
0.2999301
50
89.9937367
51
150.0077068
0
ARC
8
DEFAULT_255_2_778
10
10.6617905
20
120.2959989
40
1.4936244
50
359.9235338
51
29.8146024
0
ARC
8
DEFAULT_255_2_778
10
10.6548362
20
120.2931492
40
1.5010754
50
29.7770009
51
82.1106683
0
ARC
8
DEFAULT_255_2_778
10
10.6555627
20
120.2803307
40
1.513675
50
82.2045077
51
90.0018606
0
ARC
8
DEFAULT_255_2_778
10
10.0534143
20
120.3004411
40
1.4935658
50
89.9233064
51
119.8154752
0
ARC
8
DEFAULT_255_2_778
10
10.0562253
20
120.2935703
40
1.5009251
50
119.7781678
51
172.1183116
0
ARC
8
DEFAULT_255_2_778
10
10.0693153
20
120.2942402
40
1.5138016
50
172.2113644
51
180.0088807
0
ARC
8
DEFAULT_255_2_778
10
8.3055783
20
120.0441321
40
0.2499353
50
314.9689934
51
359.970981
0
ARC
8
DEFAULT_255_2_778
10
8.3052476
20
120.044277
40
0.2502715
50
270.0379845
51
314.9990999
0
LINE
8
DEFAULT_255_2_778
10
5.5551136
20
120.2938056
11
5.5551136
21
124.2937056
0
LINE
8
DEFAULT_255_2_778
10
6.0551136
20
124.7938056
11
76.1552136
21
124.7938056
0
LINE
8
DEFAULT_255_2_778
10
76.1552136
20
124.7938056
11
76.1552136
21
-0.2061944
0
LINE
8
DEFAULT_255_2_778
10
76.1552136
20
-0.2061944
11
11.8551136
21
-0.2061944
0
LINE
8
DEFAULT_255_2_778
10
11.8551136
20
-0.2061944
11
11.8551136
21
14.9938056
0
LINE
8
DEFAULT_255_2_778
10
11.8551136
20
14.9938056
11
10.5552136
21
16.2937056
0
LINE
8
DEFAULT_255_2_778
10
10.5552136
20
16.2937056
11
10.5552136
21
17.5936056
0
LINE
8
DEFAULT_255_2_778
10
10.5552136
20
17.5936056
11
0.1552136
21
17.5936056
0
LINE
8
DEFAULT_255_2_778
10
0.1552136
20
17.5936056
11
0.1552136
21
59.2938056
0
LINE
8
DEFAULT_255_2_778
10
0.1552136
20
59.2938056
11
5.5551136
21
59.2938056
0
LINE
8
DEFAULT_255_2_778
10
5.5551136
20
59.2938056
11
5.5551136
21
75.2937056
0
LINE
8
DEFAULT_255_2_778
10
5.5551136
20
75.2937056
11
2.1552136
21
75.2937056
0
LINE
8
DEFAULT_255_2_778
10
0.1552136
20
77.2937056
11
0.1552136
21
99.6938056
0
LINE
8
DEFAULT_255_2_778
10
2.1552136
20
101.6938056
11
5.7263136
21
101.6938056
0
LINE
8
DEFAULT_255_2_778
10
5.7263136
20
101.6938056
11
8.4687136
21
106.4439056
0
LINE
8
DEFAULT_255_2_778
10
8.7285136
20
106.5939056
11
12.1554136
21
106.5939056
0
LINE
8
DEFAULT_255_2_778
10
12.1554136
20
106.5939056
11
12.1554136
21
120.2940056
0
LINE
8
DEFAULT_255_2_778
10
10.6555136
20
121.7940056
11
10.0554136
21
121.7940056
0
LINE
8
DEFAULT_255_2_778
10
8.5555136
20
120.2940056
11
8.5555136
21
120.0440056
0
LINE
8
DEFAULT_255_2_778
10
8.3054136
20
119.7940056
11
6.0554136
21
119.7940056
0
LINE
8
DEFAULT_255_2_778
10
0.1551584
20
53.2136
11
5.0552584
21
53.2136
0
ENDSEC
0
EOF