0
SECTION
2
HEADER
9
$MEASUREMENT
70
1
0
ENDSEC
0
SECTION
2
TABLES
0
TABLE
2
LTYPE
0
LTYPE
72
65
70
64
2
CONTINUOUS
3
______
73
0
40
0
0
ENDTAB
0
TABLE
2
LAYER
0
LAYER
2
DEFAULT_255_2_778
70
0
62
255
6
CONTINUOUS
0
ENDTAB
0
ENDSEC
0
SECTION
2
ENTITIES
0
ARC
8
DEFAULT_255_2_778
10
1.7423514
20
103.8992086
40
1.194407
50
54.5513289
51
90.0926922
0
ARC
8
DEFAULT_255_2_778
10
1.7413904
20
103.8943086
40
1.1989577
50
5.3438778
51
54.6497258
0
ARC
8
DEFAULT_255_2_778
10
1.7254239
20
103.8938782
40
1.2148953
50
359.9922565
51
5.293957
0
ARC
8
DEFAULT_255_2_778
10
1.7460877
20
103.8918957
40
1.1942328
50
324.5463566
51
0.0872367
0
ARC
8
DEFAULT_255_2_778
10
1.7407618
20
103.8929533
40
1.1991866
50
275.3542067
51
324.6527959
0
ARC
8
DEFAULT_255_2_778
10
1.7405844
20
103.9077496
40
1.2139355
50
269.9921948
51
275.2973763
0
ARC
8
DEFAULT_255_2_778
10
1.742334
20
77.8994771
40
1.1943384
50
54.5479662
51
90.0918639
0
ARC
8
DEFAULT_255_2_778
10
1.7413061
20
77.8944304
40
1.1990475
50
5.3464965
51
54.6478285
0
ARC
8
DEFAULT_255_2_778
10
1.7257281
20
77.8940771
40
1.2145911
50
359.9923059
51
5.2946162
0
ARC
8
DEFAULT_255_2_778
10
1.7460877
20
77.8920957
40
1.1942328
50
324.5463566
51
0.0872367
0
ARC
8
DEFAULT_255_2_778
10
1.7407618
20
77.8931533
40
1.1991866
50
275.3542067
51
324.6527959
0
ARC
8
DEFAULT_255_2_778
10
1.7405844
20
77.9079496
40
1.2139355
50
269.9921948
51
275.2973763
0
ARC
8
DEFAULT_255_2_778
10
1.7423472
20
46.6996704
40
1.1944452
50
54.5578036
51
90.0924899
0
ARC
8
DEFAULT_255_2_778
10
1.7414733
20
46.6948526
40
1.1988788
50
5.3466739
51
54.6572939
0
ARC
8
DEFAULT_255_2_778
10
1.7258011
20
46.6944799
40
1.214518
50
359.992175
51
5.2952861
0
ARC
8
DEFAULT_255_2_778
10
1.7460526
20
46.6924635
40
1.1942679
50
324.5468923
51
0.0887817
0
ARC
8
DEFAULT_255_2_778
10
1.7408194
20
46.6935117
40
1.1991408
50
275.3516494
51
324.6511289
0
ARC
8
DEFAULT_255_2_778
10
1.7405844
20
46.7085368
40
1.2141228
50
269.9921976
51
275.2965583
0
ARC
8
DEFAULT_255_2_778
10
1.7423514
20
20.6999086
40
1.194407
50
54.5513289
51
90.0926922
0
ARC
8
DEFAULT_255_2_778
10
1.7413904
20
20.6950086
40
1.1989577
50
5.3438778
51
54.6497258
0
ARC
8
DEFAULT_255_2_778
10
1.7254239
20
20.6945782
40
1.2148953
50
359.9922565
51
5.293957
0
ARC
8
DEFAULT_255_2_778
10
1.7462361
20
20.6925823
40
1.1940844
50
324.5440759
51
0.0878931
0
ARC
8
DEFAULT_255_2_778
10
1.7408147
20
20.6937513
40
1.1991807
50
275.3516985
51
324.6488348
0
ARC
8
DEFAULT_255_2_778
10
1.7405844
20
20.7087368
40
1.2141228
50
269.9921976
51
275.2965582
0
ARC
8
DEFAULT_255_2_778
10
24.7384909
20
20.6890577
40
1.1944452
50
234.5578036
51
270.0924899
0
ARC
8
DEFAULT_255_2_778
10
24.7393648
20
20.6938755
40
1.1988788
50
185.3466739
51
234.6572939
0
ARC
8
DEFAULT_255_2_778
10
24.755037
20
20.6942482
40
1.214518
50
179.992175
51
185.2952861
0
ARC
8
DEFAULT_255_2_778
10
24.7348541
20
20.696282
40
1.1943365
50
144.550255
51
180.0896104
0
ARC
8
DEFAULT_255_2_778
10
24.7399406
20
20.6953007
40
1.199051
50
95.3490305
51
144.6530265
0
ARC
8
DEFAULT_255_2_778
10
24.7402527
20
20.6798872
40
1.2144269
50
89.9921482
51
95.2958988
0
ARC
8
DEFAULT_255_2_778
10
24.7384868
20
46.6888195
40
1.194407
50
234.5513289
51
270.0926922
0
ARC
8
DEFAULT_255_2_778
10
24.7394477
20
46.6937195
40
1.1989577
50
185.3438778
51
234.6497258
0
ARC
8
DEFAULT_255_2_778
10
24.7554142
20
46.6941498
40
1.2148953
50
179.9922565
51
185.293957
0
ARC
8
DEFAULT_255_2_778
10
24.7346706
20
46.6961632
40
1.194153
50
144.5474388
51
180.088722
0
ARC
8
DEFAULT_255_2_778
10
24.7399453
20
46.6950611
40
1.1990908
50
95.3490796
51
144.6507323
0
ARC
8
DEFAULT_255_2_778
10
24.7402527
20
46.6796872
40
1.2144269
50
89.9921482
51
95.2958987
0
ARC
8
DEFAULT_255_2_778
10
24.7385042
20
77.8883509
40
1.1943384
50
234.5479662
51
270.0918639
0
ARC
8
DEFAULT_255_2_778
10
24.7395321
20
77.8933976
40
1.1990475
50
185.3464965
51
234.6478285
0
ARC
8
DEFAULT_255_2_778
10
24.7551101
20
77.8937509
40
1.2145911
50
179.9923059
51
185.2946162
0
ARC
8
DEFAULT_255_2_778
10
24.734819
20
77.8957497
40
1.1943014
50
144.5497193
51
180.0880656
0
ARC
8
DEFAULT_255_2_778
10
24.7399981
20
77.8947591
40
1.1990968
50
95.3515876
51
144.6546935
0
ARC
8
DEFAULT_255_2_778
10
24.7402526
20
77.8795745
40
1.2142395
50
89.9921454
51
95.2967167
0
ARC
8
DEFAULT_255_2_778
10
24.7385042
20
103.8879509
40
1.1943384
50
234.5479662
51
270.0918639
0
ARC
8
DEFAULT_255_2_778
10
24.7395321
20
103.8929976
40
1.1990475
50
185.3464965
51
234.6478285
0
ARC
8
DEFAULT_255_2_778
10
24.7551101
20
103.8933509
40
1.2145911
50
179.9923059
51
185.2946162
0
ARC
8
DEFAULT_255_2_778
10
24.734819
20
103.8953497
40
1.1943014
50
144.5497193
51
180.0880656
0
ARC
8
DEFAULT_255_2_778
10
24.7399981
20
103.8943591
40
1.1990968
50
95.3515876
51
144.6546935
0
ARC
8
DEFAULT_255_2_778
10
24.7402526
20
103.8791745
40
1.2142395
50
89.9921454
51
95.2967167
0
LINE
8
DEFAULT_255_2_778
10
1.2406191
20
124.793714
11
1.2406191
21
124.788414
0
LINE
8
DEFAULT_255_2_778
10
10.2404191
20
114.293714
11
1.7404191
21
114.293714
0
LINE
8
DEFAULT_255_2_778
10
1.7404191
20
114.293714
11
1.7404191
21
105.093614
0
LINE
8
DEFAULT_255_2_778
10
1.7404191
20
102.693814
11
1.7404191
21
79.093814
0
LINE
8
DEFAULT_255_2_778
10
1.7404191
20
76.694014
11
1.7404191
21
47.894114
0
LINE
8
DEFAULT_255_2_778
10
1.7404191
20
45.494414
11
1.7404191
21
21.894314
0
LINE
8
DEFAULT_255_2_778
10
1.7404191
20
19.494614
11
1.7404191
21
10.294514
0
LINE
8
DEFAULT_255_2_778
10
1.7404191
20
10.294514
11
24.7404191
21
10.294514
0
LINE
8
DEFAULT_255_2_778
10
24.7404191
20
10.294514
11
24.7404191
21
19.494614
0
LINE
8
DEFAULT_255_2_778
10
24.7404191
20
21.894314
11
24.7404191
21
45.494414
0
LINE
8
DEFAULT_255_2_778
10
24.7404191
20
47.894114
11
24.7404191
21
76.694014
0
LINE
8
DEFAULT_255_2_778
10
24.7404191
20
79.093814
11
24.7404191
21
102.693614
0
LINE
8
DEFAULT_255_2_778
10
24.7404191
20
105.093414
11
24.7404191
21
114.293714
0
LINE
8
DEFAULT_255_2_778
10
24.7404191
20
114.293714
11
16.2404191
21
114.293714
0
LINE
8
DEFAULT_255_2_778
10
1.7404514
20
56.7936879
11
4.8405514
21
56.7936879
0
LINE
8
DEFAULT_255_2_778
10
4.8405514
20
56.7936879
11
4.8405514
21
67.7937879
0
LINE
8
DEFAULT_255_2_778
10
4.8405514
20
67.7937879
11
1.7404514
21
67.7937879
0
LINE
8
DEFAULT_255_2_778
10
16.2404514
20
115.7936879
11
10.2404514
21
115.7936879
0
LINE
8
DEFAULT_255_2_778
10
10.2404514
20
115.7936879
11
10.2404514
21
112.7935879
0
LINE
8
DEFAULT_255_2_778
10
10.2404514
20
112.7935879
11
16.2404514
21
112.7935879
0
LINE
8
DEFAULT_255_2_778
10
16.2404514
20
112.7935879
11
16.2404514
21
115.7936879
0
LINE
8
DEFAULT_255_2_778
10
26.7403514
20
119.0937879
11
26.7403514
21
122.3936879
0
LINE
8
DEFAULT_255_2_778
10
29.7262514
20
2.0936879
11
29.7262514
21
0.7937879
0
LINE
8
DEFAULT_255_2_778
10
29.7262514
20
0.7937879
11
29.7293514
21
0.7146879
0
LINE
8
DEFAULT_255_2_778
10
29.7293514
20
0.7146879
11
29.7389514
21
0.6355879
0
LINE
8
DEFAULT_255_2_778
10
29.7389514
20
0.6355879
11
29.7547514
21
0.5564879
0
LINE
8
DEFAULT_255_2_778
10
29.7547514
20
0.5564879
11
29.7778514
21
0.4770879
0
LINE
8
DEFAULT_255_2_778
10
29.7778514
20
0.4770879
11
29.8079514
21
0.3979879
0
LINE
8
DEFAULT_255_2_778
10
29.8079514
20
0.3979879
11
29.8460514
21
0.3191879
0
LINE
8
DEFAULT_255_2_778
10
29.8460514
20
0.3191879
11
29.8926514
21
0.2413879
0
LINE
8
DEFAULT_255_2_778
10
29.8926514
20
0.2413879
11
29.9484514
21
0.1651879
0
LINE
8
DEFAULT_255_2_778
10
29.9484514
20
0.1651879
11
30.0140514
21
0.0915879
0
LINE
8
DEFAULT_255_2_778
10
30.0140514
20
0.0915879
11
30.0897514
21
0.0222879
0
LINE
8
DEFAULT_255_2_778
10
30.0897514
20
0.0222879
11
30.1757514
21
-0.0412121
0
LINE
8
DEFAULT_255_2_778
10
30.1757514
20
-0.0412121
11
30.2715514
21
-0.0970121
0
LINE
8
DEFAULT_255_2_778
10
30.2715514
20
-0.0970121
11
30.3763514
21
-0.1430121
0
LINE
8
DEFAULT_255_2_778
10
30.3763514
20
-0.1430121
11
30.4884514
21
-0.1777121
0
LINE
8
DEFAULT_255_2_778
10
30.4884514
20
-0.1777121
11
30.6059514
21
-0.1991121
0
LINE
8
DEFAULT_255_2_778
10
30.6059514
20
-0.1991121
11
30.7263514
21
-0.2063121
0
LINE
8
DEFAULT_255_2_778
10
26.7403514
20
56.6936879
11
29.8209514
21
56.6936879
0
LINE
8
DEFAULT_255_2_778
10
29.8209514
20
56.6936879
11
29.8209514
21
5.4935879
0
LINE
8
DEFAULT_255_2_778
10
29.8209514
20
5.4935879
11
26.7406514
21
5.4935879
0
LINE
8
DEFAULT_255_2_778
10
26.7406514
20
5.4935879
11
26.7210514
21
119.0935879
0
LINE
8
DEFAULT_255_2_778
10
26.7210514
20
119.0935879
11
29.8209514
21
119.0935879
0
LINE
8
DEFAULT_255_2_778
10
40.2405141
20
124.7938056
11
0.2405141
21
124.7938056
0
LINE
8
DEFAULT_255_2_778
10
0.2405141
20
124.7938056
11
0.2405141
21
-0.2061944
0
LINE
8
DEFAULT_255_2_778
10
0.2405141
20
-0.2061944
11
40.2405141
21
-0.2061944
0
LINE
8
DEFAULT_255_2_778
10
40.2405141
20
-0.2061944
11
40.2405141
21
124.7938056
0
ARC
8
DEFAULT_255_2_778
10
26.7406433
20
2.5939025
40
0.5000969
50
179.9996485
51
270.0003515
0
ARC
8
DEFAULT_255_2_778
10
4.3377658
20
6.7960662
40
0.9471227
50
138.7691257
51
180.1488555
0
ARC
8
DEFAULT_255_2_778
10
4.3379605
20
6.7968969
40
0.946722
50
92.2525226
51
138.8147006
0
ARC
8
DEFAULT_255_2_778
10
4.3407121
20
6.7674277
40
0.9762778
50
89.9979919
51
92.3459109
0
ARC
8
DEFAULT_255_2_778
10
4.3432841
20
6.7965784
40
0.9471305
50
49.1137343
51
90.1535204
0
ARC
8
DEFAULT_255_2_778
10
4.3440297
20
6.7964671
40
0.9467268
50
2.2652623
51
49.1522587
0
ARC
8
DEFAULT_255_2_778
10
4.3144539
20
6.7936463
40
0.9763924
50
359.9976072
51
2.3620595
0
ARC
8
DEFAULT_255_2_778
10
4.3437192
20
6.7910678
40
0.9471305
50
319.1137343
51
0.1535204
0
ARC
8
DEFAULT_255_2_778
10
4.3436079
20
6.7903222
40
0.9467268
50
272.2652623
51
319.1522587
0
ARC
8
DEFAULT_255_2_778
10
4.3407871
20
6.819898
40
0.9763924
50
269.9976072
51
272.3620595
0
ARC
8
DEFAULT_255_2_778
10
4.3382086
20
6.7906327
40
0.9471305
50
229.1137343
51
270.1535204
0
ARC
8
DEFAULT_255_2_778
10
4.337463
20
6.790744
40
0.9467268
50
182.2652623
51
229.1522587
0
ARC
8
DEFAULT_255_2_778
10
4.3670388
20
6.7935648
40
0.9763924
50
179.9976072
51
182.3620595
0
LINE
8
DEFAULT_255_2_778
10
33.3547463
20
0.7939056
11
33.3584463
21
2.0938056
0
LINE
8
DEFAULT_255_2_778
10
33.3613463
20
0.7939056
11
33.3420463
21
0.6346056
0
LINE
8
DEFAULT_255_2_778
10
33.3420463
20
0.6346056
11
33.3258463
21
0.5550056
0
LINE
8
DEFAULT_255_2_778
10
33.3258463
20
0.5550056
11
33.3025463
21
0.4751056
0
LINE
8
DEFAULT_255_2_778
10
33.3025463
20
0.4751056
11
33.2718463
21
0.3955056
0
LINE
8
DEFAULT_255_2_778
10
33.2718463
20
0.3955056
11
33.2332463
21
0.3163056
0
LINE
8
DEFAULT_255_2_778
10
33.2332463
20
0.3163056
11
33.1861463
21
0.2383056
0
LINE
8
DEFAULT_255_2_778
10
33.1861463
20
0.2383056
11
33.1298463
21
0.1618056
0
LINE
8
DEFAULT_255_2_778
10
33.1298463
20
0.1618056
11
33.0636463
21
0.0883056
0
LINE
8
DEFAULT_255_2_778
10
33.0636463
20
0.0883056
11
32.9874463
21
0.0192056
0
LINE
8
DEFAULT_255_2_778
10
32.9874463
20
0.0192056
11
32.9014463
21
-0.0437944
0
LINE
8
DEFAULT_255_2_778
10
32.9014463
20
-0.0437944
11
32.8062463
21
-0.0984944
0
LINE
8
DEFAULT_255_2_778
10
32.8062463
20
-0.0984944
11
32.7033463
21
-0.1434944
0
LINE
8
DEFAULT_255_2_778
10
32.7033463
20
-0.1434944
11
32.5929463
21
-0.1773944
0
LINE
8
DEFAULT_255_2_778
10
32.5929463
20
-0.1773944
11
32.4762463
21
-0.1987944
0
LINE
8
DEFAULT_255_2_778
10
32.4762463
20
-0.1987944
11
32.3545463
21
-0.2061944
0
LINE
8
DEFAULT_255_2_778
10
40.2404463
20
122.3938056
11
26.2405463
21
122.3938056
0
LINE
8
DEFAULT_255_2_778
10
26.2405463
20
122.3938056
11
26.2405463
21
2.5939056
0
LINE
8
DEFAULT_255_2_778
10
26.7406463
20
2.0938056
11
40.2407463
21
2.0938056
0
LINE
8
DEFAULT_255_2_778
10
33.3549463
20
122.3938056
11
33.3549463
21
123.7937056
0
LINE
8
DEFAULT_255_2_778
10
33.3549463
20
123.7937056
11
33.3518463
21
123.8728056
0
LINE
8
DEFAULT_255_2_778
10
33.3518463
20
123.8728056
11
33.3422463
21
123.9519056
0
LINE
8
DEFAULT_255_2_778
10
33.3422463
20
123.9519056
11
33.3264463
21
124.0310056
0
LINE
8
DEFAULT_255_2_778
10
33.3264463
20
124.0310056
11
33.3033463
21
124.1104056
0
LINE
8
DEFAULT_255_2_778
10
33.3033463
20
124.1104056
11
33.2732463
21
124.1895056
0
LINE
8
DEFAULT_255_2_778
10
33.2732463
20
124.1895056
11
33.2351463
21
124.2683056
0
LINE
8
DEFAULT_255_2_778
10
33.2351463
20
124.2683056
11
33.1885463
21
124.3461056
0
LINE
8
DEFAULT_255_2_778
10
33.1885463
20
124.3461056
11
33.1327463
21
124.4223056
0
LINE
8
DEFAULT_255_2_778
10
33.1327463
20
124.4223056
11
33.0671463
21
124.4959056
0
LINE
8
DEFAULT_255_2_778
10
33.0671463
20
124.4959056
11
32.9914463
21
124.5652056
0
LINE
8
DEFAULT_255_2_778
10
32.9914463
20
124.5652056
11
32.9054463
21
124.6287056
0
LINE
8
DEFAULT_255_2_778
10
32.9054463
20
124.6287056
11
32.8096463
21
124.6845056
0
LINE
8
DEFAULT_255_2_778
10
32.8096463
20
124.6845056
11
32.7048463
21
124.7306056
0
LINE
8
DEFAULT_255_2_778
10
32.7048463
20
124.7306056
11
32.5927463
21
124.7652056
0
LINE
8
DEFAULT_255_2_778
10
32.5927463
20
124.7652056
11
32.4752463
21
124.7867056
0
LINE
8
DEFAULT_255_2_778
10
32.4752463
20
124.7867056
11
32.3548463
21
124.7938056
0
LINE
8
DEFAULT_255_2_778
10
30.7263463
20
124.7938056
11
30.6059463
21
124.7867056
0
LINE
8
DEFAULT_255_2_778
10
30.6059463
20
124.7867056
11
30.4884463
21
124.7652056
0
LINE
8
DEFAULT_255_2_778
10
30.4884463
20
124.7652056
11
30.3762463
21
124.7306056
0
LINE
8
DEFAULT_255_2_778
10
30.3762463
20
124.7306056
11
30.2715463
21
124.6845056
0
LINE
8
DEFAULT_255_2_778
10
30.2715463
20
124.6845056
11
30.1757463
21
124.6287056
0
LINE
8
DEFAULT_255_2_778
10
30.1757463
20
124.6287056
11
30.0897463
21
124.5652056
0
LINE
8
DEFAULT_255_2_778
10
30.0897463
20
124.5652056
11
30.0140463
21
124.4959056
0
LINE
8
DEFAULT_255_2_778
10
30.0140463
20
124.4959056
11
29.9484463
21
124.4223056
0
LINE
8
DEFAULT_255_2_778
10
29.9484463
20
124.4223056
11
29.8926463
21
124.3461056
0
LINE
8
DEFAULT_255_2_778
10
29.8926463
20
124.3461056
11
29.8460463
21
124.2683056
0
LINE
8
DEFAULT_255_2_778
10
29.8460463
20
124.2683056
11
29.8079463
21
124.1895056
0
LINE
8
DEFAULT_255_2_778
10
29.8079463
20
124.1895056
11
29.7778463
21
124.1104056
0
LINE
8
DEFAULT_255_2_778
10
29.7778463
20
124.1104056
11
29.7547463
21
124.0310056
0
LINE
8
DEFAULT_255_2_778
10
29.7547463
20
124.0310056
11
29.7389463
21
123.9519056
0
LINE
8
DEFAULT_255_2_778
10
29.7389463
20
123.9519056
11
29.7293463
21
123.8728056
0
LINE
8
DEFAULT_255_2_778
10
29.7293463
20
123.8728056
11
29.7262463
21
123.7937056
0
LINE
8
DEFAULT_255_2_778
10
29.7262463
20
123.7937056
11
29.7262463
21
122.3938056
0
LINE
8
DEFAULT_255_2_778
10
3.3906463
20
6.7936056
11
3.3906463
21
6.7936056
0
ARC
8
DEFAULT_255_2_778
10
4.3403892
20
6.7936106
40
0.6499382
50
90.003366
51
179.996619
0
ARC
8
DEFAULT_255_2_778
10
4.3403914
20
6.7935893
40
0.6499596
50
0.0052547
51
90.0035519
0
ARC
8
DEFAULT_255_2_778
10
4.3403702
20
6.7936298
40
0.6499809
50
269.998317
51
0.001683
0
ARC
8
DEFAULT_255_2_778
10
4.3404107
20
6.7936086
40
0.6499597
50
179.9964437
51
269.9947409
0
LINE
8
DEFAULT_255_2_778
10
3.6904511
20
6.7936489
11
3.6904511
21
6.7936489
0
LINE
8
DEFAULT_255_2_778
10
6.9405213
20
9.3436119
11
1.8404213
21
9.3436119
0
LINE
8
DEFAULT_255_2_778
10
1.8404213
20
9.3436119
11
1.8404213
21
4.2435119
0
LINE
8
DEFAULT_255_2_778
10
1.8404213
20
4.2435119
11
6.9405213
21
4.2435119
0
LINE
8
DEFAULT_255_2_778
10
6.9405213
20
4.2435119
11
6.9405213
21
9.3436119
0
LINE
8
DEFAULT_255_2_778
10
34.3188213
20
13.9344119
11
35.6864213
21
13.9344119
0
LINE
8
DEFAULT_255_2_778
10
35.6864213
20
13.9344119
11
35.6864213
21
13.6370119
0
LINE
8
DEFAULT_255_2_778
10
35.6864213
20
13.6370119
11
34.9136213
21
11.7936119
0
LINE
8
DEFAULT_255_2_778
10
34.9136213
20
11.7936119
11
34.6162213
21
11.7936119
0
LINE
8
DEFAULT_255_2_778
10
34.6162213
20
11.7936119
11
35.3890213
21
13.6370119
0
LINE
8
DEFAULT_255_2_778
10
35.3890213
20
13.6370119
11
34.3188213
21
13.6370119
0
LINE
8
DEFAULT_255_2_778
10
34.3188213
20
13.6370119
11
34.3188213
21
13.9344119
0
LINE
8
DEFAULT_255_2_778
10
34.4376213
20
34.7343119
11
35.6269213
21
34.7343119
0
LINE
8
DEFAULT_255_2_778
10
35.6269213
20
34.7343119
11
35.6269213
21
34.4965119
0
LINE
8
DEFAULT_255_2_778
10
35.6269213
20
34.4965119
11
34.7350213
21
34.4965119
0
LINE
8
DEFAULT_255_2_778
10
34.7350213
20
34.4965119
11
34.6755213
21
33.7829119
0
LINE
8
DEFAULT_255_2_778
10
34.6755213
20
33.7829119
11
34.7350213
21
33.8424119
0
LINE
8
DEFAULT_255_2_778
10
34.7350213
20
33.8424119
11
34.8538213
21
33.9019119
0
LINE
8
DEFAULT_255_2_778
10
34.8538213
20
33.9019119
11
35.0321213
21
33.9615119
0
LINE
8
DEFAULT_255_2_778
10
35.0321213
20
33.9615119
11
35.2104213
21
33.9615119
0
LINE
8
DEFAULT_255_2_778
10
35.2104213
20
33.9615119
11
35.3888213
21
33.9019119
0
LINE
8
DEFAULT_255_2_778
10
35.3888213
20
33.9019119
11
35.5671213
21
33.7831119
0
LINE
8
DEFAULT_255_2_778
10
35.5671213
20
33.7831119
11
35.6859213
21
33.6048119
0
LINE
8
DEFAULT_255_2_778
10
35.6859213
20
33.6048119
11
35.7454213
21
33.4265119
0
LINE
8
DEFAULT_255_2_778
10
35.7454213
20
33.4265119
11
35.7454213
21
33.1291119
0
LINE
8
DEFAULT_255_2_778
10
35.7454213
20
33.1291119
11
35.6859213
21
32.9508119
0
LINE
8
DEFAULT_255_2_778
10
35.6859213
20
32.9508119
11
35.5671213
21
32.7724119
0
LINE
8
DEFAULT_255_2_778
10
35.5671213
20
32.7724119
11
35.3292213
21
32.5941119
0
LINE
8
DEFAULT_255_2_778
10
35.3292213
20
32.5941119
11
35.1509213
21
32.5346119
0
LINE
8
DEFAULT_255_2_778
10
35.1509213
20
32.5346119
11
34.9131213
21
32.5346119
0
LINE
8
DEFAULT_255_2_778
10
34.9131213
20
32.5346119
11
34.6752213
21
32.5941119
0
LINE
8
DEFAULT_255_2_778
10
34.6752213
20
32.5941119
11
34.4969213
21
32.7129119
0
LINE
8
DEFAULT_255_2_778
10
34.4969213
20
32.7129119
11
34.3781213
21
32.9508119
0
LINE
8
DEFAULT_255_2_778
10
34.3781213
20
32.9508119
11
34.3781213
21
33.0696119
0
LINE
8
DEFAULT_255_2_778
10
34.3781213
20
33.0696119
11
34.6755213
21
33.0696119
0
LINE
8
DEFAULT_255_2_778
10
34.6755213
20
33.0696119
11
34.6755213
21
33.0100119
0
LINE
8
DEFAULT_255_2_778
10
34.6755213
20
33.0100119
11
34.7350213
21
32.8912119
0
LINE
8
DEFAULT_255_2_778
10
34.7350213
20
32.8912119
11
34.9133213
21
32.7724119
0
LINE
8
DEFAULT_255_2_778
10
34.9133213
20
32.7724119
11
35.1512213
21
32.7724119
0
LINE
8
DEFAULT_255_2_778
10
35.1512213
20
32.7724119
11
35.3295213
21
32.8912119
0
LINE
8
DEFAULT_255_2_778
10
35.3295213
20
32.8912119
11
35.4483213
21
33.1291119
0
LINE
8
DEFAULT_255_2_778
10
35.4483213
20
33.1291119
11
35.4483213
21
33.3670119
0
LINE
8
DEFAULT_255_2_778
10
35.4483213
20
33.3670119
11
35.3888213
21
33.5453119
0
LINE
8
DEFAULT_255_2_778
10
35.3888213
20
33.5453119
11
35.2700213
21
33.6641119
0
LINE
8
DEFAULT_255_2_778
10
35.2700213
20
33.6641119
11
35.1512213
21
33.7236119
0
LINE
8
DEFAULT_255_2_778
10
35.1512213
20
33.7236119
11
34.9728213
21
33.7236119
0
LINE
8
DEFAULT_255_2_778
10
34.9728213
20
33.7236119
11
34.8540213
21
33.6641119
0
LINE
8
DEFAULT_255_2_778
10
34.8540213
20
33.6641119
11
34.7353213
21
33.5453119
0
LINE
8
DEFAULT_255_2_778
10
34.7353213
20
33.5453119
11
34.6757213
21
33.4265119
0
LINE
8
DEFAULT_255_2_778
10
34.6757213
20
33.4265119
11
34.3783213
21
33.4265119
0
LINE
8
DEFAULT_255_2_778
10
34.3783213
20
33.4265119
11
34.4379213
21
34.7346119
0
LINE
8
DEFAULT_255_2_778
10
35.3890213
20
23.5020119
11
35.2107213
21
23.5615119
0
LINE
8
DEFAULT_255_2_778
10
35.2107213
20
23.5615119
11
35.0324213
21
23.5615119
0
LINE
8
DEFAULT_255_2_778
10
35.0324213
20
23.5615119
11
34.8540213
21
23.5020119
0
LINE
8
DEFAULT_255_2_778
10
34.8540213
20
23.5020119
11
34.7353213
21
23.4424119
0
LINE
8
DEFAULT_255_2_778
10
34.7353213
20
23.4424119
11
34.6165213
21
23.3236119
0
LINE
8
DEFAULT_255_2_778
10
34.6165213
20
23.3236119
11
34.6760213
21
23.7398119
0
LINE
8
DEFAULT_255_2_778
10
34.6760213
20
23.7398119
11
34.7355213
21
23.9182119
0
LINE
8
DEFAULT_255_2_778
10
34.7355213
20
23.9182119
11
34.8543213
21
24.0370119
0
LINE
8
DEFAULT_255_2_778
10
34.8543213
20
24.0370119
11
35.0326213
21
24.0965119
0
LINE
8
DEFAULT_255_2_778
10
35.0326213
20
24.0965119
11
35.2110213
21
24.0965119
0
LINE
8
DEFAULT_255_2_778
10
35.2110213
20
24.0965119
11
35.3298213
21
24.0370119
0
LINE
8
DEFAULT_255_2_778
10
35.3298213
20
24.0370119
11
35.3893213
21
23.9774119
0
LINE
8
DEFAULT_255_2_778
10
35.3893213
20
23.9774119
11
35.4488213
21
23.8586119
0
LINE
8
DEFAULT_255_2_778
10
35.4488213
20
23.8586119
11
35.4488213
21
23.7991119
0
LINE
8
DEFAULT_255_2_778
10
35.4488213
20
23.7991119
11
35.7462213
21
23.7991119
0
LINE
8
DEFAULT_255_2_778
10
35.7462213
20
23.7991119
11
35.7462213
21
23.9179119
0
LINE
8
DEFAULT_255_2_778
10
35.7462213
20
23.9179119
11
35.6274213
21
24.1558119
0
LINE
8
DEFAULT_255_2_778
10
35.6274213
20
24.1558119
11
35.4491213
21
24.2746119
0
LINE
8
DEFAULT_255_2_778
10
35.4491213
20
24.2746119
11
35.2112213
21
24.3341119
0
LINE
8
DEFAULT_255_2_778
10
35.2112213
20
24.3341119
11
34.9734213
21
24.3341119
0
LINE
8
DEFAULT_255_2_778
10
34.9734213
20
24.3341119
11
34.7950213
21
24.2746119
0
LINE
8
DEFAULT_255_2_778
10
34.7950213
20
24.2746119
11
34.6167213
21
24.1558119
0
LINE
8
DEFAULT_255_2_778
10
34.6167213
20
24.1558119
11
34.4979213
21
23.9774119
0
LINE
8
DEFAULT_255_2_778
10
34.4979213
20
23.9774119
11
34.3791213
21
23.6800119
0
LINE
8
DEFAULT_255_2_778
10
34.3791213
20
23.6800119
11
34.3196213
21
23.3234119
0
LINE
8
DEFAULT_255_2_778
10
34.3196213
20
23.3234119
11
34.3196213
21
23.0260119
0
LINE
8
DEFAULT_255_2_778
10
34.3196213
20
23.0260119
11
34.3791213
21
22.6693119
0
LINE
8
DEFAULT_255_2_778
10
34.3791213
20
22.6693119
11
34.4387213
21
22.4910119
0
LINE
8
DEFAULT_255_2_778
10
34.4387213
20
22.4910119
11
34.5575213
21
22.3127119
0
LINE
8
DEFAULT_255_2_778
10
34.5575213
20
22.3127119
11
34.7358213
21
22.1939119
0
LINE
8
DEFAULT_255_2_778
10
34.7358213
20
22.1939119
11
34.9141213
21
22.1343119
0
LINE
8
DEFAULT_255_2_778
10
34.9141213
20
22.1343119
11
35.1520213
21
22.1343119
0
LINE
8
DEFAULT_255_2_778
10
35.1520213
20
22.1343119
11
35.3303213
21
22.1939119
0
LINE
8
DEFAULT_255_2_778
10
35.3303213
20
22.1939119
11
35.5682213
21
22.3722119
0
LINE
8
DEFAULT_255_2_778
10
35.5682213
20
22.3722119
11
35.6870213
21
22.5505119
0
LINE
8
DEFAULT_255_2_778
10
35.6870213
20
22.5505119
11
35.7465213
21
22.7289119
0
LINE
8
DEFAULT_255_2_778
10
35.7465213
20
22.7289119
11
35.7465213
21
23.0262119
0
LINE
8
DEFAULT_255_2_778
10
35.7465213
20
23.0262119
11
35.6870213
21
23.2046119
0
LINE
8
DEFAULT_255_2_778
10
35.6870213
20
23.2046119
11
35.5682213
21
23.3829119
0
LINE
8
DEFAULT_255_2_778
10
35.5682213
20
23.3829119
11
35.3890213
21
23.5020119
0
LINE
8
DEFAULT_255_2_778
10
35.1512213
20
23.3236119
11
34.9728213
21
23.3236119
0
LINE
8
DEFAULT_255_2_778
10
34.9728213
20
23.3236119
11
34.8540213
21
23.2641119
0
LINE
8
DEFAULT_255_2_778
10
34.8540213
20
23.2641119
11
34.7353213
21
23.1453119
0
LINE
8
DEFAULT_255_2_778
10
34.7353213
20
23.1453119
11
34.6757213
21
23.0265119
0
LINE
8
DEFAULT_255_2_778
10
34.6757213
20
23.0265119
11
34.6757213
21
22.7291119
0
LINE
8
DEFAULT_255_2_778
10
34.6757213
20
22.7291119
11
34.7945213
21
22.4913119
0
LINE
8
DEFAULT_255_2_778
10
34.7945213
20
22.4913119
11
34.9728213
21
22.3725119
0
LINE
8
DEFAULT_255_2_778
10
34.9728213
20
22.3725119
11
35.1512213
21
22.3725119
0
LINE
8
DEFAULT_255_2_778
10
35.1512213
20
22.3725119
11
35.3295213
21
22.4913119
0
LINE
8
DEFAULT_255_2_778
10
35.3295213
20
22.4913119
11
35.4483213
21
22.7291119
0
LINE
8
DEFAULT_255_2_778
10
35.4483213
20
22.7291119
11
35.4483213
21
22.9670119
0
LINE
8
DEFAULT_255_2_778
10
35.4483213
20
22.9670119
11
35.3888213
21
23.1453119
0
LINE
8
DEFAULT_255_2_778
10
35.3888213
20
23.1453119
11
35.2700213
21
23.2641119
0
LINE
8
DEFAULT_255_2_778
10
35.2700213
20
23.2641119
11
35.1512213
21
23.3236119
0
LINE
8
DEFAULT_255_2_778
10
34.4971213
20
43.7074119
11
35.2700213
21
43.7074119
0
LINE
8
DEFAULT_255_2_778
10
35.2700213
20
43.7074119
11
35.2700213
21
44.8372119
0
LINE
8
DEFAULT_255_2_778
10
35.2700213
20
44.8372119
11
34.4971213
21
43.7074119
0
LINE
8
DEFAULT_255_2_778
10
35.2107213
20
45.1343119
11
35.5081213
21
45.1343119
0
LINE
8
DEFAULT_255_2_778
10
35.5081213
20
45.1343119
11
35.5081213
21
43.7074119
0
LINE
8
DEFAULT_255_2_778
10
35.5081213
20
43.7074119
11
35.8648213
21
43.7074119
0
LINE
8
DEFAULT_255_2_778
10
35.8648213
20
43.7074119
11
35.8648213
21
43.4695119
0
LINE
8
DEFAULT_255_2_778
10
35.8648213
20
43.4695119
11
35.5081213
21
43.4695119
0
LINE
8
DEFAULT_255_2_778
10
35.5081213
20
43.4695119
11
35.5081213
21
42.9938119
0
LINE
8
DEFAULT_255_2_778
10
35.5081213
20
42.9938119
11
35.2702213
21
42.9938119
0
LINE
8
DEFAULT_255_2_778
10
35.2702213
20
42.9938119
11
35.2702213
21
43.4695119
0
LINE
8
DEFAULT_255_2_778
10
35.2702213
20
43.4695119
11
34.2595213
21
43.4695119
0
LINE
8
DEFAULT_255_2_778
10
34.2595213
20
43.4695119
11
34.2595213
21
43.7669119
0
LINE
8
DEFAULT_255_2_778
10
34.2595213
20
43.7669119
11
35.2107213
21
45.1343119
0
LINE
8
DEFAULT_255_2_778
10
26.7403213
20
16.5937119
11
29.8206213
21
16.5937119
0
LINE
8
DEFAULT_255_2_778
10
26.7403213
20
14.3937119
11
29.8206213
21
14.3937119
0
LINE
8
DEFAULT_255_2_778
10
26.7403213
20
11.3938119
11
29.8206213
21
11.3938119
0
LINE
8
DEFAULT_255_2_778
10
26.7403213
20
9.1938119
11
29.8206213
21
9.1938119
0
LINE
8
DEFAULT_255_2_778
10
26.7403605
20
26.9936704
11
29.8206605
21
26.9936704
0
LINE
8
DEFAULT_255_2_778
10
26.7403605
20
24.7936704
11
29.8206605
21
24.7936704
0
LINE
8
DEFAULT_255_2_778
10
26.7403605
20
21.7938704
11
29.8206605
21
21.7938704
0
LINE
8
DEFAULT_255_2_778
10
26.7403605
20
19.5938704
11
29.8206605
21
19.5938704
0
LINE
8
DEFAULT_255_2_778
10
26.7403605
20
37.3936704
11
29.8206605
21
37.3936704
0
LINE
8
DEFAULT_255_2_778
10
26.7403605
20
35.1936704
11
29.8206605
21
35.1936704
0
LINE
8
DEFAULT_255_2_778
10
26.7403605
20
32.1937704
11
29.8206605
21
32.1937704
0
LINE
8
DEFAULT_255_2_778
10
26.7403605
20
29.9937704
11
29.8206605
21
29.9937704
0
LINE
8
DEFAULT_255_2_778
10
26.7403605
20
47.7936704
11
29.8206605
21
47.7936704
0
LINE
8
DEFAULT_255_2_778
10
26.7403605
20
45.5936704
11
29.8206605
21
45.5936704
0
LINE
8
DEFAULT_255_2_778
10
26.7403605
20
42.5937704
11
29.8206605
21
42.5937704
0
LINE
8
DEFAULT_255_2_778
10
26.7403605
20
40.3937704
11
29.8206605
21
40.3937704
0
LINE
8
DEFAULT_255_2_778
10
26.7403605
20
52.9937704
11
29.8206605
21
52.9937704
0
LINE
8
DEFAULT_255_2_778
10
26.7403605
20
50.7937704
11
29.8206605
21
50.7937704
0
ARC
8
DEFAULT_255_2_778
10
28.2694481
20
12.8950521
40
0.5488181
50
89.8660429
51
180.1235406
0
ARC
8
DEFAULT_255_2_778
10
28.2719996
20
12.8951371
40
0.5487331
50
359.8675643
51
90.1324283
0
ARC
8
DEFAULT_255_2_778
10
28.2720419
20
12.8924584
40
0.5486912
50
269.8631411
51
0.147268
0
ARC
8
DEFAULT_255_2_778
10
28.2694061
20
12.8925435
40
0.5487764
50
179.8616364
51
270.1383563
0
LINE
8
DEFAULT_255_2_778
10
27.7206313
20
12.8938687
11
27.7206313
21
12.8938687
0
ARC
8
DEFAULT_255_2_778
10
28.2694696
20
7.6949304
40
0.5488398
50
89.8682888
51
180.1317112
0
ARC
8
DEFAULT_255_2_778
10
28.2719782
20
7.6950154
40
0.5487547
50
359.8593896
51
90.1301939
0
ARC
8
DEFAULT_255_2_778
10
28.2720632
20
7.6923368
40
0.5486696
50
269.8609058
51
0.1390942
0
ARC
8
DEFAULT_255_2_778
10
28.2693846
20
7.6924218
40
0.5487547
50
179.8698061
51
270.1406104
0
LINE
8
DEFAULT_255_2_778
10
27.7206313
20
7.6936687
11
27.7206313
21
7.6936687
0
ARC
8
DEFAULT_255_2_778
10
28.2694696
20
23.2950304
40
0.5488398
50
89.8682888
51
180.1317112
0
ARC
8
DEFAULT_255_2_778
10
28.2719782
20
23.2951154
40
0.5487547
50
359.8593896
51
90.1301939
0
ARC
8
DEFAULT_255_2_778
10
28.2720632
20
23.2924368
40
0.5486696
50
269.8609058
51
0.1390942
0
ARC
8
DEFAULT_255_2_778
10
28.2693846
20
23.2925218
40
0.5487547
50
179.8698061
51
270.1406104
0
LINE
8
DEFAULT_255_2_778
10
27.7206313
20
23.2937687
11
27.7206313
21
23.2937687
0
ARC
8
DEFAULT_255_2_778
10
28.2694696
20
18.0949304
40
0.5488398
50
89.8682888
51
180.1317112
0
ARC
8
DEFAULT_255_2_778
10
28.2719782
20
18.0950154
40
0.5487547
50
359.8593896
51
90.1301939
0
ARC
8
DEFAULT_255_2_778
10
28.2720632
20
18.0923368
40
0.5486696
50
269.8609058
51
0.1390942
0
ARC
8
DEFAULT_255_2_778
10
28.2693846
20
18.0924218
40
0.5487547
50
179.8698061
51
270.1406104
0
LINE
8
DEFAULT_255_2_778
10
27.7206313
20
18.0936687
11
27.7206313
21
18.0936687
0
ARC
8
DEFAULT_255_2_778
10
28.2694696
20
33.6949304
40
0.5488398
50
89.8682888
51
180.1317112
0
ARC
8
DEFAULT_255_2_778
10
28.2719782
20
33.6950154
40
0.5487547
50
359.8593896
51
90.1301939
0
ARC
8
DEFAULT_255_2_778
10
28.2720632
20
33.6923368
40
0.5486696
50
269.8609058
51
0.1390942
0
ARC
8
DEFAULT_255_2_778
10
28.2693846
20
33.6924218
40
0.5487547
50
179.8698061
51
270.1406104
0
LINE
8
DEFAULT_255_2_778
10
27.7206313
20
33.6936687
11
27.7206313
21
33.6936687
0
ARC
8
DEFAULT_255_2_778
10
28.2694696
20
28.4948304
40
0.5488398
50
89.8682888
51
180.1317112
0
ARC
8
DEFAULT_255_2_778
10
28.2719782
20
28.4949154
40
0.5487547
50
359.8593896
51
90.1301939
0
ARC
8
DEFAULT_255_2_778
10
28.2720632
20
28.4922368
40
0.5486696
50
269.8609058
51
0.1390942
0
ARC
8
DEFAULT_255_2_778
10
28.2693846
20
28.4923218
40
0.5487547
50
179.8698061
51
270.1406104
0
LINE
8
DEFAULT_255_2_778
10
27.7206313
20
28.4935687
11
27.7206313
21
28.4935687
0
ARC
8
DEFAULT_255_2_778
10
28.2694696
20
44.0949304
40
0.5488398
50
89.8682888
51
180.1317112
0
ARC
8
DEFAULT_255_2_778
10
28.2719782
20
44.0950154
40
0.5487547
50
359.8593896
51
90.1301939
0
ARC
8
DEFAULT_255_2_778
10
28.2720632
20
44.0923368
40
0.5486696
50
269.8609058
51
0.1390942
0
ARC
8
DEFAULT_255_2_778
10
28.2693846
20
44.0924218
40
0.5487547
50
179.8698061
51
270.1406104
0
LINE
8
DEFAULT_255_2_778
10
27.7206313
20
44.0936687
11
27.7206313
21
44.0936687
0
ARC
8
DEFAULT_255_2_778
10
28.2694696
20
38.8948304
40
0.5488398
50
89.8682888
51
180.1317112
0
ARC
8
DEFAULT_255_2_778
10
28.2719782
20
38.8949154
40
0.5487547
50
359.8593896
51
90.1301939
0
ARC
8
DEFAULT_255_2_778
10
28.2720632
20
38.8922368
40
0.5486696
50
269.8609058
51
0.1390942
0
ARC
8
DEFAULT_255_2_778
10
28.2693846
20
38.8923218
40
0.5487547
50
179.8698061
51
270.1406104
0
LINE
8
DEFAULT_255_2_778
10
27.7206313
20
38.8935687
11
27.7206313
21
38.8935687
0
ARC
8
DEFAULT_255_2_778
10
28.2694696
20
54.4949304
40
0.5488398
50
89.8682888
51
180.1317112
0
ARC
8
DEFAULT_255_2_778
10
28.2719782
20
54.4950154
40
0.5487547
50
359.8593896
51
90.1301939
0
ARC
8
DEFAULT_255_2_778
10
28.2720632
20
54.4923368
40
0.5486696
50
269.8609058
51
0.1390942
0
ARC
8
DEFAULT_255_2_778
10
28.2693846
20
54.4924218
40
0.5487547
50
179.8698061
51
270.1406104
0
LINE
8
DEFAULT_255_2_778
10
27.7206313
20
54.4936687
11
27.7206313
21
54.4936687
0
ARC
8
DEFAULT_255_2_778
10
28.2694696
20
49.2948304
40
0.5488398
50
89.8682888
51
180.1317112
0
ARC
8
DEFAULT_255_2_778
10
28.2719782
20
49.2949154
40
0.5487547
50
359.8593896
51
90.1301939
0
ARC
8
DEFAULT_255_2_778
10
28.2720632
20
49.2922368
40
0.5486696
50
269.8609058
51
0.1390942
0
ARC
8
DEFAULT_255_2_778
10
28.2693846
20
49.2923218
40
0.5487547
50
179.8698061
51
270.1406104
0
LINE
8
DEFAULT_255_2_778
10
27.7206313
20
49.2935687
11
27.7206313
21
49.2935687
0
LINE
8
DEFAULT_255_2_778
10
26.74065
20
78.9939371
11
29.80135
21
78.9939371
0
LINE
8
DEFAULT_255_2_778
10
26.74065
20
76.7938371
11
29.80135
21
76.7938371
0
LINE
8
DEFAULT_255_2_778
10
26.74065
20
73.7937371
11
29.80135
21
73.7937371
0
LINE
8
DEFAULT_255_2_778
10
26.74065
20
71.5937371
11
29.80135
21
71.5937371
0
LINE
8
DEFAULT_255_2_778
10
26.74065
20
87.1938371
11
29.80135
21
87.1938371
0
LINE
8
DEFAULT_255_2_778
10
26.74065
20
84.1937371
11
29.80135
21
84.1937371
0
LINE
8
DEFAULT_255_2_778
10
26.74065
20
81.9940371
11
29.80135
21
81.9940371
0
LINE
8
DEFAULT_255_2_778
10
26.74065
20
97.5938371
11
29.80135
21
97.5938371
0
LINE
8
DEFAULT_255_2_778
10
26.74065
20
94.5940371
11
29.80135
21
94.5940371
0
LINE
8
DEFAULT_255_2_778
10
26.74065
20
92.3939371
11
29.80135
21
92.3939371
0
LINE
8
DEFAULT_255_2_778
10
26.74065
20
89.3938371
11
29.80135
21
89.3938371
0
LINE
8
DEFAULT_255_2_778
10
29.80135
20
119.0938243
11
29.80135
21
67.8938243
0
LINE
8
DEFAULT_255_2_778
10
29.80135
20
67.8938243
11
26.74065
21
67.8938243
0
LINE
8
DEFAULT_255_2_778
10
26.74065
20
104.9939487
11
29.80135
21
104.9939487
0
LINE
8
DEFAULT_255_2_778
10
26.74065
20
102.7939487
11
29.80135
21
102.7939487
0
LINE
8
DEFAULT_255_2_778
10
26.74065
20
99.7938487
11
29.80135
21
99.7938487
0
LINE
8
DEFAULT_255_2_778
10
26.74065
20
115.3939487
11
29.80135
21
115.3939487
0
LINE
8
DEFAULT_255_2_778
10
26.74065
20
113.1939487
11
29.80135
21
113.1939487
0
LINE
8
DEFAULT_255_2_778
10
26.74065
20
110.1938487
11
29.80135
21
110.1938487
0
LINE
8
DEFAULT_255_2_778
10
26.74065
20
107.9938487
11
29.80135
21
107.9938487
0
ARC
8
DEFAULT_255_2_778
10
28.2501696
20
75.2949304
40
0.5488398
50
89.8682888
51
180.1317112
0
ARC
8
DEFAULT_255_2_778
10
28.2526782
20
75.2950154
40
0.5487547
50
359.8593896
51
90.1301939
0
ARC
8
DEFAULT_255_2_778
10
28.2527632
20
75.2923368
40
0.5486696
50
269.8609058
51
0.1390942
0
ARC
8
DEFAULT_255_2_778
10
28.2500846
20
75.2924218
40
0.5487547
50
179.8698061
51
270.1406104
0
LINE
8
DEFAULT_255_2_778
10
27.7013313
20
75.2936687
11
27.7013313
21
75.2936687
0
ARC
8
DEFAULT_255_2_778
10
28.2501696
20
70.0950304
40
0.5488398
50
89.8682888
51
180.1317112
0
ARC
8
DEFAULT_255_2_778
10
28.2526782
20
70.0951154
40
0.5487547
50
359.8593896
51
90.1301939
0
ARC
8
DEFAULT_255_2_778
10
28.2527632
20
70.0924368
40
0.5486696
50
269.8609058
51
0.1390942
0
ARC
8
DEFAULT_255_2_778
10
28.2500846
20
70.0925218
40
0.5487547
50
179.8698061
51
270.1406104
0
LINE
8
DEFAULT_255_2_778
10
27.7013313
20
70.0937687
11
27.7013313
21
70.0937687
0
ARC
8
DEFAULT_255_2_778
10
28.2501696
20
85.6951304
40
0.5488398
50
89.8682888
51
180.1317112
0
ARC
8
DEFAULT_255_2_778
10
28.2526782
20
85.6952154
40
0.5487547
50
359.8593896
51
90.1301939
0
ARC
8
DEFAULT_255_2_778
10
28.2527632
20
85.6925368
40
0.5486696
50
269.8609058
51
0.1390942
0
ARC
8
DEFAULT_255_2_778
10
28.2500846
20
85.6926218
40
0.5487547
50
179.8698061
51
270.1406104
0
LINE
8
DEFAULT_255_2_778
10
27.7013313
20
85.6938687
11
27.7013313
21
85.6938687
0
ARC
8
DEFAULT_255_2_778
10
28.2501696
20
80.4950304
40
0.5488398
50
89.8682888
51
180.1317112
0
ARC
8
DEFAULT_255_2_778
10
28.2526782
20
80.4951154
40
0.5487547
50
359.8593896
51
90.1301939
0
ARC
8
DEFAULT_255_2_778
10
28.2527632
20
80.4924368
40
0.5486696
50
269.8609058
51
0.1390942
0
ARC
8
DEFAULT_255_2_778
10
28.2500846
20
80.4925218
40
0.5487547
50
179.8698061
51
270.1406104
0
LINE
8
DEFAULT_255_2_778
10
27.7013313
20
80.4937687
11
27.7013313
21
80.4937687
0
ARC
8
DEFAULT_255_2_778
10
28.2501696
20
96.0951304
40
0.5488398
50
89.8682888
51
180.1317112
0
ARC
8
DEFAULT_255_2_778
10
28.2526782
20
96.0952154
40
0.5487547
50
359.8593896
51
90.1301939
0
ARC
8
DEFAULT_255_2_778
10
28.2527632
20
96.0925368
40
0.5486696
50
269.8609058
51
0.1390942
0
ARC
8
DEFAULT_255_2_778
10
28.2500846
20
96.0926218
40
0.5487547
50
179.8698061
51
270.1406104
0
LINE
8
DEFAULT_255_2_778
10
27.7013313
20
96.0938687
11
27.7013313
21
96.0938687
0
ARC
8
DEFAULT_255_2_778
10
28.2501696
20
90.8950304
40
0.5488398
50
89.8682888
51
180.1317112
0
ARC
8
DEFAULT_255_2_778
10
28.2526782
20
90.8951154
40
0.5487547
50
359.8593896
51
90.1301939
0
ARC
8
DEFAULT_255_2_778
10
28.2527632
20
90.8924368
40
0.5486696
50
269.8609058
51
0.1390942
0
ARC
8
DEFAULT_255_2_778
10
28.2500846
20
90.8925218
40
0.5487547
50
179.8698061
51
270.1406104
0
LINE
8
DEFAULT_255_2_778
10
27.7013313
20
90.8937687
11
27.7013313
21
90.8937687
0
ARC
8
DEFAULT_255_2_778
10
28.2501696
20
106.4951304
40
0.5488398
50
89.8682888
51
180.1317112
0
ARC
8
DEFAULT_255_2_778
10
28.2526782
20
106.4952154
40
0.5487547
50
359.8593896
51
90.1301939
0
ARC
8
DEFAULT_255_2_778
10
28.2527632
20
106.4925368
40
0.5486696
50
269.8609058
51
0.1390942
0
ARC
8
DEFAULT_255_2_778
10
28.2500846
20
106.4926218
40
0.5487547
50
179.8698061
51
270.1406104
0
LINE
8
DEFAULT_255_2_778
10
27.7013313
20
106.4938687
11
27.7013313
21
106.4938687
0
ARC
8
DEFAULT_255_2_778
10
28.2501696
20
101.2949304
40
0.5488398
50
89.8682888
51
180.1317112
0
ARC
8
DEFAULT_255_2_778
10
28.2526782
20
101.2950154
40
0.5487547
50
359.8593896
51
90.1301939
0
ARC
8
DEFAULT_255_2_778
10
28.2527632
20
101.2923368
40
0.5486696
50
269.8609058
51
0.1390942
0
ARC
8
DEFAULT_255_2_778
10
28.2500846
20
101.2924218
40
0.5487547
50
179.8698061
51
270.1406104
0
LINE
8
DEFAULT_255_2_778
10
27.7013313
20
101.2936687
11
27.7013313
21
101.2936687
0
ARC
8
DEFAULT_255_2_778
10
28.2501696
20
116.8950304
40
0.5488398
50
89.8682888
51
180.1317112
0
ARC
8
DEFAULT_255_2_778
10
28.2526782
20
116.8951154
40
0.5487547
50
359.8593896
51
90.1301939
0
ARC
8
DEFAULT_255_2_778
10
28.2527632
20
116.8924368
40
0.5486696
50
269.8609058
51
0.1390942
0
ARC
8
DEFAULT_255_2_778
10
28.2500846
20
116.8925218
40
0.5487547
50
179.8698061
51
270.1406104
0
LINE
8
DEFAULT_255_2_778
10
27.7013313
20
116.8937687
11
27.7013313
21
116.8937687
0
ARC
8
DEFAULT_255_2_778
10
28.2501696
20
111.6949304
40
0.5488398
50
89.8682888
51
180.1317112
0
ARC
8
DEFAULT_255_2_778
10
28.2526782
20
111.6950154
40
0.5487547
50
359.8593896
51
90.1301939
0
ARC
8
DEFAULT_255_2_778
10
28.2527632
20
111.6923368
40
0.5486696
50
269.8609058
51
0.1390942
0
ARC
8
DEFAULT_255_2_778
10
28.2500846
20
111.6924218
40
0.5487547
50
179.8698061
51
270.1406104
0
LINE
8
DEFAULT_255_2_778
10
27.7013313
20
111.6936687
11
27.7013313
21
111.6936687
0
LINE
8
DEFAULT_255_2_778
10
20.5268387
20
123.768276
11
5.6157387
21
123.768276
0
LINE
8
DEFAULT_255_2_778
10
5.6157387
20
123.768276
11
5.6157387
21
119.664276
0
LINE
8
DEFAULT_255_2_778
10
5.6157387
20
119.664276
11
20.5268387
21
119.664276
0
LINE
8
DEFAULT_255_2_778
10
20.5268387
20
119.664276
11
20.5268387
21
123.768276
0
LINE
8
DEFAULT_255_2_778
10
8.0284596
20
122.6434697
11
7.7893596
21
122.6707697
0
LINE
8
DEFAULT_255_2_778
10
7.7893596
20
122.6707697
11
7.5757596
21
122.6657697
0
LINE
8
DEFAULT_255_2_778
10
7.5757596
20
122.6657697
11
7.3905596
21
122.6329697
0
LINE
8
DEFAULT_255_2_778
10
7.3905596
20
122.6329697
11
7.2344596
21
122.5778697
0
LINE
8
DEFAULT_255_2_778
10
7.2344596
20
122.5778697
11
7.1087596
21
122.5045697
0
LINE
8
DEFAULT_255_2_778
10
7.1087596
20
122.5045697
11
7.0143596
21
122.4175697
0
LINE
8
DEFAULT_255_2_778
10
7.0143596
20
122.4175697
11
6.9479596
21
122.3148697
0
LINE
8
DEFAULT_255_2_778
10
6.9479596
20
122.3148697
11
6.9071596
21
122.1950697
0
LINE
8
DEFAULT_255_2_778
10
6.9071596
20
122.1950697
11
6.8947596
21
122.0590697
0
LINE
8
DEFAULT_255_2_778
10
6.8947596
20
122.0590697
11
6.9100596
21
121.9312697
0
LINE
8
DEFAULT_255_2_778
10
6.9100596
20
121.9312697
11
6.9526596
21
121.8190697
0
LINE
8
DEFAULT_255_2_778
10
6.9526596
20
121.8190697
11
7.0262596
21
121.7126697
0
LINE
8
DEFAULT_255_2_778
10
7.0262596
20
121.7126697
11
7.1191596
21
121.6267697
0
LINE
8
DEFAULT_255_2_778
10
7.1191596
20
121.6267697
11
7.2133596
21
121.5669697
0
LINE
8
DEFAULT_255_2_778
10
7.2133596
20
121.5669697
11
7.3839596
21
121.4838697
0
LINE
8
DEFAULT_255_2_778
10
7.3839596
20
121.4838697
11
7.7091596
21
121.3401697
0
LINE
8
DEFAULT_255_2_778
10
7.7091596
20
121.3401697
11
7.7572596
21
121.3131697
0
LINE
8
DEFAULT_255_2_778
10
7.7572596
20
121.3131697
11
7.7990596
21
121.2845697
0
LINE
8
DEFAULT_255_2_778
10
7.7990596
20
121.2845697
11
7.8321596
21
121.2528697
0
LINE
8
DEFAULT_255_2_778
10
7.8321596
20
121.2528697
11
7.8551596
21
121.2176697
0
LINE
8
DEFAULT_255_2_778
10
7.8551596
20
121.2176697
11
7.8652596
21
121.1829697
0
LINE
8
DEFAULT_255_2_778
10
7.8652596
20
121.1829697
11
7.8618596
21
121.1488697
0
LINE
8
DEFAULT_255_2_778
10
7.8618596
20
121.1488697
11
7.8448596
21
121.1139697
0
LINE
8
DEFAULT_255_2_778
10
7.8448596
20
121.1139697
11
7.8136596
21
121.0829697
0
LINE
8
DEFAULT_255_2_778
10
7.8136596
20
121.0829697
11
7.7710596
21
121.0578697
0
LINE
8
DEFAULT_255_2_778
10
7.7710596
20
121.0578697
11
7.7202596
21
121.0380697
0
LINE
8
DEFAULT_255_2_778
10
7.7202596
20
121.0380697
11
7.6620596
21
121.0229697
0
LINE
8
DEFAULT_255_2_778
10
7.6620596
20
121.0229697
11
7.5247596
21
121.0044697
0
LINE
8
DEFAULT_255_2_778
10
7.5247596
20
121.0044697
11
7.3575596
21
121.0028697
0
LINE
8
DEFAULT_255_2_778
10
7.3575596
20
121.0028697
11
7.2611596
21
121.0110697
0
LINE
8
DEFAULT_255_2_778
10
7.2611596
20
121.0110697
11
7.1556596
21
121.0284697
0
LINE
8
DEFAULT_255_2_778
10
7.1556596
20
121.0284697
11
7.0405596
21
121.0575697
0
LINE
8
DEFAULT_255_2_778
10
7.0405596
20
121.0575697
11
6.9159596
21
121.1009697
0
LINE
8
DEFAULT_255_2_778
10
6.9159596
20
121.1009697
11
6.9159596
21
120.7316697
0
LINE
8
DEFAULT_255_2_778
10
6.9159596
20
120.7316697
11
7.2014596
21
120.6657697
0
LINE
8
DEFAULT_255_2_778
10
7.2014596
20
120.6657697
11
7.4588596
21
120.6403697
0
LINE
8
DEFAULT_255_2_778
10
7.4588596
20
120.6403697
11
7.6869596
21
120.6490697
0
LINE
8
DEFAULT_255_2_778
10
7.6869596
20
120.6490697
11
7.8850596
21
120.6847697
0
LINE
8
DEFAULT_255_2_778
10
7.8850596
20
120.6847697
11
8.0528596
21
120.7429697
0
LINE
8
DEFAULT_255_2_778
10
8.0528596
20
120.7429697
11
8.1896596
21
120.8191697
0
LINE
8
DEFAULT_255_2_778
10
8.1896596
20
120.8191697
11
8.2938596
21
120.9099697
0
LINE
8
DEFAULT_255_2_778
10
8.2938596
20
120.9099697
11
8.3658596
21
121.0126697
0
LINE
8
DEFAULT_255_2_778
10
8.3658596
20
121.0126697
11
8.4086596
21
121.1271697
0
LINE
8
DEFAULT_255_2_778
10
8.4086596
20
121.1271697
11
8.4237596
21
121.2576697
0
LINE
8
DEFAULT_255_2_778
10
8.4237596
20
121.2576697
11
8.4097596
21
121.3925697
0
LINE
8
DEFAULT_255_2_778
10
8.4097596
20
121.3925697
11
8.3655596
21
121.5150697
0
LINE
8
DEFAULT_255_2_778
10
8.3655596
20
121.5150697
11
8.2920596
21
121.6251697
0
LINE
8
DEFAULT_255_2_778
10
8.2920596
20
121.6251697
11
8.2012596
21
121.7121697
0
LINE
8
DEFAULT_255_2_778
10
8.2012596
20
121.7121697
11
8.1094596
21
121.7730697
0
LINE
8
DEFAULT_255_2_778
10
8.1094596
20
121.7730697
11
7.9427596
21
121.8587697
0
LINE
8
DEFAULT_255_2_778
10
7.9427596
20
121.8587697
11
7.6231596
21
122.0047697
0
LINE
8
DEFAULT_255_2_778
10
7.6231596
20
122.0047697
11
7.5326596
21
122.0590697
0
LINE
8
DEFAULT_255_2_778
10
7.5326596
20
122.0590697
11
7.4977596
21
122.0891697
0
LINE
8
DEFAULT_255_2_778
10
7.4977596
20
122.0891697
11
7.4715596
21
122.1225697
0
LINE
8
DEFAULT_255_2_778
10
7.4715596
20
122.1225697
11
7.4564596
21
122.1566697
0
LINE
8
DEFAULT_255_2_778
10
7.4564596
20
122.1566697
11
7.4543596
21
122.1907697
0
LINE
8
DEFAULT_255_2_778
10
7.4543596
20
122.1907697
11
7.4659596
21
122.2243697
0
LINE
8
DEFAULT_255_2_778
10
7.4659596
20
122.2243697
11
7.4913596
21
122.2540697
0
LINE
8
DEFAULT_255_2_778
10
7.4913596
20
122.2540697
11
7.5284596
21
122.2786697
0
LINE
8
DEFAULT_255_2_778
10
7.5284596
20
122.2786697
11
7.5734596
21
122.2979697
0
LINE
8
DEFAULT_255_2_778
10
7.5734596
20
122.2979697
11
7.6249596
21
122.3135697
0
LINE
8
DEFAULT_255_2_778
10
7.6249596
20
122.3135697
11
7.6829596
21
122.3252697
0
LINE
8
DEFAULT_255_2_778
10
7.6829596
20
122.3252697
11
7.7480596
21
122.3315697
0
LINE
8
DEFAULT_255_2_778
10
7.7480596
20
122.3315697
11
7.8199596
21
122.3315697
0
LINE
8
DEFAULT_255_2_778
10
7.8199596
20
122.3315697
11
7.8991596
21
122.3252697
0
LINE
8
DEFAULT_255_2_778
10
7.8991596
20
122.3252697
11
7.9853596
21
122.3125697
0
LINE
8
DEFAULT_255_2_778
10
7.9853596
20
122.3125697
11
8.0792596
21
122.2926697
0
LINE
8
DEFAULT_255_2_778
10
8.0792596
20
122.2926697
11
8.1808596
21
122.2651697
0
LINE
8
DEFAULT_255_2_778
10
8.1808596
20
122.2651697
11
8.2904596
21
122.2296697
0
LINE
8
DEFAULT_255_2_778
10
8.2904596
20
122.2296697
11
8.2904596
21
122.5987697
0
LINE
8
DEFAULT_255_2_778
10
8.2904596
20
122.5987697
11
8.0287596
21
122.6437697
0
LINE
8
DEFAULT_255_2_778
10
12.2504596
20
122.6191697
11
11.5527596
21
122.6191697
0
LINE
8
DEFAULT_255_2_778
10
11.5527596
20
122.6191697
11
11.5527596
21
120.6903697
0
LINE
8
DEFAULT_255_2_778
10
11.5527596
20
120.6903697
11
11.9427596
21
120.6903697
0
LINE
8
DEFAULT_255_2_778
10
11.9427596
20
120.6903697
11
11.9427596
21
121.9214697
0
LINE
8
DEFAULT_255_2_778
10
11.9427596
20
121.9214697
11
12.4761596
21
120.6697697
0
LINE
8
DEFAULT_255_2_778
10
12.4761596
20
120.6697697
11
12.8248596
21
120.6697697
0
LINE
8
DEFAULT_255_2_778
10
12.8248596
20
120.6697697
11
13.3788596
21
121.9418697
0
LINE
8
DEFAULT_255_2_778
10
13.3788596
20
121.9418697
11
13.3788596
21
120.6900697
0
LINE
8
DEFAULT_255_2_778
10
13.3788596
20
120.6900697
11
13.9329596
21
120.6900697
0
LINE
8
DEFAULT_255_2_778
10
13.9329596
20
120.6900697
11
13.9329596
21
122.6188697
0
LINE
8
DEFAULT_255_2_778
10
13.9329596
20
122.6188697
11
13.2352596
21
122.6188697
0
LINE
8
DEFAULT_255_2_778
10
13.2352596
20
122.6188697
11
12.7632596
21
121.4491697
0
LINE
8
DEFAULT_255_2_778
10
12.7632596
20
121.4491697
11
12.2501596
21
122.6188697
0
LINE
8
DEFAULT_255_2_778
10
19.1737596
20
122.3228697
11
19.2621596
21
122.3125697
0
LINE
8
DEFAULT_255_2_778
10
19.2621596
20
122.3125697
11
19.3584596
21
122.2942697
0
LINE
8
DEFAULT_255_2_778
10
19.3584596
20
122.2942697
11
19.4629596
21
122.2667697
0
LINE
8
DEFAULT_255_2_778
10
19.4629596
20
122.2667697
11
19.5759596
21
122.2291697
0
LINE
8
DEFAULT_255_2_778
10
19.5759596
20
122.2291697
11
19.5759596
21
122.5987697
0
LINE
8
DEFAULT_255_2_778
10
19.5759596
20
122.5987697
11
19.3105596
21
122.6421697
0
LINE
8
DEFAULT_255_2_778
10
19.3105596
20
122.6421697
11
19.0679596
21
122.6670697
0
LINE
8
DEFAULT_255_2_778
10
19.0679596
20
122.6670697
11
18.8523596
21
122.6583697
0
LINE
8
DEFAULT_255_2_778
10
18.8523596
20
122.6583697
11
18.6665596
21
122.6199697
0
LINE
8
DEFAULT_255_2_778
10
18.6665596
20
122.6199697
11
18.5126596
21
122.5580697
0
LINE
8
DEFAULT_255_2_778
10
18.5126596
20
122.5580697
11
18.3903596
21
122.4783697
0
LINE
8
DEFAULT_255_2_778
10
18.3903596
20
122.4783697
11
18.3009596
21
122.3868697
0
LINE
8
DEFAULT_255_2_778
10
18.3009596
20
122.3868697
11
18.2395596
21
122.2815697
0
LINE
8
DEFAULT_255_2_778
10
18.2395596
20
122.2815697
11
18.2046596
21
122.1593697
0
LINE
8
DEFAULT_255_2_778
10
18.2046596
20
122.1593697
11
18.1990596
21
122.0238697
0
LINE
8
DEFAULT_255_2_778
10
18.1990596
20
122.0238697
11
18.2228596
21
121.8976697
0
LINE
8
DEFAULT_255_2_778
10
18.2228596
20
121.8976697
11
18.2768596
21
121.7843697
0
LINE
8
DEFAULT_255_2_778
10
18.2768596
20
121.7843697
11
18.3602596
21
121.6820697
0
LINE
8
DEFAULT_255_2_778
10
18.3602596
20
121.6820697
11
18.4551596
21
121.6050697
0
LINE
8
DEFAULT_255_2_778
10
18.4551596
20
121.6050697
11
18.5472596
21
121.5515697
0
LINE
8
DEFAULT_255_2_778
10
18.5472596
20
121.5515697
11
19.0272596
21
121.3353697
0
LINE
8
DEFAULT_255_2_778
10
19.0272596
20
121.3353697
11
19.0737596
21
121.3092697
0
LINE
8
DEFAULT_255_2_778
10
19.0737596
20
121.3092697
11
19.1140596
21
121.2814697
0
LINE
8
DEFAULT_255_2_778
10
19.1140596
20
121.2814697
11
19.1457596
21
121.2499697
0
LINE
8
DEFAULT_255_2_778
10
19.1457596
20
121.2499697
11
19.1671596
21
121.2158697
0
LINE
8
DEFAULT_255_2_778
10
19.1671596
20
121.2158697
11
19.1756596
21
121.1811697
0
LINE
8
DEFAULT_255_2_778
10
19.1756596
20
121.1811697
11
19.1695596
21
121.1462697
0
LINE
8
DEFAULT_255_2_778
10
19.1695596
20
121.1462697
11
19.1494596
21
121.1123697
0
LINE
8
DEFAULT_255_2_778
10
19.1494596
20
121.1123697
11
19.1158596
21
121.0835697
0
LINE
8
DEFAULT_255_2_778
10
19.1158596
20
121.0835697
11
19.0721596
21
121.0602697
0
LINE
8
DEFAULT_255_2_778
10
19.0721596
20
121.0602697
11
19.0211596
21
121.0417697
0
LINE
8
DEFAULT_255_2_778
10
19.0211596
20
121.0417697
11
18.8988596
21
121.0155697
0
LINE
8
DEFAULT_255_2_778
10
18.8988596
20
121.0155697
11
18.7483596
21
121.0036697
0
LINE
8
DEFAULT_255_2_778
10
18.7483596
20
121.0036697
11
18.6612596
21
121.0049697
0
LINE
8
DEFAULT_255_2_778
10
18.6612596
20
121.0049697
11
18.5655596
21
121.0128697
0
LINE
8
DEFAULT_255_2_778
10
18.5655596
20
121.0128697
11
18.4604596
21
121.0298697
0
LINE
8
DEFAULT_255_2_778
10
18.4604596
20
121.0298697
11
18.3459596
21
121.0583697
0
LINE
8
DEFAULT_255_2_778
10
18.3459596
20
121.0583697
11
18.2218596
21
121.1009697
0
LINE
8
DEFAULT_255_2_778
10
18.2218596
20
121.1009697
11
18.2218596
21
120.7316697
0
LINE
8
DEFAULT_255_2_778
10
18.2218596
20
120.7316697
11
18.5044596
21
120.6670697
0
LINE
8
DEFAULT_255_2_778
10
18.5044596
20
120.6670697
11
18.7591596
21
120.6421697
0
LINE
8
DEFAULT_255_2_778
10
18.7591596
20
120.6421697
11
18.9848596
21
120.6509697
0
LINE
8
DEFAULT_255_2_778
10
18.9848596
20
120.6509697
11
19.1812596
21
120.6863697
0
LINE
8
DEFAULT_255_2_778
10
19.1812596
20
120.6863697
11
19.3473596
21
120.7440697
0
LINE
8
DEFAULT_255_2_778
10
19.3473596
20
120.7440697
11
19.4828596
21
120.8199697
0
LINE
8
DEFAULT_255_2_778
10
19.4828596
20
120.8199697
11
19.5846596
21
120.9096697
0
LINE
8
DEFAULT_255_2_778
10
19.5846596
20
120.9096697
11
19.6540596
21
121.0104697
0
LINE
8
DEFAULT_255_2_778
10
19.6540596
20
121.0104697
11
19.6963596
21
121.1247697
0
LINE
8
DEFAULT_255_2_778
10
19.6963596
20
121.1247697
11
19.7114596
21
121.2584697
0
LINE
8
DEFAULT_255_2_778
10
19.7114596
20
121.2584697
11
19.6974596
21
121.3914697
0
LINE
8
DEFAULT_255_2_778
10
19.6974596
20
121.3914697
11
19.6550596
21
121.5100697
0
LINE
8
DEFAULT_255_2_778
10
19.6550596
20
121.5100697
11
19.5828596
21
121.6195697
0
LINE
8
DEFAULT_255_2_778
10
19.5828596
20
121.6195697
11
19.4894596
21
121.7097697
0
LINE
8
DEFAULT_255_2_778
10
19.4894596
20
121.7097697
11
19.3926596
21
121.7730697
0
LINE
8
DEFAULT_255_2_778
10
19.3926596
20
121.7730697
11
19.2177596
21
121.8608697
0
LINE
8
DEFAULT_255_2_778
10
19.2177596
20
121.8608697
11
18.9404596
21
121.9854697
0
LINE
8
DEFAULT_255_2_778
10
18.9404596
20
121.9854697
11
18.8369596
21
122.0439697
0
LINE
8
DEFAULT_255_2_778
10
18.8369596
20
122.0439697
11
18.7967596
21
122.0767697
0
LINE
8
DEFAULT_255_2_778
10
18.7967596
20
122.0767697
11
18.7676596
21
122.1138697
0
LINE
8
DEFAULT_255_2_778
10
18.7676596
20
122.1138697
11
18.7520596
21
122.1526697
0
LINE
8
DEFAULT_255_2_778
10
18.7520596
20
122.1526697
11
18.7517596
21
122.1915697
0
LINE
8
DEFAULT_255_2_778
10
18.7517596
20
122.1915697
11
18.7666596
21
122.2310697
0
LINE
8
DEFAULT_255_2_778
10
18.7666596
20
122.2310697
11
18.7962596
21
122.2664697
0
LINE
8
DEFAULT_255_2_778
10
18.7962596
20
122.2664697
11
18.8388596
21
122.2921697
0
LINE
8
DEFAULT_255_2_778
10
18.8388596
20
122.2921697
11
18.8925596
21
122.3093697
0
LINE
8
DEFAULT_255_2_778
10
18.8925596
20
122.3093697
11
18.9531596
21
122.3207697
0
LINE
8
DEFAULT_255_2_778
10
18.9531596
20
122.3207697
11
19.0195596
21
122.3265697
0
LINE
8
DEFAULT_255_2_778
10
19.0195596
20
122.3265697
11
19.1735596
21
122.3230697
0
LINE
8
DEFAULT_255_2_778
10
16.8057596
20
122.6191697
11
16.1697596
21
122.6191697
0
LINE
8
DEFAULT_255_2_778
10
16.1697596
20
122.6191697
11
16.1697596
21
120.6903697
0
LINE
8
DEFAULT_255_2_778
10
16.1697596
20
120.6903697
11
16.5597596
21
120.6903697
0
LINE
8
DEFAULT_255_2_778
10
16.5597596
20
120.6903697
11
16.5597596
21
121.9214697
0
LINE
8
DEFAULT_255_2_778
10
16.5597596
20
121.9214697
11
17.2574596
21
120.6903697
0
LINE
8
DEFAULT_255_2_778
10
17.2574596
20
120.6903697
11
17.8934596
21
120.6903697
0
LINE
8
DEFAULT_255_2_778
10
17.8934596
20
120.6903697
11
17.8934596
21
122.6191697
0
LINE
8
DEFAULT_255_2_778
10
17.8934596
20
122.6191697
11
17.4831596
21
122.6191697
0
LINE
8
DEFAULT_255_2_778
10
17.4831596
20
122.6191697
11
17.4831596
21
121.4290697
0
LINE
8
DEFAULT_255_2_778
10
17.4831596
20
121.4290697
11
16.8060596
21
122.6191697
0
LINE
8
DEFAULT_255_2_778
10
15.8209596
20
122.6191697
11
14.3845596
21
122.6191697
0
LINE
8
DEFAULT_255_2_778
10
14.3845596
20
122.6191697
11
14.3845596
21
120.6903697
0
LINE
8
DEFAULT_255_2_778
10
14.3845596
20
120.6903697
11
15.8413596
21
120.6903697
0
LINE
8
DEFAULT_255_2_778
10
15.8413596
20
120.6903697
11
15.8413596
21
121.0390697
0
LINE
8
DEFAULT_255_2_778
10
15.8413596
20
121.0390697
11
14.9592596
21
121.0390697
0
LINE
8
DEFAULT_255_2_778
10
14.9592596
20
121.0390697
11
14.9592596
21
121.5110697
0
LINE
8
DEFAULT_255_2_778
10
14.9592596
20
121.5110697
11
15.7186596
21
121.5110697
0
LINE
8
DEFAULT_255_2_778
10
15.7186596
20
121.5110697
11
15.7186596
21
121.8187697
0
LINE
8
DEFAULT_255_2_778
10
15.7186596
20
121.8187697
11
14.9592596
21
121.8187697
0
LINE
8
DEFAULT_255_2_778
10
14.9592596
20
121.8187697
11
14.9592596
21
122.2704697
0
LINE
8
DEFAULT_255_2_778
10
14.9592596
20
122.2704697
11
15.8209596
21
122.2704697
0
LINE
8
DEFAULT_255_2_778
10
15.8209596
20
122.2704697
11
15.8209596
21
122.6191697
0
LINE
8
DEFAULT_255_2_778
10
11.1833596
20
122.6191697
11
9.7675596
21
122.6191697
0
LINE
8
DEFAULT_255_2_778
10
9.7675596
20
122.6191697
11
9.7675596
21
120.6903697
0
LINE
8
DEFAULT_255_2_778
10
9.7675596
20
120.6903697
11
11.2040596
21
120.6903697
0
LINE
8
DEFAULT_255_2_778
10
11.2040596
20
120.6903697
11
11.2040596
21
121.0390697
0
LINE
8
DEFAULT_255_2_778
10
11.2040596
20
121.0390697
11
10.3216596
21
121.0390697
0
LINE
8
DEFAULT_255_2_778
10
10.3216596
20
121.0390697
11
10.3216596
21
121.5110697
0
LINE
8
DEFAULT_255_2_778
10
10.3216596
20
121.5110697
11
11.0809596
21
121.5110697
0
LINE
8
DEFAULT_255_2_778
10
11.0809596
20
121.5110697
11
11.0809596
21
121.8187697
0
LINE
8
DEFAULT_255_2_778
10
11.0809596
20
121.8187697
11
10.3216596
21
121.8187697
0
LINE
8
DEFAULT_255_2_778
10
10.3216596
20
121.8187697
11
10.3216596
21
122.2704697
0
LINE
8
DEFAULT_255_2_778
10
10.3216596
20
122.2704697
11
11.1833596
21
122.2704697
0
LINE
8
DEFAULT_255_2_778
10
11.1833596
20
122.2704697
11
11.1833596
21
122.6191697
0
LINE
8
DEFAULT_255_2_778
10
9.3159596
20
122.6191697
11
8.7209596
21
122.6191697
0
LINE
8
DEFAULT_255_2_778
10
8.7209596
20
122.6191697
11
8.7209596
21
120.6903697
0
LINE
8
DEFAULT_255_2_778
10
8.7209596
20
120.6903697
11
9.3159596
21
120.6903697
0
LINE
8
DEFAULT_255_2_778
10
9.3159596
20
120.6903697
11
9.3159596
21
122.6191697
0
LINE
8
DEFAULT_255_2_778
10
10.6946596
20
118.6882697
11
10.9703596
21
118.6882697
0
LINE
8
DEFAULT_255_2_778
10
10.9703596
20
118.6882697
11
10.5108596
21
118.0908697
0
LINE
8
DEFAULT_255_2_778
10
10.5108596
20
118.0908697
11
10.9703596
21
117.4933697
0
LINE
8
DEFAULT_255_2_778
10
10.9703596
20
117.4933697
11
10.6946596
21
117.4933697
0
LINE
8
DEFAULT_255_2_778
10
10.6946596
20
117.4933697
11
10.3729596
21
117.9069697
0
LINE
8
DEFAULT_255_2_778
10
10.3729596
20
117.9069697
11
10.0512596
21
117.4933697
0
LINE
8
DEFAULT_255_2_778
10
10.0512596
20
117.4933697
11
9.7755596
21
117.4933697
0
LINE
8
DEFAULT_255_2_778
10
9.7755596
20
117.4933697
11
10.2351596
21
118.0908697
0
LINE
8
DEFAULT_255_2_778
10
10.2351596
20
118.0908697
11
9.7755596
21
118.6882697
0
LINE
8
DEFAULT_255_2_778
10
9.7755596
20
118.6882697
11
10.0512596
21
118.6882697
0
LINE
8
DEFAULT_255_2_778
10
10.0512596
20
118.6882697
11
10.3729596
21
118.2286697
0
LINE
8
DEFAULT_255_2_778
10
10.3729596
20
118.2286697
11
10.6946596
21
118.6882697
0
LINE
8
DEFAULT_255_2_778
10
18.1839596
20
119.1935697
11
18.4136596
21
119.1935697
0
LINE
8
DEFAULT_255_2_778
10
18.4136596
20
119.1935697
11
17.8164596
21
117.4936697
0
LINE
8
DEFAULT_255_2_778
10
17.8164596
20
117.4936697
11
17.5868596
21
117.4936697
0
LINE
8
DEFAULT_255_2_778
10
17.5868596
20
117.4936697
11
16.9893596
21
119.1935697
0
LINE
8
DEFAULT_255_2_778
10
16.9893596
20
119.1935697
11
17.2190596
21
119.1935697
0
LINE
8
DEFAULT_255_2_778
10
17.2190596
20
119.1935697
11
17.6786596
21
117.8151697
0
LINE
8
DEFAULT_255_2_778
10
17.6786596
20
117.8151697
11
17.7246596
21
117.8151697
0
LINE
8
DEFAULT_255_2_778
10
17.7246596
20
117.8151697
11
18.1842596
21
119.1935697
0
LINE
8
DEFAULT_255_2_778
10
13.7270596
20
119.2396697
11
13.5892596
21
119.2396697
0
LINE
8
DEFAULT_255_2_778
10
13.5892596
20
119.2396697
11
13.3595596
21
119.1935697
0
LINE
8
DEFAULT_255_2_778
10
13.3595596
20
119.1935697
11
13.2217596
21
119.1017697
0
LINE
8
DEFAULT_255_2_778
10
13.2217596
20
119.1017697
11
13.0838596
21
118.9639697
0
LINE
8
DEFAULT_255_2_778
10
13.0838596
20
118.9639697
11
12.9920596
21
118.8260697
0
LINE
8
DEFAULT_255_2_778
10
12.9920596
20
118.8260697
11
12.9460596
21
118.6882697
0
LINE
8
DEFAULT_255_2_778
10
12.9460596
20
118.6882697
11
12.8999596
21
118.4585697
0
LINE
8
DEFAULT_255_2_778
10
12.8999596
20
118.4585697
11
12.8999596
21
118.1828697
0
LINE
8
DEFAULT_255_2_778
10
12.8999596
20
118.1828697
11
12.9460596
21
117.9532697
0
LINE
8
DEFAULT_255_2_778
10
12.9460596
20
117.9532697
11
12.9920596
21
117.8153697
0
LINE
8
DEFAULT_255_2_778
10
12.9920596
20
117.8153697
11
13.0838596
21
117.6775697
0
LINE
8
DEFAULT_255_2_778
10
13.0838596
20
117.6775697
11
13.1756596
21
117.5857697
0
LINE
8
DEFAULT_255_2_778
10
13.1756596
20
117.5857697
11
13.3595596
21
117.4939697
0
LINE
8
DEFAULT_255_2_778
10
13.3595596
20
117.4939697
11
13.5434596
21
117.4478697
0
LINE
8
DEFAULT_255_2_778
10
13.5434596
20
117.4478697
11
13.6813596
21
117.4478697
0
LINE
8
DEFAULT_255_2_778
10
13.6813596
20
117.4478697
11
13.9109596
21
117.4939697
0
LINE
8
DEFAULT_255_2_778
10
13.9109596
20
117.4939697
11
14.0488596
21
117.5857697
0
LINE
8
DEFAULT_255_2_778
10
14.0488596
20
117.5857697
11
14.1866596
21
117.7235697
0
LINE
8
DEFAULT_255_2_778
10
14.1866596
20
117.7235697
11
14.2327596
21
117.8614697
0
LINE
8
DEFAULT_255_2_778
10
14.2327596
20
117.8614697
11
14.2327596
21
117.9532697
0
LINE
8
DEFAULT_255_2_778
10
14.2327596
20
117.9532697
11
14.0030596
21
117.9532697
0
LINE
8
DEFAULT_255_2_778
10
14.0030596
20
117.9532697
11
13.9570596
21
117.8153697
0
LINE
8
DEFAULT_255_2_778
10
13.9570596
20
117.8153697
11
13.8191596
21
117.6775697
0
LINE
8
DEFAULT_255_2_778
10
13.8191596
20
117.6775697
11
13.6813596
21
117.6314697
0
LINE
8
DEFAULT_255_2_778
10
13.6813596
20
117.6314697
11
13.5895596
21
117.6314697
0
LINE
8
DEFAULT_255_2_778
10
13.5895596
20
117.6314697
11
13.4516596
21
117.6775697
0
LINE
8
DEFAULT_255_2_778
10
13.4516596
20
117.6775697
11
13.3598596
21
117.7235697
0
LINE
8
DEFAULT_255_2_778
10
13.3598596
20
117.7235697
11
13.2680596
21
117.8153697
0
LINE
8
DEFAULT_255_2_778
10
13.2680596
20
117.8153697
11
13.1762596
21
117.9992697
0
LINE
8
DEFAULT_255_2_778
10
13.1762596
20
117.9992697
11
13.1301596
21
118.2289697
0
LINE
8
DEFAULT_255_2_778
10
13.1301596
20
118.2289697
11
13.1301596
21
118.4128697
0
LINE
8
DEFAULT_255_2_778
10
13.1301596
20
118.4128697
11
13.1762596
21
118.6424697
0
LINE
8
DEFAULT_255_2_778
10
13.1762596
20
118.6424697
11
13.2222596
21
118.7803697
0
LINE
8
DEFAULT_255_2_778
10
13.2222596
20
118.7803697
11
13.3140596
21
118.9181697
0
LINE
8
DEFAULT_255_2_778
10
13.3140596
20
118.9181697
11
13.4519596
21
119.0099697
0
LINE
8
DEFAULT_255_2_778
10
13.4519596
20
119.0099697
11
13.5897596
21
119.0560697
0
LINE
8
DEFAULT_255_2_778
10
13.5897596
20
119.0560697
11
13.6815596
21
119.0560697
0
LINE
8
DEFAULT_255_2_778
10
13.6815596
20
119.0560697
11
13.8194596
21
119.0099697
0
LINE
8
DEFAULT_255_2_778
10
13.8194596
20
119.0099697
11
13.9572596
21
118.8721697
0
LINE
8
DEFAULT_255_2_778
10
13.9572596
20
118.8721697
11
14.0033596
21
118.7342697
0
LINE
8
DEFAULT_255_2_778
10
14.0033596
20
118.7342697
11
14.2329596
21
118.7342697
0
LINE
8
DEFAULT_255_2_778
10
14.2329596
20
118.7342697
11
14.2329596
21
118.8260697
0
LINE
8
DEFAULT_255_2_778
10
14.2329596
20
118.8260697
11
14.1869596
21
118.9639697
0
LINE
8
DEFAULT_255_2_778
10
14.1869596
20
118.9639697
11
14.0951596
21
119.1017697
0
LINE
8
DEFAULT_255_2_778
10
14.0951596
20
119.1017697
11
13.9112596
21
119.1935697
0
LINE
8
DEFAULT_255_2_778
10
13.9112596
20
119.1935697
11
13.7273596
21
119.2396697
0
LINE
8
DEFAULT_255_2_778
10
18.9650596
20
119.1935697
11
19.1489596
21
119.1935697
0
LINE
8
DEFAULT_255_2_778
10
19.1489596
20
119.1935697
11
18.5975596
21
117.4476697
0
LINE
8
DEFAULT_255_2_778
10
18.5975596
20
117.4476697
11
18.4136596
21
117.4476697
0
LINE
8
DEFAULT_255_2_778
10
18.4136596
20
117.4476697
11
18.9650596
21
119.1935697
0
LINE
8
DEFAULT_255_2_778
10
19.7921271
20
119.1477875
11
19.9300271
21
119.1477875
0
LINE
8
DEFAULT_255_2_778
10
19.9300271
20
119.1477875
11
20.1138271
21
119.1017875
0
LINE
8
DEFAULT_255_2_778
10
20.1138271
20
119.1017875
11
20.2517271
21
119.0099875
0
LINE
8
DEFAULT_255_2_778
10
20.2517271
20
119.0099875
11
20.3435271
21
118.8260875
0
LINE
8
DEFAULT_255_2_778
10
20.3435271
20
118.8260875
11
20.3435271
21
118.5963875
0
LINE
8
DEFAULT_255_2_778
10
20.3435271
20
118.5963875
11
20.2517271
21
118.3667875
0
LINE
8
DEFAULT_255_2_778
10
20.2517271
20
118.3667875
11
20.1599271
21
118.2288875
0
LINE
8
DEFAULT_255_2_778
10
20.1599271
20
118.2288875
11
19.6085271
21
117.6774875
0
LINE
8
DEFAULT_255_2_778
10
19.6085271
20
117.6774875
11
20.3895271
21
117.6774875
0
LINE
8
DEFAULT_255_2_778
10
20.3895271
20
117.6774875
11
20.3895271
21
117.4935875
0
LINE
8
DEFAULT_255_2_778
10
20.3895271
20
117.4935875
11
19.3328271
21
117.4935875
0
LINE
8
DEFAULT_255_2_778
10
19.3328271
20
117.4935875
11
19.3328271
21
117.7232875
0
LINE
8
DEFAULT_255_2_778
10
19.3328271
20
117.7232875
11
19.9760271
21
118.3664875
0
LINE
8
DEFAULT_255_2_778
10
19.9760271
20
118.3664875
11
20.0678271
21
118.5042875
0
LINE
8
DEFAULT_255_2_778
10
20.0678271
20
118.5042875
11
20.1138271
21
118.6421875
0
LINE
8
DEFAULT_255_2_778
10
20.1138271
20
118.6421875
11
20.1138271
21
118.7799875
0
LINE
8
DEFAULT_255_2_778
10
20.1138271
20
118.7799875
11
20.0220271
21
118.9178875
0
LINE
8
DEFAULT_255_2_778
10
20.0220271
20
118.9178875
11
19.9302271
21
118.9638875
0
LINE
8
DEFAULT_255_2_778
10
19.9302271
20
118.9638875
11
19.7924271
21
118.9638875
0
LINE
8
DEFAULT_255_2_778
10
19.7924271
20
118.9638875
11
19.7006271
21
118.9178875
0
LINE
8
DEFAULT_255_2_778
10
19.7006271
20
118.9178875
11
19.6545271
21
118.8717875
0
LINE
8
DEFAULT_255_2_778
10
19.6545271
20
118.8717875
11
19.6085271
21
118.7799875
0
LINE
8
DEFAULT_255_2_778
10
19.6085271
20
118.7799875
11
19.6085271
21
118.6881875
0
LINE
8
DEFAULT_255_2_778
10
19.6085271
20
118.6881875
11
19.3328271
21
118.6881875
0
LINE
8
DEFAULT_255_2_778
10
19.3328271
20
118.6881875
11
19.3788271
21
118.8720875
0
LINE
8
DEFAULT_255_2_778
10
19.3788271
20
118.8720875
11
19.4706271
21
119.0099875
0
LINE
8
DEFAULT_255_2_778
10
19.4706271
20
119.0099875
11
19.6085271
21
119.1017875
0
LINE
8
DEFAULT_255_2_778
10
19.6085271
20
119.1017875
11
19.7924271
21
119.1477875
0
LINE
8
DEFAULT_255_2_778
10
14.9219271
20
119.1477875
11
15.0598271
21
119.1477875
0
LINE
8
DEFAULT_255_2_778
10
15.0598271
20
119.1477875
11
15.2436271
21
119.1017875
0
LINE
8
DEFAULT_255_2_778
10
15.2436271
20
119.1017875
11
15.3815271
21
119.0099875
0
LINE
8
DEFAULT_255_2_778
10
15.3815271
20
119.0099875
11
15.4733271
21
118.8260875
0
LINE
8
DEFAULT_255_2_778
10
15.4733271
20
118.8260875
11
15.4733271
21
118.5963875
0
LINE
8
DEFAULT_255_2_778
10
15.4733271
20
118.5963875
11
15.3815271
21
118.3667875
0
LINE
8
DEFAULT_255_2_778
10
15.3815271
20
118.3667875
11
15.2897271
21
118.2288875
0
LINE
8
DEFAULT_255_2_778
10
15.2897271
20
118.2288875
11
14.7383271
21
117.6774875
0
LINE
8
DEFAULT_255_2_778
10
14.7383271
20
117.6774875
11
15.5193271
21
117.6774875
0
LINE
8
DEFAULT_255_2_778
10
15.5193271
20
117.6774875
11
15.5193271
21
117.4935875
0
LINE
8
DEFAULT_255_2_778
10
15.5193271
20
117.4935875
11
14.4626271
21
117.4935875
0
LINE
8
DEFAULT_255_2_778
10
14.4626271
20
117.4935875
11
14.4626271
21
117.7232875
0
LINE
8
DEFAULT_255_2_778
10
14.4626271
20
117.7232875
11
15.1058271
21
118.3664875
0
LINE
8
DEFAULT_255_2_778
10
15.1058271
20
118.3664875
11
15.1976271
21
118.5042875
0
LINE
8
DEFAULT_255_2_778
10
15.1976271
20
118.5042875
11
15.2436271
21
118.6421875
0
LINE
8
DEFAULT_255_2_778
10
15.2436271
20
118.6421875
11
15.2436271
21
118.7799875
0
LINE
8
DEFAULT_255_2_778
10
15.2436271
20
118.7799875
11
15.1518271
21
118.9178875
0
LINE
8
DEFAULT_255_2_778
10
15.1518271
20
118.9178875
11
15.0600271
21
118.9638875
0
LINE
8
DEFAULT_255_2_778
10
15.0600271
20
118.9638875
11
14.9222271
21
118.9638875
0
LINE
8
DEFAULT_255_2_778
10
14.9222271
20
118.9638875
11
14.8304271
21
118.9178875
0
LINE
8
DEFAULT_255_2_778
10
14.8304271
20
118.9178875
11
14.7843271
21
118.8717875
0
LINE
8
DEFAULT_255_2_778
10
14.7843271
20
118.8717875
11
14.7383271
21
118.7799875
0
LINE
8
DEFAULT_255_2_778
10
14.7383271
20
118.7799875
11
14.7383271
21
118.6881875
0
LINE
8
DEFAULT_255_2_778
10
14.7383271
20
118.6881875
11
14.4626271
21
118.6881875
0
LINE
8
DEFAULT_255_2_778
10
14.4626271
20
118.6881875
11
14.5086271
21
118.8720875
0
LINE
8
DEFAULT_255_2_778
10
14.5086271
20
118.8720875
11
14.6004271
21
119.0099875
0
LINE
8
DEFAULT_255_2_778
10
14.6004271
20
119.0099875
11
14.7383271
21
119.1017875
0
LINE
8
DEFAULT_255_2_778
10
14.7383271
20
119.1017875
11
14.9222271
21
119.1477875
0
LINE
8
DEFAULT_255_2_778
10
4.4460242
20
119.1935807
11
5.1352242
21
119.1935807
0
LINE
8
DEFAULT_255_2_778
10
5.1352242
20
119.1935807
11
5.3649242
21
119.1474807
0
LINE
8
DEFAULT_255_2_778
10
5.3649242
20
119.1474807
11
5.5027242
21
119.0556807
0
LINE
8
DEFAULT_255_2_778
10
5.5027242
20
119.0556807
11
5.6866242
21
118.8717807
0
LINE
8
DEFAULT_255_2_778
10
5.6866242
20
118.8717807
11
5.7784242
21
118.6878807
0
LINE
8
DEFAULT_255_2_778
10
5.7784242
20
118.6878807
11
5.8245242
21
118.4582807
0
LINE
8
DEFAULT_255_2_778
10
5.8245242
20
118.4582807
11
5.8245242
21
118.2285807
0
LINE
8
DEFAULT_255_2_778
10
5.8245242
20
118.2285807
11
5.7784242
21
117.9989807
0
LINE
8
DEFAULT_255_2_778
10
5.7784242
20
117.9989807
11
5.6866242
21
117.8150807
0
LINE
8
DEFAULT_255_2_778
10
5.6866242
20
117.8150807
11
5.5488242
21
117.6311807
0
LINE
8
DEFAULT_255_2_778
10
5.5488242
20
117.6311807
11
5.3649242
21
117.5393807
0
LINE
8
DEFAULT_255_2_778
10
5.3649242
20
117.5393807
11
5.1352242
21
117.4933807
0
LINE
8
DEFAULT_255_2_778
10
5.1352242
20
117.4933807
11
4.4460242
21
117.4933807
0
LINE
8
DEFAULT_255_2_778
10
4.4460242
20
117.4933807
11
4.4460242
21
119.1935807
0
LINE
8
DEFAULT_255_2_778
10
5.0434242
20
119.0096807
11
4.6759242
21
119.0096807
0
LINE
8
DEFAULT_255_2_778
10
4.6759242
20
119.0096807
11
4.6759242
21
117.6771807
0
LINE
8
DEFAULT_255_2_778
10
4.6759242
20
117.6771807
11
5.0434242
21
117.6771807
0
LINE
8
DEFAULT_255_2_778
10
5.0434242
20
117.6771807
11
5.2273242
21
117.7232807
0
LINE
8
DEFAULT_255_2_778
10
5.2273242
20
117.7232807
11
5.4112242
21
117.8610807
0
LINE
8
DEFAULT_255_2_778
10
5.4112242
20
117.8610807
11
5.5030242
21
117.9989807
0
LINE
8
DEFAULT_255_2_778
10
5.5030242
20
117.9989807
11
5.5491242
21
118.1828807
0
LINE
8
DEFAULT_255_2_778
10
5.5491242
20
118.1828807
11
5.5491242
21
118.4585807
0
LINE
8
DEFAULT_255_2_778
10
5.5491242
20
118.4585807
11
5.5030242
21
118.6423807
0
LINE
8
DEFAULT_255_2_778
10
5.5030242
20
118.6423807
11
5.4112242
21
118.8262807
0
LINE
8
DEFAULT_255_2_778
10
5.4112242
20
118.8262807
11
5.3194242
21
118.9180807
0
LINE
8
DEFAULT_255_2_778
10
5.3194242
20
118.9180807
11
5.2276242
21
118.9641807
0
LINE
8
DEFAULT_255_2_778
10
5.2276242
20
118.9641807
11
5.0434242
21
119.0096807
0
LINE
8
DEFAULT_255_2_778
10
6.9730242
20
119.2395807
11
6.8352242
21
119.2395807
0
LINE
8
DEFAULT_255_2_778
10
6.8352242
20
119.2395807
11
6.6055242
21
119.1935807
0
LINE
8
DEFAULT_255_2_778
10
6.6055242
20
119.1935807
11
6.3759242
21
119.0556807
0
LINE
8
DEFAULT_255_2_778
10
6.3759242
20
119.0556807
11
6.2841242
21
118.9638807
0
LINE
8
DEFAULT_255_2_778
10
6.2841242
20
118.9638807
11
6.1923242
21
118.8260807
0
LINE
8
DEFAULT_255_2_778
10
6.1923242
20
118.8260807
11
6.1462242
21
118.7341807
0
LINE
8
DEFAULT_255_2_778
10
6.1462242
20
118.7341807
11
6.1002242
21
118.5045807
0
LINE
8
DEFAULT_255_2_778
10
6.1002242
20
118.5045807
11
6.1002242
21
118.1828807
0
LINE
8
DEFAULT_255_2_778
10
6.1002242
20
118.1828807
11
6.1462242
21
117.9531807
0
LINE
8
DEFAULT_255_2_778
10
6.1462242
20
117.9531807
11
6.1923242
21
117.8152807
0
LINE
8
DEFAULT_255_2_778
10
6.1923242
20
117.8152807
11
6.2841242
21
117.6774807
0
LINE
8
DEFAULT_255_2_778
10
6.2841242
20
117.6774807
11
6.3759242
21
117.5856807
0
LINE
8
DEFAULT_255_2_778
10
6.3759242
20
117.5856807
11
6.5598242
21
117.4938807
0
LINE
8
DEFAULT_255_2_778
10
6.5598242
20
117.4938807
11
6.7894242
21
117.4477807
0
LINE
8
DEFAULT_255_2_778
10
6.7894242
20
117.4477807
11
6.9273242
21
117.4477807
0
LINE
8
DEFAULT_255_2_778
10
6.9273242
20
117.4477807
11
7.1569242
21
117.4938807
0
LINE
8
DEFAULT_255_2_778
10
7.1569242
20
117.4938807
11
7.3866242
21
117.6316807
0
LINE
8
DEFAULT_255_2_778
10
7.3866242
20
117.6316807
11
7.4784242
21
117.7234807
0
LINE
8
DEFAULT_255_2_778
10
7.4784242
20
117.7234807
11
7.5702242
21
117.8613807
0
LINE
8
DEFAULT_255_2_778
10
7.5702242
20
117.8613807
11
7.6162242
21
117.9531807
0
LINE
8
DEFAULT_255_2_778
10
7.6162242
20
117.9531807
11
7.6623242
21
118.1828807
0
LINE
8
DEFAULT_255_2_778
10
7.6623242
20
118.1828807
11
7.6623242
21
118.5045807
0
LINE
8
DEFAULT_255_2_778
10
7.6623242
20
118.5045807
11
7.6162242
21
118.7341807
0
LINE
8
DEFAULT_255_2_778
10
7.6162242
20
118.7341807
11
7.5702242
21
118.8720807
0
LINE
8
DEFAULT_255_2_778
10
7.5702242
20
118.8720807
11
7.4784242
21
119.0098807
0
LINE
8
DEFAULT_255_2_778
10
7.4784242
20
119.0098807
11
7.3866242
21
119.1017807
0
LINE
8
DEFAULT_255_2_778
10
7.3866242
20
119.1017807
11
7.2027242
21
119.1935807
0
LINE
8
DEFAULT_255_2_778
10
7.2027242
20
119.1935807
11
6.9730242
21
119.2395807
0
LINE
8
DEFAULT_255_2_778
10
6.8352242
20
119.0556807
11
6.9730242
21
119.0556807
0
LINE
8
DEFAULT_255_2_778
10
6.9730242
20
119.0556807
11
7.1569242
21
119.0096807
0
LINE
8
DEFAULT_255_2_778
10
7.1569242
20
119.0096807
11
7.2948242
21
118.8717807
0
LINE
8
DEFAULT_255_2_778
10
7.2948242
20
118.8717807
11
7.3866242
21
118.6878807
0
LINE
8
DEFAULT_255_2_778
10
7.3866242
20
118.6878807
11
7.4326242
21
118.5040807
0
LINE
8
DEFAULT_255_2_778
10
7.4326242
20
118.5040807
11
7.4326242
21
118.1822807
0
LINE
8
DEFAULT_255_2_778
10
7.4326242
20
118.1822807
11
7.3866242
21
117.9983807
0
LINE
8
DEFAULT_255_2_778
10
7.3866242
20
117.9983807
11
7.2948242
21
117.8145807
0
LINE
8
DEFAULT_255_2_778
10
7.2948242
20
117.8145807
11
7.1109242
21
117.6766807
0
LINE
8
DEFAULT_255_2_778
10
7.1109242
20
117.6766807
11
6.9270242
21
117.6306807
0
LINE
8
DEFAULT_255_2_778
10
6.9270242
20
117.6306807
11
6.7892242
21
117.6306807
0
LINE
8
DEFAULT_255_2_778
10
6.7892242
20
117.6306807
11
6.6053242
21
117.6766807
0
LINE
8
DEFAULT_255_2_778
10
6.6053242
20
117.6766807
11
6.4674242
21
117.8145807
0
LINE
8
DEFAULT_255_2_778
10
6.4674242
20
117.8145807
11
6.3756242
21
117.9983807
0
LINE
8
DEFAULT_255_2_778
10
6.3756242
20
117.9983807
11
6.3296242
21
118.1822807
0
LINE
8
DEFAULT_255_2_778
10
6.3296242
20
118.1822807
11
6.3296242
21
118.5045807
0
LINE
8
DEFAULT_255_2_778
10
6.3296242
20
118.5045807
11
6.3756242
21
118.6884807
0
LINE
8
DEFAULT_255_2_778
10
6.3756242
20
118.6884807
11
6.4674242
21
118.8723807
0
LINE
8
DEFAULT_255_2_778
10
6.4674242
20
118.8723807
11
6.6513242
21
119.0101807
0
LINE
8
DEFAULT_255_2_778
10
6.6513242
20
119.0101807
11
6.8352242
21
119.0556807
0
LINE
8
DEFAULT_255_2_778
10
9.2244242
20
119.1477807
11
8.9487242
21
119.1477807
0
LINE
8
DEFAULT_255_2_778
10
8.9487242
20
119.1477807
11
8.8108242
21
119.1017807
0
LINE
8
DEFAULT_255_2_778
10
8.8108242
20
119.1017807
11
8.7190242
21
119.0556807
0
LINE
8
DEFAULT_255_2_778
10
8.7190242
20
119.0556807
11
8.5812242
21
118.9178807
0
LINE
8
DEFAULT_255_2_778
10
8.5812242
20
118.9178807
11
8.5351242
21
118.7799807
0
LINE
8
DEFAULT_255_2_778
10
8.5351242
20
118.7799807
11
8.5351242
21
118.6881807
0
LINE
8
DEFAULT_255_2_778
10
8.5351242
20
118.6881807
11
8.5812242
21
118.5503807
0
LINE
8
DEFAULT_255_2_778
10
8.5812242
20
118.5503807
11
8.7190242
21
118.4124807
0
LINE
8
DEFAULT_255_2_778
10
8.7190242
20
118.4124807
11
8.8569242
21
118.3664807
0
LINE
8
DEFAULT_255_2_778
10
8.8569242
20
118.3664807
11
8.6730242
21
118.2746807
0
LINE
8
DEFAULT_255_2_778
10
8.6730242
20
118.2746807
11
8.5812242
21
118.1828807
0
LINE
8
DEFAULT_255_2_778
10
8.5812242
20
118.1828807
11
8.5351242
21
118.0449807
0
LINE
8
DEFAULT_255_2_778
10
8.5351242
20
118.0449807
11
8.5351242
21
117.8152807
0
LINE
8
DEFAULT_255_2_778
10
8.5351242
20
117.8152807
11
8.5812242
21
117.6774807
0
LINE
8
DEFAULT_255_2_778
10
8.5812242
20
117.6774807
11
8.6730242
21
117.5856807
0
LINE
8
DEFAULT_255_2_778
10
8.6730242
20
117.5856807
11
8.8108242
21
117.4938807
0
LINE
8
DEFAULT_255_2_778
10
8.8108242
20
117.4938807
11
8.9947242
21
117.4477807
0
LINE
8
DEFAULT_255_2_778
10
8.9947242
20
117.4477807
11
9.1786242
21
117.4477807
0
LINE
8
DEFAULT_255_2_778
10
9.1786242
20
117.4477807
11
9.3625242
21
117.4938807
0
LINE
8
DEFAULT_255_2_778
10
9.3625242
20
117.4938807
11
9.5003242
21
117.5856807
0
LINE
8
DEFAULT_255_2_778
10
9.5003242
20
117.5856807
11
9.5921242
21
117.6774807
0
LINE
8
DEFAULT_255_2_778
10
9.5921242
20
117.6774807
11
9.6382242
21
117.8152807
0
LINE
8
DEFAULT_255_2_778
10
9.6382242
20
117.8152807
11
9.6382242
21
118.0449807
0
LINE
8
DEFAULT_255_2_778
10
9.6382242
20
118.0449807
11
9.5921242
21
118.1828807
0
LINE
8
DEFAULT_255_2_778
10
9.5921242
20
118.1828807
11
9.5003242
21
118.2746807
0
LINE
8
DEFAULT_255_2_778
10
9.5003242
20
118.2746807
11
9.3165242
21
118.3664807
0
LINE
8
DEFAULT_255_2_778
10
9.3165242
20
118.3664807
11
9.4543242
21
118.4124807
0
LINE
8
DEFAULT_255_2_778
10
9.4543242
20
118.4124807
11
9.5921242
21
118.5503807
0
LINE
8
DEFAULT_255_2_778
10
9.5921242
20
118.5503807
11
9.6382242
21
118.6881807
0
LINE
8
DEFAULT_255_2_778
10
9.6382242
20
118.6881807
11
9.6382242
21
118.7799807
0
LINE
8
DEFAULT_255_2_778
10
9.6382242
20
118.7799807
11
9.5921242
21
118.9178807
0
LINE
8
DEFAULT_255_2_778
10
9.5921242
20
118.9178807
11
9.4543242
21
119.0556807
0
LINE
8
DEFAULT_255_2_778
10
9.4543242
20
119.0556807
11
9.3625242
21
119.1017807
0
LINE
8
DEFAULT_255_2_778
10
9.3625242
20
119.1017807
11
9.2244242
21
119.1477807
0
LINE
8
DEFAULT_255_2_778
10
9.1783242
20
118.9638807
11
8.9945242
21
118.9638807
0
LINE
8
DEFAULT_255_2_778
10
8.9945242
20
118.9638807
11
8.8566242
21
118.9178807
0
LINE
8
DEFAULT_255_2_778
10
8.8566242
20
118.9178807
11
8.8106242
21
118.8717807
0
LINE
8
DEFAULT_255_2_778
10
8.8106242
20
118.8717807
11
8.7645242
21
118.7799807
0
LINE
8
DEFAULT_255_2_778
10
8.7645242
20
118.7799807
11
8.7645242
21
118.6421807
0
LINE
8
DEFAULT_255_2_778
10
8.7645242
20
118.6421807
11
8.8106242
21
118.5503807
0
LINE
8
DEFAULT_255_2_778
10
8.8106242
20
118.5503807
11
8.8566242
21
118.5042807
0
LINE
8
DEFAULT_255_2_778
10
8.8566242
20
118.5042807
11
8.9945242
21
118.4582807
0
LINE
8
DEFAULT_255_2_778
10
8.9945242
20
118.4582807
11
9.1783242
21
118.4582807
0
LINE
8
DEFAULT_255_2_778
10
9.1783242
20
118.4582807
11
9.3162242
21
118.5042807
0
LINE
8
DEFAULT_255_2_778
10
9.3162242
20
118.5042807
11
9.3622242
21
118.5503807
0
LINE
8
DEFAULT_255_2_778
10
9.3622242
20
118.5503807
11
9.4083242
21
118.6421807
0
LINE
8
DEFAULT_255_2_778
10
9.4083242
20
118.6421807
11
9.4083242
21
118.7799807
0
LINE
8
DEFAULT_255_2_778
10
9.4083242
20
118.7799807
11
9.3622242
21
118.8717807
0
LINE
8
DEFAULT_255_2_778
10
9.3622242
20
118.8717807
11
9.3162242
21
118.9178807
0
LINE
8
DEFAULT_255_2_778
10
9.3162242
20
118.9178807
11
9.1783242
21
118.9638807
0
LINE
8
DEFAULT_255_2_778
10
9.1783242
20
118.2288807
11
8.9945242
21
118.2288807
0
LINE
8
DEFAULT_255_2_778
10
8.9945242
20
118.2288807
11
8.8566242
21
118.1828807
0
LINE
8
DEFAULT_255_2_778
10
8.8566242
20
118.1828807
11
8.8106242
21
118.1367807
0
LINE
8
DEFAULT_255_2_778
10
8.8106242
20
118.1367807
11
8.7645242
21
118.0449807
0
LINE
8
DEFAULT_255_2_778
10
8.7645242
20
118.0449807
11
8.7645242
21
117.8152807
0
LINE
8
DEFAULT_255_2_778
10
8.7645242
20
117.8152807
11
8.8106242
21
117.7234807
0
LINE
8
DEFAULT_255_2_778
10
8.8106242
20
117.7234807
11
8.8566242
21
117.6774807
0
LINE
8
DEFAULT_255_2_778
10
8.8566242
20
117.6774807
11
8.9945242
21
117.6314807
0
LINE
8
DEFAULT_255_2_778
10
8.9945242
20
117.6314807
11
9.1783242
21
117.6314807
0
LINE
8
DEFAULT_255_2_778
10
9.1783242
20
117.6314807
11
9.3162242
21
117.6774807
0
LINE
8
DEFAULT_255_2_778
10
9.3162242
20
117.6774807
11
9.3622242
21
117.7234807
0
LINE
8
DEFAULT_255_2_778
10
9.3622242
20
117.7234807
11
9.4083242
21
117.8152807
0
LINE
8
DEFAULT_255_2_778
10
9.4083242
20
117.8152807
11
9.4083242
21
118.0449807
0
LINE
8
DEFAULT_255_2_778
10
9.4083242
20
118.0449807
11
9.3622242
21
118.1367807
0
LINE
8
DEFAULT_255_2_778
10
9.3622242
20
118.1367807
11
9.3162242
21
118.1828807
0
LINE
8
DEFAULT_255_2_778
10
9.3162242
20
118.1828807
11
9.1783242
21
118.2288807
0
LINE
8
DEFAULT_255_2_778
10
11.2461242
20
119.1935807
11
11.9353242
21
119.1935807
0
LINE
8
DEFAULT_255_2_778
10
11.9353242
20
119.1935807
11
12.1650242
21
119.1474807
0
LINE
8
DEFAULT_255_2_778
10
12.1650242
20
119.1474807
11
12.3028242
21
119.0556807
0
LINE
8
DEFAULT_255_2_778
10
12.3028242
20
119.0556807
11
12.4867242
21
118.8717807
0
LINE
8
DEFAULT_255_2_778
10
12.4867242
20
118.8717807
11
12.5785242
21
118.6878807
0
LINE
8
DEFAULT_255_2_778
10
12.5785242
20
118.6878807
11
12.6245242
21
118.4582807
0
LINE
8
DEFAULT_255_2_778
10
12.6245242
20
118.4582807
11
12.6245242
21
118.2285807
0
LINE
8
DEFAULT_255_2_778
10
12.6245242
20
118.2285807
11
12.5785242
21
117.9989807
0
LINE
8
DEFAULT_255_2_778
10
12.5785242
20
117.9989807
11
12.4867242
21
117.8150807
0
LINE
8
DEFAULT_255_2_778
10
12.4867242
20
117.8150807
11
12.3488242
21
117.6311807
0
LINE
8
DEFAULT_255_2_778
10
12.3488242
20
117.6311807
11
12.1650242
21
117.5393807
0
LINE
8
DEFAULT_255_2_778
10
12.1650242
20
117.5393807
11
11.9353242
21
117.4933807
0
LINE
8
DEFAULT_255_2_778
10
11.9353242
20
117.4933807
11
11.2461242
21
117.4933807
0
LINE
8
DEFAULT_255_2_778
10
11.2461242
20
117.4933807
11
11.2461242
21
119.1935807
0
LINE
8
DEFAULT_255_2_778
10
11.8435242
20
119.0096807
11
11.4760242
21
119.0096807
0
LINE
8
DEFAULT_255_2_778
10
11.4760242
20
119.0096807
11
11.4760242
21
117.6771807
0
LINE
8
DEFAULT_255_2_778
10
11.4760242
20
117.6771807
11
11.8435242
21
117.6771807
0
LINE
8
DEFAULT_255_2_778
10
11.8435242
20
117.6771807
11
12.0274242
21
117.7232807
0
LINE
8
DEFAULT_255_2_778
10
12.0274242
20
117.7232807
11
12.2113242
21
117.8610807
0
LINE
8
DEFAULT_255_2_778
10
12.2113242
20
117.8610807
11
12.3031242
21
117.9989807
0
LINE
8
DEFAULT_255_2_778
10
12.3031242
20
117.9989807
11
12.3491242
21
118.1828807
0
LINE
8
DEFAULT_255_2_778
10
12.3491242
20
118.1828807
11
12.3491242
21
118.4585807
0
LINE
8
DEFAULT_255_2_778
10
12.3491242
20
118.4585807
11
12.3031242
21
118.6423807
0
LINE
8
DEFAULT_255_2_778
10
12.3031242
20
118.6423807
11
12.2113242
21
118.8262807
0
LINE
8
DEFAULT_255_2_778
10
12.2113242
20
118.8262807
11
12.1194242
21
118.9180807
0
LINE
8
DEFAULT_255_2_778
10
12.1194242
20
118.9180807
11
12.0276242
21
118.9641807
0
LINE
8
DEFAULT_255_2_778
10
12.0276242
20
118.9641807
11
11.8435242
21
119.0096807
0
LINE
8
DEFAULT_255_2_778
10
16.3919242
20
119.1477807
11
16.6216242
21
119.1477807
0
LINE
8
DEFAULT_255_2_778
10
16.6216242
20
119.1477807
11
16.6216242
21
118.0449807
0
LINE
8
DEFAULT_255_2_778
10
16.6216242
20
118.0449807
11
16.8973242
21
118.0449807
0
LINE
8
DEFAULT_255_2_778
10
16.8973242
20
118.0449807
11
16.8973242
21
117.8610807
0
LINE
8
DEFAULT_255_2_778
10
16.8973242
20
117.8610807
11
16.6216242
21
117.8610807
0
LINE
8
DEFAULT_255_2_778
10
16.6216242
20
117.8610807
11
16.6216242
21
117.4935807
0
LINE
8
DEFAULT_255_2_778
10
16.6216242
20
117.4935807
11
16.4377242
21
117.4935807
0
LINE
8
DEFAULT_255_2_778
10
16.4377242
20
117.4935807
11
16.4377242
21
117.8610807
0
LINE
8
DEFAULT_255_2_778
10
16.4377242
20
117.8610807
11
15.6567242
21
117.8610807
0
LINE
8
DEFAULT_255_2_778
10
15.6567242
20
117.8610807
11
15.6567242
21
118.0907807
0
LINE
8
DEFAULT_255_2_778
10
15.6567242
20
118.0907807
11
16.3919242
21
119.1477807
0
LINE
8
DEFAULT_255_2_778
10
15.8405242
20
118.0449807
11
16.4377242
21
118.0449807
0
LINE
8
DEFAULT_255_2_778
10
16.4377242
20
118.0449807
11
16.4377242
21
118.9178807
0
LINE
8
DEFAULT_255_2_778
10
16.4377242
20
118.9178807
11
15.8405242
21
118.0449807
0
LINE
8
DEFAULT_255_2_778
10
21.0325242
20
118.1367807
11
21.6299242
21
118.1367807
0
LINE
8
DEFAULT_255_2_778
10
21.6299242
20
118.1367807
11
21.3542242
21
118.9638807
0
LINE
8
DEFAULT_255_2_778
10
21.3542242
20
118.9638807
11
21.0325242
21
118.1367807
0
LINE
8
DEFAULT_255_2_778
10
21.2164242
20
119.1935807
11
21.4920242
21
119.1935807
0
LINE
8
DEFAULT_255_2_778
10
21.4920242
20
119.1935807
11
22.1353242
21
117.4935807
0
LINE
8
DEFAULT_255_2_778
10
22.1353242
20
117.4935807
11
21.9056242
21
117.4935807
0
LINE
8
DEFAULT_255_2_778
10
21.9056242
20
117.4935807
11
21.7217242
21
117.9531807
0
LINE
8
DEFAULT_255_2_778
10
21.7217242
20
117.9531807
11
20.9407242
21
117.9531807
0
LINE
8
DEFAULT_255_2_778
10
20.9407242
20
117.9531807
11
20.7568242
21
117.4935807
0
LINE
8
DEFAULT_255_2_778
10
20.7568242
20
117.4935807
11
20.5271242
21
117.4935807
0
LINE
8
DEFAULT_255_2_778
10
20.5271242
20
117.4935807
11
21.2164242
21
119.1935807
0
LINE
8
DEFAULT_255_2_778
10
2.4378242
20
3.1975807
11
2.2539242
21
3.1514807
0
LINE
8
DEFAULT_255_2_778
10
2.2539242
20
3.1514807
11
2.1161242
21
3.0596807
0
LINE
8
DEFAULT_255_2_778
10
2.1161242
20
3.0596807
11
2.0243242
21
2.8758807
0
LINE
8
DEFAULT_255_2_778
10
2.0243242
20
2.8758807
11
2.0243242
21
2.7839807
0
LINE
8
DEFAULT_255_2_778
10
2.0243242
20
2.7839807
11
2.2539242
21
2.7839807
0
LINE
8
DEFAULT_255_2_778
10
2.2539242
20
2.7839807
11
2.3000242
21
2.9218807
0
LINE
8
DEFAULT_255_2_778
10
2.3000242
20
2.9218807
11
2.3460242
21
2.9678807
0
LINE
8
DEFAULT_255_2_778
10
2.3460242
20
2.9678807
11
2.4378242
21
3.0139807
0
LINE
8
DEFAULT_255_2_778
10
2.4378242
20
3.0139807
11
2.6217242
21
3.0139807
0
LINE
8
DEFAULT_255_2_778
10
2.6217242
20
3.0139807
11
2.7135242
21
2.9678807
0
LINE
8
DEFAULT_255_2_778
10
2.7135242
20
2.9678807
11
2.8053242
21
2.8300807
0
LINE
8
DEFAULT_255_2_778
10
2.8053242
20
2.8300807
11
2.8053242
21
2.6461807
0
LINE
8
DEFAULT_255_2_778
10
2.8053242
20
2.6461807
11
2.7593242
21
2.5543807
0
LINE
8
DEFAULT_255_2_778
10
2.7593242
20
2.5543807
11
2.6675242
21
2.5082807
0
LINE
8
DEFAULT_255_2_778
10
2.6675242
20
2.5082807
11
2.5296242
21
2.4622807
0
LINE
8
DEFAULT_255_2_778
10
2.5296242
20
2.4622807
11
2.3918242
21
2.4622807
0
LINE
8
DEFAULT_255_2_778
10
2.3918242
20
2.4622807
11
2.3918242
21
2.2783807
0
LINE
8
DEFAULT_255_2_778
10
2.3918242
20
2.2783807
11
2.5757242
21
2.2783807
0
LINE
8
DEFAULT_255_2_778
10
2.5757242
20
2.2783807
11
2.7135242
21
2.2323807
0
LINE
8
DEFAULT_255_2_778
10
2.7135242
20
2.2323807
11
2.8053242
21
2.1405807
0
LINE
8
DEFAULT_255_2_778
10
2.8053242
20
2.1405807
11
2.8514242
21
2.0487807
0
LINE
8
DEFAULT_255_2_778
10
2.8514242
20
2.0487807
11
2.8514242
21
1.9108807
0
LINE
8
DEFAULT_255_2_778
10
2.8514242
20
1.9108807
11
2.7595242
21
1.7730807
0
LINE
8
DEFAULT_255_2_778
10
2.7595242
20
1.7730807
11
2.6217242
21
1.6812807
0
LINE
8
DEFAULT_255_2_778
10
2.6217242
20
1.6812807
11
2.4378242
21
1.6812807
0
LINE
8
DEFAULT_255_2_778
10
2.4378242
20
1.6812807
11
2.3000242
21
1.7272807
0
LINE
8
DEFAULT_255_2_778
10
2.3000242
20
1.7272807
11
2.2082242
21
1.8650807
0
LINE
8
DEFAULT_255_2_778
10
2.2082242
20
1.8650807
11
2.2082242
21
1.9569807
0
LINE
8
DEFAULT_255_2_778
10
2.2082242
20
1.9569807
11
1.9785242
21
1.9569807
0
LINE
8
DEFAULT_255_2_778
10
1.9785242
20
1.9569807
11
1.9785242
21
1.8650807
0
LINE
8
DEFAULT_255_2_778
10
1.9785242
20
1.8650807
11
2.0245242
21
1.7272807
0
LINE
8
DEFAULT_255_2_778
10
2.0245242
20
1.7272807
11
2.1163242
21
1.6354807
0
LINE
8
DEFAULT_255_2_778
10
2.1163242
20
1.6354807
11
2.2542242
21
1.5436807
0
LINE
8
DEFAULT_255_2_778
10
2.2542242
20
1.5436807
11
2.4381242
21
1.4975807
0
LINE
8
DEFAULT_255_2_778
10
2.4381242
20
1.4975807
11
2.6220242
21
1.4975807
0
LINE
8
DEFAULT_255_2_778
10
2.6220242
20
1.4975807
11
2.8516242
21
1.5893807
0
LINE
8
DEFAULT_255_2_778
10
2.8516242
20
1.5893807
11
3.0355242
21
1.7732807
0
LINE
8
DEFAULT_255_2_778
10
3.0355242
20
1.7732807
11
3.0815242
21
1.9111807
0
LINE
8
DEFAULT_255_2_778
10
3.0815242
20
1.9111807
11
3.0815242
21
2.0950807
0
LINE
8
DEFAULT_255_2_778
10
3.0815242
20
2.0950807
11
2.9897242
21
2.2789807
0
LINE
8
DEFAULT_255_2_778
10
2.9897242
20
2.2789807
11
2.8979242
21
2.3249807
0
LINE
8
DEFAULT_255_2_778
10
2.8979242
20
2.3249807
11
2.7601242
21
2.3709807
0
LINE
8
DEFAULT_255_2_778
10
2.7601242
20
2.3709807
11
2.8519242
21
2.4170807
0
LINE
8
DEFAULT_255_2_778
10
2.8519242
20
2.4170807
11
2.9897242
21
2.5548807
0
LINE
8
DEFAULT_255_2_778
10
2.9897242
20
2.5548807
11
3.0358242
21
2.6927807
0
LINE
8
DEFAULT_255_2_778
10
3.0358242
20
2.6927807
11
3.0358242
21
2.8765807
0
LINE
8
DEFAULT_255_2_778
10
3.0358242
20
2.8765807
11
2.9440242
21
3.0604807
0
LINE
8
DEFAULT_255_2_778
10
2.9440242
20
3.0604807
11
2.8061242
21
3.1522807
0
LINE
8
DEFAULT_255_2_778
10
2.8061242
20
3.1522807
11
2.6683242
21
3.1983807
0
LINE
8
DEFAULT_255_2_778
10
2.6683242
20
3.1983807
11
2.4386242
21
3.1983807
0
LINE
8
DEFAULT_255_2_778
10
5.8377242
20
2.2328807
11
6.4351242
21
2.2328807
0
LINE
8
DEFAULT_255_2_778
10
6.4351242
20
2.2328807
11
6.4351242
21
2.0950807
0
LINE
8
DEFAULT_255_2_778
10
6.4351242
20
2.0950807
11
5.8377242
21
2.0950807
0
LINE
8
DEFAULT_255_2_778
10
5.8377242
20
2.0950807
11
5.8377242
21
2.2328807
0
LINE
8
DEFAULT_255_2_778
10
9.6054242
20
3.2435807
11
10.6161242
21
3.2435807
0
LINE
8
DEFAULT_255_2_778
10
10.6161242
20
3.2435807
11
10.6161242
21
3.0596807
0
LINE
8
DEFAULT_255_2_778
10
10.6161242
20
3.0596807
11
9.8350242
21
3.0596807
0
LINE
8
DEFAULT_255_2_778
10
9.8350242
20
3.0596807
11
9.8350242
21
2.5082807
0
LINE
8
DEFAULT_255_2_778
10
9.8350242
20
2.5082807
11
10.5700242
21
2.5082807
0
LINE
8
DEFAULT_255_2_778
10
10.5700242
20
2.5082807
11
10.5700242
21
2.3244807
0
LINE
8
DEFAULT_255_2_778
10
10.5700242
20
2.3244807
11
9.8350242
21
2.3244807
0
LINE
8
DEFAULT_255_2_778
10
9.8350242
20
2.3244807
11
9.8350242
21
1.5433807
0
LINE
8
DEFAULT_255_2_778
10
9.8350242
20
1.5433807
11
9.6054242
21
1.5433807
0
LINE
8
DEFAULT_255_2_778
10
9.6054242
20
1.5433807
11
9.6054242
21
3.2433807
0
LINE
8
DEFAULT_255_2_778
10
12.5917854
20
3.1975875
11
12.8213854
21
3.1975875
0
LINE
8
DEFAULT_255_2_778
10
12.8213854
20
3.1975875
11
12.8213854
21
1.5433875
0
LINE
8
DEFAULT_255_2_778
10
12.8213854
20
1.5433875
11
12.5917854
21
1.5433875
0
LINE
8
DEFAULT_255_2_778
10
12.5917854
20
1.5433875
11
12.5917854
21
2.9218875
0
LINE
8
DEFAULT_255_2_778
10
12.5917854
20
2.9218875
11
12.4078854
21
2.7840875
0
LINE
8
DEFAULT_255_2_778
10
12.4078854
20
2.7840875
11
12.2239854
21
2.6921875
0
LINE
8
DEFAULT_255_2_778
10
12.2239854
20
2.6921875
11
12.2239854
21
2.9218875
0
LINE
8
DEFAULT_255_2_778
10
12.2239854
20
2.9218875
11
12.3617854
21
3.0136875
0
LINE
8
DEFAULT_255_2_778
10
12.3617854
20
3.0136875
11
12.5456854
21
3.1515875
0
LINE
8
DEFAULT_255_2_778
10
12.5456854
20
3.1515875
11
12.5917854
21
3.1975875
0
LINE
8
DEFAULT_255_2_778
10
13.3268177
20
2.2329372
11
13.9240177
21
2.2329372
0
LINE
8
DEFAULT_255_2_778
10
13.9240177
20
2.2329372
11
13.9240177
21
2.0950372
0
LINE
8
DEFAULT_255_2_778
10
13.9240177
20
2.0950372
11
13.3268177
21
2.0950372
0
LINE
8
DEFAULT_255_2_778
10
13.3268177
20
2.0950372
11
13.3268177
21
2.2329372
0
LINE
8
DEFAULT_255_2_778
10
7.1702854
20
3.1975875
11
7.3998854
21
3.1975875
0
LINE
8
DEFAULT_255_2_778
10
7.3998854
20
3.1975875
11
7.3998854
21
1.5433875
0
LINE
8
DEFAULT_255_2_778
10
7.3998854
20
1.5433875
11
7.1702854
21
1.5433875
0
LINE
8
DEFAULT_255_2_778
10
7.1702854
20
1.5433875
11
7.1702854
21
2.9218875
0
LINE
8
DEFAULT_255_2_778
10
7.1702854
20
2.9218875
11
6.9863854
21
2.7840875
0
LINE
8
DEFAULT_255_2_778
10
6.9863854
20
2.7840875
11
6.8024854
21
2.6921875
0
LINE
8
DEFAULT_255_2_778
10
6.8024854
20
2.6921875
11
6.8024854
21
2.9218875
0
LINE
8
DEFAULT_255_2_778
10
6.8024854
20
2.9218875
11
6.9402854
21
3.0136875
0
LINE
8
DEFAULT_255_2_778
10
6.9402854
20
3.0136875
11
7.1241854
21
3.1515875
0
LINE
8
DEFAULT_255_2_778
10
7.1241854
20
3.1515875
11
7.1702854
21
3.1975875
0
LINE
8
DEFAULT_255_2_778
10
4.8728271
20
3.1515875
11
5.0567271
21
3.1975875
0
LINE
8
DEFAULT_255_2_778
10
5.0567271
20
3.1975875
11
5.1946271
21
3.1975875
0
LINE
8
DEFAULT_255_2_778
10
5.1946271
20
3.1975875
11
5.3784271
21
3.1515875
0
LINE
8
DEFAULT_255_2_778
10
5.3784271
20
3.1515875
11
5.5163271
21
3.0597875
0
LINE
8
DEFAULT_255_2_778
10
5.5163271
20
3.0597875
11
5.6081271
21
2.8758875
0
LINE
8
DEFAULT_255_2_778
10
5.6081271
20
2.8758875
11
5.6081271
21
2.6461875
0
LINE
8
DEFAULT_255_2_778
10
5.6081271
20
2.6461875
11
5.5163271
21
2.4165875
0
LINE
8
DEFAULT_255_2_778
10
5.5163271
20
2.4165875
11
5.4245271
21
2.2786875
0
LINE
8
DEFAULT_255_2_778
10
5.4245271
20
2.2786875
11
4.8731271
21
1.7272875
0
LINE
8
DEFAULT_255_2_778
10
4.8731271
20
1.7272875
11
5.6541271
21
1.7272875
0
LINE
8
DEFAULT_255_2_778
10
5.6541271
20
1.7272875
11
5.6541271
21
1.5433875
0
LINE
8
DEFAULT_255_2_778
10
5.6541271
20
1.5433875
11
4.5974271
21
1.5433875
0
LINE
8
DEFAULT_255_2_778
10
4.5974271
20
1.5433875
11
4.5974271
21
1.7730875
0
LINE
8
DEFAULT_255_2_778
10
4.5974271
20
1.7730875
11
5.2406271
21
2.4162875
0
LINE
8
DEFAULT_255_2_778
10
5.2406271
20
2.4162875
11
5.3324271
21
2.5540875
0
LINE
8
DEFAULT_255_2_778
10
5.3324271
20
2.5540875
11
5.3784271
21
2.6919875
0
LINE
8
DEFAULT_255_2_778
10
5.3784271
20
2.6919875
11
5.3784271
21
2.8297875
0
LINE
8
DEFAULT_255_2_778
10
5.3784271
20
2.8297875
11
5.2866271
21
2.9676875
0
LINE
8
DEFAULT_255_2_778
10
5.2866271
20
2.9676875
11
5.1948271
21
3.0136875
0
LINE
8
DEFAULT_255_2_778
10
5.1948271
20
3.0136875
11
5.0570271
21
3.0136875
0
LINE
8
DEFAULT_255_2_778
10
5.0570271
20
3.0136875
11
4.9652271
21
2.9676875
0
LINE
8
DEFAULT_255_2_778
10
4.9652271
20
2.9676875
11
4.9191271
21
2.9215875
0
LINE
8
DEFAULT_255_2_778
10
4.9191271
20
2.9215875
11
4.8731271
21
2.8297875
0
LINE
8
DEFAULT_255_2_778
10
4.8731271
20
2.8297875
11
4.8731271
21
2.7379875
0
LINE
8
DEFAULT_255_2_778
10
4.8731271
20
2.7379875
11
4.5974271
21
2.7379875
0
LINE
8
DEFAULT_255_2_778
10
4.5974271
20
2.7379875
11
4.6434271
21
2.9218875
0
LINE
8
DEFAULT_255_2_778
10
4.6434271
20
2.9218875
11
4.7352271
21
3.0597875
0
LINE
8
DEFAULT_255_2_778
10
4.7352271
20
3.0597875
11
4.8731271
21
3.1515875
0
LINE
8
DEFAULT_255_2_778
10
3.5864271
20
3.1515875
11
3.7703271
21
3.1975875
0
LINE
8
DEFAULT_255_2_778
10
3.7703271
20
3.1975875
11
3.9082271
21
3.1975875
0
LINE
8
DEFAULT_255_2_778
10
3.9082271
20
3.1975875
11
4.0920271
21
3.1515875
0
LINE
8
DEFAULT_255_2_778
10
4.0920271
20
3.1515875
11
4.2299271
21
3.0597875
0
LINE
8
DEFAULT_255_2_778
10
4.2299271
20
3.0597875
11
4.3217271
21
2.8758875
0
LINE
8
DEFAULT_255_2_778
10
4.3217271
20
2.8758875
11
4.3217271
21
2.6461875
0
LINE
8
DEFAULT_255_2_778
10
4.3217271
20
2.6461875
11
4.2299271
21
2.4165875
0
LINE
8
DEFAULT_255_2_778
10
4.2299271
20
2.4165875
11
4.1381271
21
2.2786875
0
LINE
8
DEFAULT_255_2_778
10
4.1381271
20
2.2786875
11
3.5867271
21
1.7272875
0
LINE
8
DEFAULT_255_2_778
10
3.5867271
20
1.7272875
11
4.3677271
21
1.7272875
0
LINE
8
DEFAULT_255_2_778
10
4.3677271
20
1.7272875
11
4.3677271
21
1.5433875
0
LINE
8
DEFAULT_255_2_778
10
4.3677271
20
1.5433875
11
3.3110271
21
1.5433875
0
LINE
8
DEFAULT_255_2_778
10
3.3110271
20
1.5433875
11
3.3110271
21
1.7730875
0
LINE
8
DEFAULT_255_2_778
10
3.3110271
20
1.7730875
11
3.9542271
21
2.4162875
0
LINE
8
DEFAULT_255_2_778
10
3.9542271
20
2.4162875
11
4.0460271
21
2.5540875
0
LINE
8
DEFAULT_255_2_778
10
4.0460271
20
2.5540875
11
4.0920271
21
2.6919875
0
LINE
8
DEFAULT_255_2_778
10
4.0920271
20
2.6919875
11
4.0920271
21
2.8297875
0
LINE
8
DEFAULT_255_2_778
10
4.0920271
20
2.8297875
11
4.0002271
21
2.9676875
0
LINE
8
DEFAULT_255_2_778
10
4.0002271
20
2.9676875
11
3.9084271
21
3.0136875
0
LINE
8
DEFAULT_255_2_778
10
3.9084271
20
3.0136875
11
3.7706271
21
3.0136875
0
LINE
8
DEFAULT_255_2_778
10
3.7706271
20
3.0136875
11
3.6788271
21
2.9676875
0
LINE
8
DEFAULT_255_2_778
10
3.6788271
20
2.9676875
11
3.6327271
21
2.9215875
0
LINE
8
DEFAULT_255_2_778
10
3.6327271
20
2.9215875
11
3.5867271
21
2.8297875
0
LINE
8
DEFAULT_255_2_778
10
3.5867271
20
2.8297875
11
3.5867271
21
2.7379875
0
LINE
8
DEFAULT_255_2_778
10
3.5867271
20
2.7379875
11
3.3110271
21
2.7379875
0
LINE
8
DEFAULT_255_2_778
10
3.3110271
20
2.7379875
11
3.3570271
21
2.9218875
0
LINE
8
DEFAULT_255_2_778
10
3.3570271
20
2.9218875
11
3.4488271
21
3.0597875
0
LINE
8
DEFAULT_255_2_778
10
3.4488271
20
3.0597875
11
3.5867271
21
3.1515875
0
LINE
8
DEFAULT_255_2_778
10
19.3917761
20
3.0137062
11
19.2999761
21
3.0137062
0
LINE
8
DEFAULT_255_2_778
10
19.2999761
20
3.0137062
11
19.2081761
21
2.9677062
0
LINE
8
DEFAULT_255_2_778
10
19.2081761
20
2.9677062
11
19.1163761
21
2.8759062
0
LINE
8
DEFAULT_255_2_778
10
19.1163761
20
2.8759062
11
19.0703761
21
2.7841062
0
LINE
8
DEFAULT_255_2_778
10
19.0703761
20
2.7841062
11
19.0242761
21
2.5084062
0
LINE
8
DEFAULT_255_2_778
10
19.0242761
20
2.5084062
11
19.0242761
21
2.1866062
0
LINE
8
DEFAULT_255_2_778
10
19.0242761
20
2.1866062
11
19.0703761
21
1.9109062
0
LINE
8
DEFAULT_255_2_778
10
19.0703761
20
1.9109062
11
19.1163761
21
1.8191062
0
LINE
8
DEFAULT_255_2_778
10
19.1163761
20
1.8191062
11
19.2081761
21
1.7273062
0
LINE
8
DEFAULT_255_2_778
10
19.2081761
20
1.7273062
11
19.2999761
21
1.6813062
0
LINE
8
DEFAULT_255_2_778
10
19.2999761
20
1.6813062
11
19.3917761
21
1.6813062
0
LINE
8
DEFAULT_255_2_778
10
19.3917761
20
1.6813062
11
19.4835761
21
1.7273062
0
LINE
8
DEFAULT_255_2_778
10
19.4835761
20
1.7273062
11
19.5753761
21
1.8191062
0
LINE
8
DEFAULT_255_2_778
10
19.5753761
20
1.8191062
11
19.6214761
21
1.9109062
0
LINE
8
DEFAULT_255_2_778
10
19.6214761
20
1.9109062
11
19.6674761
21
2.1866062
0
LINE
8
DEFAULT_255_2_778
10
19.6674761
20
2.1866062
11
19.6674761
21
2.5084062
0
LINE
8
DEFAULT_255_2_778
10
19.6674761
20
2.5084062
11
19.6214761
21
2.7841062
0
LINE
8
DEFAULT_255_2_778
10
19.6214761
20
2.7841062
11
19.5753761
21
2.8759062
0
LINE
8
DEFAULT_255_2_778
10
19.5753761
20
2.8759062
11
19.4835761
21
2.9677062
0
LINE
8
DEFAULT_255_2_778
10
19.4835761
20
2.9677062
11
19.3917761
21
3.0137062
0
LINE
8
DEFAULT_255_2_778
10
19.2539761
20
3.1976062
11
19.4378761
21
3.1976062
0
LINE
8
DEFAULT_255_2_778
10
19.4378761
20
3.1976062
11
19.5756761
21
3.1516062
0
LINE
8
DEFAULT_255_2_778
10
19.5756761
20
3.1516062
11
19.7135761
21
3.0137062
0
LINE
8
DEFAULT_255_2_778
10
19.7135761
20
3.0137062
11
19.8513761
21
2.7380062
0
LINE
8
DEFAULT_255_2_778
10
19.8513761
20
2.7380062
11
19.8973761
21
2.4623062
0
LINE
8
DEFAULT_255_2_778
10
19.8973761
20
2.4623062
11
19.8973761
21
2.2327062
0
LINE
8
DEFAULT_255_2_778
10
19.8973761
20
2.2327062
11
19.8513761
21
1.9570062
0
LINE
8
DEFAULT_255_2_778
10
19.8513761
20
1.9570062
11
19.7135761
21
1.6813062
0
LINE
8
DEFAULT_255_2_778
10
19.7135761
20
1.6813062
11
19.5756761
21
1.5434062
0
LINE
8
DEFAULT_255_2_778
10
19.5756761
20
1.5434062
11
19.4378761
21
1.4974062
0
LINE
8
DEFAULT_255_2_778
10
19.4378761
20
1.4974062
11
19.2539761
21
1.4974062
0
LINE
8
DEFAULT_255_2_778
10
19.2539761
20
1.4974062
11
19.1160761
21
1.5434062
0
LINE
8
DEFAULT_255_2_778
10
19.1160761
20
1.5434062
11
18.9782761
21
1.6813062
0
LINE
8
DEFAULT_255_2_778
10
18.9782761
20
1.6813062
11
18.8403761
21
1.9570062
0
LINE
8
DEFAULT_255_2_778
10
18.8403761
20
1.9570062
11
18.7943761
21
2.2327062
0
LINE
8
DEFAULT_255_2_778
10
18.7943761
20
2.2327062
11
18.7943761
21
2.4623062
0
LINE
8
DEFAULT_255_2_778
10
18.7943761
20
2.4623062
11
18.8403761
21
2.7380062
0
LINE
8
DEFAULT_255_2_778
10
18.8403761
20
2.7380062
11
18.9782761
21
3.0137062
0
LINE
8
DEFAULT_255_2_778
10
18.9782761
20
3.0137062
11
19.1160761
21
3.1516062
0
LINE
8
DEFAULT_255_2_778
10
19.1160761
20
3.1516062
11
19.2539761
21
3.1976062
0
LINE
8
DEFAULT_255_2_778
10
17.5538313
20
2.1869739
11
18.1512313
21
2.1869739
0
LINE
8
DEFAULT_255_2_778
10
18.1512313
20
2.1869739
11
17.8755313
21
3.0139739
0
LINE
8
DEFAULT_255_2_778
10
17.8755313
20
3.0139739
11
17.5538313
21
2.1869739
0
LINE
8
DEFAULT_255_2_778
10
17.7376313
20
3.2436739
11
18.0133313
21
3.2436739
0
LINE
8
DEFAULT_255_2_778
10
18.0133313
20
3.2436739
11
18.6565313
21
1.5437739
0
LINE
8
DEFAULT_255_2_778
10
18.6565313
20
1.5437739
11
18.4269313
21
1.5437739
0
LINE
8
DEFAULT_255_2_778
10
18.4269313
20
1.5437739
11
18.2430313
21
2.0032739
0
LINE
8
DEFAULT_255_2_778
10
18.2430313
20
2.0032739
11
17.4619313
21
2.0032739
0
LINE
8
DEFAULT_255_2_778
10
17.4619313
20
2.0032739
11
17.2781313
21
1.5437739
0
LINE
8
DEFAULT_255_2_778
10
17.2781313
20
1.5437739
11
17.0484313
21
1.5437739
0
LINE
8
DEFAULT_255_2_778
10
17.0484313
20
1.5437739
11
17.7376313
21
3.2436739
0
LINE
8
DEFAULT_255_2_778
10
15.8538313
20
2.1869739
11
16.4512313
21
2.1869739
0
LINE
8
DEFAULT_255_2_778
10
16.4512313
20
2.1869739
11
16.1755313
21
3.0139739
0
LINE
8
DEFAULT_255_2_778
10
16.1755313
20
3.0139739
11
15.8538313
21
2.1869739
0
LINE
8
DEFAULT_255_2_778
10
16.0376313
20
3.2436739
11
16.3133313
21
3.2436739
0
LINE
8
DEFAULT_255_2_778
10
16.3133313
20
3.2436739
11
16.9565313
21
1.5437739
0
LINE
8
DEFAULT_255_2_778
10
16.9565313
20
1.5437739
11
16.7269313
21
1.5437739
0
LINE
8
DEFAULT_255_2_778
10
16.7269313
20
1.5437739
11
16.5430313
21
2.0032739
0
LINE
8
DEFAULT_255_2_778
10
16.5430313
20
2.0032739
11
15.7619313
21
2.0032739
0
LINE
8
DEFAULT_255_2_778
10
15.7619313
20
2.0032739
11
15.5781313
21
1.5437739
0
LINE
8
DEFAULT_255_2_778
10
15.5781313
20
1.5437739
11
15.3484313
21
1.5437739
0
LINE
8
DEFAULT_255_2_778
10
15.3484313
20
1.5437739
11
16.0376313
21
3.2436739
0
LINE
8
DEFAULT_255_2_778
10
14.7054761
20
3.0137062
11
14.6136761
21
3.0137062
0
LINE
8
DEFAULT_255_2_778
10
14.6136761
20
3.0137062
11
14.5218761
21
2.9677062
0
LINE
8
DEFAULT_255_2_778
10
14.5218761
20
2.9677062
11
14.4300761
21
2.8759062
0
LINE
8
DEFAULT_255_2_778
10
14.4300761
20
2.8759062
11
14.3840761
21
2.7841062
0
LINE
8
DEFAULT_255_2_778
10
14.3840761
20
2.7841062
11
14.3379761
21
2.5084062
0
LINE
8
DEFAULT_255_2_778
10
14.3379761
20
2.5084062
11
14.3379761
21
2.1866062
0
LINE
8
DEFAULT_255_2_778
10
14.3379761
20
2.1866062
11
14.3840761
21
1.9109062
0
LINE
8
DEFAULT_255_2_778
10
14.3840761
20
1.9109062
11
14.4300761
21
1.8191062
0
LINE
8
DEFAULT_255_2_778
10
14.4300761
20
1.8191062
11
14.5218761
21
1.7273062
0
LINE
8
DEFAULT_255_2_778
10
14.5218761
20
1.7273062
11
14.6136761
21
1.6813062
0
LINE
8
DEFAULT_255_2_778
10
14.6136761
20
1.6813062
11
14.7054761
21
1.6813062
0
LINE
8
DEFAULT_255_2_778
10
14.7054761
20
1.6813062
11
14.7972761
21
1.7273062
0
LINE
8
DEFAULT_255_2_778
10
14.7972761
20
1.7273062
11
14.8890761
21
1.8191062
0
LINE
8
DEFAULT_255_2_778
10
14.8890761
20
1.8191062
11
14.9351761
21
1.9109062
0
LINE
8
DEFAULT_255_2_778
10
14.9351761
20
1.9109062
11
14.9811761
21
2.1866062
0
LINE
8
DEFAULT_255_2_778
10
14.9811761
20
2.1866062
11
14.9811761
21
2.5084062
0
LINE
8
DEFAULT_255_2_778
10
14.9811761
20
2.5084062
11
14.9351761
21
2.7841062
0
LINE
8
DEFAULT_255_2_778
10
14.9351761
20
2.7841062
11
14.8890761
21
2.8759062
0
LINE
8
DEFAULT_255_2_778
10
14.8890761
20
2.8759062
11
14.7972761
21
2.9677062
0
LINE
8
DEFAULT_255_2_778
10
14.7972761
20
2.9677062
11
14.7054761
21
3.0137062
0
LINE
8
DEFAULT_255_2_778
10
14.5676761
20
3.1976062
11
14.7515761
21
3.1976062
0
LINE
8
DEFAULT_255_2_778
10
14.7515761
20
3.1976062
11
14.8893761
21
3.1516062
0
LINE
8
DEFAULT_255_2_778
10
14.8893761
20
3.1516062
11
15.0272761
21
3.0137062
0
LINE
8
DEFAULT_255_2_778
10
15.0272761
20
3.0137062
11
15.1650761
21
2.7380062
0
LINE
8
DEFAULT_255_2_778
10
15.1650761
20
2.7380062
11
15.2110761
21
2.4623062
0
LINE
8
DEFAULT_255_2_778
10
15.2110761
20
2.4623062
11
15.2110761
21
2.2327062
0
LINE
8
DEFAULT_255_2_778
10
15.2110761
20
2.2327062
11
15.1650761
21
1.9570062
0
LINE
8
DEFAULT_255_2_778
10
15.1650761
20
1.9570062
11
15.0272761
21
1.6813062
0
LINE
8
DEFAULT_255_2_778
10
15.0272761
20
1.6813062
11
14.8893761
21
1.5434062
0
LINE
8
DEFAULT_255_2_778
10
14.8893761
20
1.5434062
11
14.7515761
21
1.4974062
0
LINE
8
DEFAULT_255_2_778
10
14.7515761
20
1.4974062
11
14.5676761
21
1.4974062
0
LINE
8
DEFAULT_255_2_778
10
14.5676761
20
1.4974062
11
14.4297761
21
1.5434062
0
LINE
8
DEFAULT_255_2_778
10
14.4297761
20
1.5434062
11
14.2919761
21
1.6813062
0
LINE
8
DEFAULT_255_2_778
10
14.2919761
20
1.6813062
11
14.1540761
21
1.9570062
0
LINE
8
DEFAULT_255_2_778
10
14.1540761
20
1.9570062
11
14.1080761
21
2.2327062
0
LINE
8
DEFAULT_255_2_778
10
14.1080761
20
2.2327062
11
14.1080761
21
2.4623062
0
LINE
8
DEFAULT_255_2_778
10
14.1080761
20
2.4623062
11
14.1540761
21
2.7380062
0
LINE
8
DEFAULT_255_2_778
10
14.1540761
20
2.7380062
11
14.2919761
21
3.0137062
0
LINE
8
DEFAULT_255_2_778
10
14.2919761
20
3.0137062
11
14.4297761
21
3.1516062
0
LINE
8
DEFAULT_255_2_778
10
14.4297761
20
3.1516062
11
14.5676761
21
3.1976062
0
LINE
8
DEFAULT_255_2_778
10
11.3513761
20
3.0137062
11
11.2595761
21
3.0137062
0
LINE
8
DEFAULT_255_2_778
10
11.2595761
20
3.0137062
11
11.1677761
21
2.9677062
0
LINE
8
DEFAULT_255_2_778
10
11.1677761
20
2.9677062
11
11.0759761
21
2.8759062
0
LINE
8
DEFAULT_255_2_778
10
11.0759761
20
2.8759062
11
11.0299761
21
2.7841062
0
LINE
8
DEFAULT_255_2_778
10
11.0299761
20
2.7841062
11
10.9838761
21
2.5084062
0
LINE
8
DEFAULT_255_2_778
10
10.9838761
20
2.5084062
11
10.9838761
21
2.1866062
0
LINE
8
DEFAULT_255_2_778
10
10.9838761
20
2.1866062
11
11.0299761
21
1.9109062
0
LINE
8
DEFAULT_255_2_778
10
11.0299761
20
1.9109062
11
11.0759761
21
1.8191062
0
LINE
8
DEFAULT_255_2_778
10
11.0759761
20
1.8191062
11
11.1677761
21
1.7273062
0
LINE
8
DEFAULT_255_2_778
10
11.1677761
20
1.7273062
11
11.2595761
21
1.6813062
0
LINE
8
DEFAULT_255_2_778
10
11.2595761
20
1.6813062
11
11.3513761
21
1.6813062
0
LINE
8
DEFAULT_255_2_778
10
11.3513761
20
1.6813062
11
11.4431761
21
1.7273062
0
LINE
8
DEFAULT_255_2_778
10
11.4431761
20
1.7273062
11
11.5349761
21
1.8191062
0
LINE
8
DEFAULT_255_2_778
10
11.5349761
20
1.8191062
11
11.5810761
21
1.9109062
0
LINE
8
DEFAULT_255_2_778
10
11.5810761
20
1.9109062
11
11.6270761
21
2.1866062
0
LINE
8
DEFAULT_255_2_778
10
11.6270761
20
2.1866062
11
11.6270761
21
2.5084062
0
LINE
8
DEFAULT_255_2_778
10
11.6270761
20
2.5084062
11
11.5810761
21
2.7841062
0
LINE
8
DEFAULT_255_2_778
10
11.5810761
20
2.7841062
11
11.5349761
21
2.8759062
0
LINE
8
DEFAULT_255_2_778
10
11.5349761
20
2.8759062
11
11.4431761
21
2.9677062
0
LINE
8
DEFAULT_255_2_778
10
11.4431761
20
2.9677062
11
11.3513761
21
3.0137062
0
LINE
8
DEFAULT_255_2_778
10
11.2135761
20
3.1976062
11
11.3974761
21
3.1976062
0
LINE
8
DEFAULT_255_2_778
10
11.3974761
20
3.1976062
11
11.5352761
21
3.1516062
0
LINE
8
DEFAULT_255_2_778
10
11.5352761
20
3.1516062
11
11.6731761
21
3.0137062
0
LINE
8
DEFAULT_255_2_778
10
11.6731761
20
3.0137062
11
11.8109761
21
2.7380062
0
LINE
8
DEFAULT_255_2_778
10
11.8109761
20
2.7380062
11
11.8569761
21
2.4623062
0
LINE
8
DEFAULT_255_2_778
10
11.8569761
20
2.4623062
11
11.8569761
21
2.2327062
0
LINE
8
DEFAULT_255_2_778
10
11.8569761
20
2.2327062
11
11.8109761
21
1.9570062
0
LINE
8
DEFAULT_255_2_778
10
11.8109761
20
1.9570062
11
11.6731761
21
1.6813062
0
LINE
8
DEFAULT_255_2_778
10
11.6731761
20
1.6813062
11
11.5352761
21
1.5434062
0
LINE
8
DEFAULT_255_2_778
10
11.5352761
20
1.5434062
11
11.3974761
21
1.4974062
0
LINE
8
DEFAULT_255_2_778
10
11.3974761
20
1.4974062
11
11.2135761
21
1.4974062
0
LINE
8
DEFAULT_255_2_778
10
11.2135761
20
1.4974062
11
11.0756761
21
1.5434062
0
LINE
8
DEFAULT_255_2_778
10
11.0756761
20
1.5434062
11
10.9378761
21
1.6813062
0
LINE
8
DEFAULT_255_2_778
10
10.9378761
20
1.6813062
11
10.7999761
21
1.9570062
0
LINE
8
DEFAULT_255_2_778
10
10.7999761
20
1.9570062
11
10.7539761
21
2.2327062
0
LINE
8
DEFAULT_255_2_778
10
10.7539761
20
2.2327062
11
10.7539761
21
2.4623062
0
LINE
8
DEFAULT_255_2_778
10
10.7539761
20
2.4623062
11
10.7999761
21
2.7380062
0
LINE
8
DEFAULT_255_2_778
10
10.7999761
20
2.7380062
11
10.9378761
21
3.0137062
0
LINE
8
DEFAULT_255_2_778
10
10.9378761
20
3.0137062
11
11.0756761
21
3.1516062
0
LINE
8
DEFAULT_255_2_778
10
11.0756761
20
3.1516062
11
11.2135761
21
3.1976062
0
LINE
8
DEFAULT_255_2_778
10
9.0079337
20
1.5894787
11
8.8240337
21
1.5433787
0
LINE
8
DEFAULT_255_2_778
10
8.8240337
20
1.5433787
11
8.0430337
21
1.5433787
0
LINE
8
DEFAULT_255_2_778
10
8.0430337
20
1.5433787
11
8.0430337
21
3.2433787
0
LINE
8
DEFAULT_255_2_778
10
8.0430337
20
3.2433787
11
8.7322337
21
3.2433787
0
LINE
8
DEFAULT_255_2_778
10
8.7322337
20
3.2433787
11
8.9161337
21
3.1973787
0
LINE
8
DEFAULT_255_2_778
10
8.9161337
20
3.1973787
11
9.0079337
21
3.1512787
0
LINE
8
DEFAULT_255_2_778
10
9.0079337
20
3.1512787
11
9.1458337
21
3.0134787
0
LINE
8
DEFAULT_255_2_778
10
9.1458337
20
3.0134787
11
9.1918337
21
2.8755787
0
LINE
8
DEFAULT_255_2_778
10
9.1918337
20
2.8755787
11
9.1918337
21
2.7377787
0
LINE
8
DEFAULT_255_2_778
10
9.1918337
20
2.7377787
11
9.1458337
21
2.5998787
0
LINE
8
DEFAULT_255_2_778
10
9.1458337
20
2.5998787
11
9.0540337
21
2.5080787
0
LINE
8
DEFAULT_255_2_778
10
9.0540337
20
2.5080787
11
8.9161337
21
2.4162787
0
LINE
8
DEFAULT_255_2_778
10
8.9161337
20
2.4162787
11
9.0540337
21
2.3702787
0
LINE
8
DEFAULT_255_2_778
10
9.0540337
20
2.3702787
11
9.1918337
21
2.2323787
0
LINE
8
DEFAULT_255_2_778
10
9.1918337
20
2.2323787
11
9.2379337
21
2.1405787
0
LINE
8
DEFAULT_255_2_778
10
9.2379337
20
2.1405787
11
9.2379337
21
1.9108787
0
LINE
8
DEFAULT_255_2_778
10
9.2379337
20
1.9108787
11
9.1918337
21
1.7730787
0
LINE
8
DEFAULT_255_2_778
10
9.1918337
20
1.7730787
11
9.1458337
21
1.6812787
0
LINE
8
DEFAULT_255_2_778
10
9.1458337
20
1.6812787
11
9.0079337
21
1.5894787
0
LINE
8
DEFAULT_255_2_778
10
8.2729337
20
2.3244787
11
8.7325337
21
2.3244787
0
LINE
8
DEFAULT_255_2_778
10
8.7325337
20
2.3244787
11
8.8704337
21
2.2784787
0
LINE
8
DEFAULT_255_2_778
10
8.8704337
20
2.2784787
11
8.9622337
21
2.1865787
0
LINE
8
DEFAULT_255_2_778
10
8.9622337
20
2.1865787
11
9.0082337
21
2.0487787
0
LINE
8
DEFAULT_255_2_778
10
9.0082337
20
2.0487787
11
9.0082337
21
1.9569787
0
LINE
8
DEFAULT_255_2_778
10
9.0082337
20
1.9569787
11
8.9622337
21
1.8651787
0
LINE
8
DEFAULT_255_2_778
10
8.9622337
20
1.8651787
11
8.8704337
21
1.7733787
0
LINE
8
DEFAULT_255_2_778
10
8.8704337
20
1.7733787
11
8.7325337
21
1.7272787
0
LINE
8
DEFAULT_255_2_778
10
8.7325337
20
1.7272787
11
8.2729337
21
1.7272787
0
LINE
8
DEFAULT_255_2_778
10
8.2729337
20
1.7272787
11
8.2729337
21
2.3244787
0
LINE
8
DEFAULT_255_2_778
10
8.6404337
20
2.5083787
11
8.8243337
21
2.5543787
0
LINE
8
DEFAULT_255_2_778
10
8.8243337
20
2.5543787
11
8.9161337
21
2.6461787
0
LINE
8
DEFAULT_255_2_778
10
8.9161337
20
2.6461787
11
8.9622337
21
2.7379787
0
LINE
8
DEFAULT_255_2_778
10
8.9622337
20
2.7379787
11
8.9622337
21
2.8297787
0
LINE
8
DEFAULT_255_2_778
10
8.9622337
20
2.8297787
11
8.9161337
21
2.9676787
0
LINE
8
DEFAULT_255_2_778
10
8.9161337
20
2.9676787
11
8.8701337
21
3.0136787
0
LINE
8
DEFAULT_255_2_778
10
8.8701337
20
3.0136787
11
8.6862337
21
3.0597787
0
LINE
8
DEFAULT_255_2_778
10
8.6862337
20
3.0597787
11
8.2727337
21
3.0597787
0
LINE
8
DEFAULT_255_2_778
10
8.2727337
20
3.0597787
11
8.2727337
21
2.5083787
0
LINE
8
DEFAULT_255_2_778
10
8.2727337
20
2.5083787
11
8.6404337
21
2.5083787
0
LINE
8
DEFAULT_255_2_778
10
35.1511337
20
86.7341787
11
35.3890337
21
86.6746787
0
LINE
8
DEFAULT_255_2_778
10
35.3890337
20
86.6746787
11
35.5673337
21
86.5558787
0
LINE
8
DEFAULT_255_2_778
10
35.5673337
20
86.5558787
11
35.6861337
21
86.3180787
0
LINE
8
DEFAULT_255_2_778
10
35.6861337
20
86.3180787
11
35.6861337
21
86.0206787
0
LINE
8
DEFAULT_255_2_778
10
35.6861337
20
86.0206787
11
35.5673337
21
85.7232787
0
LINE
8
DEFAULT_255_2_778
10
35.5673337
20
85.7232787
11
35.4485337
21
85.5448787
0
LINE
8
DEFAULT_255_2_778
10
35.4485337
20
85.5448787
11
34.7350337
21
84.8313787
0
LINE
8
DEFAULT_255_2_778
10
34.7350337
20
84.8313787
11
35.7457337
21
84.8313787
0
LINE
8
DEFAULT_255_2_778
10
35.7457337
20
84.8313787
11
35.7457337
21
84.5934787
0
LINE
8
DEFAULT_255_2_778
10
35.7457337
20
84.5934787
11
34.3780337
21
84.5934787
0
LINE
8
DEFAULT_255_2_778
10
34.3780337
20
84.5934787
11
34.3780337
21
84.8908787
0
LINE
8
DEFAULT_255_2_778
10
34.3780337
20
84.8908787
11
35.2104337
21
85.7232787
0
LINE
8
DEFAULT_255_2_778
10
35.2104337
20
85.7232787
11
35.3292337
21
85.9015787
0
LINE
8
DEFAULT_255_2_778
10
35.3292337
20
85.9015787
11
35.3887337
21
86.0798787
0
LINE
8
DEFAULT_255_2_778
10
35.3887337
20
86.0798787
11
35.3887337
21
86.2582787
0
LINE
8
DEFAULT_255_2_778
10
35.3887337
20
86.2582787
11
35.2699337
21
86.4365787
0
LINE
8
DEFAULT_255_2_778
10
35.2699337
20
86.4365787
11
35.1511337
21
86.4960787
0
LINE
8
DEFAULT_255_2_778
10
35.1511337
20
86.4960787
11
34.9728337
21
86.4960787
0
LINE
8
DEFAULT_255_2_778
10
34.9728337
20
86.4960787
11
34.8540337
21
86.4365787
0
LINE
8
DEFAULT_255_2_778
10
34.8540337
20
86.4365787
11
34.7945337
21
86.3770787
0
LINE
8
DEFAULT_255_2_778
10
34.7945337
20
86.3770787
11
34.7350337
21
86.2582787
0
LINE
8
DEFAULT_255_2_778
10
34.7350337
20
86.2582787
11
34.7350337
21
86.1394787
0
LINE
8
DEFAULT_255_2_778
10
34.7350337
20
86.1394787
11
34.3783337
21
86.1394787
0
LINE
8
DEFAULT_255_2_778
10
34.3783337
20
86.1394787
11
34.4378337
21
86.3772787
0
LINE
8
DEFAULT_255_2_778
10
34.4378337
20
86.3772787
11
34.5566337
21
86.5556787
0
LINE
8
DEFAULT_255_2_778
10
34.5566337
20
86.5556787
11
34.7350337
21
86.6744787
0
LINE
8
DEFAULT_255_2_778
10
34.7350337
20
86.6744787
11
34.9728337
21
86.7339787
0
LINE
8
DEFAULT_255_2_778
10
34.9728337
20
86.7339787
11
35.1511337
21
86.7339787
0
LINE
8
DEFAULT_255_2_778
10
35.2107337
20
76.3342787
11
34.9133337
21
76.3342787
0
LINE
8
DEFAULT_255_2_778
10
34.9133337
20
76.3342787
11
34.6754337
21
76.2746787
0
LINE
8
DEFAULT_255_2_778
10
34.6754337
20
76.2746787
11
34.4971337
21
76.1558787
0
LINE
8
DEFAULT_255_2_778
10
34.4971337
20
76.1558787
11
34.3783337
21
75.9180787
0
LINE
8
DEFAULT_255_2_778
10
34.3783337
20
75.9180787
11
34.3783337
21
75.7992787
0
LINE
8
DEFAULT_255_2_778
10
34.3783337
20
75.7992787
11
34.6757337
21
75.7992787
0
LINE
8
DEFAULT_255_2_778
10
34.6757337
20
75.7992787
11
34.7352337
21
75.9775787
0
LINE
8
DEFAULT_255_2_778
10
34.7352337
20
75.9775787
11
34.7948337
21
76.0370787
0
LINE
8
DEFAULT_255_2_778
10
34.7948337
20
76.0370787
11
34.9136337
21
76.0966787
0
LINE
8
DEFAULT_255_2_778
10
34.9136337
20
76.0966787
11
35.1514337
21
76.0966787
0
LINE
8
DEFAULT_255_2_778
10
35.1514337
20
76.0966787
11
35.2702337
21
76.0370787
0
LINE
8
DEFAULT_255_2_778
10
35.2702337
20
76.0370787
11
35.3890337
21
75.8587787
0
LINE
8
DEFAULT_255_2_778
10
35.3890337
20
75.8587787
11
35.3890337
21
75.6209787
0
LINE
8
DEFAULT_255_2_778
10
35.3890337
20
75.6209787
11
35.3295337
21
75.5021787
0
LINE
8
DEFAULT_255_2_778
10
35.3295337
20
75.5021787
11
35.2107337
21
75.4425787
0
LINE
8
DEFAULT_255_2_778
10
35.2107337
20
75.4425787
11
35.0324337
21
75.3830787
0
LINE
8
DEFAULT_255_2_778
10
35.0324337
20
75.3830787
11
34.8540337
21
75.3830787
0
LINE
8
DEFAULT_255_2_778
10
34.8540337
20
75.3830787
11
34.8540337
21
75.1451787
0
LINE
8
DEFAULT_255_2_778
10
34.8540337
20
75.1451787
11
35.0919337
21
75.1451787
0
LINE
8
DEFAULT_255_2_778
10
35.0919337
20
75.1451787
11
35.2702337
21
75.0856787
0
LINE
8
DEFAULT_255_2_778
10
35.2702337
20
75.0856787
11
35.3890337
21
74.9668787
0
LINE
8
DEFAULT_255_2_778
10
35.3890337
20
74.9668787
11
35.4485337
21
74.8480787
0
LINE
8
DEFAULT_255_2_778
10
35.4485337
20
74.8480787
11
35.4485337
21
74.6697787
0
LINE
8
DEFAULT_255_2_778
10
35.4485337
20
74.6697787
11
35.3297337
21
74.4913787
0
LINE
8
DEFAULT_255_2_778
10
35.3297337
20
74.4913787
11
35.1514337
21
74.3725787
0
LINE
8
DEFAULT_255_2_778
10
35.1514337
20
74.3725787
11
34.9136337
21
74.3725787
0
LINE
8
DEFAULT_255_2_778
10
34.9136337
20
74.3725787
11
34.7352337
21
74.4321787
0
LINE
8
DEFAULT_255_2_778
10
34.7352337
20
74.4321787
11
34.6164337
21
74.6104787
0
LINE
8
DEFAULT_255_2_778
10
34.6164337
20
74.6104787
11
34.6164337
21
74.7292787
0
LINE
8
DEFAULT_255_2_778
10
34.6164337
20
74.7292787
11
34.3188337
21
74.7292787
0
LINE
8
DEFAULT_255_2_778
10
34.3188337
20
74.7292787
11
34.3188337
21
74.6104787
0
LINE
8
DEFAULT_255_2_778
10
34.3188337
20
74.6104787
11
34.3783337
21
74.4321787
0
LINE
8
DEFAULT_255_2_778
10
34.3783337
20
74.4321787
11
34.4971337
21
74.3133787
0
LINE
8
DEFAULT_255_2_778
10
34.4971337
20
74.3133787
11
34.6754337
21
74.1945787
0
LINE
8
DEFAULT_255_2_778
10
34.6754337
20
74.1945787
11
34.9133337
21
74.1350787
0
LINE
8
DEFAULT_255_2_778
10
34.9133337
20
74.1350787
11
35.1511337
21
74.1350787
0
LINE
8
DEFAULT_255_2_778
10
35.1511337
20
74.1350787
11
35.4485337
21
74.2538787
0
LINE
8
DEFAULT_255_2_778
10
35.4485337
20
74.2538787
11
35.6864337
21
74.4916787
0
LINE
8
DEFAULT_255_2_778
10
35.6864337
20
74.4916787
11
35.7459337
21
74.6699787
0
LINE
8
DEFAULT_255_2_778
10
35.7459337
20
74.6699787
11
35.7459337
21
74.9078787
0
LINE
8
DEFAULT_255_2_778
10
35.7459337
20
74.9078787
11
35.6271337
21
75.1457787
0
LINE
8
DEFAULT_255_2_778
10
35.6271337
20
75.1457787
11
35.5083337
21
75.2052787
0
LINE
8
DEFAULT_255_2_778
10
35.5083337
20
75.2052787
11
35.3300337
21
75.2647787
0
LINE
8
DEFAULT_255_2_778
10
35.3300337
20
75.2647787
11
35.4488337
21
75.3243787
0
LINE
8
DEFAULT_255_2_778
10
35.4488337
20
75.3243787
11
35.6271337
21
75.5026787
0
LINE
8
DEFAULT_255_2_778
10
35.6271337
20
75.5026787
11
35.6867337
21
75.6809787
0
LINE
8
DEFAULT_255_2_778
10
35.6867337
20
75.6809787
11
35.6867337
21
75.9188787
0
LINE
8
DEFAULT_255_2_778
10
35.6867337
20
75.9188787
11
35.5679337
21
76.1566787
0
LINE
8
DEFAULT_255_2_778
10
35.5679337
20
76.1566787
11
35.3895337
21
76.2754787
0
LINE
8
DEFAULT_255_2_778
10
35.3895337
20
76.2754787
11
35.2112337
21
76.3350787
0
LINE
8
DEFAULT_255_2_778
10
35.1273337
20
97.1341787
11
35.4247337
21
97.1341787
0
LINE
8
DEFAULT_255_2_778
10
35.4247337
20
97.1341787
11
35.4247337
21
94.9936787
0
LINE
8
DEFAULT_255_2_778
10
35.4247337
20
94.9936787
11
35.1273337
21
94.9936787
0
LINE
8
DEFAULT_255_2_778
10
35.1273337
20
94.9936787
11
35.1273337
21
96.7775787
0
LINE
8
DEFAULT_255_2_778
10
35.1273337
20
96.7775787
11
34.8895337
21
96.5991787
0
LINE
8
DEFAULT_255_2_778
10
34.8895337
20
96.5991787
11
34.6516337
21
96.4803787
0
LINE
8
DEFAULT_255_2_778
10
34.6516337
20
96.4803787
11
34.6516337
21
96.7777787
0
LINE
8
DEFAULT_255_2_778
10
34.6516337
20
96.7777787
11
34.8299337
21
96.8965787
0
LINE
8
DEFAULT_255_2_778
10
34.8299337
20
96.8965787
11
35.0678337
21
97.0749787
0
LINE
8
DEFAULT_255_2_778
10
35.0678337
20
97.0749787
11
35.1273337
21
97.1344787
0
LINE
8
DEFAULT_255_2_778
10
35.0916337
20
107.2962787
11
34.9728337
21
107.2962787
0
LINE
8
DEFAULT_255_2_778
10
34.9728337
20
107.2962787
11
34.8540337
21
107.2367787
0
LINE
8
DEFAULT_255_2_778
10
34.8540337
20
107.2367787
11
34.7352337
21
107.1179787
0
LINE
8
DEFAULT_255_2_778
10
34.7352337
20
107.1179787
11
34.6757337
21
106.9991787
0
LINE
8
DEFAULT_255_2_778
10
34.6757337
20
106.9991787
11
34.6162337
21
106.6425787
0
LINE
8
DEFAULT_255_2_778
10
34.6162337
20
106.6425787
11
34.6162337
21
106.2263787
0
LINE
8
DEFAULT_255_2_778
10
34.6162337
20
106.2263787
11
34.6757337
21
105.8696787
0
LINE
8
DEFAULT_255_2_778
10
34.6757337
20
105.8696787
11
34.7352337
21
105.7508787
0
LINE
8
DEFAULT_255_2_778
10
34.7352337
20
105.7508787
11
34.8540337
21
105.6320787
0
LINE
8
DEFAULT_255_2_778
10
34.8540337
20
105.6320787
11
34.9728337
21
105.5725787
0
LINE
8
DEFAULT_255_2_778
10
34.9728337
20
105.5725787
11
35.0916337
21
105.5725787
0
LINE
8
DEFAULT_255_2_778
10
35.0916337
20
105.5725787
11
35.2104337
21
105.6320787
0
LINE
8
DEFAULT_255_2_778
10
35.2104337
20
105.6320787
11
35.3292337
21
105.7508787
0
LINE
8
DEFAULT_255_2_778
10
35.3292337
20
105.7508787
11
35.3887337
21
105.8696787
0
LINE
8
DEFAULT_255_2_778
10
35.3887337
20
105.8696787
11
35.4483337
21
106.2263787
0
LINE
8
DEFAULT_255_2_778
10
35.4483337
20
106.2263787
11
35.4483337
21
106.6425787
0
LINE
8
DEFAULT_255_2_778
10
35.4483337
20
106.6425787
11
35.3887337
21
106.9991787
0
LINE
8
DEFAULT_255_2_778
10
35.3887337
20
106.9991787
11
35.3292337
21
107.1179787
0
LINE
8
DEFAULT_255_2_778
10
35.3292337
20
107.1179787
11
35.2104337
21
107.2367787
0
LINE
8
DEFAULT_255_2_778
10
35.2104337
20
107.2367787
11
35.0916337
21
107.2962787
0
LINE
8
DEFAULT_255_2_778
10
34.9133337
20
107.5341787
11
35.1511337
21
107.5341787
0
LINE
8
DEFAULT_255_2_778
10
35.1511337
20
107.5341787
11
35.3295337
21
107.4746787
0
LINE
8
DEFAULT_255_2_778
10
35.3295337
20
107.4746787
11
35.5078337
21
107.2962787
0
LINE
8
DEFAULT_255_2_778
10
35.5078337
20
107.2962787
11
35.6861337
21
106.9396787
0
LINE
8
DEFAULT_255_2_778
10
35.6861337
20
106.9396787
11
35.7457337
21
106.5829787
0
LINE
8
DEFAULT_255_2_778
10
35.7457337
20
106.5829787
11
35.7457337
21
106.2855787
0
LINE
8
DEFAULT_255_2_778
10
35.7457337
20
106.2855787
11
35.6861337
21
105.9289787
0
LINE
8
DEFAULT_255_2_778
10
35.6861337
20
105.9289787
11
35.5078337
21
105.5722787
0
LINE
8
DEFAULT_255_2_778
10
35.5078337
20
105.5722787
11
35.3295337
21
105.3939787
0
LINE
8
DEFAULT_255_2_778
10
35.3295337
20
105.3939787
11
35.1511337
21
105.3344787
0
LINE
8
DEFAULT_255_2_778
10
35.1511337
20
105.3344787
11
34.9133337
21
105.3344787
0
LINE
8
DEFAULT_255_2_778
10
34.9133337
20
105.3344787
11
34.7350337
21
105.3939787
0
LINE
8
DEFAULT_255_2_778
10
34.7350337
20
105.3939787
11
34.5566337
21
105.5722787
0
LINE
8
DEFAULT_255_2_778
10
34.5566337
20
105.5722787
11
34.3783337
21
105.9289787
0
LINE
8
DEFAULT_255_2_778
10
34.3783337
20
105.9289787
11
34.3188337
21
106.2855787
0
LINE
8
DEFAULT_255_2_778
10
34.3188337
20
106.2855787
11
34.3188337
21
106.5829787
0
LINE
8
DEFAULT_255_2_778
10
34.3188337
20
106.5829787
11
34.3783337
21
106.9396787
0
LINE
8
DEFAULT_255_2_778
10
34.3783337
20
106.9396787
11
34.5566337
21
107.2962787
0
LINE
8
DEFAULT_255_2_778
10
34.5566337
20
107.2962787
11
34.7350337
21
107.4746787
0
LINE
8
DEFAULT_255_2_778
10
34.7350337
20
107.4746787
11
34.9133337
21
107.5341787
0
ENDSEC
0
EOF