0
SECTION
2
HEADER
9
$MEASUREMENT
70
1
0
ENDSEC
0
SECTION
2
TABLES
0
TABLE
2
LTYPE
0
LTYPE
72
65
70
64
2
CONTINUOUS
3
______
73
0
40
0
0
ENDTAB
0
TABLE
2
LAYER
0
LAYER
2
DEFAULT_255_2_778
70
0
62
255
6
CONTINUOUS
0
ENDTAB
0
ENDSEC
0
SECTION
2
ENTITIES
0
ARC
8
DEFAULT_255_2_778
10
77.3212239
20
24.0012881
40
1.7924951
50
89.9172416
51
116.062542
0
ARC
8
DEFAULT_255_2_778
10
77.3257119
20
23.9926221
40
1.8022517
50
116.0696674
51
170.5890409
0
ARC
8
DEFAULT_255_2_778
10
77.3361848
20
23.994551
40
1.8122718
50
170.7033465
51
180.0211728
0
ARC
8
DEFAULT_255_2_778
10
111.7239161
20
45.0938783
40
0.5000969
50
269.9996485
51
0.0003515
0
ARC
8
DEFAULT_255_2_778
10
109.9239036
20
45.0437719
40
0.3001094
50
0.0208901
51
89.9791099
0
LINE
8
DEFAULT_255_2_778
10
0.224013
20
18.7026813
11
3.623913
21
19.6136813
0
LINE
8
DEFAULT_255_2_778
10
3.623913
20
19.6136813
11
5.123813
21
19.6136813
0
LINE
8
DEFAULT_255_2_778
10
5.123813
20
19.6136813
11
5.123813
21
21.2937813
0
LINE
8
DEFAULT_255_2_778
10
10.624013
20
16.2936813
11
11.923913
21
14.9937813
0
LINE
8
DEFAULT_255_2_778
10
11.923913
20
14.9937813
11
11.923913
21
-0.2063187
0
LINE
8
DEFAULT_255_2_778
10
11.923913
20
-0.2063187
11
76.224013
21
-0.2063187
0
LINE
8
DEFAULT_255_2_778
10
76.224013
20
-0.2063187
11
76.224013
21
21.2937813
0
LINE
8
DEFAULT_255_2_778
10
75.523913
20
23.9938813
11
75.523913
21
21.2937813
0
LINE
8
DEFAULT_255_2_778
10
75.523913
20
21.2937813
11
80.023913
21
25.7937813
0
LINE
8
DEFAULT_255_2_778
10
80.023913
20
25.7937813
11
77.323813
21
25.7937813
0
LINE
8
DEFAULT_255_2_778
10
111.723913
20
44.5937813
11
110.224013
21
44.5937813
0
LINE
8
DEFAULT_255_2_778
10
110.224013
20
44.5937813
11
110.224013
21
45.0438813
0
LINE
8
DEFAULT_255_2_778
10
109.924013
20
45.3438813
11
105.223913
21
45.3438813
0
ARC
8
DEFAULT_255_2_778
10
6.1238917
20
124.2940788
40
0.4996895
50
89.9974927
51
135.0233997
0
ARC
8
DEFAULT_255_2_778
10
6.123661
20
124.2937662
40
0.4997474
50
134.9793514
51
180.0112208
0
ARC
8
DEFAULT_255_2_778
10
6.123661
20
120.2936704
40
0.4997474
50
179.9887792
51
225.0206486
0
ARC
8
DEFAULT_255_2_778
10
6.1238917
20
120.2933581
40
0.4996898
50
224.9766189
51
270.0025007
0
ARC
8
DEFAULT_255_2_778
10
8.373887
20
120.0436036
40
0.2499353
50
270.029019
51
315.0310066
0
ARC
8
DEFAULT_255_2_778
10
8.3735541
20
120.0440123
40
0.2504597
50
315.0186702
51
359.9213004
0
ARC
8
DEFAULT_255_2_778
10
10.1174264
20
120.2957482
40
1.4934141
50
150.1832535
51
180.0759605
0
ARC
8
DEFAULT_255_2_778
10
10.1245947
20
120.2927762
40
1.5011115
50
97.8892861
51
150.220878
0
ARC
8
DEFAULT_255_2_778
10
10.1238659
20
120.2799502
40
1.5137181
50
89.9981955
51
97.7953257
0
ARC
8
DEFAULT_255_2_778
10
10.7259869
20
120.3001503
40
1.4935193
50
60.1408866
51
90.0757022
0
ARC
8
DEFAULT_255_2_778
10
10.723203
20
120.2931953
40
1.5009375
50
7.8804075
51
60.1809048
0
ARC
8
DEFAULT_255_2_778
10
10.7106111
20
120.2939977
40
1.5133026
50
359.9913156
51
7.7849499
0
ARC
8
DEFAULT_255_2_778
10
8.7972804
20
106.2936385
40
0.2999298
50
89.9936749
51
150.0077294
0
ARC
8
DEFAULT_255_2_778
10
2.2214607
20
99.7008541
40
1.9929158
50
89.926605
51
114.3113989
0
ARC
8
DEFAULT_255_2_778
10
2.2265138
20
99.6920108
40
2.0030556
50
114.3389823
51
170.1972101
0
ARC
8
DEFAULT_255_2_778
10
2.237175
20
99.6943833
40
2.0131615
50
170.3154071
51
180.0175033
0
ARC
8
DEFAULT_255_2_778
10
2.2168108
20
77.2913076
40
1.9927989
50
179.9263778
51
204.3121238
0
ARC
8
DEFAULT_255_2_778
10
2.2256851
20
77.2964116
40
2.0029878
50
204.3406647
51
260.1993716
0
ARC
8
DEFAULT_255_2_778
10
2.2233975
20
77.3073242
40
2.013356
50
260.3163836
51
270.017533
0
LINE
8
DEFAULT_255_2_778
10
76.2240136
20
55.2937683
11
76.2240136
21
124.7937683
0
LINE
8
DEFAULT_255_2_778
10
76.2240136
20
124.7937683
11
6.1239136
21
124.7937683
0
LINE
8
DEFAULT_255_2_778
10
5.6239136
20
124.2936683
11
5.6239136
21
120.2937683
0
LINE
8
DEFAULT_255_2_778
10
6.1239136
20
119.7936683
11
8.3740136
21
119.7936683
0
LINE
8
DEFAULT_255_2_778
10
8.6240136
20
120.0436683
11
8.6240136
21
120.2937683
0
LINE
8
DEFAULT_255_2_778
10
10.1239136
20
121.7936683
11
10.7240136
21
121.7936683
0
LINE
8
DEFAULT_255_2_778
10
12.2239136
20
120.2937683
11
12.2239136
21
106.5935683
0
LINE
8
DEFAULT_255_2_778
10
12.2239136
20
106.5935683
11
8.7973136
21
106.5935683
0
LINE
8
DEFAULT_255_2_778
10
8.5375136
20
106.4435683
11
5.7951136
21
101.6937683
0
LINE
8
DEFAULT_255_2_778
10
5.7951136
20
101.6937683
11
2.2240136
21
101.6937683
0
LINE
8
DEFAULT_255_2_778
10
0.2240136
20
99.6937683
11
0.2240136
21
77.2938683
0
LINE
8
DEFAULT_255_2_778
10
2.2240136
20
75.2939683
11
5.6239136
21
75.2939683
0
LINE
8
DEFAULT_255_2_778
10
5.6239136
20
75.2939683
11
5.6239136
21
59.2940683
0
LINE
8
DEFAULT_255_2_778
10
5.6239136
20
59.2940683
11
0.2240136
21
59.2940683
0
LINE
8
DEFAULT_255_2_778
10
0.2240136
20
59.2940683
11
0.2240136
21
17.5941683
0
LINE
8
DEFAULT_255_2_778
10
0.2240136
20
17.5941683
11
10.6240136
21
17.5941683
0
LINE
8
DEFAULT_255_2_778
10
10.6240136
20
17.5941683
11
10.6240136
21
16.2942683
0
LINE
8
DEFAULT_255_2_778
10
10.6240136
20
16.2942683
11
3.2514136
21
17.5941683
0
ARC
8
DEFAULT_255_2_778
10
78.0263936
20
53.3008937
40
1.9929158
50
65.6886011
51
90.073395
0
ARC
8
DEFAULT_255_2_778
10
78.0213404
20
53.2920504
40
2.0030556
50
9.8027899
51
65.6610177
0
ARC
8
DEFAULT_255_2_778
10
78.0106792
20
53.2944229
40
2.0131615
50
359.9824967
51
9.6845929
0
ARC
8
DEFAULT_255_2_778
10
78.0309265
20
23.291255
40
1.9929158
50
335.6886011
51
0.073395
0
ARC
8
DEFAULT_255_2_778
10
78.0220832
20
23.2963081
40
2.0030556
50
279.8027899
51
335.6610177
0
ARC
8
DEFAULT_255_2_778
10
78.0244557
20
23.3069694
40
2.0131615
50
269.9824967
51
279.6845929
0
LINE
8
DEFAULT_255_2_778
10
0.2239407
20
55.2938079
11
78.0238407
21
55.2938079
0
LINE
8
DEFAULT_255_2_778
10
80.0238407
20
53.2938079
11
80.0238407
21
23.2938079
0
LINE
8
DEFAULT_255_2_778
10
78.0238407
20
21.2938079
11
0.2239407
21
21.2938079
0
ARC
8
DEFAULT_255_2_778
10
105.5240224
20
121.5435181
40
0.3001094
50
90.0208901
51
179.9791099
0
ARC
8
DEFAULT_255_2_778
10
109.9239036
20
122.1437369
40
0.3001094
50
270.0208901
51
359.9791099
0
ARC
8
DEFAULT_255_2_778
10
111.7239161
20
122.0936306
40
0.5000969
50
359.9996485
51
90.0003515
0
ARC
8
DEFAULT_255_2_778
10
111.7239161
20
2.4935244
40
0.5000969
50
269.9996485
51
0.0003515
0
ARC
8
DEFAULT_255_2_778
10
109.9239036
20
2.4434181
40
0.3001094
50
0.0208901
51
89.9791099
0
ARC
8
DEFAULT_255_2_778
10
105.5240436
20
3.0436581
40
0.3001306
50
180.005844
51
269.9750701
0
LINE
8
DEFAULT_255_2_778
10
4.018413
20
55.2938275
11
4.018413
21
53.2938275
0
LINE
8
DEFAULT_255_2_778
10
4.017313
20
55.2938275
11
4.017313
21
53.2938275
0
LINE
8
DEFAULT_255_2_778
10
4.017313
20
53.2938275
11
4.524013
21
53.2938275
0
LINE
8
DEFAULT_255_2_778
10
4.524013
20
53.2938275
11
4.524013
21
55.2938275
0
LINE
8
DEFAULT_255_2_778
10
4.018413
20
23.2937275
11
4.018413
21
21.2937275
0
LINE
8
DEFAULT_255_2_778
10
4.524013
20
21.2937275
11
4.524013
21
23.2937275
0
LINE
8
DEFAULT_255_2_778
10
4.524013
20
23.2937275
11
4.017313
21
23.2937275
0
LINE
8
DEFAULT_255_2_778
10
4.017313
20
23.2937275
11
4.017313
21
21.2937275
0
LINE
8
DEFAULT_255_2_778
10
5.124113
20
55.2938275
11
5.124113
21
57.1638275
0
LINE
8
DEFAULT_255_2_778
10
5.124113
20
57.1638275
11
0.224013
21
58.2137275
0
LINE
8
DEFAULT_255_2_778
10
105.523913
20
121.8436275
11
109.924013
21
121.8436275
0
LINE
8
DEFAULT_255_2_778
10
110.224013
20
122.1436275
11
110.224013
21
122.5937275
0
LINE
8
DEFAULT_255_2_778
10
110.224013
20
122.5937275
11
111.723913
21
122.5937275
0
LINE
8
DEFAULT_255_2_778
10
112.224013
20
122.0936275
11
112.224013
21
2.4935275
0
LINE
8
DEFAULT_255_2_778
10
111.723913
20
1.9934275
11
110.224013
21
1.9934275
0
LINE
8
DEFAULT_255_2_778
10
110.224013
20
1.9934275
11
110.224013
21
2.4435275
0
LINE
8
DEFAULT_255_2_778
10
109.924013
20
2.7435275
11
105.523913
21
2.7435275
0
ARC
8
DEFAULT_255_2_778
10
76.5240734
20
0.093915
40
0.3001094
50
180.0208901
51
269.9791099
0
ARC
8
DEFAULT_255_2_778
10
104.225434
20
0.7903162
40
0.9965117
50
269.91548
51
311.6387597
0
ARC
8
DEFAULT_255_2_778
10
104.2265918
20
0.7927262
40
0.9975466
50
311.4970855
51
358.270217
0
ARC
8
DEFAULT_255_2_778
10
104.2050632
20
0.7938957
40
1.0191008
50
358.2410303
51
0.000554
0
ARC
8
DEFAULT_255_2_778
10
104.2278832
20
123.7951291
40
0.9962817
50
359.9181321
51
41.647603
0
ARC
8
DEFAULT_255_2_778
10
104.2251183
20
123.7960249
40
0.9977557
50
41.5036522
51
88.2691355
0
ARC
8
DEFAULT_255_2_778
10
104.2239736
20
123.7746818
40
1.0191238
50
88.2410549
51
90.0005447
0
ARC
8
DEFAULT_255_2_778
10
76.5240734
20
124.4936961
40
0.3001094
50
90.0208901
51
179.9791099
0
ARC
8
DEFAULT_255_2_778
10
77.3165579
20
52.5912045
40
1.7926959
50
179.9168684
51
206.0612339
0
ARC
8
DEFAULT_255_2_778
10
77.3250436
20
52.5956207
40
1.802259
50
206.0688391
51
260.5907706
0
ARC
8
DEFAULT_255_2_778
10
77.3231916
20
52.6063636
40
1.8125581
50
260.7040416
51
270.0212539
0
LINE
8
DEFAULT_255_2_778
10
76.523964
20
-0.2061944
11
104.223964
21
-0.2061944
0
LINE
8
DEFAULT_255_2_778
10
105.224164
20
0.7939056
11
105.224164
21
123.7937056
0
LINE
8
DEFAULT_255_2_778
10
104.223964
20
124.7938056
11
76.523964
21
124.7938056
0
LINE
8
DEFAULT_255_2_778
10
77.323864
20
50.7938056
11
80.023864
21
50.7938056
0
LINE
8
DEFAULT_255_2_778
10
80.023864
20
50.7938056
11
75.523864
21
55.2938056
0
LINE
8
DEFAULT_255_2_778
10
75.523864
20
55.2938056
11
75.523864
21
52.5938056
0
ENDSEC
0
EOF