0
SECTION
2
HEADER
9
$MEASUREMENT
70
1
0
ENDSEC
0
SECTION
2
TABLES
0
TABLE
2
LTYPE
0
LTYPE
72
65
70
64
2
CONTINUOUS
3
______
73
0
40
0
0
ENDTAB
0
TABLE
2
LAYER
0
LAYER
2
DEFAULT_255_2_778
70
0
62
255
6
CONTINUOUS
0
ENDTAB
0
ENDSEC
0
SECTION
2
ENTITIES
0
LINE
8
DEFAULT_255_2_778
10
6.717038
20
76.3814056
11
6.467538
21
76.3814056
0
LINE
8
DEFAULT_255_2_778
10
6.467538
20
76.3814056
11
6.202738
21
76.1742056
0
LINE
8
DEFAULT_255_2_778
10
6.202738
20
76.1742056
11
5.940538
21
76.0430056
0
LINE
8
DEFAULT_255_2_778
10
5.940538
20
76.0430056
11
5.940538
21
75.7686056
0
LINE
8
DEFAULT_255_2_778
10
5.940538
20
75.7686056
11
6.317238
21
75.9604056
0
LINE
8
DEFAULT_255_2_778
10
6.317238
20
75.9604056
11
6.422338
21
76.0414056
0
LINE
8
DEFAULT_255_2_778
10
6.422338
20
76.0414056
11
6.422338
21
74.1938056
0
LINE
8
DEFAULT_255_2_778
10
6.422338
20
74.1938056
11
6.717038
21
74.1938056
0
LINE
8
DEFAULT_255_2_778
10
6.717038
20
74.1938056
11
6.717038
21
76.3814056
0
LINE
8
DEFAULT_255_2_778
10
6.764638
20
50.4229056
11
6.576338
21
50.4223056
0
LINE
8
DEFAULT_255_2_778
10
6.576338
20
50.4223056
11
6.426038
21
50.3956056
0
LINE
8
DEFAULT_255_2_778
10
6.426038
20
50.3956056
11
6.293738
21
50.3438056
0
LINE
8
DEFAULT_255_2_778
10
6.293738
20
50.3438056
11
6.201638
21
50.2848056
0
LINE
8
DEFAULT_255_2_778
10
6.201638
20
50.2848056
11
6.075138
21
50.1496056
0
LINE
8
DEFAULT_255_2_778
10
6.075138
20
50.1496056
11
6.019838
21
50.0390056
0
LINE
8
DEFAULT_255_2_778
10
6.019838
20
50.0390056
11
5.996838
21
49.9604056
0
LINE
8
DEFAULT_255_2_778
10
5.996838
20
49.9604056
11
5.987838
21
49.9112056
0
LINE
8
DEFAULT_255_2_778
10
5.987838
20
49.9112056
11
5.983338
21
49.8739056
0
LINE
8
DEFAULT_255_2_778
10
5.983338
20
49.8739056
11
5.981038
21
49.8366056
0
LINE
8
DEFAULT_255_2_778
10
5.981038
20
49.8366056
11
5.980438
21
49.7995056
0
LINE
8
DEFAULT_255_2_778
10
5.980438
20
49.7995056
11
6.265638
21
49.7995056
0
LINE
8
DEFAULT_255_2_778
10
6.265638
20
49.7995056
11
6.267038
21
49.8416056
0
LINE
8
DEFAULT_255_2_778
10
6.267038
20
49.8416056
11
6.270138
21
49.8696056
0
LINE
8
DEFAULT_255_2_778
10
6.270138
20
49.8696056
11
6.278138
21
49.9114056
0
LINE
8
DEFAULT_255_2_778
10
6.278138
20
49.9114056
11
6.295538
21
49.9657056
0
LINE
8
DEFAULT_255_2_778
10
6.295538
20
49.9657056
11
6.333438
21
50.0345056
0
LINE
8
DEFAULT_255_2_778
10
6.333438
20
50.0345056
11
6.416538
21
50.1165056
0
LINE
8
DEFAULT_255_2_778
10
6.416538
20
50.1165056
11
6.557538
21
50.1773056
0
LINE
8
DEFAULT_255_2_778
10
6.557538
20
50.1773056
11
6.766538
21
50.1818056
0
LINE
8
DEFAULT_255_2_778
10
6.766538
20
50.1818056
11
6.929538
21
50.1210056
0
LINE
8
DEFAULT_255_2_778
10
6.929538
20
50.1210056
11
7.017938
21
50.0368056
0
LINE
8
DEFAULT_255_2_778
10
7.017938
20
50.0368056
11
7.053338
21
49.9691056
0
LINE
8
DEFAULT_255_2_778
10
7.053338
20
49.9691056
11
7.066538
21
49.9260056
0
LINE
8
DEFAULT_255_2_778
10
7.066538
20
49.9260056
11
7.073238
21
49.8903056
0
LINE
8
DEFAULT_255_2_778
10
7.073238
20
49.8903056
11
7.073238
21
49.7881056
0
LINE
8
DEFAULT_255_2_778
10
7.073238
20
49.7881056
11
7.069738
21
49.7672056
0
LINE
8
DEFAULT_255_2_778
10
7.069738
20
49.7672056
11
7.060238
21
49.7260056
0
LINE
8
DEFAULT_255_2_778
10
7.060238
20
49.7260056
11
7.039838
21
49.6654056
0
LINE
8
DEFAULT_255_2_778
10
7.039838
20
49.6654056
11
7.008638
21
49.5958056
0
LINE
8
DEFAULT_255_2_778
10
7.008638
20
49.5958056
11
6.959438
21
49.5090056
0
LINE
8
DEFAULT_255_2_778
10
6.959438
20
49.5090056
11
6.863138
21
49.3735056
0
LINE
8
DEFAULT_255_2_778
10
6.863138
20
49.3735056
11
6.714938
21
49.1978056
0
LINE
8
DEFAULT_255_2_778
10
6.714938
20
49.1978056
11
6.542938
21
49.0187056
0
LINE
8
DEFAULT_255_2_778
10
6.542938
20
49.0187056
11
6.261438
21
48.7578056
0
LINE
8
DEFAULT_255_2_778
10
6.261438
20
48.7578056
11
5.954038
21
48.5054056
0
LINE
8
DEFAULT_255_2_778
10
5.954038
20
48.5054056
11
5.889938
21
48.4565056
0
LINE
8
DEFAULT_255_2_778
10
5.889938
20
48.4565056
11
5.889938
21
48.1930056
0
LINE
8
DEFAULT_255_2_778
10
5.889938
20
48.1930056
11
7.407138
21
48.1930056
0
LINE
8
DEFAULT_255_2_778
10
7.407138
20
48.1930056
11
7.407138
21
48.4332056
0
LINE
8
DEFAULT_255_2_778
10
7.407138
20
48.4332056
11
6.248738
21
48.4332056
0
LINE
8
DEFAULT_255_2_778
10
6.248738
20
48.4332056
11
6.775238
21
48.8679056
0
LINE
8
DEFAULT_255_2_778
10
6.775238
20
48.8679056
11
6.958338
21
49.0444056
0
LINE
8
DEFAULT_255_2_778
10
6.958338
20
49.0444056
11
7.071338
21
49.1732056
0
LINE
8
DEFAULT_255_2_778
10
7.071338
20
49.1732056
11
7.148338
21
49.2762056
0
LINE
8
DEFAULT_255_2_778
10
7.148338
20
49.2762056
11
7.217338
21
49.3849056
0
LINE
8
DEFAULT_255_2_778
10
7.217338
20
49.3849056
11
7.277938
21
49.5024056
0
LINE
8
DEFAULT_255_2_778
10
7.277938
20
49.5024056
11
7.311538
21
49.5847056
0
LINE
8
DEFAULT_255_2_778
10
7.311538
20
49.5847056
11
7.330138
21
49.6408056
0
LINE
8
DEFAULT_255_2_778
10
7.330138
20
49.6408056
11
7.344638
21
49.6976056
0
LINE
8
DEFAULT_255_2_778
10
7.344638
20
49.6976056
11
7.350438
21
49.7265056
0
LINE
8
DEFAULT_255_2_778
10
7.350438
20
49.7265056
11
7.355238
21
49.7553056
0
LINE
8
DEFAULT_255_2_778
10
7.355238
20
49.7553056
11
7.358638
21
49.7844056
0
LINE
8
DEFAULT_255_2_778
10
7.358638
20
49.7844056
11
7.358638
21
49.9191056
0
LINE
8
DEFAULT_255_2_778
10
7.358638
20
49.9191056
11
7.355538
21
49.9445056
0
LINE
8
DEFAULT_255_2_778
10
7.355538
20
49.9445056
11
7.351238
21
49.9696056
0
LINE
8
DEFAULT_255_2_778
10
7.351238
20
49.9696056
11
7.339138
21
50.0194056
0
LINE
8
DEFAULT_255_2_778
10
7.339138
20
50.0194056
11
7.324038
21
50.0638056
0
LINE
8
DEFAULT_255_2_778
10
7.324038
20
50.0638056
11
7.294138
21
50.1273056
0
LINE
8
DEFAULT_255_2_778
10
7.294138
20
50.1273056
11
7.255238
21
50.1861056
0
LINE
8
DEFAULT_255_2_778
10
7.255238
20
50.1861056
11
7.190138
21
50.2554056
0
LINE
8
DEFAULT_255_2_778
10
7.190138
20
50.2554056
11
7.087738
21
50.3287056
0
LINE
8
DEFAULT_255_2_778
10
7.087738
20
50.3287056
11
6.964938
21
50.3829056
0
LINE
8
DEFAULT_255_2_778
10
6.964938
20
50.3829056
11
6.795338
21
50.4192056
0
LINE
8
DEFAULT_255_2_778
10
6.795338
20
50.4192056
11
6.764438
21
50.4221056
0
LINE
8
DEFAULT_255_2_778
10
6.560738
20
19.2150056
11
6.387938
21
19.1719056
0
LINE
8
DEFAULT_255_2_778
10
6.387938
20
19.1719056
11
6.183638
21
19.0520056
0
LINE
8
DEFAULT_255_2_778
10
6.183638
20
19.0520056
11
6.086838
21
18.9401056
0
LINE
8
DEFAULT_255_2_778
10
6.086838
20
18.9401056
11
6.038638
21
18.8414056
0
LINE
8
DEFAULT_255_2_778
10
6.038638
20
18.8414056
11
6.017738
21
18.7700056
0
LINE
8
DEFAULT_255_2_778
10
6.017738
20
18.7700056
11
6.008738
21
18.7208056
0
LINE
8
DEFAULT_255_2_778
10
6.008738
20
18.7208056
11
6.004538
21
18.6835056
0
LINE
8
DEFAULT_255_2_778
10
6.004538
20
18.6835056
11
6.002638
21
18.6215056
0
LINE
8
DEFAULT_255_2_778
10
6.002638
20
18.6215056
11
6.287938
21
18.6215056
0
LINE
8
DEFAULT_255_2_778
10
6.287938
20
18.6215056
11
6.290238
21
18.6708056
0
LINE
8
DEFAULT_255_2_778
10
6.290238
20
18.6708056
11
6.296638
21
18.7073056
0
LINE
8
DEFAULT_255_2_778
10
6.296638
20
18.7073056
11
6.310438
21
18.7530056
0
LINE
8
DEFAULT_255_2_778
10
6.310438
20
18.7530056
11
6.341338
21
18.8144056
0
LINE
8
DEFAULT_255_2_778
10
6.341338
20
18.8144056
11
6.422338
21
18.8991056
0
LINE
8
DEFAULT_255_2_778
10
6.422338
20
18.8991056
11
6.551738
21
18.9650056
0
LINE
8
DEFAULT_255_2_778
10
6.551738
20
18.9650056
11
6.758638
21
18.9888056
0
LINE
8
DEFAULT_255_2_778
10
6.758638
20
18.9888056
11
6.929738
21
18.9549056
0
LINE
8
DEFAULT_255_2_778
10
6.929738
20
18.9549056
11
7.057338
21
18.8766056
0
LINE
8
DEFAULT_255_2_778
10
7.057338
20
18.8766056
11
7.115538
21
18.8049056
0
LINE
8
DEFAULT_255_2_778
10
7.115538
20
18.8049056
11
7.143538
21
18.7417056
0
LINE
8
DEFAULT_255_2_778
10
7.143538
20
18.7417056
11
7.153138
21
18.7062056
0
LINE
8
DEFAULT_255_2_778
10
7.153138
20
18.7062056
11
7.159138
21
18.6689056
0
LINE
8
DEFAULT_255_2_778
10
7.159138
20
18.6689056
11
7.156838
21
18.5623056
0
LINE
8
DEFAULT_255_2_778
10
7.156838
20
18.5623056
11
7.145938
21
18.5168056
0
LINE
8
DEFAULT_255_2_778
10
7.145938
20
18.5168056
11
7.109738
21
18.4422056
0
LINE
8
DEFAULT_255_2_778
10
7.109738
20
18.4422056
11
6.994838
21
18.3331056
0
LINE
8
DEFAULT_255_2_778
10
6.994838
20
18.3331056
11
6.783438
21
18.2514056
0
LINE
8
DEFAULT_255_2_778
10
6.783438
20
18.2514056
11
6.662838
21
18.2411056
0
LINE
8
DEFAULT_255_2_778
10
6.662838
20
18.2411056
11
6.564138
21
18.2411056
0
LINE
8
DEFAULT_255_2_778
10
6.564138
20
18.2411056
11
6.564138
21
17.9947056
0
LINE
8
DEFAULT_255_2_778
10
6.564138
20
17.9947056
11
6.881138
21
17.9736056
0
LINE
8
DEFAULT_255_2_778
10
6.881138
20
17.9736056
11
7.073738
21
17.8905056
0
LINE
8
DEFAULT_255_2_778
10
7.073738
20
17.8905056
11
7.150138
21
17.8156056
0
LINE
8
DEFAULT_255_2_778
10
7.150138
20
17.8156056
11
7.183038
21
17.7566056
0
LINE
8
DEFAULT_255_2_778
10
7.183038
20
17.7566056
11
7.197038
21
17.7122056
0
LINE
8
DEFAULT_255_2_778
10
7.197038
20
17.7122056
11
7.203138
21
17.6772056
0
LINE
8
DEFAULT_255_2_778
10
7.203138
20
17.6772056
11
7.202038
21
17.5574056
0
LINE
8
DEFAULT_255_2_778
10
7.202038
20
17.5574056
11
7.194138
21
17.5148056
0
LINE
8
DEFAULT_255_2_778
10
7.194138
20
17.5148056
11
7.178538
21
17.4629056
0
LINE
8
DEFAULT_255_2_778
10
7.178538
20
17.4629056
11
7.150438
21
17.4034056
0
LINE
8
DEFAULT_255_2_778
10
7.150438
20
17.4034056
11
7.085138
21
17.3214056
0
LINE
8
DEFAULT_255_2_778
10
7.085138
20
17.3214056
11
6.969238
21
17.2423056
0
LINE
8
DEFAULT_255_2_778
10
6.969238
20
17.2423056
11
6.789038
21
17.1957056
0
LINE
8
DEFAULT_255_2_778
10
6.789038
20
17.1957056
11
6.553538
21
17.2208056
0
LINE
8
DEFAULT_255_2_778
10
6.553538
20
17.2208056
11
6.401638
21
17.3132056
0
LINE
8
DEFAULT_255_2_778
10
6.401638
20
17.3132056
11
6.309338
21
17.4256056
0
LINE
8
DEFAULT_255_2_778
10
6.309338
20
17.4256056
11
6.260138
21
17.5299056
0
LINE
8
DEFAULT_255_2_778
10
6.260138
20
17.5299056
11
6.240838
21
17.5936056
0
LINE
8
DEFAULT_255_2_778
10
6.240838
20
17.5936056
11
5.939938
21
17.5936056
0
LINE
8
DEFAULT_255_2_778
10
5.939938
20
17.5936056
11
5.948438
21
17.5463056
0
LINE
8
DEFAULT_255_2_778
10
5.948438
20
17.5463056
11
5.959538
21
17.4994056
0
LINE
8
DEFAULT_255_2_778
10
5.959538
20
17.4994056
11
5.981238
21
17.4304056
0
LINE
8
DEFAULT_255_2_778
10
5.981238
20
17.4304056
11
6.017738
21
17.3460056
0
LINE
8
DEFAULT_255_2_778
10
6.017738
20
17.3460056
11
6.063538
21
17.2682056
0
LINE
8
DEFAULT_255_2_778
10
6.063538
20
17.2682056
11
6.134438
21
17.1806056
0
LINE
8
DEFAULT_255_2_778
10
6.134438
20
17.1806056
11
6.220938
21
17.1031056
0
LINE
8
DEFAULT_255_2_778
10
6.220938
20
17.1031056
11
6.353238
21
17.0219056
0
LINE
8
DEFAULT_255_2_778
10
6.353238
20
17.0219056
11
6.500938
21
16.9692056
0
LINE
8
DEFAULT_255_2_778
10
6.500938
20
16.9692056
11
6.691938
21
16.9443056
0
LINE
8
DEFAULT_255_2_778
10
6.691938
20
16.9443056
11
6.900438
21
16.9565056
0
LINE
8
DEFAULT_255_2_778
10
6.900438
20
16.9565056
11
7.087438
21
17.0044056
0
LINE
8
DEFAULT_255_2_778
10
7.087438
20
17.0044056
11
7.230638
21
17.0769056
0
LINE
8
DEFAULT_255_2_778
10
7.230638
20
17.0769056
11
7.330138
21
17.1576056
0
LINE
8
DEFAULT_255_2_778
10
7.330138
20
17.1576056
11
7.397038
21
17.2378056
0
LINE
8
DEFAULT_255_2_778
10
7.397038
20
17.2378056
11
7.438338
21
17.3095056
0
LINE
8
DEFAULT_255_2_778
10
7.438338
20
17.3095056
11
7.462438
21
17.3669056
0
LINE
8
DEFAULT_255_2_778
10
7.462438
20
17.3669056
11
7.480938
21
17.4280056
0
LINE
8
DEFAULT_255_2_778
10
7.480938
20
17.4280056
11
7.490138
21
17.4722056
0
LINE
8
DEFAULT_255_2_778
10
7.490138
20
17.4722056
11
7.496538
21
17.5169056
0
LINE
8
DEFAULT_255_2_778
10
7.496538
20
17.5169056
11
7.494438
21
17.7042056
0
LINE
8
DEFAULT_255_2_778
10
7.494438
20
17.7042056
11
7.484038
21
17.7587056
0
LINE
8
DEFAULT_255_2_778
10
7.484038
20
17.7587056
11
7.460038
21
17.8320056
0
LINE
8
DEFAULT_255_2_778
10
7.460038
20
17.8320056
11
7.394638
21
17.9386056
0
LINE
8
DEFAULT_255_2_778
10
7.394638
20
17.9386056
11
7.236138
21
18.0675056
0
LINE
8
DEFAULT_255_2_778
10
7.236138
20
18.0675056
11
7.092738
21
18.1194056
0
LINE
8
DEFAULT_255_2_778
10
7.092738
20
18.1194056
11
7.236938
21
18.2032056
0
LINE
8
DEFAULT_255_2_778
10
7.236938
20
18.2032056
11
7.327438
21
18.2876056
0
LINE
8
DEFAULT_255_2_778
10
7.327438
20
18.2876056
11
7.375838
21
18.3533056
0
LINE
8
DEFAULT_255_2_778
10
7.375838
20
18.3533056
11
7.412338
21
18.4239056
0
LINE
8
DEFAULT_255_2_778
10
7.412338
20
18.4239056
11
7.432238
21
18.4800056
0
LINE
8
DEFAULT_255_2_778
10
7.432238
20
18.4800056
11
7.442238
21
18.5207056
0
LINE
8
DEFAULT_255_2_778
10
7.442238
20
18.5207056
11
7.449138
21
18.5623056
0
LINE
8
DEFAULT_255_2_778
10
7.449138
20
18.5623056
11
7.447038
21
18.7448056
0
LINE
8
DEFAULT_255_2_778
10
7.447038
20
18.7448056
11
7.439338
21
18.7835056
0
LINE
8
DEFAULT_255_2_778
10
7.439338
20
18.7835056
11
7.422938
21
18.8390056
0
LINE
8
DEFAULT_255_2_778
10
7.422938
20
18.8390056
11
7.392538
21
18.9068056
0
LINE
8
DEFAULT_255_2_778
10
7.392538
20
18.9068056
11
7.352338
21
18.9692056
0
LINE
8
DEFAULT_255_2_778
10
7.352338
20
18.9692056
11
7.271638
21
19.0536056
0
LINE
8
DEFAULT_255_2_778
10
7.271638
20
19.0536056
11
7.145438
21
19.1367056
0
LINE
8
DEFAULT_255_2_778
10
7.145438
20
19.1367056
11
6.988238
21
19.1957056
0
LINE
8
DEFAULT_255_2_778
10
6.988238
20
19.1957056
11
6.781838
21
19.2253056
0
LINE
8
DEFAULT_255_2_778
10
6.781838
20
19.2253056
11
6.560738
21
19.2150056
0
LINE
8
DEFAULT_255_2_778
10
11.849438
20
3.2680056
11
11.668238
21
3.2331056
0
LINE
8
DEFAULT_255_2_778
10
11.668238
20
3.2331056
11
11.490638
21
3.1140056
0
LINE
8
DEFAULT_255_2_778
10
11.490638
20
3.1140056
11
11.425538
21
3.0146056
0
LINE
8
DEFAULT_255_2_778
10
11.425538
20
3.0146056
11
11.398338
21
2.9344056
0
LINE
8
DEFAULT_255_2_778
10
11.398338
20
2.9344056
11
11.388838
21
2.8833056
0
LINE
8
DEFAULT_255_2_778
10
11.388838
20
2.8833056
11
11.385638
21
2.8526056
0
LINE
8
DEFAULT_255_2_778
10
11.385638
20
2.8526056
11
11.384038
21
2.8016056
0
LINE
8
DEFAULT_255_2_778
10
11.384038
20
2.8016056
11
11.582438
21
2.8016056
0
LINE
8
DEFAULT_255_2_778
10
11.582438
20
2.8016056
11
11.584038
21
2.8394056
0
LINE
8
DEFAULT_255_2_778
10
11.584038
20
2.8394056
11
11.588338
21
2.8677056
0
LINE
8
DEFAULT_255_2_778
10
11.588338
20
2.8677056
11
11.603938
21
2.9193056
0
LINE
8
DEFAULT_255_2_778
10
11.603938
20
2.9193056
11
11.650438
21
2.9921056
0
LINE
8
DEFAULT_255_2_778
10
11.650438
20
2.9921056
11
11.770638
21
3.0685056
0
LINE
8
DEFAULT_255_2_778
10
11.770638
20
3.0685056
11
11.956038
21
3.0802056
0
LINE
8
DEFAULT_255_2_778
10
11.956038
20
3.0802056
11
12.105038
21
3.0103056
0
LINE
8
DEFAULT_255_2_778
10
12.105038
20
3.0103056
11
12.161638
21
2.9352056
0
LINE
8
DEFAULT_255_2_778
10
12.161638
20
2.9352056
11
12.179338
21
2.8860056
0
LINE
8
DEFAULT_255_2_778
10
12.179338
20
2.8860056
11
12.186838
21
2.8479056
0
LINE
8
DEFAULT_255_2_778
10
12.186838
20
2.8479056
11
12.185238
21
2.7489056
0
LINE
8
DEFAULT_255_2_778
10
12.185238
20
2.7489056
11
12.169338
21
2.6944056
0
LINE
8
DEFAULT_255_2_778
10
12.169338
20
2.6944056
11
12.096838
21
2.5973056
0
LINE
8
DEFAULT_255_2_778
10
12.096838
20
2.5973056
11
11.917138
21
2.5140056
0
LINE
8
DEFAULT_255_2_778
10
11.917138
20
2.5140056
11
11.842538
21
2.5079056
0
LINE
8
DEFAULT_255_2_778
10
11.842538
20
2.5079056
11
11.774338
21
2.5079056
0
LINE
8
DEFAULT_255_2_778
10
11.774338
20
2.5079056
11
11.774338
21
2.3176056
0
LINE
8
DEFAULT_255_2_778
10
11.774338
20
2.3176056
11
12.028838
21
2.2909056
0
LINE
8
DEFAULT_255_2_778
10
12.028838
20
2.2909056
11
12.155338
21
2.2129056
0
LINE
8
DEFAULT_255_2_778
10
12.155338
20
2.2129056
11
12.201838
21
2.1414056
0
LINE
8
DEFAULT_255_2_778
10
12.201838
20
2.1414056
11
12.213238
21
2.1060056
0
LINE
8
DEFAULT_255_2_778
10
12.213238
20
2.1060056
11
12.218538
21
2.0761056
0
LINE
8
DEFAULT_255_2_778
10
12.218538
20
2.0761056
11
12.216738
21
1.9687056
0
LINE
8
DEFAULT_255_2_778
10
12.216738
20
1.9687056
11
12.207738
21
1.9261056
0
LINE
8
DEFAULT_255_2_778
10
12.207738
20
1.9261056
11
12.187038
21
1.8697056
0
LINE
8
DEFAULT_255_2_778
10
12.187038
20
1.8697056
11
12.130438
21
1.7906056
0
LINE
8
DEFAULT_255_2_778
10
12.130438
20
1.7906056
11
12.017738
21
1.7194056
0
LINE
8
DEFAULT_255_2_778
10
12.017738
20
1.7194056
11
11.781938
21
1.7144056
0
LINE
8
DEFAULT_255_2_778
10
11.781938
20
1.7144056
11
11.643638
21
1.8107056
0
LINE
8
DEFAULT_255_2_778
10
11.643638
20
1.8107056
11
11.577438
21
1.9202056
0
LINE
8
DEFAULT_255_2_778
10
11.577438
20
1.9202056
11
11.549938
21
2.0076056
0
LINE
8
DEFAULT_255_2_778
10
11.549938
20
2.0076056
11
11.340638
21
2.0076056
0
LINE
8
DEFAULT_255_2_778
10
11.340638
20
2.0076056
11
11.347538
21
1.9660056
0
LINE
8
DEFAULT_255_2_778
10
11.347538
20
1.9660056
11
11.356838
21
1.9247056
0
LINE
8
DEFAULT_255_2_778
10
11.356838
20
1.9247056
11
11.375338
21
1.8639056
0
LINE
8
DEFAULT_255_2_778
10
11.375338
20
1.8639056
11
11.409738
21
1.7856056
0
LINE
8
DEFAULT_255_2_778
10
11.409738
20
1.7856056
11
11.465038
21
1.7012056
0
LINE
8
DEFAULT_255_2_778
10
11.465038
20
1.7012056
11
11.559438
21
1.6091056
0
LINE
8
DEFAULT_255_2_778
10
11.559438
20
1.6091056
11
11.686738
21
1.5387056
0
LINE
8
DEFAULT_255_2_778
10
11.686738
20
1.5387056
11
11.844138
21
1.5062056
0
LINE
8
DEFAULT_255_2_778
10
11.844138
20
1.5062056
11
12.047838
21
1.5226056
0
LINE
8
DEFAULT_255_2_778
10
12.047838
20
1.5226056
11
12.198438
21
1.5816056
0
LINE
8
DEFAULT_255_2_778
10
12.198438
20
1.5816056
11
12.297138
21
1.6591056
0
LINE
8
DEFAULT_255_2_778
10
12.297138
20
1.6591056
11
12.353738
21
1.7319056
0
LINE
8
DEFAULT_255_2_778
10
12.353738
20
1.7319056
11
12.388638
21
1.8022056
0
LINE
8
DEFAULT_255_2_778
10
12.388638
20
1.8022056
11
12.407938
21
1.8620056
0
LINE
8
DEFAULT_255_2_778
10
12.407938
20
1.8620056
11
12.415438
21
1.8962056
0
LINE
8
DEFAULT_255_2_778
10
12.415438
20
1.8962056
11
12.420638
21
1.9306056
0
LINE
8
DEFAULT_255_2_778
10
12.420638
20
1.9306056
11
12.424138
21
1.9652056
0
LINE
8
DEFAULT_255_2_778
10
12.424138
20
1.9652056
11
12.423338
21
2.0734056
0
LINE
8
DEFAULT_255_2_778
10
12.423338
20
2.0734056
11
12.417538
21
2.1174056
0
LINE
8
DEFAULT_255_2_778
10
12.417538
20
2.1174056
11
12.400338
21
2.1830056
0
LINE
8
DEFAULT_255_2_778
10
12.400338
20
2.1830056
11
12.339438
21
2.2891056
0
LINE
8
DEFAULT_255_2_778
10
12.339438
20
2.2891056
11
12.171738
21
2.4047056
0
LINE
8
DEFAULT_255_2_778
10
12.171738
20
2.4047056
11
12.141538
21
2.4129056
0
LINE
8
DEFAULT_255_2_778
10
12.141538
20
2.4129056
11
12.253238
21
2.4875056
0
LINE
8
DEFAULT_255_2_778
10
12.253238
20
2.4875056
11
12.322738
21
2.5679056
0
LINE
8
DEFAULT_255_2_778
10
12.322738
20
2.5679056
11
12.358238
21
2.6346056
0
LINE
8
DEFAULT_255_2_778
10
12.358238
20
2.6346056
11
12.377538
21
2.6918056
0
LINE
8
DEFAULT_255_2_778
10
12.377538
20
2.6918056
11
12.384738
21
2.7235056
0
LINE
8
DEFAULT_255_2_778
10
12.384738
20
2.7235056
11
12.389438
21
2.7555056
0
LINE
8
DEFAULT_255_2_778
10
12.389438
20
2.7555056
11
12.387838
21
2.8963056
0
LINE
8
DEFAULT_255_2_778
10
12.387838
20
2.8963056
11
12.382538
21
2.9262056
0
LINE
8
DEFAULT_255_2_778
10
12.382538
20
2.9262056
11
12.371238
21
2.9691056
0
LINE
8
DEFAULT_255_2_778
10
12.371238
20
2.9691056
11
12.343938
21
3.0336056
0
LINE
8
DEFAULT_255_2_778
10
12.343938
20
3.0336056
11
12.296038
21
3.1035056
0
LINE
8
DEFAULT_255_2_778
10
12.296038
20
3.1035056
11
12.206638
21
3.1815056
0
LINE
8
DEFAULT_255_2_778
10
12.206638
20
3.1815056
11
12.069038
21
3.2445056
0
LINE
8
DEFAULT_255_2_778
10
12.069038
20
3.2445056
11
11.868238
21
3.2680056
0
LINE
8
DEFAULT_255_2_778
10
11.868238
20
3.2680056
11
11.848638
21
3.2672056
0
LINE
8
DEFAULT_255_2_778
10
2.740638
20
-0.2061944
11
2.740638
21
2.0938056
0
LINE
8
DEFAULT_255_2_778
10
2.740638
20
2.0938056
11
9.840738
21
2.0938056
0
LINE
8
DEFAULT_255_2_778
10
9.840738
20
2.0938056
11
9.840738
21
122.4938056
0
LINE
8
DEFAULT_255_2_778
10
9.840738
20
122.4938056
11
2.740638
21
122.4938056
0
LINE
8
DEFAULT_255_2_778
10
2.740638
20
122.4938056
11
2.740638
21
124.7938056
0
LINE
8
DEFAULT_255_2_778
10
27.827638
20
124.0548056
11
12.916538
21
124.0548056
0
LINE
8
DEFAULT_255_2_778
10
12.916538
20
124.0548056
11
12.916538
21
119.9509056
0
LINE
8
DEFAULT_255_2_778
10
12.916538
20
119.9509056
11
27.827638
21
119.9509056
0
LINE
8
DEFAULT_255_2_778
10
27.827638
20
119.9509056
11
27.827638
21
124.0548056
0
LINE
8
DEFAULT_255_2_778
10
16.819938
20
2.6698056
11
16.666738
21
2.6277056
0
LINE
8
DEFAULT_255_2_778
10
16.666738
20
2.6277056
11
16.579138
21
2.5632056
0
LINE
8
DEFAULT_255_2_778
10
16.579138
20
2.5632056
11
16.522738
21
2.5015056
0
LINE
8
DEFAULT_255_2_778
10
16.522738
20
2.5015056
11
16.534738
21
3.0484056
0
LINE
8
DEFAULT_255_2_778
10
16.534738
20
3.0484056
11
17.228738
21
3.0484056
0
LINE
8
DEFAULT_255_2_778
10
17.228738
20
3.0484056
11
17.228738
21
3.2339056
0
LINE
8
DEFAULT_255_2_778
10
17.228738
20
3.2339056
11
16.342838
21
3.2339056
0
LINE
8
DEFAULT_255_2_778
10
16.342838
20
3.2339056
11
16.329938
21
2.2399056
0
LINE
8
DEFAULT_255_2_778
10
16.329938
20
2.2399056
11
16.534938
21
2.2399056
0
LINE
8
DEFAULT_255_2_778
10
16.534938
20
2.2399056
11
16.539138
21
2.2708056
0
LINE
8
DEFAULT_255_2_778
10
16.539138
20
2.2708056
11
16.552638
21
2.3206056
0
LINE
8
DEFAULT_255_2_778
10
16.552638
20
2.3206056
11
16.584138
21
2.3804056
0
LINE
8
DEFAULT_255_2_778
10
16.584138
20
2.3804056
11
16.674938
21
2.4589056
0
LINE
8
DEFAULT_255_2_778
10
16.674938
20
2.4589056
11
16.832038
21
2.4865056
0
LINE
8
DEFAULT_255_2_778
10
16.832038
20
2.4865056
11
16.967038
21
2.4354056
0
LINE
8
DEFAULT_255_2_778
10
16.967038
20
2.4354056
11
17.038938
21
2.3513056
0
LINE
8
DEFAULT_255_2_778
10
17.038938
20
2.3513056
11
17.071538
21
2.2811056
0
LINE
8
DEFAULT_255_2_778
10
17.071538
20
2.2811056
11
17.087438
21
2.2243056
0
LINE
8
DEFAULT_255_2_778
10
17.087438
20
2.2243056
11
17.094038
21
2.1862056
0
LINE
8
DEFAULT_255_2_778
10
17.094038
20
2.1862056
11
17.091938
21
1.9904056
0
LINE
8
DEFAULT_255_2_778
10
17.091938
20
1.9904056
11
17.079238
21
1.9322056
0
LINE
8
DEFAULT_255_2_778
10
17.079238
20
1.9322056
11
17.050338
21
1.8575056
0
LINE
8
DEFAULT_255_2_778
10
17.050338
20
1.8575056
11
16.988138
21
1.7697056
0
LINE
8
DEFAULT_255_2_778
10
16.988138
20
1.7697056
11
16.874638
21
1.7059056
0
LINE
8
DEFAULT_255_2_778
10
16.874638
20
1.7059056
11
16.692938
21
1.7144056
0
LINE
8
DEFAULT_255_2_778
10
16.692938
20
1.7144056
11
16.581238
21
1.7951056
0
LINE
8
DEFAULT_255_2_778
10
16.581238
20
1.7951056
11
16.532038
21
1.8769056
0
LINE
8
DEFAULT_255_2_778
10
16.532038
20
1.8769056
11
16.510638
21
1.9430056
0
LINE
8
DEFAULT_255_2_778
10
16.510638
20
1.9430056
11
16.504538
21
1.9808056
0
LINE
8
DEFAULT_255_2_778
10
16.504538
20
1.9808056
11
16.295238
21
1.9808056
0
LINE
8
DEFAULT_255_2_778
10
16.295238
20
1.9808056
11
16.299238
21
1.9459056
0
LINE
8
DEFAULT_255_2_778
10
16.299238
20
1.9459056
11
16.305338
21
1.9112056
0
LINE
8
DEFAULT_255_2_778
10
16.305338
20
1.9112056
11
16.318038
21
1.8597056
0
LINE
8
DEFAULT_255_2_778
10
16.318038
20
1.8597056
11
16.340438
21
1.7972056
0
LINE
8
DEFAULT_255_2_778
10
16.340438
20
1.7972056
11
16.378338
21
1.7255056
0
LINE
8
DEFAULT_255_2_778
10
16.378338
20
1.7255056
11
16.448738
21
1.6401056
0
LINE
8
DEFAULT_255_2_778
10
16.448738
20
1.6401056
11
16.543938
21
1.5686056
0
LINE
8
DEFAULT_255_2_778
10
16.543938
20
1.5686056
11
16.673038
21
1.5191056
0
LINE
8
DEFAULT_255_2_778
10
16.673038
20
1.5191056
11
16.858038
21
1.5078056
0
LINE
8
DEFAULT_255_2_778
10
16.858038
20
1.5078056
11
17.021238
21
1.5490056
0
LINE
8
DEFAULT_255_2_778
10
17.021238
20
1.5490056
11
17.135038
21
1.6242056
0
LINE
8
DEFAULT_255_2_778
10
17.135038
20
1.6242056
11
17.198538
21
1.6959056
0
LINE
8
DEFAULT_255_2_778
10
17.198538
20
1.6959056
11
17.243238
21
1.7708056
0
LINE
8
DEFAULT_255_2_778
10
17.243238
20
1.7708056
11
17.271338
21
1.8385056
0
LINE
8
DEFAULT_255_2_778
10
17.271338
20
1.8385056
11
17.286938
21
1.8922056
0
LINE
8
DEFAULT_255_2_778
10
17.286938
20
1.8922056
11
17.294838
21
1.9287056
0
LINE
8
DEFAULT_255_2_778
10
17.294838
20
1.9287056
11
17.302238
21
1.9758056
0
LINE
8
DEFAULT_255_2_778
10
17.302238
20
1.9758056
11
17.301938
21
2.2203056
0
LINE
8
DEFAULT_255_2_778
10
17.301938
20
2.2203056
11
17.294338
21
2.2687056
0
LINE
8
DEFAULT_255_2_778
10
17.294338
20
2.2687056
11
17.282938
21
2.3200056
0
LINE
8
DEFAULT_255_2_778
10
17.282938
20
2.3200056
11
17.256438
21
2.4002056
0
LINE
8
DEFAULT_255_2_778
10
17.256438
20
2.4002056
11
17.210138
21
2.4891056
0
LINE
8
DEFAULT_255_2_778
10
17.210138
20
2.4891056
11
17.131838
21
2.5796056
0
LINE
8
DEFAULT_255_2_778
10
17.131838
20
2.5796056
11
16.998238
21
2.6531056
0
LINE
8
DEFAULT_255_2_778
10
16.998238
20
2.6531056
11
16.820438
21
2.6706056
0
LINE
8
DEFAULT_255_2_778
10
15.464438
20
2.2631056
11
15.991538
21
2.2631056
0
LINE
8
DEFAULT_255_2_778
10
15.991538
20
2.2631056
11
15.991538
21
2.1028056
0
LINE
8
DEFAULT_255_2_778
10
15.991538
20
2.1028056
11
15.464438
21
2.1028056
0
LINE
8
DEFAULT_255_2_778
10
15.464438
20
2.1028056
11
15.464438
21
2.2631056
0
LINE
8
DEFAULT_255_2_778
10
23.204338
20
2.2631056
11
23.731338
21
2.2631056
0
LINE
8
DEFAULT_255_2_778
10
23.731338
20
2.2631056
11
23.731338
21
2.1028056
0
LINE
8
DEFAULT_255_2_778
10
23.731338
20
2.1028056
11
23.204338
21
2.1028056
0
LINE
8
DEFAULT_255_2_778
10
23.204338
20
2.1028056
11
23.204338
21
2.2631056
0
LINE
8
DEFAULT_255_2_778
10
33.040738
20
19.1938056
11
34.535838
21
19.1938056
0
LINE
8
DEFAULT_255_2_778
10
34.535838
20
19.1938056
11
34.535838
21
18.9242056
0
LINE
8
DEFAULT_255_2_778
10
34.535838
20
18.9242056
11
33.692438
21
16.9941056
0
LINE
8
DEFAULT_255_2_778
10
33.692438
20
16.9941056
11
33.338338
21
16.9941056
0
LINE
8
DEFAULT_255_2_778
10
33.338338
20
16.9941056
11
34.225538
21
18.9478056
0
LINE
8
DEFAULT_255_2_778
10
34.225538
20
18.9478056
11
33.040438
21
18.9478056
0
LINE
8
DEFAULT_255_2_778
10
33.040438
20
18.9478056
11
33.040438
21
19.1941056
0
LINE
8
DEFAULT_255_2_778
10
40.240538
20
-0.2061944
11
40.240538
21
2.5767056
0
LINE
8
DEFAULT_255_2_778
10
33.869938
20
75.4064056
11
33.995338
21
75.3559056
0
LINE
8
DEFAULT_255_2_778
10
33.995338
20
75.3559056
11
34.084738
21
75.2744056
0
LINE
8
DEFAULT_255_2_778
10
34.084738
20
75.2744056
11
34.139038
21
75.1897056
0
LINE
8
DEFAULT_255_2_778
10
34.139038
20
75.1897056
11
34.167338
21
75.1201056
0
LINE
8
DEFAULT_255_2_778
10
34.167338
20
75.1201056
11
34.182938
21
75.0606056
0
LINE
8
DEFAULT_255_2_778
10
34.182938
20
75.0606056
11
34.189038
21
75.0262056
0
LINE
8
DEFAULT_255_2_778
10
34.189038
20
75.0262056
11
34.189038
21
74.7910056
0
LINE
8
DEFAULT_255_2_778
10
34.189038
20
74.7910056
11
34.179738
21
74.7423056
0
LINE
8
DEFAULT_255_2_778
10
34.179738
20
74.7423056
11
34.162538
21
74.6825056
0
LINE
8
DEFAULT_255_2_778
10
34.162538
20
74.6825056
11
34.132938
21
74.6135056
0
LINE
8
DEFAULT_255_2_778
10
34.132938
20
74.6135056
11
34.071038
21
74.5222056
0
LINE
8
DEFAULT_255_2_778
10
34.071038
20
74.5222056
11
33.976838
21
74.4441056
0
LINE
8
DEFAULT_255_2_778
10
33.976838
20
74.4441056
11
33.841638
21
74.3989056
0
LINE
8
DEFAULT_255_2_778
10
33.841638
20
74.3989056
11
33.624938
21
74.4113056
0
LINE
8
DEFAULT_255_2_778
10
33.624938
20
74.4113056
11
33.500538
21
74.4743056
0
LINE
8
DEFAULT_255_2_778
10
33.500538
20
74.4743056
11
33.414038
21
74.5672056
0
LINE
8
DEFAULT_255_2_778
10
33.414038
20
74.5672056
11
33.370438
21
74.6479056
0
LINE
8
DEFAULT_255_2_778
10
33.370438
20
74.6479056
11
33.350038
21
74.7095056
0
LINE
8
DEFAULT_255_2_778
10
33.350038
20
74.7095056
11
33.342638
21
74.7473056
0
LINE
8
DEFAULT_255_2_778
10
33.342638
20
74.7473056
11
33.341038
21
74.7600056
0
LINE
8
DEFAULT_255_2_778
10
33.341038
20
74.7600056
11
33.040238
21
74.7600056
0
LINE
8
DEFAULT_255_2_778
10
33.040238
20
74.7600056
11
33.042838
21
74.7373056
0
LINE
8
DEFAULT_255_2_778
10
33.042838
20
74.7373056
11
33.049938
21
74.6920056
0
LINE
8
DEFAULT_255_2_778
10
33.049938
20
74.6920056
11
33.060038
21
74.6471056
0
LINE
8
DEFAULT_255_2_778
10
33.060038
20
74.6471056
11
33.080438
21
74.5812056
0
LINE
8
DEFAULT_255_2_778
10
33.080438
20
74.5812056
11
33.114838
21
74.5026056
0
LINE
8
DEFAULT_255_2_778
10
33.114838
20
74.5026056
11
33.159238
21
74.4296056
0
LINE
8
DEFAULT_255_2_778
10
33.159238
20
74.4296056
11
33.229138
21
74.3478056
0
LINE
8
DEFAULT_255_2_778
10
33.229138
20
74.3478056
11
33.335238
21
74.2621056
0
LINE
8
DEFAULT_255_2_778
10
33.335238
20
74.2621056
11
33.464338
21
74.1962056
0
LINE
8
DEFAULT_255_2_778
10
33.464338
20
74.1962056
11
33.635238
21
74.1531056
0
LINE
8
DEFAULT_255_2_778
10
33.635238
20
74.1531056
11
33.848538
21
74.1473056
0
LINE
8
DEFAULT_255_2_778
10
33.848538
20
74.1473056
11
34.027338
21
74.1806056
0
LINE
8
DEFAULT_255_2_778
10
34.027338
20
74.1806056
11
34.178438
21
74.2486056
0
LINE
8
DEFAULT_255_2_778
10
34.178438
20
74.2486056
11
34.278138
21
74.3251056
0
LINE
8
DEFAULT_255_2_778
10
34.278138
20
74.3251056
11
34.352538
21
74.4084056
0
LINE
8
DEFAULT_255_2_778
10
34.352538
20
74.4084056
11
34.402838
21
74.4870056
0
LINE
8
DEFAULT_255_2_778
10
34.402838
20
74.4870056
11
34.434038
21
74.5521056
0
LINE
8
DEFAULT_255_2_778
10
34.434038
20
74.5521056
11
34.458838
21
74.6209056
0
LINE
8
DEFAULT_255_2_778
10
34.458838
20
74.6209056
11
34.471838
21
74.6680056
0
LINE
8
DEFAULT_255_2_778
10
34.471838
20
74.6680056
11
34.482438
21
74.7182056
0
LINE
8
DEFAULT_255_2_778
10
34.482438
20
74.7182056
11
34.490338
21
74.7717056
0
LINE
8
DEFAULT_255_2_778
10
34.490338
20
74.7717056
11
34.491738
21
75.0368056
0
LINE
8
DEFAULT_255_2_778
10
34.491738
20
75.0368056
11
34.487738
21
75.0691056
0
LINE
8
DEFAULT_255_2_778
10
34.487738
20
75.0691056
11
34.481338
21
75.1093056
0
LINE
8
DEFAULT_255_2_778
10
34.481338
20
75.1093056
11
34.472138
21
75.1540056
0
LINE
8
DEFAULT_255_2_778
10
34.472138
20
75.1540056
11
34.453838
21
75.2201056
0
LINE
8
DEFAULT_255_2_778
10
34.453838
20
75.2201056
11
34.422338
21
75.3019056
0
LINE
8
DEFAULT_255_2_778
10
34.422338
20
75.3019056
11
34.377138
21
75.3855056
0
LINE
8
DEFAULT_255_2_778
10
34.377138
20
75.3855056
11
34.309438
21
75.4734056
0
LINE
8
DEFAULT_255_2_778
10
34.309438
20
75.4734056
11
34.213838
21
75.5551056
0
LINE
8
DEFAULT_255_2_778
10
34.213838
20
75.5551056
11
34.068338
21
75.6239056
0
LINE
8
DEFAULT_255_2_778
10
34.068338
20
75.6239056
11
33.856138
21
75.6535056
0
LINE
8
DEFAULT_255_2_778
10
33.856138
20
75.6535056
11
33.661138
21
75.6287056
0
LINE
8
DEFAULT_255_2_778
10
33.661138
20
75.6287056
11
33.528838
21
75.5723056
0
LINE
8
DEFAULT_255_2_778
10
33.528838
20
75.5723056
11
33.429638
21
75.4956056
0
LINE
8
DEFAULT_255_2_778
10
33.429638
20
75.4956056
11
33.368238
21
75.4339056
0
LINE
8
DEFAULT_255_2_778
10
33.368238
20
75.4339056
11
33.385438
21
76.1417056
0
LINE
8
DEFAULT_255_2_778
10
33.385438
20
76.1417056
11
34.383238
21
76.1417056
0
LINE
8
DEFAULT_255_2_778
10
34.383238
20
76.1417056
11
34.383238
21
76.3819056
0
LINE
8
DEFAULT_255_2_778
10
34.383238
20
76.3819056
11
33.109238
21
76.3819056
0
LINE
8
DEFAULT_255_2_778
10
33.109238
20
76.3819056
11
33.090438
21
75.0955056
0
LINE
8
DEFAULT_255_2_778
10
33.090438
20
75.0955056
11
33.385238
21
75.0955056
0
LINE
8
DEFAULT_255_2_778
10
33.385238
20
75.0955056
11
33.388638
21
75.1225056
0
LINE
8
DEFAULT_255_2_778
10
33.388638
20
75.1225056
11
33.397638
21
75.1625056
0
LINE
8
DEFAULT_255_2_778
10
33.397638
20
75.1625056
11
33.415938
21
75.2122056
0
LINE
8
DEFAULT_255_2_778
10
33.415938
20
75.2122056
11
33.456138
21
75.2778056
0
LINE
8
DEFAULT_255_2_778
10
33.456138
20
75.2778056
11
33.552938
21
75.3617056
0
LINE
8
DEFAULT_255_2_778
10
33.552938
20
75.3617056
11
33.672238
21
75.4077056
0
LINE
8
DEFAULT_255_2_778
10
33.672238
20
75.4077056
11
33.855938
21
75.4099056
0
LINE
8
DEFAULT_255_2_778
10
33.855938
20
75.4099056
11
33.870238
21
75.4072056
0
LINE
8
DEFAULT_255_2_778
10
4.0156646
20
115.4937
11
4.0405646
21
115.4937
0
ARC
8
DEFAULT_255_2_778
10
37.7144059
20
7.6949941
40
0.5487762
50
89.8616186
51
180.1383814
0
ARC
8
DEFAULT_255_2_778
10
37.7169782
20
7.6950154
40
0.5487547
50
359.8593896
51
90.1301939
0
ARC
8
DEFAULT_255_2_778
10
37.7170632
20
7.6923368
40
0.5486696
50
269.8609058
51
0.1390942
0
ARC
8
DEFAULT_255_2_778
10
37.714321
20
7.6923583
40
0.5486914
50
179.863161
51
270.1472628
0
LINE
8
DEFAULT_255_2_778
10
37.1656313
20
7.6936687
11
37.1656313
21
7.6936687
0
ARC
8
DEFAULT_255_2_778
10
2.7645696
20
116.8948304
40
0.5488398
50
89.8682888
51
180.1317112
0
ARC
8
DEFAULT_255_2_778
10
2.7670782
20
116.8949154
40
0.5487547
50
359.8593896
51
90.1301939
0
ARC
8
DEFAULT_255_2_778
10
2.7671632
20
116.8922368
40
0.5486696
50
269.8609058
51
0.1390942
0
ARC
8
DEFAULT_255_2_778
10
2.7644846
20
116.8923218
40
0.5487547
50
179.8698061
51
270.1406104
0
LINE
8
DEFAULT_255_2_778
10
2.2157313
20
116.8935687
11
2.2157313
21
116.8935687
0
ARC
8
DEFAULT_255_2_778
10
2.7645696
20
54.4949304
40
0.5488398
50
89.8682888
51
180.1317112
0
ARC
8
DEFAULT_255_2_778
10
2.7670782
20
54.4950154
40
0.5487547
50
359.8593896
51
90.1301939
0
ARC
8
DEFAULT_255_2_778
10
2.7671632
20
54.4923368
40
0.5486696
50
269.8609058
51
0.1390942
0
ARC
8
DEFAULT_255_2_778
10
2.7644846
20
54.4924218
40
0.5487547
50
179.8698061
51
270.1406104
0
LINE
8
DEFAULT_255_2_778
10
2.2157313
20
54.4936687
11
2.2157313
21
54.4936687
0
ARC
8
DEFAULT_255_2_778
10
37.7144059
20
70.0950941
40
0.5487762
50
89.8616186
51
180.1383814
0
ARC
8
DEFAULT_255_2_778
10
37.7169782
20
70.0951154
40
0.5487547
50
359.8593896
51
90.1301939
0
ARC
8
DEFAULT_255_2_778
10
37.7170632
20
70.0924368
40
0.5486696
50
269.8609058
51
0.1390942
0
ARC
8
DEFAULT_255_2_778
10
37.714321
20
70.0924583
40
0.5486914
50
179.863161
51
270.1472628
0
LINE
8
DEFAULT_255_2_778
10
37.1656313
20
70.0937687
11
37.1656313
21
70.0937687
0
LINE
8
DEFAULT_255_2_778
10
19.2855264
20
3.2436431
11
20.2277264
21
3.2436431
0
LINE
8
DEFAULT_255_2_778
10
20.2277264
20
3.2436431
11
20.2277264
21
3.0507431
0
LINE
8
DEFAULT_255_2_778
10
20.2277264
20
3.0507431
11
19.4948264
21
3.0507431
0
LINE
8
DEFAULT_255_2_778
10
19.4948264
20
3.0507431
11
19.4948264
21
2.5147431
0
LINE
8
DEFAULT_255_2_778
10
19.4948264
20
2.5147431
11
20.1899264
21
2.5147431
0
LINE
8
DEFAULT_255_2_778
10
20.1899264
20
2.5147431
11
20.1899264
21
2.3218431
0
LINE
8
DEFAULT_255_2_778
10
20.1899264
20
2.3218431
11
19.4948264
21
2.3218431
0
LINE
8
DEFAULT_255_2_778
10
19.4948264
20
2.3218431
11
19.4948264
21
1.5434431
0
LINE
8
DEFAULT_255_2_778
10
19.4948264
20
1.5434431
11
19.2855264
21
1.5434431
0
LINE
8
DEFAULT_255_2_778
10
19.2855264
20
1.5434431
11
19.2855264
21
3.2434431
0
LINE
8
DEFAULT_255_2_778
10
18.6847264
20
3.2436431
11
18.8940264
21
3.2436431
0
LINE
8
DEFAULT_255_2_778
10
18.8940264
20
3.2436431
11
18.8940264
21
1.5437431
0
LINE
8
DEFAULT_255_2_778
10
18.8940264
20
1.5437431
11
18.6847264
21
1.5437431
0
LINE
8
DEFAULT_255_2_778
10
18.6847264
20
1.5437431
11
18.6847264
21
2.3197431
0
LINE
8
DEFAULT_255_2_778
10
18.6847264
20
2.3197431
11
17.8965264
21
2.3197431
0
LINE
8
DEFAULT_255_2_778
10
17.8965264
20
2.3197431
11
17.8965264
21
1.5437431
0
LINE
8
DEFAULT_255_2_778
10
17.8965264
20
1.5437431
11
17.6872264
21
1.5437431
0
LINE
8
DEFAULT_255_2_778
10
17.6872264
20
1.5437431
11
17.6872264
21
3.2436431
0
LINE
8
DEFAULT_255_2_778
10
17.6872264
20
3.2436431
11
17.8965264
21
3.2436431
0
LINE
8
DEFAULT_255_2_778
10
17.8965264
20
3.2436431
11
17.8965264
21
2.5171431
0
LINE
8
DEFAULT_255_2_778
10
17.8965264
20
2.5171431
11
18.6847264
21
2.5171431
0
LINE
8
DEFAULT_255_2_778
10
18.6847264
20
2.5171431
11
18.6847264
21
3.2436431
0
LINE
8
DEFAULT_255_2_778
10
40.2405264
20
121.9937431
11
40.2405264
21
2.5935431
0
LINE
8
DEFAULT_255_2_778
10
40.2405264
20
122.3937431
11
30.6407264
21
122.3937431
0
LINE
8
DEFAULT_255_2_778
10
30.6407264
20
122.3937431
11
30.6407264
21
2.1938431
0
LINE
8
DEFAULT_255_2_778
10
30.6407264
20
2.1938431
11
40.2405264
21
2.1938431
0
LINE
8
DEFAULT_255_2_778
10
40.2406141
20
122.0109056
11
40.2406141
21
124.7938056
0
LINE
8
DEFAULT_255_2_778
10
40.2406141
20
124.7938056
11
0.2406141
21
124.7938056
0
LINE
8
DEFAULT_255_2_778
10
0.2406141
20
124.7938056
11
0.2406141
21
-0.2061944
0
LINE
8
DEFAULT_255_2_778
10
0.2406141
20
-0.2061944
11
40.1403141
21
-0.2061944
0
ARC
8
DEFAULT_255_2_778
10
29.0889242
20
20.688263
40
1.1944452
50
234.5578036
51
270.0924899
0
ARC
8
DEFAULT_255_2_778
10
29.0897981
20
20.6930808
40
1.1988788
50
185.3466739
51
234.6572939
0
ARC
8
DEFAULT_255_2_778
10
29.1054703
20
20.6934535
40
1.214518
50
179.992175
51
185.2952861
0
ARC
8
DEFAULT_255_2_778
10
29.0852188
20
20.6954699
40
1.1942679
50
144.5468923
51
180.0887817
0
ARC
8
DEFAULT_255_2_778
10
29.090452
20
20.6944217
40
1.1991408
50
95.3516494
51
144.6511289
0
ARC
8
DEFAULT_255_2_778
10
29.090687
20
20.6793966
40
1.2141228
50
89.9921976
51
95.2965583
0
ARC
8
DEFAULT_255_2_778
10
29.08892
20
46.6880249
40
1.194407
50
234.5513289
51
270.0926922
0
ARC
8
DEFAULT_255_2_778
10
29.089881
20
46.6929248
40
1.1989577
50
185.3438778
51
234.6497258
0
ARC
8
DEFAULT_255_2_778
10
29.1058475
20
46.6933552
40
1.2148953
50
179.9922565
51
185.293957
0
ARC
8
DEFAULT_255_2_778
10
29.0850354
20
46.6953511
40
1.1940844
50
144.5440759
51
180.0878931
0
ARC
8
DEFAULT_255_2_778
10
29.0904568
20
46.6941821
40
1.1991807
50
95.3516985
51
144.6488348
0
ARC
8
DEFAULT_255_2_778
10
29.090687
20
46.6791966
40
1.2141228
50
89.9921976
51
95.2965582
0
ARC
8
DEFAULT_255_2_778
10
29.0889374
20
77.8875563
40
1.1943384
50
234.5479662
51
270.0918639
0
ARC
8
DEFAULT_255_2_778
10
29.0899653
20
77.892603
40
1.1990475
50
185.3464965
51
234.6478285
0
ARC
8
DEFAULT_255_2_778
10
29.1055433
20
77.8929563
40
1.2145911
50
179.9923059
51
185.2946162
0
ARC
8
DEFAULT_255_2_778
10
29.0851837
20
77.8949377
40
1.1942328
50
144.5463566
51
180.0872367
0
ARC
8
DEFAULT_255_2_778
10
29.0905096
20
77.8938801
40
1.1991866
50
95.3542067
51
144.6527959
0
ARC
8
DEFAULT_255_2_778
10
29.090687
20
77.8790838
40
1.2139355
50
89.9921948
51
95.2973763
0
ARC
8
DEFAULT_255_2_778
10
29.08892
20
103.8880249
40
1.194407
50
234.5513289
51
270.0926922
0
ARC
8
DEFAULT_255_2_778
10
29.089881
20
103.8929248
40
1.1989577
50
185.3438778
51
234.6497258
0
ARC
8
DEFAULT_255_2_778
10
29.1058475
20
103.8933552
40
1.2148953
50
179.9922565
51
185.293957
0
ARC
8
DEFAULT_255_2_778
10
29.0850354
20
103.8953511
40
1.1940844
50
144.5440759
51
180.0878931
0
ARC
8
DEFAULT_255_2_778
10
29.0904568
20
103.8941821
40
1.1991807
50
95.3516985
51
144.6488348
0
ARC
8
DEFAULT_255_2_778
10
29.090687
20
103.8791966
40
1.2141228
50
89.9921976
51
95.2965582
0
ARC
8
DEFAULT_255_2_778
10
11.3926672
20
103.8992825
40
1.1943384
50
54.5479662
51
90.0918639
0
ARC
8
DEFAULT_255_2_778
10
11.3916393
20
103.8942358
40
1.1990475
50
5.3464965
51
54.6478285
0
ARC
8
DEFAULT_255_2_778
10
11.3760613
20
103.8938825
40
1.2145911
50
359.9923059
51
5.2946162
0
ARC
8
DEFAULT_255_2_778
10
11.3964209
20
103.8919011
40
1.1942328
50
324.5463566
51
0.0872367
0
ARC
8
DEFAULT_255_2_778
10
11.3910951
20
103.8929586
40
1.1991866
50
275.3542067
51
324.6527959
0
ARC
8
DEFAULT_255_2_778
10
11.3909177
20
103.907755
40
1.2139355
50
269.9921948
51
275.2973763
0
ARC
8
DEFAULT_255_2_778
10
11.3926672
20
77.8994825
40
1.1943384
50
54.5479662
51
90.0918639
0
ARC
8
DEFAULT_255_2_778
10
11.3916393
20
77.8944358
40
1.1990475
50
5.3464965
51
54.6478285
0
ARC
8
DEFAULT_255_2_778
10
11.3760613
20
77.8940825
40
1.2145911
50
359.9923059
51
5.2946162
0
ARC
8
DEFAULT_255_2_778
10
11.3964209
20
77.8921011
40
1.1942328
50
324.5463566
51
0.0872367
0
ARC
8
DEFAULT_255_2_778
10
11.3910951
20
77.8931586
40
1.1991866
50
275.3542067
51
324.6527959
0
ARC
8
DEFAULT_255_2_778
10
11.3909177
20
77.907955
40
1.2139355
50
269.9921948
51
275.2973763
0
ARC
8
DEFAULT_255_2_778
10
11.3926846
20
46.6997139
40
1.194407
50
54.5513289
51
90.0926922
0
ARC
8
DEFAULT_255_2_778
10
11.3917237
20
46.6948139
40
1.1989577
50
5.3438778
51
54.6497258
0
ARC
8
DEFAULT_255_2_778
10
11.3757572
20
46.6943836
40
1.2148953
50
359.9922565
51
5.293957
0
ARC
8
DEFAULT_255_2_778
10
11.3965693
20
46.6923876
40
1.1940844
50
324.5440759
51
0.0878931
0
ARC
8
DEFAULT_255_2_778
10
11.3911479
20
46.6935567
40
1.1991807
50
275.3516985
51
324.6488348
0
ARC
8
DEFAULT_255_2_778
10
11.3909177
20
46.7085422
40
1.2141228
50
269.9921976
51
275.2965582
0
ARC
8
DEFAULT_255_2_778
10
11.3926846
20
20.6999139
40
1.194407
50
54.5513289
51
90.0926922
0
ARC
8
DEFAULT_255_2_778
10
11.3917237
20
20.6950139
40
1.1989577
50
5.3438778
51
54.6497258
0
ARC
8
DEFAULT_255_2_778
10
11.3757572
20
20.6945836
40
1.2148953
50
359.9922565
51
5.293957
0
ARC
8
DEFAULT_255_2_778
10
11.3965693
20
20.6925876
40
1.1940844
50
324.5440759
51
0.0878931
0
ARC
8
DEFAULT_255_2_778
10
11.3911479
20
20.6937567
40
1.1991807
50
275.3516985
51
324.6488348
0
ARC
8
DEFAULT_255_2_778
10
11.3909177
20
20.7087422
40
1.2141228
50
269.9921976
51
275.2965582
0
LINE
8
DEFAULT_255_2_778
10
29.0908523
20
21.8935194
11
29.0908523
21
45.4936194
0
LINE
8
DEFAULT_255_2_778
10
29.0908523
20
47.8933194
11
29.0908523
21
76.6932194
0
LINE
8
DEFAULT_255_2_778
10
29.0908523
20
79.0930194
11
29.0908523
21
102.6936194
0
LINE
8
DEFAULT_255_2_778
10
29.0908523
20
105.0933194
11
29.0908523
21
114.2937194
0
LINE
8
DEFAULT_255_2_778
10
29.0908523
20
114.2937194
11
11.3907523
21
114.2937194
0
LINE
8
DEFAULT_255_2_778
10
11.3907523
20
114.2937194
11
11.3907523
21
105.0936194
0
LINE
8
DEFAULT_255_2_778
10
11.3907523
20
102.6938194
11
11.3907523
21
79.0938194
0
LINE
8
DEFAULT_255_2_778
10
11.3907523
20
76.6940194
11
11.3907523
21
47.8941194
0
LINE
8
DEFAULT_255_2_778
10
11.3907523
20
45.4944194
11
11.3907523
21
21.8943194
0
LINE
8
DEFAULT_255_2_778
10
11.3907523
20
19.4946194
11
11.3907523
21
10.2945194
0
LINE
8
DEFAULT_255_2_778
10
11.3907523
20
10.2945194
11
29.0908523
21
10.2945194
0
LINE
8
DEFAULT_255_2_778
10
29.0908523
20
10.2945194
11
29.0908523
21
19.4946194
0
LINE
8
DEFAULT_255_2_778
10
13.2745208
20
3.0848802
11
13.4555208
21
3.0515802
0
LINE
8
DEFAULT_255_2_778
10
13.4555208
20
3.0515802
11
13.5455208
21
2.9684802
0
LINE
8
DEFAULT_255_2_778
10
13.5455208
20
2.9684802
11
13.5751208
21
2.9001802
0
LINE
8
DEFAULT_255_2_778
10
13.5751208
20
2.9001802
11
13.5828208
21
2.8647802
0
LINE
8
DEFAULT_255_2_778
10
13.5828208
20
2.8647802
11
13.5817208
21
2.7607802
0
LINE
8
DEFAULT_255_2_778
10
13.5817208
20
2.7607802
11
13.5751208
21
2.7289802
0
LINE
8
DEFAULT_255_2_778
10
13.5751208
20
2.7289802
11
13.5552208
21
2.6668802
0
LINE
8
DEFAULT_255_2_778
10
13.5552208
20
2.6668802
11
13.5171208
21
2.5837802
0
LINE
8
DEFAULT_255_2_778
10
13.5171208
20
2.5837802
11
13.4380208
21
2.4564802
0
LINE
8
DEFAULT_255_2_778
10
13.4380208
20
2.4564802
11
13.3081208
21
2.2881802
0
LINE
8
DEFAULT_255_2_778
10
13.3081208
20
2.2881802
11
13.1007208
21
2.0611802
0
LINE
8
DEFAULT_255_2_778
10
13.1007208
20
2.0611802
11
12.8501208
21
1.8241802
0
LINE
8
DEFAULT_255_2_778
10
12.8501208
20
1.8241802
11
12.7615208
21
1.7479802
0
LINE
8
DEFAULT_255_2_778
10
12.7615208
20
1.7479802
11
12.7615208
21
1.5441802
0
LINE
8
DEFAULT_255_2_778
10
12.7615208
20
1.5441802
11
13.8167208
21
1.5441802
0
LINE
8
DEFAULT_255_2_778
10
13.8167208
20
1.5441802
11
13.8167208
21
1.7296802
0
LINE
8
DEFAULT_255_2_778
10
13.8167208
20
1.7296802
11
13.0110208
21
1.7296802
0
LINE
8
DEFAULT_255_2_778
10
13.0110208
20
1.7296802
11
13.3724208
21
2.0601802
0
LINE
8
DEFAULT_255_2_778
10
13.3724208
20
2.0601802
11
13.5317208
21
2.2350802
0
LINE
8
DEFAULT_255_2_778
10
13.5317208
20
2.2350802
11
13.6135208
21
2.3453802
0
LINE
8
DEFAULT_255_2_778
10
13.6135208
20
2.3453802
11
13.6674208
21
2.4331802
0
LINE
8
DEFAULT_255_2_778
10
13.6674208
20
2.4331802
11
13.7196208
21
2.5384802
0
LINE
8
DEFAULT_255_2_778
10
13.7196208
20
2.5384802
11
13.7460208
21
2.6064802
0
LINE
8
DEFAULT_255_2_778
10
13.7460208
20
2.6064802
11
13.7667208
21
2.6760802
0
LINE
8
DEFAULT_255_2_778
10
13.7667208
20
2.6760802
11
13.7764208
21
2.7231802
0
LINE
8
DEFAULT_255_2_778
10
13.7764208
20
2.7231802
11
13.7741208
21
2.9361802
0
LINE
8
DEFAULT_255_2_778
10
13.7741208
20
2.9361802
11
13.7645208
21
2.9724802
0
LINE
8
DEFAULT_255_2_778
10
13.7645208
20
2.9724802
11
13.7460208
21
3.0224802
0
LINE
8
DEFAULT_255_2_778
10
13.7460208
20
3.0224802
11
13.7114208
21
3.0840802
0
LINE
8
DEFAULT_255_2_778
10
13.7114208
20
3.0840802
11
13.6534208
21
3.1494802
0
LINE
8
DEFAULT_255_2_778
10
13.6534208
20
3.1494802
11
13.5624208
21
3.2129802
0
LINE
8
DEFAULT_255_2_778
10
13.5624208
20
3.2129802
11
13.4338208
21
3.2573802
0
LINE
8
DEFAULT_255_2_778
10
13.4338208
20
3.2573802
11
13.2608208
21
3.2679802
0
LINE
8
DEFAULT_255_2_778
10
13.2608208
20
3.2679802
11
13.1147208
21
3.2388802
0
LINE
8
DEFAULT_255_2_778
10
13.1147208
20
3.2388802
11
13.0107208
21
3.1851802
0
LINE
8
DEFAULT_255_2_778
10
13.0107208
20
3.1851802
11
12.8861208
21
3.0483802
0
LINE
8
DEFAULT_255_2_778
10
12.8861208
20
3.0483802
11
12.8440208
21
2.9446802
0
LINE
8
DEFAULT_255_2_778
10
12.8440208
20
2.9446802
11
12.8319208
21
2.8872802
0
LINE
8
DEFAULT_255_2_778
10
12.8319208
20
2.8872802
11
12.8269208
21
2.8462802
0
LINE
8
DEFAULT_255_2_778
10
12.8269208
20
2.8462802
11
12.8245208
21
2.7848802
0
LINE
8
DEFAULT_255_2_778
10
12.8245208
20
2.7848802
11
13.0229208
21
2.7848802
0
LINE
8
DEFAULT_255_2_778
10
13.0229208
20
2.7848802
11
13.0248208
21
2.8282802
0
LINE
8
DEFAULT_255_2_778
10
13.0248208
20
2.8282802
11
13.0293208
21
2.8607802
0
LINE
8
DEFAULT_255_2_778
10
13.0293208
20
2.8607802
11
13.0420208
21
2.9091802
0
LINE
8
DEFAULT_255_2_778
10
13.0420208
20
2.9091802
11
13.0840208
21
2.9866802
0
LINE
8
DEFAULT_255_2_778
10
13.0840208
20
2.9866802
11
13.1944208
21
3.0676802
0
LINE
8
DEFAULT_255_2_778
10
13.1944208
20
3.0676802
11
13.2748208
21
3.0851802
0
LINE
8
DEFAULT_255_2_778
10
14.6667208
20
3.0848802
11
14.8477208
21
3.0515802
0
LINE
8
DEFAULT_255_2_778
10
14.8477208
20
3.0515802
11
14.9377208
21
2.9684802
0
LINE
8
DEFAULT_255_2_778
10
14.9377208
20
2.9684802
11
14.9673208
21
2.9001802
0
LINE
8
DEFAULT_255_2_778
10
14.9673208
20
2.9001802
11
14.9750208
21
2.8647802
0
LINE
8
DEFAULT_255_2_778
10
14.9750208
20
2.8647802
11
14.9739208
21
2.7607802
0
LINE
8
DEFAULT_255_2_778
10
14.9739208
20
2.7607802
11
14.9673208
21
2.7289802
0
LINE
8
DEFAULT_255_2_778
10
14.9673208
20
2.7289802
11
14.9474208
21
2.6668802
0
LINE
8
DEFAULT_255_2_778
10
14.9474208
20
2.6668802
11
14.9093208
21
2.5837802
0
LINE
8
DEFAULT_255_2_778
10
14.9093208
20
2.5837802
11
14.8302208
21
2.4564802
0
LINE
8
DEFAULT_255_2_778
10
14.8302208
20
2.4564802
11
14.7003208
21
2.2881802
0
LINE
8
DEFAULT_255_2_778
10
14.7003208
20
2.2881802
11
14.4929208
21
2.0611802
0
LINE
8
DEFAULT_255_2_778
10
14.4929208
20
2.0611802
11
14.2423208
21
1.8241802
0
LINE
8
DEFAULT_255_2_778
10
14.2423208
20
1.8241802
11
14.1537208
21
1.7479802
0
LINE
8
DEFAULT_255_2_778
10
14.1537208
20
1.7479802
11
14.1537208
21
1.5441802
0
LINE
8
DEFAULT_255_2_778
10
14.1537208
20
1.5441802
11
15.2089208
21
1.5441802
0
LINE
8
DEFAULT_255_2_778
10
15.2089208
20
1.5441802
11
15.2089208
21
1.7296802
0
LINE
8
DEFAULT_255_2_778
10
15.2089208
20
1.7296802
11
14.4032208
21
1.7296802
0
LINE
8
DEFAULT_255_2_778
10
14.4032208
20
1.7296802
11
14.7646208
21
2.0601802
0
LINE
8
DEFAULT_255_2_778
10
14.7646208
20
2.0601802
11
14.9239208
21
2.2350802
0
LINE
8
DEFAULT_255_2_778
10
14.9239208
20
2.2350802
11
15.0057208
21
2.3453802
0
LINE
8
DEFAULT_255_2_778
10
15.0057208
20
2.3453802
11
15.0596208
21
2.4331802
0
LINE
8
DEFAULT_255_2_778
10
15.0596208
20
2.4331802
11
15.1118208
21
2.5384802
0
LINE
8
DEFAULT_255_2_778
10
15.1118208
20
2.5384802
11
15.1382208
21
2.6064802
0
LINE
8
DEFAULT_255_2_778
10
15.1382208
20
2.6064802
11
15.1589208
21
2.6760802
0
LINE
8
DEFAULT_255_2_778
10
15.1589208
20
2.6760802
11
15.1686208
21
2.7231802
0
LINE
8
DEFAULT_255_2_778
10
15.1686208
20
2.7231802
11
15.1663208
21
2.9361802
0
LINE
8
DEFAULT_255_2_778
10
15.1663208
20
2.9361802
11
15.1567208
21
2.9724802
0
LINE
8
DEFAULT_255_2_778
10
15.1567208
20
2.9724802
11
15.1382208
21
3.0224802
0
LINE
8
DEFAULT_255_2_778
10
15.1382208
20
3.0224802
11
15.1036208
21
3.0840802
0
LINE
8
DEFAULT_255_2_778
10
15.1036208
20
3.0840802
11
15.0456208
21
3.1494802
0
LINE
8
DEFAULT_255_2_778
10
15.0456208
20
3.1494802
11
14.9546208
21
3.2129802
0
LINE
8
DEFAULT_255_2_778
10
14.9546208
20
3.2129802
11
14.8260208
21
3.2573802
0
LINE
8
DEFAULT_255_2_778
10
14.8260208
20
3.2573802
11
14.6530208
21
3.2679802
0
LINE
8
DEFAULT_255_2_778
10
14.6530208
20
3.2679802
11
14.5069208
21
3.2388802
0
LINE
8
DEFAULT_255_2_778
10
14.5069208
20
3.2388802
11
14.4029208
21
3.1851802
0
LINE
8
DEFAULT_255_2_778
10
14.4029208
20
3.1851802
11
14.2783208
21
3.0483802
0
LINE
8
DEFAULT_255_2_778
10
14.2783208
20
3.0483802
11
14.2362208
21
2.9446802
0
LINE
8
DEFAULT_255_2_778
10
14.2362208
20
2.9446802
11
14.2241208
21
2.8872802
0
LINE
8
DEFAULT_255_2_778
10
14.2241208
20
2.8872802
11
14.2191208
21
2.8462802
0
LINE
8
DEFAULT_255_2_778
10
14.2191208
20
2.8462802
11
14.2167208
21
2.7848802
0
LINE
8
DEFAULT_255_2_778
10
14.2167208
20
2.7848802
11
14.4151208
21
2.7848802
0
LINE
8
DEFAULT_255_2_778
10
14.4151208
20
2.7848802
11
14.4170208
21
2.8282802
0
LINE
8
DEFAULT_255_2_778
10
14.4170208
20
2.8282802
11
14.4215208
21
2.8607802
0
LINE
8
DEFAULT_255_2_778
10
14.4215208
20
2.8607802
11
14.4342208
21
2.9091802
0
LINE
8
DEFAULT_255_2_778
10
14.4342208
20
2.9091802
11
14.4762208
21
2.9866802
0
LINE
8
DEFAULT_255_2_778
10
14.4762208
20
2.9866802
11
14.5866208
21
3.0676802
0
LINE
8
DEFAULT_255_2_778
10
14.5866208
20
3.0676802
11
14.6670208
21
3.0851802
0
ARC
8
DEFAULT_255_2_778
10
37.7144059
20
49.2948941
40
0.5487762
50
89.8616186
51
180.1383814
0
ARC
8
DEFAULT_255_2_778
10
37.7169782
20
49.2949154
40
0.5487547
50
359.8593896
51
90.1301939
0
ARC
8
DEFAULT_255_2_778
10
37.7170632
20
49.2922368
40
0.5486696
50
269.8609058
51
0.1390942
0
ARC
8
DEFAULT_255_2_778
10
37.714321
20
49.2922583
40
0.5486914
50
179.863161
51
270.1472628
0
LINE
8
DEFAULT_255_2_778
10
37.1656313
20
49.2935687
11
37.1656313
21
49.2935687
0
ARC
8
DEFAULT_255_2_778
10
37.7144059
20
54.4949941
40
0.5487762
50
89.8616186
51
180.1383814
0
ARC
8
DEFAULT_255_2_778
10
37.7169782
20
54.4950154
40
0.5487547
50
359.8593896
51
90.1301939
0
ARC
8
DEFAULT_255_2_778
10
37.7170632
20
54.4923368
40
0.5486696
50
269.8609058
51
0.1390942
0
ARC
8
DEFAULT_255_2_778
10
37.714321
20
54.4923583
40
0.5486914
50
179.863161
51
270.1472628
0
LINE
8
DEFAULT_255_2_778
10
37.1656313
20
54.4936687
11
37.1656313
21
54.4936687
0
LINE
8
DEFAULT_255_2_778
10
36.4655761
20
52.9937332
11
38.9655761
21
52.9937332
0
LINE
8
DEFAULT_255_2_778
10
36.4655761
20
50.7937332
11
38.9655761
21
50.7937332
0
LINE
8
DEFAULT_255_2_778
10
36.4655761
20
47.7936332
11
38.9655761
21
47.7936332
0
LINE
8
DEFAULT_255_2_778
10
36.4655761
20
45.5938332
11
38.9655761
21
45.5938332
0
ARC
8
DEFAULT_255_2_778
10
37.7144059
20
38.8948941
40
0.5487762
50
89.8616186
51
180.1383814
0
ARC
8
DEFAULT_255_2_778
10
37.7169782
20
38.8949154
40
0.5487547
50
359.8593896
51
90.1301939
0
ARC
8
DEFAULT_255_2_778
10
37.7170632
20
38.8922368
40
0.5486696
50
269.8609058
51
0.1390942
0
ARC
8
DEFAULT_255_2_778
10
37.714321
20
38.8922583
40
0.5486914
50
179.863161
51
270.1472628
0
LINE
8
DEFAULT_255_2_778
10
37.1656313
20
38.8935687
11
37.1656313
21
38.8935687
0
ARC
8
DEFAULT_255_2_778
10
37.7144059
20
44.0949941
40
0.5487762
50
89.8616186
51
180.1383814
0
ARC
8
DEFAULT_255_2_778
10
37.7169782
20
44.0950154
40
0.5487547
50
359.8593896
51
90.1301939
0
ARC
8
DEFAULT_255_2_778
10
37.7170632
20
44.0923368
40
0.5486696
50
269.8609058
51
0.1390942
0
ARC
8
DEFAULT_255_2_778
10
37.714321
20
44.0923583
40
0.5486914
50
179.863161
51
270.1472628
0
LINE
8
DEFAULT_255_2_778
10
37.1656313
20
44.0936687
11
37.1656313
21
44.0936687
0
LINE
8
DEFAULT_255_2_778
10
36.4655761
20
42.5937603
11
38.9655761
21
42.5937603
0
LINE
8
DEFAULT_255_2_778
10
36.4655761
20
40.3937603
11
38.9655761
21
40.3937603
0
LINE
8
DEFAULT_255_2_778
10
36.4655761
20
37.3936603
11
38.9655761
21
37.3936603
0
ARC
8
DEFAULT_255_2_778
10
37.7144059
20
28.4948941
40
0.5487762
50
89.8616186
51
180.1383814
0
ARC
8
DEFAULT_255_2_778
10
37.7169782
20
28.4949154
40
0.5487547
50
359.8593896
51
90.1301939
0
ARC
8
DEFAULT_255_2_778
10
37.7170632
20
28.4922368
40
0.5486696
50
269.8609058
51
0.1390942
0
ARC
8
DEFAULT_255_2_778
10
37.714321
20
28.4922583
40
0.5486914
50
179.863161
51
270.1472628
0
LINE
8
DEFAULT_255_2_778
10
37.1656313
20
28.4935687
11
37.1656313
21
28.4935687
0
ARC
8
DEFAULT_255_2_778
10
37.7144059
20
33.6949941
40
0.5487762
50
89.8616186
51
180.1383814
0
ARC
8
DEFAULT_255_2_778
10
37.7169782
20
33.6950154
40
0.5487547
50
359.8593896
51
90.1301939
0
ARC
8
DEFAULT_255_2_778
10
37.7170632
20
33.6923368
40
0.5486696
50
269.8609058
51
0.1390942
0
ARC
8
DEFAULT_255_2_778
10
37.714321
20
33.6923583
40
0.5486914
50
179.863161
51
270.1472628
0
LINE
8
DEFAULT_255_2_778
10
37.1656313
20
33.6936687
11
37.1656313
21
33.6936687
0
LINE
8
DEFAULT_255_2_778
10
36.4655761
20
35.1936832
11
38.9655761
21
35.1936832
0
LINE
8
DEFAULT_255_2_778
10
36.4655761
20
32.1938832
11
38.9655761
21
32.1938832
0
LINE
8
DEFAULT_255_2_778
10
36.4655761
20
29.9937832
11
38.9655761
21
29.9937832
0
LINE
8
DEFAULT_255_2_778
10
36.4655761
20
26.9936832
11
38.9655761
21
26.9936832
0
LINE
8
DEFAULT_255_2_778
10
36.4406597
20
56.6937243
11
38.9907597
21
56.6937243
0
LINE
8
DEFAULT_255_2_778
10
38.9907597
20
56.6937243
11
38.9907597
21
5.4937243
0
LINE
8
DEFAULT_255_2_778
10
38.9907597
20
5.4937243
11
36.4406597
21
5.4937243
0
LINE
8
DEFAULT_255_2_778
10
36.4406597
20
5.4937243
11
36.4406597
21
56.6937243
0
ARC
8
DEFAULT_255_2_778
10
37.7144059
20
23.2950941
40
0.5487762
50
89.8616186
51
180.1383814
0
ARC
8
DEFAULT_255_2_778
10
37.7169782
20
23.2951154
40
0.5487547
50
359.8593896
51
90.1301939
0
ARC
8
DEFAULT_255_2_778
10
37.7170632
20
23.2924368
40
0.5486696
50
269.8609058
51
0.1390942
0
ARC
8
DEFAULT_255_2_778
10
37.714321
20
23.2924583
40
0.5486914
50
179.863161
51
270.1472628
0
LINE
8
DEFAULT_255_2_778
10
37.1656313
20
23.2937687
11
37.1656313
21
23.2937687
0
LINE
8
DEFAULT_255_2_778
10
36.4655761
20
24.7937281
11
38.9655761
21
24.7937281
0
LINE
8
DEFAULT_255_2_778
10
36.4655761
20
21.7939281
11
38.9655761
21
21.7939281
0
LINE
8
DEFAULT_255_2_778
10
36.4655761
20
19.5938281
11
38.9655761
21
19.5938281
0
ARC
8
DEFAULT_255_2_778
10
37.7144059
20
12.8950941
40
0.5487762
50
89.8616186
51
180.1383814
0
ARC
8
DEFAULT_255_2_778
10
37.7169782
20
12.8951154
40
0.5487547
50
359.8593896
51
90.1301939
0
ARC
8
DEFAULT_255_2_778
10
37.7170632
20
12.8924368
40
0.5486696
50
269.8609058
51
0.1390942
0
ARC
8
DEFAULT_255_2_778
10
37.714321
20
12.8924583
40
0.5486914
50
179.863161
51
270.1472628
0
LINE
8
DEFAULT_255_2_778
10
37.1656313
20
12.8937687
11
37.1656313
21
12.8937687
0
ARC
8
DEFAULT_255_2_778
10
37.7144059
20
18.0949941
40
0.5487762
50
89.8616186
51
180.1383814
0
ARC
8
DEFAULT_255_2_778
10
37.7169782
20
18.0950154
40
0.5487547
50
359.8593896
51
90.1301939
0
ARC
8
DEFAULT_255_2_778
10
37.7170632
20
18.0923368
40
0.5486696
50
269.8609058
51
0.1390942
0
ARC
8
DEFAULT_255_2_778
10
37.714321
20
18.0923583
40
0.5486914
50
179.863161
51
270.1472628
0
LINE
8
DEFAULT_255_2_778
10
37.1656313
20
18.0936687
11
37.1656313
21
18.0936687
0
LINE
8
DEFAULT_255_2_778
10
36.4655761
20
16.5937332
11
38.9655761
21
16.5937332
0
LINE
8
DEFAULT_255_2_778
10
36.4655761
20
14.3937332
11
38.9655761
21
14.3937332
0
LINE
8
DEFAULT_255_2_778
10
36.4655761
20
11.3938332
11
38.9655761
21
11.3938332
0
LINE
8
DEFAULT_255_2_778
10
36.4655761
20
9.1938332
11
38.9655761
21
9.1938332
0
ARC
8
DEFAULT_255_2_778
10
2.7645696
20
75.2949304
40
0.5488398
50
89.8682888
51
180.1317112
0
ARC
8
DEFAULT_255_2_778
10
2.7670782
20
75.2950154
40
0.5487547
50
359.8593896
51
90.1301939
0
ARC
8
DEFAULT_255_2_778
10
2.7671632
20
75.2923368
40
0.5486696
50
269.8609058
51
0.1390942
0
ARC
8
DEFAULT_255_2_778
10
2.7644846
20
75.2924218
40
0.5487547
50
179.8698061
51
270.1406104
0
LINE
8
DEFAULT_255_2_778
10
2.2157313
20
75.2936687
11
2.2157313
21
75.2936687
0
ARC
8
DEFAULT_255_2_778
10
2.7645696
20
70.0950304
40
0.5488398
50
89.8682888
51
180.1317112
0
ARC
8
DEFAULT_255_2_778
10
2.7670782
20
70.0951154
40
0.5487547
50
359.8593896
51
90.1301939
0
ARC
8
DEFAULT_255_2_778
10
2.7671632
20
70.0924368
40
0.5486696
50
269.8609058
51
0.1390942
0
ARC
8
DEFAULT_255_2_778
10
2.7644846
20
70.0925218
40
0.5487547
50
179.8698061
51
270.1406104
0
LINE
8
DEFAULT_255_2_778
10
2.2157313
20
70.0937687
11
2.2157313
21
70.0937687
0
LINE
8
DEFAULT_255_2_778
10
1.5156761
20
78.9938655
11
4.0156761
21
78.9938655
0
LINE
8
DEFAULT_255_2_778
10
1.5156761
20
76.7938655
11
4.0156761
21
76.7938655
0
LINE
8
DEFAULT_255_2_778
10
1.5156761
20
73.7937655
11
4.0156761
21
73.7937655
0
LINE
8
DEFAULT_255_2_778
10
1.5156761
20
71.5937655
11
4.0156761
21
71.5937655
0
ARC
8
DEFAULT_255_2_778
10
2.7645696
20
85.6948304
40
0.5488398
50
89.8682888
51
180.1317112
0
ARC
8
DEFAULT_255_2_778
10
2.7670782
20
85.6949154
40
0.5487547
50
359.8593896
51
90.1301939
0
ARC
8
DEFAULT_255_2_778
10
2.7671632
20
85.6922368
40
0.5486696
50
269.8609058
51
0.1390942
0
ARC
8
DEFAULT_255_2_778
10
2.7644846
20
85.6923218
40
0.5487547
50
179.8698061
51
270.1406104
0
LINE
8
DEFAULT_255_2_778
10
2.2157313
20
85.6935687
11
2.2157313
21
85.6935687
0
ARC
8
DEFAULT_255_2_778
10
2.7645696
20
80.4950304
40
0.5488398
50
89.8682888
51
180.1317112
0
ARC
8
DEFAULT_255_2_778
10
2.7670782
20
80.4951154
40
0.5487547
50
359.8593896
51
90.1301939
0
ARC
8
DEFAULT_255_2_778
10
2.7671632
20
80.4924368
40
0.5486696
50
269.8609058
51
0.1390942
0
ARC
8
DEFAULT_255_2_778
10
2.7644846
20
80.4925218
40
0.5487547
50
179.8698061
51
270.1406104
0
LINE
8
DEFAULT_255_2_778
10
2.2157313
20
80.4937687
11
2.2157313
21
80.4937687
0
LINE
8
DEFAULT_255_2_778
10
1.5156761
20
87.1938603
11
4.0156761
21
87.1938603
0
LINE
8
DEFAULT_255_2_778
10
1.5156761
20
84.1937603
11
4.0156761
21
84.1937603
0
LINE
8
DEFAULT_255_2_778
10
1.5156761
20
81.9937603
11
4.0156761
21
81.9937603
0
ARC
8
DEFAULT_255_2_778
10
2.7645696
20
96.0948304
40
0.5488398
50
89.8682888
51
180.1317112
0
ARC
8
DEFAULT_255_2_778
10
2.7670782
20
96.0949154
40
0.5487547
50
359.8593896
51
90.1301939
0
ARC
8
DEFAULT_255_2_778
10
2.7671632
20
96.0922368
40
0.5486696
50
269.8609058
51
0.1390942
0
ARC
8
DEFAULT_255_2_778
10
2.7644846
20
96.0923218
40
0.5487547
50
179.8698061
51
270.1406104
0
LINE
8
DEFAULT_255_2_778
10
2.2157313
20
96.0935687
11
2.2157313
21
96.0935687
0
ARC
8
DEFAULT_255_2_778
10
2.7645696
20
90.8950304
40
0.5488398
50
89.8682888
51
180.1317112
0
ARC
8
DEFAULT_255_2_778
10
2.7670782
20
90.8951154
40
0.5487547
50
359.8593896
51
90.1301939
0
ARC
8
DEFAULT_255_2_778
10
2.7671632
20
90.8924368
40
0.5486696
50
269.8609058
51
0.1390942
0
ARC
8
DEFAULT_255_2_778
10
2.7644846
20
90.8925218
40
0.5487547
50
179.8698061
51
270.1406104
0
LINE
8
DEFAULT_255_2_778
10
2.2157313
20
90.8937687
11
2.2157313
21
90.8937687
0
LINE
8
DEFAULT_255_2_778
10
1.5156761
20
97.5937832
11
4.0156761
21
97.5937832
0
LINE
8
DEFAULT_255_2_778
10
1.5156761
20
94.5936832
11
4.0156761
21
94.5936832
0
LINE
8
DEFAULT_255_2_778
10
1.5156761
20
92.3936832
11
4.0156761
21
92.3936832
0
LINE
8
DEFAULT_255_2_778
10
1.5156761
20
89.3937832
11
4.0156761
21
89.3937832
0
LINE
8
DEFAULT_255_2_778
10
4.040673
20
119.0938243
11
1.490573
21
119.0938243
0
LINE
8
DEFAULT_255_2_778
10
1.490573
20
119.0938243
11
1.490573
21
67.8938243
0
LINE
8
DEFAULT_255_2_778
10
1.490573
20
67.8938243
11
4.040673
21
67.8938243
0
LINE
8
DEFAULT_255_2_778
10
4.040673
20
67.8938243
11
4.040673
21
119.0938243
0
ARC
8
DEFAULT_255_2_778
10
2.7645696
20
101.2949304
40
0.5488398
50
89.8682888
51
180.1317112
0
ARC
8
DEFAULT_255_2_778
10
2.7670782
20
101.2950154
40
0.5487547
50
359.8593896
51
90.1301939
0
ARC
8
DEFAULT_255_2_778
10
2.7671632
20
101.2923368
40
0.5486696
50
269.8609058
51
0.1390942
0
ARC
8
DEFAULT_255_2_778
10
2.7644846
20
101.2924218
40
0.5487547
50
179.8698061
51
270.1406104
0
LINE
8
DEFAULT_255_2_778
10
2.2157313
20
101.2936687
11
2.2157313
21
101.2936687
0
LINE
8
DEFAULT_255_2_778
10
1.5156761
20
104.9936281
11
4.0156761
21
104.9936281
0
LINE
8
DEFAULT_255_2_778
10
1.5156761
20
102.7936281
11
4.0156761
21
102.7936281
0
LINE
8
DEFAULT_255_2_778
10
1.5156761
20
99.7937281
11
4.0156761
21
99.7937281
0
ARC
8
DEFAULT_255_2_778
10
2.7645696
20
111.6949304
40
0.5488398
50
89.8682888
51
180.1317112
0
ARC
8
DEFAULT_255_2_778
10
2.7670782
20
111.6950154
40
0.5487547
50
359.8593896
51
90.1301939
0
ARC
8
DEFAULT_255_2_778
10
2.7671632
20
111.6923368
40
0.5486696
50
269.8609058
51
0.1390942
0
ARC
8
DEFAULT_255_2_778
10
2.7644846
20
111.6924218
40
0.5487547
50
179.8698061
51
270.1406104
0
LINE
8
DEFAULT_255_2_778
10
2.2157313
20
111.6936687
11
2.2157313
21
111.6936687
0
ARC
8
DEFAULT_255_2_778
10
2.7645696
20
106.4948304
40
0.5488398
50
89.8682888
51
180.1317112
0
ARC
8
DEFAULT_255_2_778
10
2.7670782
20
106.4949154
40
0.5487547
50
359.8593896
51
90.1301939
0
ARC
8
DEFAULT_255_2_778
10
2.7671632
20
106.4922368
40
0.5486696
50
269.8609058
51
0.1390942
0
ARC
8
DEFAULT_255_2_778
10
2.7644846
20
106.4923218
40
0.5487547
50
179.8698061
51
270.1406104
0
LINE
8
DEFAULT_255_2_778
10
2.2157313
20
106.4935687
11
2.2157313
21
106.4935687
0
LINE
8
DEFAULT_255_2_778
10
1.5156761
20
115.3938655
11
4.0156761
21
115.3938655
0
LINE
8
DEFAULT_255_2_778
10
1.5156761
20
113.1938655
11
4.0156761
21
113.1938655
0
LINE
8
DEFAULT_255_2_778
10
1.5156761
20
110.1937655
11
4.0156761
21
110.1937655
0
LINE
8
DEFAULT_255_2_778
10
1.5156761
20
107.9937655
11
4.0156761
21
107.9937655
0
ARC
8
DEFAULT_255_2_778
10
2.7645696
20
12.8950304
40
0.5488398
50
89.8682888
51
180.1317112
0
ARC
8
DEFAULT_255_2_778
10
2.7670782
20
12.8951154
40
0.5487547
50
359.8593896
51
90.1301939
0
ARC
8
DEFAULT_255_2_778
10
2.7671632
20
12.8924368
40
0.5486696
50
269.8609058
51
0.1390942
0
ARC
8
DEFAULT_255_2_778
10
2.7644846
20
12.8925218
40
0.5487547
50
179.8698061
51
270.1406104
0
LINE
8
DEFAULT_255_2_778
10
2.2157313
20
12.8937687
11
2.2157313
21
12.8937687
0
ARC
8
DEFAULT_255_2_778
10
2.7645696
20
7.6949304
40
0.5488398
50
89.8682888
51
180.1317112
0
ARC
8
DEFAULT_255_2_778
10
2.7670782
20
7.6950154
40
0.5487547
50
359.8593896
51
90.1301939
0
ARC
8
DEFAULT_255_2_778
10
2.7671632
20
7.6923368
40
0.5486696
50
269.8609058
51
0.1390942
0
ARC
8
DEFAULT_255_2_778
10
2.7644846
20
7.6924218
40
0.5487547
50
179.8698061
51
270.1406104
0
LINE
8
DEFAULT_255_2_778
10
2.2157313
20
7.6936687
11
2.2157313
21
7.6936687
0
LINE
8
DEFAULT_255_2_778
10
1.5156761
20
16.5937332
11
4.0156761
21
16.5937332
0
LINE
8
DEFAULT_255_2_778
10
1.5156761
20
14.3937332
11
4.0156761
21
14.3937332
0
LINE
8
DEFAULT_255_2_778
10
1.5156761
20
11.3938332
11
4.0156761
21
11.3938332
0
LINE
8
DEFAULT_255_2_778
10
1.5156761
20
9.1938332
11
4.0156761
21
9.1938332
0
ARC
8
DEFAULT_255_2_778
10
2.7645696
20
23.2950304
40
0.5488398
50
89.8682888
51
180.1317112
0
ARC
8
DEFAULT_255_2_778
10
2.7670782
20
23.2951154
40
0.5487547
50
359.8593896
51
90.1301939
0
ARC
8
DEFAULT_255_2_778
10
2.7671632
20
23.2924368
40
0.5486696
50
269.8609058
51
0.1390942
0
ARC
8
DEFAULT_255_2_778
10
2.7644846
20
23.2925218
40
0.5487547
50
179.8698061
51
270.1406104
0
LINE
8
DEFAULT_255_2_778
10
2.2157313
20
23.2937687
11
2.2157313
21
23.2937687
0
ARC
8
DEFAULT_255_2_778
10
2.7645696
20
18.0949304
40
0.5488398
50
89.8682888
51
180.1317112
0
ARC
8
DEFAULT_255_2_778
10
2.7670782
20
18.0950154
40
0.5487547
50
359.8593896
51
90.1301939
0
ARC
8
DEFAULT_255_2_778
10
2.7671632
20
18.0923368
40
0.5486696
50
269.8609058
51
0.1390942
0
ARC
8
DEFAULT_255_2_778
10
2.7644846
20
18.0924218
40
0.5487547
50
179.8698061
51
270.1406104
0
LINE
8
DEFAULT_255_2_778
10
2.2157313
20
18.0936687
11
2.2157313
21
18.0936687
0
LINE
8
DEFAULT_255_2_778
10
1.5156761
20
24.7937281
11
4.0156761
21
24.7937281
0
LINE
8
DEFAULT_255_2_778
10
1.5156761
20
21.7939281
11
4.0156761
21
21.7939281
0
LINE
8
DEFAULT_255_2_778
10
1.5156761
20
19.5938281
11
4.0156761
21
19.5938281
0
ARC
8
DEFAULT_255_2_778
10
2.7645696
20
33.6949304
40
0.5488398
50
89.8682888
51
180.1317112
0
ARC
8
DEFAULT_255_2_778
10
2.7670782
20
33.6950154
40
0.5487547
50
359.8593896
51
90.1301939
0
ARC
8
DEFAULT_255_2_778
10
2.7671632
20
33.6923368
40
0.5486696
50
269.8609058
51
0.1390942
0
ARC
8
DEFAULT_255_2_778
10
2.7644846
20
33.6924218
40
0.5487547
50
179.8698061
51
270.1406104
0
LINE
8
DEFAULT_255_2_778
10
2.2157313
20
33.6936687
11
2.2157313
21
33.6936687
0
ARC
8
DEFAULT_255_2_778
10
2.7645696
20
28.4948304
40
0.5488398
50
89.8682888
51
180.1317112
0
ARC
8
DEFAULT_255_2_778
10
2.7670782
20
28.4949154
40
0.5487547
50
359.8593896
51
90.1301939
0
ARC
8
DEFAULT_255_2_778
10
2.7671632
20
28.4922368
40
0.5486696
50
269.8609058
51
0.1390942
0
ARC
8
DEFAULT_255_2_778
10
2.7644846
20
28.4923218
40
0.5487547
50
179.8698061
51
270.1406104
0
LINE
8
DEFAULT_255_2_778
10
2.2157313
20
28.4935687
11
2.2157313
21
28.4935687
0
LINE
8
DEFAULT_255_2_778
10
1.5156761
20
35.1936832
11
4.0156761
21
35.1936832
0
LINE
8
DEFAULT_255_2_778
10
1.5156761
20
32.1938832
11
4.0156761
21
32.1938832
0
LINE
8
DEFAULT_255_2_778
10
1.5156761
20
29.9937832
11
4.0156761
21
29.9937832
0
LINE
8
DEFAULT_255_2_778
10
1.5156761
20
26.9936832
11
4.0156761
21
26.9936832
0
LINE
8
DEFAULT_255_2_778
10
1.490573
20
56.6937243
11
4.040673
21
56.6937243
0
LINE
8
DEFAULT_255_2_778
10
4.040673
20
56.6937243
11
4.040673
21
5.4937243
0
LINE
8
DEFAULT_255_2_778
10
4.040673
20
5.4937243
11
1.490573
21
5.4937243
0
LINE
8
DEFAULT_255_2_778
10
1.490573
20
5.4937243
11
1.490573
21
56.6937243
0
ARC
8
DEFAULT_255_2_778
10
2.7645696
20
38.8948304
40
0.5488398
50
89.8682888
51
180.1317112
0
ARC
8
DEFAULT_255_2_778
10
2.7670782
20
38.8949154
40
0.5487547
50
359.8593896
51
90.1301939
0
ARC
8
DEFAULT_255_2_778
10
2.7671632
20
38.8922368
40
0.5486696
50
269.8609058
51
0.1390942
0
ARC
8
DEFAULT_255_2_778
10
2.7644846
20
38.8923218
40
0.5487547
50
179.8698061
51
270.1406104
0
LINE
8
DEFAULT_255_2_778
10
2.2157313
20
38.8935687
11
2.2157313
21
38.8935687
0
LINE
8
DEFAULT_255_2_778
10
1.5156761
20
42.5937603
11
4.0156761
21
42.5937603
0
LINE
8
DEFAULT_255_2_778
10
1.5156761
20
40.3937603
11
4.0156761
21
40.3937603
0
LINE
8
DEFAULT_255_2_778
10
1.5156761
20
37.3936603
11
4.0156761
21
37.3936603
0
ARC
8
DEFAULT_255_2_778
10
2.7645696
20
49.2948304
40
0.5488398
50
89.8682888
51
180.1317112
0
ARC
8
DEFAULT_255_2_778
10
2.7670782
20
49.2949154
40
0.5487547
50
359.8593896
51
90.1301939
0
ARC
8
DEFAULT_255_2_778
10
2.7671632
20
49.2922368
40
0.5486696
50
269.8609058
51
0.1390942
0
ARC
8
DEFAULT_255_2_778
10
2.7644846
20
49.2923218
40
0.5487547
50
179.8698061
51
270.1406104
0
LINE
8
DEFAULT_255_2_778
10
2.2157313
20
49.2935687
11
2.2157313
21
49.2935687
0
ARC
8
DEFAULT_255_2_778
10
2.7645696
20
44.0949304
40
0.5488398
50
89.8682888
51
180.1317112
0
ARC
8
DEFAULT_255_2_778
10
2.7670782
20
44.0950154
40
0.5487547
50
359.8593896
51
90.1301939
0
ARC
8
DEFAULT_255_2_778
10
2.7671632
20
44.0923368
40
0.5486696
50
269.8609058
51
0.1390942
0
ARC
8
DEFAULT_255_2_778
10
2.7644846
20
44.0924218
40
0.5487547
50
179.8698061
51
270.1406104
0
LINE
8
DEFAULT_255_2_778
10
2.2157313
20
44.0936687
11
2.2157313
21
44.0936687
0
LINE
8
DEFAULT_255_2_778
10
1.5156761
20
52.9937655
11
4.0156761
21
52.9937655
0
LINE
8
DEFAULT_255_2_778
10
1.5156761
20
50.7937655
11
4.0156761
21
50.7937655
0
LINE
8
DEFAULT_255_2_778
10
1.5156761
20
47.7936655
11
4.0156761
21
47.7936655
0
LINE
8
DEFAULT_255_2_778
10
1.5156761
20
45.5936655
11
4.0156761
21
45.5936655
0
ARC
8
DEFAULT_255_2_778
10
37.7144059
20
111.6949941
40
0.5487762
50
89.8616186
51
180.1383814
0
ARC
8
DEFAULT_255_2_778
10
37.7169782
20
111.6950154
40
0.5487547
50
359.8593896
51
90.1301939
0
ARC
8
DEFAULT_255_2_778
10
37.7170632
20
111.6923368
40
0.5486696
50
269.8609058
51
0.1390942
0
ARC
8
DEFAULT_255_2_778
10
37.714321
20
111.6923583
40
0.5486914
50
179.863161
51
270.1472628
0
LINE
8
DEFAULT_255_2_778
10
37.1656313
20
111.6936687
11
37.1656313
21
111.6936687
0
ARC
8
DEFAULT_255_2_778
10
37.7144059
20
116.8948941
40
0.5487762
50
89.8616186
51
180.1383814
0
ARC
8
DEFAULT_255_2_778
10
37.7169782
20
116.8949154
40
0.5487547
50
359.8593896
51
90.1301939
0
ARC
8
DEFAULT_255_2_778
10
37.7170632
20
116.8922368
40
0.5486696
50
269.8609058
51
0.1390942
0
ARC
8
DEFAULT_255_2_778
10
37.714321
20
116.8922583
40
0.5486914
50
179.863161
51
270.1472628
0
LINE
8
DEFAULT_255_2_778
10
37.1656313
20
116.8935687
11
37.1656313
21
116.8935687
0
LINE
8
DEFAULT_255_2_778
10
36.4655761
20
115.3938655
11
38.9655761
21
115.3938655
0
LINE
8
DEFAULT_255_2_778
10
36.4655761
20
113.1938655
11
38.9655761
21
113.1938655
0
LINE
8
DEFAULT_255_2_778
10
36.4655761
20
110.1937655
11
38.9655761
21
110.1937655
0
LINE
8
DEFAULT_255_2_778
10
36.4655761
20
107.9937655
11
38.9655761
21
107.9937655
0
ARC
8
DEFAULT_255_2_778
10
37.7144059
20
101.2949941
40
0.5487762
50
89.8616186
51
180.1383814
0
ARC
8
DEFAULT_255_2_778
10
37.7169782
20
101.2950154
40
0.5487547
50
359.8593896
51
90.1301939
0
ARC
8
DEFAULT_255_2_778
10
37.7170632
20
101.2923368
40
0.5486696
50
269.8609058
51
0.1390942
0
ARC
8
DEFAULT_255_2_778
10
37.714321
20
101.2923583
40
0.5486914
50
179.863161
51
270.1472628
0
LINE
8
DEFAULT_255_2_778
10
37.1656313
20
101.2936687
11
37.1656313
21
101.2936687
0
ARC
8
DEFAULT_255_2_778
10
37.7144059
20
106.4948941
40
0.5487762
50
89.8616186
51
180.1383814
0
ARC
8
DEFAULT_255_2_778
10
37.7169782
20
106.4949154
40
0.5487547
50
359.8593896
51
90.1301939
0
ARC
8
DEFAULT_255_2_778
10
37.7170632
20
106.4922368
40
0.5486696
50
269.8609058
51
0.1390942
0
ARC
8
DEFAULT_255_2_778
10
37.714321
20
106.4922583
40
0.5486914
50
179.863161
51
270.1472628
0
LINE
8
DEFAULT_255_2_778
10
37.1656313
20
106.4935687
11
37.1656313
21
106.4935687
0
LINE
8
DEFAULT_255_2_778
10
36.4655761
20
104.9936281
11
38.9655761
21
104.9936281
0
LINE
8
DEFAULT_255_2_778
10
36.4655761
20
102.7936281
11
38.9655761
21
102.7936281
0
LINE
8
DEFAULT_255_2_778
10
36.4655761
20
99.7937281
11
38.9655761
21
99.7937281
0
ARC
8
DEFAULT_255_2_778
10
37.7144059
20
90.8950941
40
0.5487762
50
89.8616186
51
180.1383814
0
ARC
8
DEFAULT_255_2_778
10
37.7169782
20
90.8951154
40
0.5487547
50
359.8593896
51
90.1301939
0
ARC
8
DEFAULT_255_2_778
10
37.7170632
20
90.8924368
40
0.5486696
50
269.8609058
51
0.1390942
0
ARC
8
DEFAULT_255_2_778
10
37.714321
20
90.8924583
40
0.5486914
50
179.863161
51
270.1472628
0
LINE
8
DEFAULT_255_2_778
10
37.1656313
20
90.8937687
11
37.1656313
21
90.8937687
0
ARC
8
DEFAULT_255_2_778
10
37.7144059
20
96.0948941
40
0.5487762
50
89.8616186
51
180.1383814
0
ARC
8
DEFAULT_255_2_778
10
37.7169782
20
96.0949154
40
0.5487547
50
359.8593896
51
90.1301939
0
ARC
8
DEFAULT_255_2_778
10
37.7170632
20
96.0922368
40
0.5486696
50
269.8609058
51
0.1390942
0
ARC
8
DEFAULT_255_2_778
10
37.714321
20
96.0922583
40
0.5486914
50
179.863161
51
270.1472628
0
LINE
8
DEFAULT_255_2_778
10
37.1656313
20
96.0935687
11
37.1656313
21
96.0935687
0
LINE
8
DEFAULT_255_2_778
10
36.4655761
20
97.5937832
11
38.9655761
21
97.5937832
0
LINE
8
DEFAULT_255_2_778
10
36.4655761
20
94.5936832
11
38.9655761
21
94.5936832
0
LINE
8
DEFAULT_255_2_778
10
36.4655761
20
92.3936832
11
38.9655761
21
92.3936832
0
LINE
8
DEFAULT_255_2_778
10
36.4655761
20
89.3937832
11
38.9655761
21
89.3937832
0
LINE
8
DEFAULT_255_2_778
10
36.4406597
20
119.0938243
11
38.9907597
21
119.0938243
0
LINE
8
DEFAULT_255_2_778
10
38.9907597
20
119.0938243
11
38.9907597
21
67.8938243
0
LINE
8
DEFAULT_255_2_778
10
38.9907597
20
67.8938243
11
36.4406597
21
67.8938243
0
LINE
8
DEFAULT_255_2_778
10
36.4406597
20
67.8938243
11
36.4406597
21
119.0938243
0
ARC
8
DEFAULT_255_2_778
10
37.7144059
20
85.6948941
40
0.5487762
50
89.8616186
51
180.1383814
0
ARC
8
DEFAULT_255_2_778
10
37.7169782
20
85.6949154
40
0.5487547
50
359.8593896
51
90.1301939
0
ARC
8
DEFAULT_255_2_778
10
37.7170632
20
85.6922368
40
0.5486696
50
269.8609058
51
0.1390942
0
ARC
8
DEFAULT_255_2_778
10
37.714321
20
85.6922583
40
0.5486914
50
179.863161
51
270.1472628
0
LINE
8
DEFAULT_255_2_778
10
37.1656313
20
85.6935687
11
37.1656313
21
85.6935687
0
LINE
8
DEFAULT_255_2_778
10
36.4655761
20
87.1938603
11
38.9655761
21
87.1938603
0
LINE
8
DEFAULT_255_2_778
10
36.4655761
20
84.1937603
11
38.9655761
21
84.1937603
0
LINE
8
DEFAULT_255_2_778
10
36.4655761
20
81.9937603
11
38.9655761
21
81.9937603
0
ARC
8
DEFAULT_255_2_778
10
37.7144059
20
75.2949941
40
0.5487762
50
89.8616186
51
180.1383814
0
ARC
8
DEFAULT_255_2_778
10
37.7169782
20
75.2950154
40
0.5487547
50
359.8593896
51
90.1301939
0
ARC
8
DEFAULT_255_2_778
10
37.7170632
20
75.2923368
40
0.5486696
50
269.8609058
51
0.1390942
0
ARC
8
DEFAULT_255_2_778
10
37.714321
20
75.2923583
40
0.5486914
50
179.863161
51
270.1472628
0
LINE
8
DEFAULT_255_2_778
10
37.1656313
20
75.2936687
11
37.1656313
21
75.2936687
0
ARC
8
DEFAULT_255_2_778
10
37.7144059
20
80.4950941
40
0.5487762
50
89.8616186
51
180.1383814
0
ARC
8
DEFAULT_255_2_778
10
37.7169782
20
80.4951154
40
0.5487547
50
359.8593896
51
90.1301939
0
ARC
8
DEFAULT_255_2_778
10
37.7170632
20
80.4924368
40
0.5486696
50
269.8609058
51
0.1390942
0
ARC
8
DEFAULT_255_2_778
10
37.714321
20
80.4924583
40
0.5486914
50
179.863161
51
270.1472628
0
LINE
8
DEFAULT_255_2_778
10
37.1656313
20
80.4937687
11
37.1656313
21
80.4937687
0
ARC
8
DEFAULT_255_2_778
10
13.8377438
20
6.7959659
40
0.9471227
50
138.7691257
51
180.1488555
0
ARC
8
DEFAULT_255_2_778
10
13.8379385
20
6.7967966
40
0.946722
50
92.2525226
51
138.8147006
0
ARC
8
DEFAULT_255_2_778
10
13.8406901
20
6.7673273
40
0.9762778
50
89.9979919
51
92.3459109
0
ARC
8
DEFAULT_255_2_778
10
13.8432621
20
6.7964781
40
0.9471305
50
49.1137343
51
90.1535204
0
ARC
8
DEFAULT_255_2_778
10
13.8440077
20
6.7963668
40
0.9467268
50
2.2652623
51
49.1522587
0
ARC
8
DEFAULT_255_2_778
10
13.8144318
20
6.793546
40
0.9763924
50
359.9976072
51
2.3620595
0
ARC
8
DEFAULT_255_2_778
10
13.8436972
20
6.7909675
40
0.9471305
50
319.1137343
51
0.1535204
0
ARC
8
DEFAULT_255_2_778
10
13.8435859
20
6.7902219
40
0.9467268
50
272.2652623
51
319.1522587
0
ARC
8
DEFAULT_255_2_778
10
13.8407651
20
6.8197977
40
0.9763924
50
269.9976072
51
272.3620595
0
ARC
8
DEFAULT_255_2_778
10
13.8381865
20
6.7905324
40
0.9471305
50
229.1137343
51
270.1535204
0
ARC
8
DEFAULT_255_2_778
10
13.8374409
20
6.7906437
40
0.9467268
50
182.2652623
51
229.1522587
0
ARC
8
DEFAULT_255_2_778
10
13.8670168
20
6.7934645
40
0.9763924
50
179.9976072
51
182.3620595
0
LINE
8
DEFAULT_255_2_778
10
36.4655243
20
78.9938052
11
38.9656243
21
78.9938052
0
LINE
8
DEFAULT_255_2_778
10
36.4655243
20
76.7938052
11
38.9656243
21
76.7938052
0
LINE
8
DEFAULT_255_2_778
10
36.4655243
20
73.7937052
11
38.9656243
21
73.7937052
0
LINE
8
DEFAULT_255_2_778
10
36.4655243
20
71.5937052
11
38.9656243
21
71.5937052
0
LINE
8
DEFAULT_255_2_778
10
12.8906243
20
6.7935052
11
12.8906243
21
6.7935052
0
LINE
8
DEFAULT_255_2_778
10
16.3908459
20
9.3438541
11
11.2907459
21
9.3438541
0
LINE
8
DEFAULT_255_2_778
10
11.2907459
20
9.3438541
11
11.2907459
21
4.2437541
0
LINE
8
DEFAULT_255_2_778
10
11.2907459
20
4.2437541
11
16.3908459
21
4.2437541
0
LINE
8
DEFAULT_255_2_778
10
16.3908459
20
4.2437541
11
16.3908459
21
9.3438541
0
LINE
8
DEFAULT_255_2_778
10
20.9738833
20
3.2677302
11
20.8532833
21
3.2445302
0
LINE
8
DEFAULT_255_2_778
10
20.8532833
20
3.2445302
11
20.7452833
21
3.1921302
0
LINE
8
DEFAULT_255_2_778
10
20.7452833
20
3.1921302
11
20.6664833
21
3.1275302
0
LINE
8
DEFAULT_255_2_778
10
20.6664833
20
3.1275302
11
20.5960833
21
3.0418302
0
LINE
8
DEFAULT_255_2_778
10
20.5960833
20
3.0418302
11
20.5569833
21
2.9780302
0
LINE
8
DEFAULT_255_2_778
10
20.5569833
20
2.9780302
11
20.5172833
21
2.8971302
0
LINE
8
DEFAULT_255_2_778
10
20.5172833
20
2.8971302
11
20.4854833
21
2.8127302
0
LINE
8
DEFAULT_255_2_778
10
20.4854833
20
2.8127302
11
20.4666833
21
2.7484302
0
LINE
8
DEFAULT_255_2_778
10
20.4666833
20
2.7484302
11
20.4516833
21
2.6830302
0
LINE
8
DEFAULT_255_2_778
10
20.4516833
20
2.6830302
11
20.4402833
21
2.6169302
0
LINE
8
DEFAULT_255_2_778
10
20.4402833
20
2.6169302
11
20.4354833
21
2.5804302
0
LINE
8
DEFAULT_255_2_778
10
20.4354833
20
2.5804302
11
20.4317833
21
2.5438302
0
LINE
8
DEFAULT_255_2_778
10
20.4317833
20
2.5438302
11
20.4288833
21
2.5073302
0
LINE
8
DEFAULT_255_2_778
10
20.4288833
20
2.5073302
11
20.4288833
21
2.2853302
0
LINE
8
DEFAULT_255_2_778
10
20.4288833
20
2.2853302
11
20.4317833
21
2.2480302
0
LINE
8
DEFAULT_255_2_778
10
20.4317833
20
2.2480302
11
20.4354833
21
2.2110302
0
LINE
8
DEFAULT_255_2_778
10
20.4354833
20
2.2110302
11
20.4402833
21
2.1740302
0
LINE
8
DEFAULT_255_2_778
10
20.4402833
20
2.1740302
11
20.4513833
21
2.1068302
0
LINE
8
DEFAULT_255_2_778
10
20.4513833
20
2.1068302
11
20.4661833
21
2.0403302
0
LINE
8
DEFAULT_255_2_778
10
20.4661833
20
2.0403302
11
20.4846833
21
1.9747302
0
LINE
8
DEFAULT_255_2_778
10
20.4846833
20
1.9747302
11
20.5121833
21
1.8980302
0
LINE
8
DEFAULT_255_2_778
10
20.5121833
20
1.8980302
11
20.5460833
21
1.8236302
0
LINE
8
DEFAULT_255_2_778
10
20.5460833
20
1.8236302
11
20.5939833
21
1.7411302
0
LINE
8
DEFAULT_255_2_778
10
20.5939833
20
1.7411302
11
20.6492833
21
1.6689302
0
LINE
8
DEFAULT_255_2_778
10
20.6492833
20
1.6689302
11
20.7272833
21
1.5972302
0
LINE
8
DEFAULT_255_2_778
10
20.7272833
20
1.5972302
11
20.8328833
21
1.5382302
0
LINE
8
DEFAULT_255_2_778
10
20.8328833
20
1.5382302
11
20.9736833
21
1.5069302
0
LINE
8
DEFAULT_255_2_778
10
20.9736833
20
1.5069302
11
21.1183833
21
1.5151302
0
LINE
8
DEFAULT_255_2_778
10
21.1183833
20
1.5151302
11
21.2345833
21
1.5546302
0
LINE
8
DEFAULT_255_2_778
10
21.2345833
20
1.5546302
11
21.3347833
21
1.6226302
0
LINE
8
DEFAULT_255_2_778
10
21.3347833
20
1.6226302
11
21.4101833
21
1.7038302
0
LINE
8
DEFAULT_255_2_778
10
21.4101833
20
1.7038302
11
21.4713833
21
1.7993302
0
LINE
8
DEFAULT_255_2_778
10
21.4713833
20
1.7993302
11
21.5072833
21
1.8729302
0
LINE
8
DEFAULT_255_2_778
10
21.5072833
20
1.8729302
11
21.5369833
21
1.9491302
0
LINE
8
DEFAULT_255_2_778
10
21.5369833
20
1.9491302
11
21.5551833
21
2.0075302
0
LINE
8
DEFAULT_255_2_778
10
21.5551833
20
2.0075302
11
21.5718833
21
2.0737302
0
LINE
8
DEFAULT_255_2_778
10
21.5718833
20
2.0737302
11
21.5848833
21
2.1406302
0
LINE
8
DEFAULT_255_2_778
10
21.5848833
20
2.1406302
11
21.5901833
21
2.1742302
0
LINE
8
DEFAULT_255_2_778
10
21.5901833
20
2.1742302
11
21.5948833
21
2.2113302
0
LINE
8
DEFAULT_255_2_778
10
21.5948833
20
2.2113302
11
21.5985833
21
2.2483302
0
LINE
8
DEFAULT_255_2_778
10
21.5985833
20
2.2483302
11
21.6014833
21
2.2853302
0
LINE
8
DEFAULT_255_2_778
10
21.6014833
20
2.2853302
11
21.6014833
21
2.5071302
0
LINE
8
DEFAULT_255_2_778
10
21.6014833
20
2.5071302
11
21.5985833
21
2.5436302
0
LINE
8
DEFAULT_255_2_778
10
21.5985833
20
2.5436302
11
21.5948833
21
2.5801302
0
LINE
8
DEFAULT_255_2_778
10
21.5948833
20
2.5801302
11
21.5901833
21
2.6166302
0
LINE
8
DEFAULT_255_2_778
10
21.5901833
20
2.6166302
11
21.5787833
21
2.6827302
0
LINE
8
DEFAULT_255_2_778
10
21.5787833
20
2.6827302
11
21.5636833
21
2.7481302
0
LINE
8
DEFAULT_255_2_778
10
21.5636833
20
2.7481302
11
21.5448833
21
2.8124302
0
LINE
8
DEFAULT_255_2_778
10
21.5448833
20
2.8124302
11
21.5168833
21
2.8881302
0
LINE
8
DEFAULT_255_2_778
10
21.5168833
20
2.8881302
11
21.4824833
21
2.9611302
0
LINE
8
DEFAULT_255_2_778
10
21.4824833
20
2.9611302
11
21.4215833
21
3.0598302
0
LINE
8
DEFAULT_255_2_778
10
21.4215833
20
3.0598302
11
21.3641833
21
3.1275302
0
LINE
8
DEFAULT_255_2_778
10
21.3641833
20
3.1275302
11
21.2853833
21
3.1921302
0
LINE
8
DEFAULT_255_2_778
10
21.2853833
20
3.1921302
11
21.1773833
21
3.2445302
0
LINE
8
DEFAULT_255_2_778
10
21.1773833
20
3.2445302
11
21.0358833
21
3.2688302
0
LINE
8
DEFAULT_255_2_778
10
21.0358833
20
3.2688302
11
20.9738833
21
3.2677302
0
LINE
8
DEFAULT_255_2_778
10
20.9757833
20
3.0741302
11
21.1056833
21
3.0635302
0
LINE
8
DEFAULT_255_2_778
10
21.1056833
20
3.0635302
11
21.1979833
21
3.0153302
0
LINE
8
DEFAULT_255_2_778
10
21.1979833
20
3.0153302
11
21.2569833
21
2.9566302
0
LINE
8
DEFAULT_255_2_778
10
21.2569833
20
2.9566302
11
21.3038833
21
2.8838302
0
LINE
8
DEFAULT_255_2_778
10
21.3038833
20
2.8838302
11
21.3366833
21
2.8108302
0
LINE
8
DEFAULT_255_2_778
10
21.3366833
20
2.8108302
11
21.3638833
21
2.7277302
0
LINE
8
DEFAULT_255_2_778
10
21.3638833
20
2.7277302
11
21.3802833
21
2.6579302
0
LINE
8
DEFAULT_255_2_778
10
21.3802833
20
2.6579302
11
21.3890833
21
2.6087302
0
LINE
8
DEFAULT_255_2_778
10
21.3890833
20
2.6087302
11
21.3956833
21
2.5592302
0
LINE
8
DEFAULT_255_2_778
10
21.3956833
20
2.5592302
11
21.3988833
21
2.5264302
0
LINE
8
DEFAULT_255_2_778
10
21.3988833
20
2.5264302
11
21.3988833
21
2.2605302
0
LINE
8
DEFAULT_255_2_778
10
21.3988833
20
2.2605302
11
21.3956833
21
2.2271302
0
LINE
8
DEFAULT_255_2_778
10
21.3956833
20
2.2271302
11
21.3892833
21
2.1769302
0
LINE
8
DEFAULT_255_2_778
10
21.3892833
20
2.1769302
11
21.3808833
21
2.1269302
0
LINE
8
DEFAULT_255_2_778
10
21.3808833
20
2.1269302
11
21.3644833
21
2.0549302
0
LINE
8
DEFAULT_255_2_778
10
21.3644833
20
2.0549302
11
21.3440833
21
1.9885302
0
LINE
8
DEFAULT_255_2_778
10
21.3440833
20
1.9885302
11
21.3051833
21
1.8967302
0
LINE
8
DEFAULT_255_2_778
10
21.3051833
20
1.8967302
11
21.2580833
21
1.8215302
0
LINE
8
DEFAULT_255_2_778
10
21.2580833
20
1.8215302
11
21.1884833
21
1.7527302
0
LINE
8
DEFAULT_255_2_778
10
21.1884833
20
1.7527302
11
21.0934833
21
1.7075302
0
LINE
8
DEFAULT_255_2_778
10
21.0934833
20
1.7075302
11
20.9622833
21
1.7019302
0
LINE
8
DEFAULT_255_2_778
10
20.9622833
20
1.7019302
11
20.8638833
21
1.7377302
0
LINE
8
DEFAULT_255_2_778
10
20.8638833
20
1.7377302
11
20.7831833
21
1.8075302
0
LINE
8
DEFAULT_255_2_778
10
20.7831833
20
1.8075302
11
20.7331833
21
1.8808302
0
LINE
8
DEFAULT_255_2_778
10
20.7331833
20
1.8808302
11
20.7024833
21
1.9448302
0
LINE
8
DEFAULT_255_2_778
10
20.7024833
20
1.9448302
11
20.6783833
21
2.0102302
0
LINE
8
DEFAULT_255_2_778
10
20.6783833
20
2.0102302
11
20.6595833
21
2.0771302
0
LINE
8
DEFAULT_255_2_778
10
20.6595833
20
2.0771302
11
20.6487833
21
2.1266302
0
LINE
8
DEFAULT_255_2_778
10
20.6487833
20
2.1266302
11
20.6402833
21
2.1766302
0
LINE
8
DEFAULT_255_2_778
10
20.6402833
20
2.1766302
11
20.6339833
21
2.2269302
0
LINE
8
DEFAULT_255_2_778
10
20.6339833
20
2.2269302
11
20.6307833
21
2.2602302
0
LINE
8
DEFAULT_255_2_778
10
20.6307833
20
2.2602302
11
20.6307833
21
2.5261302
0
LINE
8
DEFAULT_255_2_778
10
20.6307833
20
2.5261302
11
20.6339833
21
2.5589302
0
LINE
8
DEFAULT_255_2_778
10
20.6339833
20
2.5589302
11
20.6405833
21
2.6084302
0
LINE
8
DEFAULT_255_2_778
10
20.6405833
20
2.6084302
11
20.6492833
21
2.6576302
0
LINE
8
DEFAULT_255_2_778
10
20.6492833
20
2.6576302
11
20.6659833
21
2.7285302
0
LINE
8
DEFAULT_255_2_778
10
20.6659833
20
2.7285302
11
20.6865833
21
2.7939302
0
LINE
8
DEFAULT_255_2_778
10
20.6865833
20
2.7939302
11
20.7257833
21
2.8836302
0
LINE
8
DEFAULT_255_2_778
10
20.7257833
20
2.8836302
11
20.7725833
21
2.9563302
0
LINE
8
DEFAULT_255_2_778
10
20.7725833
20
2.9563302
11
20.8529833
21
3.0304302
0
LINE
8
DEFAULT_255_2_778
10
20.8529833
20
3.0304302
11
20.9622833
21
3.0720302
0
LINE
8
DEFAULT_255_2_778
10
20.9622833
20
3.0720302
11
20.9757833
21
3.0741302
0
LINE
8
DEFAULT_255_2_778
10
22.3663833
20
3.2677302
11
22.2457833
21
3.2445302
0
LINE
8
DEFAULT_255_2_778
10
22.2457833
20
3.2445302
11
22.1377833
21
3.1921302
0
LINE
8
DEFAULT_255_2_778
10
22.1377833
20
3.1921302
11
22.0589833
21
3.1275302
0
LINE
8
DEFAULT_255_2_778
10
22.0589833
20
3.1275302
11
21.9885833
21
3.0418302
0
LINE
8
DEFAULT_255_2_778
10
21.9885833
20
3.0418302
11
21.9494833
21
2.9780302
0
LINE
8
DEFAULT_255_2_778
10
21.9494833
20
2.9780302
11
21.9097833
21
2.8971302
0
LINE
8
DEFAULT_255_2_778
10
21.9097833
20
2.8971302
11
21.8779833
21
2.8127302
0
LINE
8
DEFAULT_255_2_778
10
21.8779833
20
2.8127302
11
21.8591833
21
2.7484302
0
LINE
8
DEFAULT_255_2_778
10
21.8591833
20
2.7484302
11
21.8441833
21
2.6830302
0
LINE
8
DEFAULT_255_2_778
10
21.8441833
20
2.6830302
11
21.8327833
21
2.6169302
0
LINE
8
DEFAULT_255_2_778
10
21.8327833
20
2.6169302
11
21.8279833
21
2.5804302
0
LINE
8
DEFAULT_255_2_778
10
21.8279833
20
2.5804302
11
21.8242833
21
2.5438302
0
LINE
8
DEFAULT_255_2_778
10
21.8242833
20
2.5438302
11
21.8213833
21
2.5073302
0
LINE
8
DEFAULT_255_2_778
10
21.8213833
20
2.5073302
11
21.8213833
21
2.2853302
0
LINE
8
DEFAULT_255_2_778
10
21.8213833
20
2.2853302
11
21.8242833
21
2.2480302
0
LINE
8
DEFAULT_255_2_778
10
21.8242833
20
2.2480302
11
21.8279833
21
2.2110302
0
LINE
8
DEFAULT_255_2_778
10
21.8279833
20
2.2110302
11
21.8327833
21
2.1740302
0
LINE
8
DEFAULT_255_2_778
10
21.8327833
20
2.1740302
11
21.8438833
21
2.1068302
0
LINE
8
DEFAULT_255_2_778
10
21.8438833
20
2.1068302
11
21.8586833
21
2.0403302
0
LINE
8
DEFAULT_255_2_778
10
21.8586833
20
2.0403302
11
21.8771833
21
1.9747302
0
LINE
8
DEFAULT_255_2_778
10
21.8771833
20
1.9747302
11
21.9046833
21
1.8980302
0
LINE
8
DEFAULT_255_2_778
10
21.9046833
20
1.8980302
11
21.9385833
21
1.8236302
0
LINE
8
DEFAULT_255_2_778
10
21.9385833
20
1.8236302
11
21.9864833
21
1.7411302
0
LINE
8
DEFAULT_255_2_778
10
21.9864833
20
1.7411302
11
22.0417833
21
1.6689302
0
LINE
8
DEFAULT_255_2_778
10
22.0417833
20
1.6689302
11
22.1197833
21
1.5972302
0
LINE
8
DEFAULT_255_2_778
10
22.1197833
20
1.5972302
11
22.2253833
21
1.5382302
0
LINE
8
DEFAULT_255_2_778
10
22.2253833
20
1.5382302
11
22.3661833
21
1.5069302
0
LINE
8
DEFAULT_255_2_778
10
22.3661833
20
1.5069302
11
22.5108833
21
1.5151302
0
LINE
8
DEFAULT_255_2_778
10
22.5108833
20
1.5151302
11
22.6270833
21
1.5546302
0
LINE
8
DEFAULT_255_2_778
10
22.6270833
20
1.5546302
11
22.7272833
21
1.6226302
0
LINE
8
DEFAULT_255_2_778
10
22.7272833
20
1.6226302
11
22.8026833
21
1.7038302
0
LINE
8
DEFAULT_255_2_778
10
22.8026833
20
1.7038302
11
22.8638833
21
1.7993302
0
LINE
8
DEFAULT_255_2_778
10
22.8638833
20
1.7993302
11
22.8997833
21
1.8729302
0
LINE
8
DEFAULT_255_2_778
10
22.8997833
20
1.8729302
11
22.9294833
21
1.9491302
0
LINE
8
DEFAULT_255_2_778
10
22.9294833
20
1.9491302
11
22.9476833
21
2.0075302
0
LINE
8
DEFAULT_255_2_778
10
22.9476833
20
2.0075302
11
22.9643833
21
2.0737302
0
LINE
8
DEFAULT_255_2_778
10
22.9643833
20
2.0737302
11
22.9773833
21
2.1406302
0
LINE
8
DEFAULT_255_2_778
10
22.9773833
20
2.1406302
11
22.9826833
21
2.1742302
0
LINE
8
DEFAULT_255_2_778
10
22.9826833
20
2.1742302
11
22.9873833
21
2.2113302
0
LINE
8
DEFAULT_255_2_778
10
22.9873833
20
2.2113302
11
22.9910833
21
2.2483302
0
LINE
8
DEFAULT_255_2_778
10
22.9910833
20
2.2483302
11
22.9939833
21
2.2853302
0
LINE
8
DEFAULT_255_2_778
10
22.9939833
20
2.2853302
11
22.9939833
21
2.5071302
0
LINE
8
DEFAULT_255_2_778
10
22.9939833
20
2.5071302
11
22.9910833
21
2.5436302
0
LINE
8
DEFAULT_255_2_778
10
22.9910833
20
2.5436302
11
22.9873833
21
2.5801302
0
LINE
8
DEFAULT_255_2_778
10
22.9873833
20
2.5801302
11
22.9826833
21
2.6166302
0
LINE
8
DEFAULT_255_2_778
10
22.9826833
20
2.6166302
11
22.9712833
21
2.6827302
0
LINE
8
DEFAULT_255_2_778
10
22.9712833
20
2.6827302
11
22.9561833
21
2.7481302
0
LINE
8
DEFAULT_255_2_778
10
22.9561833
20
2.7481302
11
22.9373833
21
2.8124302
0
LINE
8
DEFAULT_255_2_778
10
22.9373833
20
2.8124302
11
22.9093833
21
2.8881302
0
LINE
8
DEFAULT_255_2_778
10
22.9093833
20
2.8881302
11
22.8749833
21
2.9611302
0
LINE
8
DEFAULT_255_2_778
10
22.8749833
20
2.9611302
11
22.8140833
21
3.0598302
0
LINE
8
DEFAULT_255_2_778
10
22.8140833
20
3.0598302
11
22.7566833
21
3.1275302
0
LINE
8
DEFAULT_255_2_778
10
22.7566833
20
3.1275302
11
22.6778833
21
3.1921302
0
LINE
8
DEFAULT_255_2_778
10
22.6778833
20
3.1921302
11
22.5698833
21
3.2445302
0
LINE
8
DEFAULT_255_2_778
10
22.5698833
20
3.2445302
11
22.4283833
21
3.2688302
0
LINE
8
DEFAULT_255_2_778
10
22.4283833
20
3.2688302
11
22.3663833
21
3.2677302
0
LINE
8
DEFAULT_255_2_778
10
22.3682833
20
3.0741302
11
22.4981833
21
3.0635302
0
LINE
8
DEFAULT_255_2_778
10
22.4981833
20
3.0635302
11
22.5904833
21
3.0153302
0
LINE
8
DEFAULT_255_2_778
10
22.5904833
20
3.0153302
11
22.6494833
21
2.9566302
0
LINE
8
DEFAULT_255_2_778
10
22.6494833
20
2.9566302
11
22.6963833
21
2.8838302
0
LINE
8
DEFAULT_255_2_778
10
22.6963833
20
2.8838302
11
22.7291833
21
2.8108302
0
LINE
8
DEFAULT_255_2_778
10
22.7291833
20
2.8108302
11
22.7563833
21
2.7277302
0
LINE
8
DEFAULT_255_2_778
10
22.7563833
20
2.7277302
11
22.7727833
21
2.6579302
0
LINE
8
DEFAULT_255_2_778
10
22.7727833
20
2.6579302
11
22.7815833
21
2.6087302
0
LINE
8
DEFAULT_255_2_778
10
22.7815833
20
2.6087302
11
22.7881833
21
2.5592302
0
LINE
8
DEFAULT_255_2_778
10
22.7881833
20
2.5592302
11
22.7913833
21
2.5264302
0
LINE
8
DEFAULT_255_2_778
10
22.7913833
20
2.5264302
11
22.7913833
21
2.2605302
0
LINE
8
DEFAULT_255_2_778
10
22.7913833
20
2.2605302
11
22.7881833
21
2.2271302
0
LINE
8
DEFAULT_255_2_778
10
22.7881833
20
2.2271302
11
22.7817833
21
2.1769302
0
LINE
8
DEFAULT_255_2_778
10
22.7817833
20
2.1769302
11
22.7733833
21
2.1269302
0
LINE
8
DEFAULT_255_2_778
10
22.7733833
20
2.1269302
11
22.7569833
21
2.0549302
0
LINE
8
DEFAULT_255_2_778
10
22.7569833
20
2.0549302
11
22.7365833
21
1.9885302
0
LINE
8
DEFAULT_255_2_778
10
22.7365833
20
1.9885302
11
22.6976833
21
1.8967302
0
LINE
8
DEFAULT_255_2_778
10
22.6976833
20
1.8967302
11
22.6505833
21
1.8215302
0
LINE
8
DEFAULT_255_2_778
10
22.6505833
20
1.8215302
11
22.5809833
21
1.7527302
0
LINE
8
DEFAULT_255_2_778
10
22.5809833
20
1.7527302
11
22.4859833
21
1.7075302
0
LINE
8
DEFAULT_255_2_778
10
22.4859833
20
1.7075302
11
22.3547833
21
1.7019302
0
LINE
8
DEFAULT_255_2_778
10
22.3547833
20
1.7019302
11
22.2563833
21
1.7377302
0
LINE
8
DEFAULT_255_2_778
10
22.2563833
20
1.7377302
11
22.1756833
21
1.8075302
0
LINE
8
DEFAULT_255_2_778
10
22.1756833
20
1.8075302
11
22.1256833
21
1.8808302
0
LINE
8
DEFAULT_255_2_778
10
22.1256833
20
1.8808302
11
22.0949833
21
1.9448302
0
LINE
8
DEFAULT_255_2_778
10
22.0949833
20
1.9448302
11
22.0708833
21
2.0102302
0
LINE
8
DEFAULT_255_2_778
10
22.0708833
20
2.0102302
11
22.0520833
21
2.0771302
0
LINE
8
DEFAULT_255_2_778
10
22.0520833
20
2.0771302
11
22.0412833
21
2.1266302
0
LINE
8
DEFAULT_255_2_778
10
22.0412833
20
2.1266302
11
22.0327833
21
2.1766302
0
LINE
8
DEFAULT_255_2_778
10
22.0327833
20
2.1766302
11
22.0264833
21
2.2269302
0
LINE
8
DEFAULT_255_2_778
10
22.0264833
20
2.2269302
11
22.0232833
21
2.2602302
0
LINE
8
DEFAULT_255_2_778
10
22.0232833
20
2.2602302
11
22.0232833
21
2.5261302
0
LINE
8
DEFAULT_255_2_778
10
22.0232833
20
2.5261302
11
22.0264833
21
2.5589302
0
LINE
8
DEFAULT_255_2_778
10
22.0264833
20
2.5589302
11
22.0330833
21
2.6084302
0
LINE
8
DEFAULT_255_2_778
10
22.0330833
20
2.6084302
11
22.0417833
21
2.6576302
0
LINE
8
DEFAULT_255_2_778
10
22.0417833
20
2.6576302
11
22.0584833
21
2.7285302
0
LINE
8
DEFAULT_255_2_778
10
22.0584833
20
2.7285302
11
22.0790833
21
2.7939302
0
LINE
8
DEFAULT_255_2_778
10
22.0790833
20
2.7939302
11
22.1182833
21
2.8836302
0
LINE
8
DEFAULT_255_2_778
10
22.1182833
20
2.8836302
11
22.1650833
21
2.9563302
0
LINE
8
DEFAULT_255_2_778
10
22.1650833
20
2.9563302
11
22.2454833
21
3.0304302
0
LINE
8
DEFAULT_255_2_778
10
22.2454833
20
3.0304302
11
22.3547833
21
3.0720302
0
LINE
8
DEFAULT_255_2_778
10
22.3547833
20
3.0720302
11
22.3682833
21
3.0741302
0
LINE
8
DEFAULT_255_2_778
10
24.4959833
20
3.2677302
11
24.3753833
21
3.2445302
0
LINE
8
DEFAULT_255_2_778
10
24.3753833
20
3.2445302
11
24.2673833
21
3.1921302
0
LINE
8
DEFAULT_255_2_778
10
24.2673833
20
3.1921302
11
24.1885833
21
3.1275302
0
LINE
8
DEFAULT_255_2_778
10
24.1885833
20
3.1275302
11
24.1181833
21
3.0418302
0
LINE
8
DEFAULT_255_2_778
10
24.1181833
20
3.0418302
11
24.0790833
21
2.9780302
0
LINE
8
DEFAULT_255_2_778
10
24.0790833
20
2.9780302
11
24.0393833
21
2.8971302
0
LINE
8
DEFAULT_255_2_778
10
24.0393833
20
2.8971302
11
24.0075833
21
2.8127302
0
LINE
8
DEFAULT_255_2_778
10
24.0075833
20
2.8127302
11
23.9887833
21
2.7484302
0
LINE
8
DEFAULT_255_2_778
10
23.9887833
20
2.7484302
11
23.9737833
21
2.6830302
0
LINE
8
DEFAULT_255_2_778
10
23.9737833
20
2.6830302
11
23.9623833
21
2.6169302
0
LINE
8
DEFAULT_255_2_778
10
23.9623833
20
2.6169302
11
23.9575833
21
2.5804302
0
LINE
8
DEFAULT_255_2_778
10
23.9575833
20
2.5804302
11
23.9538833
21
2.5438302
0
LINE
8
DEFAULT_255_2_778
10
23.9538833
20
2.5438302
11
23.9509833
21
2.5073302
0
LINE
8
DEFAULT_255_2_778
10
23.9509833
20
2.5073302
11
23.9509833
21
2.2853302
0
LINE
8
DEFAULT_255_2_778
10
23.9509833
20
2.2853302
11
23.9538833
21
2.2480302
0
LINE
8
DEFAULT_255_2_778
10
23.9538833
20
2.2480302
11
23.9575833
21
2.2110302
0
LINE
8
DEFAULT_255_2_778
10
23.9575833
20
2.2110302
11
23.9623833
21
2.1740302
0
LINE
8
DEFAULT_255_2_778
10
23.9623833
20
2.1740302
11
23.9734833
21
2.1068302
0
LINE
8
DEFAULT_255_2_778
10
23.9734833
20
2.1068302
11
23.9882833
21
2.0403302
0
LINE
8
DEFAULT_255_2_778
10
23.9882833
20
2.0403302
11
24.0067833
21
1.9747302
0
LINE
8
DEFAULT_255_2_778
10
24.0067833
20
1.9747302
11
24.0342833
21
1.8980302
0
LINE
8
DEFAULT_255_2_778
10
24.0342833
20
1.8980302
11
24.0681833
21
1.8236302
0
LINE
8
DEFAULT_255_2_778
10
24.0681833
20
1.8236302
11
24.1160833
21
1.7411302
0
LINE
8
DEFAULT_255_2_778
10
24.1160833
20
1.7411302
11
24.1713833
21
1.6689302
0
LINE
8
DEFAULT_255_2_778
10
24.1713833
20
1.6689302
11
24.2493833
21
1.5972302
0
LINE
8
DEFAULT_255_2_778
10
24.2493833
20
1.5972302
11
24.3549833
21
1.5382302
0
LINE
8
DEFAULT_255_2_778
10
24.3549833
20
1.5382302
11
24.4957833
21
1.5069302
0
LINE
8
DEFAULT_255_2_778
10
24.4957833
20
1.5069302
11
24.6404833
21
1.5151302
0
LINE
8
DEFAULT_255_2_778
10
24.6404833
20
1.5151302
11
24.7566833
21
1.5546302
0
LINE
8
DEFAULT_255_2_778
10
24.7566833
20
1.5546302
11
24.8568833
21
1.6226302
0
LINE
8
DEFAULT_255_2_778
10
24.8568833
20
1.6226302
11
24.9322833
21
1.7038302
0
LINE
8
DEFAULT_255_2_778
10
24.9322833
20
1.7038302
11
24.9934833
21
1.7993302
0
LINE
8
DEFAULT_255_2_778
10
24.9934833
20
1.7993302
11
25.0293833
21
1.8729302
0
LINE
8
DEFAULT_255_2_778
10
25.0293833
20
1.8729302
11
25.0590833
21
1.9491302
0
LINE
8
DEFAULT_255_2_778
10
25.0590833
20
1.9491302
11
25.0772833
21
2.0075302
0
LINE
8
DEFAULT_255_2_778
10
25.0772833
20
2.0075302
11
25.0939833
21
2.0737302
0
LINE
8
DEFAULT_255_2_778
10
25.0939833
20
2.0737302
11
25.1069833
21
2.1406302
0
LINE
8
DEFAULT_255_2_778
10
25.1069833
20
2.1406302
11
25.1122833
21
2.1742302
0
LINE
8
DEFAULT_255_2_778
10
25.1122833
20
2.1742302
11
25.1169833
21
2.2113302
0
LINE
8
DEFAULT_255_2_778
10
25.1169833
20
2.2113302
11
25.1206833
21
2.2483302
0
LINE
8
DEFAULT_255_2_778
10
25.1206833
20
2.2483302
11
25.1235833
21
2.2853302
0
LINE
8
DEFAULT_255_2_778
10
25.1235833
20
2.2853302
11
25.1235833
21
2.5071302
0
LINE
8
DEFAULT_255_2_778
10
25.1235833
20
2.5071302
11
25.1206833
21
2.5436302
0
LINE
8
DEFAULT_255_2_778
10
25.1206833
20
2.5436302
11
25.1169833
21
2.5801302
0
LINE
8
DEFAULT_255_2_778
10
25.1169833
20
2.5801302
11
25.1122833
21
2.6166302
0
LINE
8
DEFAULT_255_2_778
10
25.1122833
20
2.6166302
11
25.1008833
21
2.6827302
0
LINE
8
DEFAULT_255_2_778
10
25.1008833
20
2.6827302
11
25.0857833
21
2.7481302
0
LINE
8
DEFAULT_255_2_778
10
25.0857833
20
2.7481302
11
25.0669833
21
2.8124302
0
LINE
8
DEFAULT_255_2_778
10
25.0669833
20
2.8124302
11
25.0389833
21
2.8881302
0
LINE
8
DEFAULT_255_2_778
10
25.0389833
20
2.8881302
11
25.0045833
21
2.9611302
0
LINE
8
DEFAULT_255_2_778
10
25.0045833
20
2.9611302
11
24.9436833
21
3.0598302
0
LINE
8
DEFAULT_255_2_778
10
24.9436833
20
3.0598302
11
24.8862833
21
3.1275302
0
LINE
8
DEFAULT_255_2_778
10
24.8862833
20
3.1275302
11
24.8074833
21
3.1921302
0
LINE
8
DEFAULT_255_2_778
10
24.8074833
20
3.1921302
11
24.6994833
21
3.2445302
0
LINE
8
DEFAULT_255_2_778
10
24.6994833
20
3.2445302
11
24.5579833
21
3.2688302
0
LINE
8
DEFAULT_255_2_778
10
24.5579833
20
3.2688302
11
24.4959833
21
3.2677302
0
LINE
8
DEFAULT_255_2_778
10
24.4978833
20
3.0741302
11
24.6277833
21
3.0635302
0
LINE
8
DEFAULT_255_2_778
10
24.6277833
20
3.0635302
11
24.7200833
21
3.0153302
0
LINE
8
DEFAULT_255_2_778
10
24.7200833
20
3.0153302
11
24.7790833
21
2.9566302
0
LINE
8
DEFAULT_255_2_778
10
24.7790833
20
2.9566302
11
24.8259833
21
2.8838302
0
LINE
8
DEFAULT_255_2_778
10
24.8259833
20
2.8838302
11
24.8587833
21
2.8108302
0
LINE
8
DEFAULT_255_2_778
10
24.8587833
20
2.8108302
11
24.8859833
21
2.7277302
0
LINE
8
DEFAULT_255_2_778
10
24.8859833
20
2.7277302
11
24.9023833
21
2.6579302
0
LINE
8
DEFAULT_255_2_778
10
24.9023833
20
2.6579302
11
24.9111833
21
2.6087302
0
LINE
8
DEFAULT_255_2_778
10
24.9111833
20
2.6087302
11
24.9177833
21
2.5592302
0
LINE
8
DEFAULT_255_2_778
10
24.9177833
20
2.5592302
11
24.9209833
21
2.5264302
0
LINE
8
DEFAULT_255_2_778
10
24.9209833
20
2.5264302
11
24.9209833
21
2.2605302
0
LINE
8
DEFAULT_255_2_778
10
24.9209833
20
2.2605302
11
24.9177833
21
2.2271302
0
LINE
8
DEFAULT_255_2_778
10
24.9177833
20
2.2271302
11
24.9113833
21
2.1769302
0
LINE
8
DEFAULT_255_2_778
10
24.9113833
20
2.1769302
11
24.9029833
21
2.1269302
0
LINE
8
DEFAULT_255_2_778
10
24.9029833
20
2.1269302
11
24.8865833
21
2.0549302
0
LINE
8
DEFAULT_255_2_778
10
24.8865833
20
2.0549302
11
24.8661833
21
1.9885302
0
LINE
8
DEFAULT_255_2_778
10
24.8661833
20
1.9885302
11
24.8272833
21
1.8967302
0
LINE
8
DEFAULT_255_2_778
10
24.8272833
20
1.8967302
11
24.7801833
21
1.8215302
0
LINE
8
DEFAULT_255_2_778
10
24.7801833
20
1.8215302
11
24.7105833
21
1.7527302
0
LINE
8
DEFAULT_255_2_778
10
24.7105833
20
1.7527302
11
24.6155833
21
1.7075302
0
LINE
8
DEFAULT_255_2_778
10
24.6155833
20
1.7075302
11
24.4843833
21
1.7019302
0
LINE
8
DEFAULT_255_2_778
10
24.4843833
20
1.7019302
11
24.3859833
21
1.7377302
0
LINE
8
DEFAULT_255_2_778
10
24.3859833
20
1.7377302
11
24.3052833
21
1.8075302
0
LINE
8
DEFAULT_255_2_778
10
24.3052833
20
1.8075302
11
24.2552833
21
1.8808302
0
LINE
8
DEFAULT_255_2_778
10
24.2552833
20
1.8808302
11
24.2245833
21
1.9448302
0
LINE
8
DEFAULT_255_2_778
10
24.2245833
20
1.9448302
11
24.2004833
21
2.0102302
0
LINE
8
DEFAULT_255_2_778
10
24.2004833
20
2.0102302
11
24.1816833
21
2.0771302
0
LINE
8
DEFAULT_255_2_778
10
24.1816833
20
2.0771302
11
24.1708833
21
2.1266302
0
LINE
8
DEFAULT_255_2_778
10
24.1708833
20
2.1266302
11
24.1623833
21
2.1766302
0
LINE
8
DEFAULT_255_2_778
10
24.1623833
20
2.1766302
11
24.1560833
21
2.2269302
0
LINE
8
DEFAULT_255_2_778
10
24.1560833
20
2.2269302
11
24.1528833
21
2.2602302
0
LINE
8
DEFAULT_255_2_778
10
24.1528833
20
2.2602302
11
24.1528833
21
2.5261302
0
LINE
8
DEFAULT_255_2_778
10
24.1528833
20
2.5261302
11
24.1560833
21
2.5589302
0
LINE
8
DEFAULT_255_2_778
10
24.1560833
20
2.5589302
11
24.1626833
21
2.6084302
0
LINE
8
DEFAULT_255_2_778
10
24.1626833
20
2.6084302
11
24.1713833
21
2.6576302
0
LINE
8
DEFAULT_255_2_778
10
24.1713833
20
2.6576302
11
24.1880833
21
2.7285302
0
LINE
8
DEFAULT_255_2_778
10
24.1880833
20
2.7285302
11
24.2086833
21
2.7939302
0
LINE
8
DEFAULT_255_2_778
10
24.2086833
20
2.7939302
11
24.2478833
21
2.8836302
0
LINE
8
DEFAULT_255_2_778
10
24.2478833
20
2.8836302
11
24.2946833
21
2.9563302
0
LINE
8
DEFAULT_255_2_778
10
24.2946833
20
2.9563302
11
24.3750833
21
3.0304302
0
LINE
8
DEFAULT_255_2_778
10
24.3750833
20
3.0304302
11
24.4843833
21
3.0720302
0
LINE
8
DEFAULT_255_2_778
10
24.4843833
20
3.0720302
11
24.4978833
21
3.0741302
0
LINE
8
DEFAULT_255_2_778
10
25.9338136
20
3.2436062
11
26.1637136
21
3.2436062
0
LINE
8
DEFAULT_255_2_778
10
26.1637136
20
3.2436062
11
26.7915136
21
1.5437062
0
LINE
8
DEFAULT_255_2_778
10
26.7915136
20
1.5437062
11
26.5637136
21
1.5437062
0
LINE
8
DEFAULT_255_2_778
10
26.5637136
20
1.5437062
11
26.4097136
21
1.9871062
0
LINE
8
DEFAULT_255_2_778
10
26.4097136
20
1.9871062
11
25.6898136
21
1.9871062
0
LINE
8
DEFAULT_255_2_778
10
25.6898136
20
1.9871062
11
25.5379136
21
1.5437062
0
LINE
8
DEFAULT_255_2_778
10
25.5379136
20
1.5437062
11
25.3059136
21
1.5437062
0
LINE
8
DEFAULT_255_2_778
10
25.3059136
20
1.5437062
11
25.9338136
21
3.2436062
0
LINE
8
DEFAULT_255_2_778
10
25.7570136
20
2.1797062
11
26.3436136
21
2.1797062
0
LINE
8
DEFAULT_255_2_778
10
26.3436136
20
2.1797062
11
26.0496136
21
3.0243062
0
LINE
8
DEFAULT_255_2_778
10
26.0496136
20
3.0243062
11
25.7570136
21
2.1797062
0
LINE
8
DEFAULT_255_2_778
10
27.8184136
20
1.5577062
11
27.6393136
21
1.5434062
0
LINE
8
DEFAULT_255_2_778
10
27.6393136
20
1.5434062
11
27.0656136
21
1.5434062
0
LINE
8
DEFAULT_255_2_778
10
27.0656136
20
1.5434062
11
27.0656136
21
3.2433062
0
LINE
8
DEFAULT_255_2_778
10
27.0656136
20
3.2433062
11
27.7464136
21
3.2309062
0
LINE
8
DEFAULT_255_2_778
10
27.7464136
20
3.2309062
11
27.9512136
21
3.1581062
0
LINE
8
DEFAULT_255_2_778
10
27.9512136
20
3.1581062
11
28.0449136
21
3.0777062
0
LINE
8
DEFAULT_255_2_778
10
28.0449136
20
3.0777062
11
28.0840136
21
3.0145062
0
LINE
8
DEFAULT_255_2_778
10
28.0840136
20
3.0145062
11
28.1055136
21
2.9547062
0
LINE
8
DEFAULT_255_2_778
10
28.1055136
20
2.9547062
11
28.1137136
21
2.9168062
0
LINE
8
DEFAULT_255_2_778
10
28.1137136
20
2.9168062
11
28.1189136
21
2.8782062
0
LINE
8
DEFAULT_255_2_778
10
28.1189136
20
2.8782062
11
28.1179136
21
2.7578062
0
LINE
8
DEFAULT_255_2_778
10
28.1179136
20
2.7578062
11
28.1113136
21
2.7178062
0
LINE
8
DEFAULT_255_2_778
10
28.1113136
20
2.7178062
11
28.0965136
21
2.6663062
0
LINE
8
DEFAULT_255_2_778
10
28.0965136
20
2.6663062
11
28.0637136
21
2.6001062
0
LINE
8
DEFAULT_255_2_778
10
28.0637136
20
2.6001062
11
27.9922136
21
2.5165062
0
LINE
8
DEFAULT_255_2_778
10
27.9922136
20
2.5165062
11
27.8750136
21
2.4472062
0
LINE
8
DEFAULT_255_2_778
10
27.8750136
20
2.4472062
11
27.8515136
21
2.4398062
0
LINE
8
DEFAULT_255_2_778
10
27.8515136
20
2.4398062
11
27.9901136
21
2.3819062
0
LINE
8
DEFAULT_255_2_778
10
27.9901136
20
2.3819062
11
28.0790136
21
2.3070062
0
LINE
8
DEFAULT_255_2_778
10
28.0790136
20
2.3070062
11
28.1261136
21
2.2384062
0
LINE
8
DEFAULT_255_2_778
10
28.1261136
20
2.2384062
11
28.1536136
21
2.1731062
0
LINE
8
DEFAULT_255_2_778
10
28.1536136
20
2.1731062
11
28.1653136
21
2.1305062
0
LINE
8
DEFAULT_255_2_778
10
28.1653136
20
2.1305062
11
28.1711136
21
2.0993062
0
LINE
8
DEFAULT_255_2_778
10
28.1711136
20
2.0993062
11
28.1692136
21
1.8913062
0
LINE
8
DEFAULT_255_2_778
10
28.1692136
20
1.8913062
11
28.1605136
21
1.8500062
0
LINE
8
DEFAULT_255_2_778
10
28.1605136
20
1.8500062
11
28.1430136
21
1.7974062
0
LINE
8
DEFAULT_255_2_778
10
28.1430136
20
1.7974062
11
28.1113136
21
1.7371062
0
LINE
8
DEFAULT_255_2_778
10
28.1113136
20
1.7371062
11
28.0404136
21
1.6585062
0
LINE
8
DEFAULT_255_2_778
10
28.0404136
20
1.6585062
11
27.9385136
21
1.5947062
0
LINE
8
DEFAULT_255_2_778
10
27.9385136
20
1.5947062
11
27.8184136
21
1.5577062
0
LINE
8
DEFAULT_255_2_778
10
27.7332136
20
1.7442062
11
27.6207136
21
1.7363062
0
LINE
8
DEFAULT_255_2_778
10
27.6207136
20
1.7363062
11
27.2749136
21
1.7363062
0
LINE
8
DEFAULT_255_2_778
10
27.2749136
20
1.7363062
11
27.2749136
21
2.3279062
0
LINE
8
DEFAULT_255_2_778
10
27.2749136
20
2.3279062
11
27.7506136
21
2.3112062
0
LINE
8
DEFAULT_255_2_778
10
27.7506136
20
2.3112062
11
27.8996136
21
2.2302062
0
LINE
8
DEFAULT_255_2_778
10
27.8996136
20
2.2302062
11
27.9401136
21
2.1734062
0
LINE
8
DEFAULT_255_2_778
10
27.9401136
20
2.1734062
11
27.9589136
21
2.1202062
0
LINE
8
DEFAULT_255_2_778
10
27.9589136
20
2.1202062
11
27.9658136
21
2.0826062
0
LINE
8
DEFAULT_255_2_778
10
27.9658136
20
2.0826062
11
27.9644136
21
1.9654062
0
LINE
8
DEFAULT_255_2_778
10
27.9644136
20
1.9654062
11
27.9528136
21
1.9143062
0
LINE
8
DEFAULT_255_2_778
10
27.9528136
20
1.9143062
11
27.9282136
21
1.8577062
0
LINE
8
DEFAULT_255_2_778
10
27.9282136
20
1.8577062
11
27.8668136
21
1.7916062
0
LINE
8
DEFAULT_255_2_778
10
27.8668136
20
1.7916062
11
27.7332136
21
1.7442062
0
LINE
8
DEFAULT_255_2_778
10
27.6655136
20
2.5313062
11
27.5726136
21
2.5255062
0
LINE
8
DEFAULT_255_2_778
10
27.5726136
20
2.5255062
11
27.2747136
21
2.5255062
0
LINE
8
DEFAULT_255_2_778
10
27.2747136
20
2.5255062
11
27.2747136
21
3.0507062
0
LINE
8
DEFAULT_255_2_778
10
27.2747136
20
3.0507062
11
27.7229136
21
3.0322062
0
LINE
8
DEFAULT_255_2_778
10
27.7229136
20
3.0322062
11
27.8541136
21
2.9547062
0
LINE
8
DEFAULT_255_2_778
10
27.8541136
20
2.9547062
11
27.8925136
21
2.8944062
0
LINE
8
DEFAULT_255_2_778
10
27.8925136
20
2.8944062
11
27.9065136
21
2.8470062
0
LINE
8
DEFAULT_255_2_778
10
27.9065136
20
2.8470062
11
27.9038136
21
2.7086062
0
LINE
8
DEFAULT_255_2_778
10
27.9038136
20
2.7086062
11
27.8851136
21
2.6581062
0
LINE
8
DEFAULT_255_2_778
10
27.8851136
20
2.6581062
11
27.8052136
21
2.5774062
0
LINE
8
DEFAULT_255_2_778
10
27.8052136
20
2.5774062
11
27.6655136
21
2.5313062
0
LINE
8
DEFAULT_255_2_778
10
28.9187833
20
3.2677302
11
28.7981833
21
3.2445302
0
LINE
8
DEFAULT_255_2_778
10
28.7981833
20
3.2445302
11
28.6901833
21
3.1921302
0
LINE
8
DEFAULT_255_2_778
10
28.6901833
20
3.1921302
11
28.6113833
21
3.1275302
0
LINE
8
DEFAULT_255_2_778
10
28.6113833
20
3.1275302
11
28.5409833
21
3.0418302
0
LINE
8
DEFAULT_255_2_778
10
28.5409833
20
3.0418302
11
28.5018833
21
2.9780302
0
LINE
8
DEFAULT_255_2_778
10
28.5018833
20
2.9780302
11
28.4621833
21
2.8971302
0
LINE
8
DEFAULT_255_2_778
10
28.4621833
20
2.8971302
11
28.4303833
21
2.8127302
0
LINE
8
DEFAULT_255_2_778
10
28.4303833
20
2.8127302
11
28.4115833
21
2.7484302
0
LINE
8
DEFAULT_255_2_778
10
28.4115833
20
2.7484302
11
28.3965833
21
2.6830302
0
LINE
8
DEFAULT_255_2_778
10
28.3965833
20
2.6830302
11
28.3851833
21
2.6169302
0
LINE
8
DEFAULT_255_2_778
10
28.3851833
20
2.6169302
11
28.3803833
21
2.5804302
0
LINE
8
DEFAULT_255_2_778
10
28.3803833
20
2.5804302
11
28.3766833
21
2.5438302
0
LINE
8
DEFAULT_255_2_778
10
28.3766833
20
2.5438302
11
28.3737833
21
2.5073302
0
LINE
8
DEFAULT_255_2_778
10
28.3737833
20
2.5073302
11
28.3737833
21
2.2853302
0
LINE
8
DEFAULT_255_2_778
10
28.3737833
20
2.2853302
11
28.3766833
21
2.2480302
0
LINE
8
DEFAULT_255_2_778
10
28.3766833
20
2.2480302
11
28.3803833
21
2.2110302
0
LINE
8
DEFAULT_255_2_778
10
28.3803833
20
2.2110302
11
28.3851833
21
2.1740302
0
LINE
8
DEFAULT_255_2_778
10
28.3851833
20
2.1740302
11
28.3962833
21
2.1068302
0
LINE
8
DEFAULT_255_2_778
10
28.3962833
20
2.1068302
11
28.4110833
21
2.0403302
0
LINE
8
DEFAULT_255_2_778
10
28.4110833
20
2.0403302
11
28.4295833
21
1.9747302
0
LINE
8
DEFAULT_255_2_778
10
28.4295833
20
1.9747302
11
28.4570833
21
1.8980302
0
LINE
8
DEFAULT_255_2_778
10
28.4570833
20
1.8980302
11
28.4909833
21
1.8236302
0
LINE
8
DEFAULT_255_2_778
10
28.4909833
20
1.8236302
11
28.5388833
21
1.7411302
0
LINE
8
DEFAULT_255_2_778
10
28.5388833
20
1.7411302
11
28.5941833
21
1.6689302
0
LINE
8
DEFAULT_255_2_778
10
28.5941833
20
1.6689302
11
28.6721833
21
1.5972302
0
LINE
8
DEFAULT_255_2_778
10
28.6721833
20
1.5972302
11
28.7777833
21
1.5382302
0
LINE
8
DEFAULT_255_2_778
10
28.7777833
20
1.5382302
11
28.9185833
21
1.5069302
0
LINE
8
DEFAULT_255_2_778
10
28.9185833
20
1.5069302
11
29.0632833
21
1.5151302
0
LINE
8
DEFAULT_255_2_778
10
29.0632833
20
1.5151302
11
29.1794833
21
1.5546302
0
LINE
8
DEFAULT_255_2_778
10
29.1794833
20
1.5546302
11
29.2796833
21
1.6226302
0
LINE
8
DEFAULT_255_2_778
10
29.2796833
20
1.6226302
11
29.3550833
21
1.7038302
0
LINE
8
DEFAULT_255_2_778
10
29.3550833
20
1.7038302
11
29.4162833
21
1.7993302
0
LINE
8
DEFAULT_255_2_778
10
29.4162833
20
1.7993302
11
29.4521833
21
1.8729302
0
LINE
8
DEFAULT_255_2_778
10
29.4521833
20
1.8729302
11
29.4818833
21
1.9491302
0
LINE
8
DEFAULT_255_2_778
10
29.4818833
20
1.9491302
11
29.5000833
21
2.0075302
0
LINE
8
DEFAULT_255_2_778
10
29.5000833
20
2.0075302
11
29.5167833
21
2.0737302
0
LINE
8
DEFAULT_255_2_778
10
29.5167833
20
2.0737302
11
29.5297833
21
2.1406302
0
LINE
8
DEFAULT_255_2_778
10
29.5297833
20
2.1406302
11
29.5350833
21
2.1742302
0
LINE
8
DEFAULT_255_2_778
10
29.5350833
20
2.1742302
11
29.5397833
21
2.2113302
0
LINE
8
DEFAULT_255_2_778
10
29.5397833
20
2.2113302
11
29.5434833
21
2.2483302
0
LINE
8
DEFAULT_255_2_778
10
29.5434833
20
2.2483302
11
29.5463833
21
2.2853302
0
LINE
8
DEFAULT_255_2_778
10
29.5463833
20
2.2853302
11
29.5463833
21
2.5071302
0
LINE
8
DEFAULT_255_2_778
10
29.5463833
20
2.5071302
11
29.5434833
21
2.5436302
0
LINE
8
DEFAULT_255_2_778
10
29.5434833
20
2.5436302
11
29.5397833
21
2.5801302
0
LINE
8
DEFAULT_255_2_778
10
29.5397833
20
2.5801302
11
29.5350833
21
2.6166302
0
LINE
8
DEFAULT_255_2_778
10
29.5350833
20
2.6166302
11
29.5236833
21
2.6827302
0
LINE
8
DEFAULT_255_2_778
10
29.5236833
20
2.6827302
11
29.5085833
21
2.7481302
0
LINE
8
DEFAULT_255_2_778
10
29.5085833
20
2.7481302
11
29.4897833
21
2.8124302
0
LINE
8
DEFAULT_255_2_778
10
29.4897833
20
2.8124302
11
29.4617833
21
2.8881302
0
LINE
8
DEFAULT_255_2_778
10
29.4617833
20
2.8881302
11
29.4273833
21
2.9611302
0
LINE
8
DEFAULT_255_2_778
10
29.4273833
20
2.9611302
11
29.3664833
21
3.0598302
0
LINE
8
DEFAULT_255_2_778
10
29.3664833
20
3.0598302
11
29.3090833
21
3.1275302
0
LINE
8
DEFAULT_255_2_778
10
29.3090833
20
3.1275302
11
29.2302833
21
3.1921302
0
LINE
8
DEFAULT_255_2_778
10
29.2302833
20
3.1921302
11
29.1222833
21
3.2445302
0
LINE
8
DEFAULT_255_2_778
10
29.1222833
20
3.2445302
11
28.9807833
21
3.2688302
0
LINE
8
DEFAULT_255_2_778
10
28.9807833
20
3.2688302
11
28.9187833
21
3.2677302
0
LINE
8
DEFAULT_255_2_778
10
28.9206833
20
3.0741302
11
29.0505833
21
3.0635302
0
LINE
8
DEFAULT_255_2_778
10
29.0505833
20
3.0635302
11
29.1428833
21
3.0153302
0
LINE
8
DEFAULT_255_2_778
10
29.1428833
20
3.0153302
11
29.2018833
21
2.9566302
0
LINE
8
DEFAULT_255_2_778
10
29.2018833
20
2.9566302
11
29.2487833
21
2.8838302
0
LINE
8
DEFAULT_255_2_778
10
29.2487833
20
2.8838302
11
29.2815833
21
2.8108302
0
LINE
8
DEFAULT_255_2_778
10
29.2815833
20
2.8108302
11
29.3087833
21
2.7277302
0
LINE
8
DEFAULT_255_2_778
10
29.3087833
20
2.7277302
11
29.3251833
21
2.6579302
0
LINE
8
DEFAULT_255_2_778
10
29.3251833
20
2.6579302
11
29.3339833
21
2.6087302
0
LINE
8
DEFAULT_255_2_778
10
29.3339833
20
2.6087302
11
29.3405833
21
2.5592302
0
LINE
8
DEFAULT_255_2_778
10
29.3405833
20
2.5592302
11
29.3437833
21
2.5264302
0
LINE
8
DEFAULT_255_2_778
10
29.3437833
20
2.5264302
11
29.3437833
21
2.2605302
0
LINE
8
DEFAULT_255_2_778
10
29.3437833
20
2.2605302
11
29.3405833
21
2.2271302
0
LINE
8
DEFAULT_255_2_778
10
29.3405833
20
2.2271302
11
29.3341833
21
2.1769302
0
LINE
8
DEFAULT_255_2_778
10
29.3341833
20
2.1769302
11
29.3257833
21
2.1269302
0
LINE
8
DEFAULT_255_2_778
10
29.3257833
20
2.1269302
11
29.3092833
21
2.0549302
0
LINE
8
DEFAULT_255_2_778
10
29.3092833
20
2.0549302
11
29.2889833
21
1.9885302
0
LINE
8
DEFAULT_255_2_778
10
29.2889833
20
1.9885302
11
29.2500833
21
1.8967302
0
LINE
8
DEFAULT_255_2_778
10
29.2500833
20
1.8967302
11
29.2029833
21
1.8215302
0
LINE
8
DEFAULT_255_2_778
10
29.2029833
20
1.8215302
11
29.1333833
21
1.7527302
0
LINE
8
DEFAULT_255_2_778
10
29.1333833
20
1.7527302
11
29.0383833
21
1.7075302
0
LINE
8
DEFAULT_255_2_778
10
29.0383833
20
1.7075302
11
28.9071833
21
1.7019302
0
LINE
8
DEFAULT_255_2_778
10
28.9071833
20
1.7019302
11
28.8087833
21
1.7377302
0
LINE
8
DEFAULT_255_2_778
10
28.8087833
20
1.7377302
11
28.7280833
21
1.8075302
0
LINE
8
DEFAULT_255_2_778
10
28.7280833
20
1.8075302
11
28.6780833
21
1.8808302
0
LINE
8
DEFAULT_255_2_778
10
28.6780833
20
1.8808302
11
28.6473833
21
1.9448302
0
LINE
8
DEFAULT_255_2_778
10
28.6473833
20
1.9448302
11
28.6232833
21
2.0102302
0
LINE
8
DEFAULT_255_2_778
10
28.6232833
20
2.0102302
11
28.6044833
21
2.0771302
0
LINE
8
DEFAULT_255_2_778
10
28.6044833
20
2.0771302
11
28.5936833
21
2.1266302
0
LINE
8
DEFAULT_255_2_778
10
28.5936833
20
2.1266302
11
28.5851833
21
2.1766302
0
LINE
8
DEFAULT_255_2_778
10
28.5851833
20
2.1766302
11
28.5788833
21
2.2269302
0
LINE
8
DEFAULT_255_2_778
10
28.5788833
20
2.2269302
11
28.5756833
21
2.2602302
0
LINE
8
DEFAULT_255_2_778
10
28.5756833
20
2.2602302
11
28.5756833
21
2.5261302
0
LINE
8
DEFAULT_255_2_778
10
28.5756833
20
2.5261302
11
28.5788833
21
2.5589302
0
LINE
8
DEFAULT_255_2_778
10
28.5788833
20
2.5589302
11
28.5854833
21
2.6084302
0
LINE
8
DEFAULT_255_2_778
10
28.5854833
20
2.6084302
11
28.5941833
21
2.6576302
0
LINE
8
DEFAULT_255_2_778
10
28.5941833
20
2.6576302
11
28.6108833
21
2.7285302
0
LINE
8
DEFAULT_255_2_778
10
28.6108833
20
2.7285302
11
28.6314833
21
2.7939302
0
LINE
8
DEFAULT_255_2_778
10
28.6314833
20
2.7939302
11
28.6706833
21
2.8836302
0
LINE
8
DEFAULT_255_2_778
10
28.6706833
20
2.8836302
11
28.7174833
21
2.9563302
0
LINE
8
DEFAULT_255_2_778
10
28.7174833
20
2.9563302
11
28.7978833
21
3.0304302
0
LINE
8
DEFAULT_255_2_778
10
28.7978833
20
3.0304302
11
28.9071833
21
3.0720302
0
LINE
8
DEFAULT_255_2_778
10
28.9071833
20
3.0720302
11
28.9206833
21
3.0741302
0
LINE
8
DEFAULT_255_2_778
10
33.8903452
20
49.3874876
11
34.0425452
21
49.3448876
0
LINE
8
DEFAULT_255_2_778
10
34.0425452
20
49.3448876
11
34.1324452
21
49.2768876
0
LINE
8
DEFAULT_255_2_778
10
34.1324452
20
49.2768876
11
34.1891452
21
49.2033876
0
LINE
8
DEFAULT_255_2_778
10
34.1891452
20
49.2033876
11
34.2187452
21
49.1458876
0
LINE
8
DEFAULT_255_2_778
10
34.2187452
20
49.1458876
11
34.2414452
21
49.0807876
0
LINE
8
DEFAULT_255_2_778
10
34.2414452
20
49.0807876
11
34.2531452
21
49.0305876
0
LINE
8
DEFAULT_255_2_778
10
34.2531452
20
49.0305876
11
34.2589452
21
48.9926876
0
LINE
8
DEFAULT_255_2_778
10
34.2589452
20
48.9926876
11
34.2578452
21
48.7958876
0
LINE
8
DEFAULT_255_2_778
10
34.2578452
20
48.7958876
11
34.2510452
21
48.7558876
0
LINE
8
DEFAULT_255_2_778
10
34.2510452
20
48.7558876
11
34.2396452
21
48.7095876
0
LINE
8
DEFAULT_255_2_778
10
34.2396452
20
48.7095876
11
34.2179452
21
48.6497876
0
LINE
8
DEFAULT_255_2_778
10
34.2179452
20
48.6497876
11
34.1727452
21
48.5709876
0
LINE
8
DEFAULT_255_2_778
10
34.1727452
20
48.5709876
11
34.0978452
21
48.4905876
0
LINE
8
DEFAULT_255_2_778
10
34.0978452
20
48.4905876
11
33.9938452
21
48.4288876
0
LINE
8
DEFAULT_255_2_778
10
33.9938452
20
48.4288876
11
33.8303452
21
48.3947876
0
LINE
8
DEFAULT_255_2_778
10
33.8303452
20
48.3947876
11
33.6432452
21
48.4140876
0
LINE
8
DEFAULT_255_2_778
10
33.6432452
20
48.4140876
11
33.5295452
21
48.4661876
0
LINE
8
DEFAULT_255_2_778
10
33.5295452
20
48.4661876
11
33.4379452
21
48.5489876
0
LINE
8
DEFAULT_255_2_778
10
33.4379452
20
48.5489876
11
33.3879452
21
48.6243876
0
LINE
8
DEFAULT_255_2_778
10
33.3879452
20
48.6243876
11
33.3625452
21
48.6815876
0
LINE
8
DEFAULT_255_2_778
10
33.3625452
20
48.6815876
11
33.3445452
21
48.7423876
0
LINE
8
DEFAULT_255_2_778
10
33.3445452
20
48.7423876
11
33.3374452
21
48.7775876
0
LINE
8
DEFAULT_255_2_778
10
33.3374452
20
48.7775876
11
33.3318452
21
48.8172876
0
LINE
8
DEFAULT_255_2_778
10
33.3318452
20
48.8172876
11
33.3337452
21
48.9874876
0
LINE
8
DEFAULT_255_2_778
10
33.3337452
20
48.9874876
11
33.3397452
21
49.0228876
0
LINE
8
DEFAULT_255_2_778
10
33.3397452
20
49.0228876
11
33.3524452
21
49.0718876
0
LINE
8
DEFAULT_255_2_778
10
33.3524452
20
49.0718876
11
33.3763452
21
49.1326876
0
LINE
8
DEFAULT_255_2_778
10
33.3763452
20
49.1326876
11
33.4178452
21
49.2014876
0
LINE
8
DEFAULT_255_2_778
10
33.4178452
20
49.2014876
11
33.4951452
21
49.2813876
0
LINE
8
DEFAULT_255_2_778
10
33.4951452
20
49.2813876
11
33.6191452
21
49.3525876
0
LINE
8
DEFAULT_255_2_778
10
33.6191452
20
49.3525876
11
33.8059452
21
49.3895876
0
LINE
8
DEFAULT_255_2_778
10
33.8059452
20
49.3895876
11
33.8903452
21
49.3874876
0
LINE
8
DEFAULT_255_2_778
10
34.0025452
20
50.4158876
11
33.7710452
21
50.4232876
0
LINE
8
DEFAULT_255_2_778
10
33.7710452
20
50.4232876
11
33.6157452
21
50.3968876
0
LINE
8
DEFAULT_255_2_778
10
33.6157452
20
50.3968876
11
33.4763452
21
50.3418876
0
LINE
8
DEFAULT_255_2_778
10
33.4763452
20
50.3418876
11
33.3548452
21
50.2603876
0
LINE
8
DEFAULT_255_2_778
10
33.3548452
20
50.2603876
11
33.2641452
21
50.1687876
0
LINE
8
DEFAULT_255_2_778
10
33.2641452
20
50.1687876
11
33.1884452
21
50.0618876
0
LINE
8
DEFAULT_255_2_778
10
33.1884452
20
50.0618876
11
33.1339452
21
49.9594876
0
LINE
8
DEFAULT_255_2_778
10
33.1339452
20
49.9594876
11
33.0971452
21
49.8719876
0
LINE
8
DEFAULT_255_2_778
10
33.0971452
20
49.8719876
11
33.0670452
21
49.7816876
0
LINE
8
DEFAULT_255_2_778
10
33.0670452
20
49.7816876
11
33.0461452
21
49.7033876
0
LINE
8
DEFAULT_255_2_778
10
33.0461452
20
49.7033876
11
33.0289452
21
49.6242876
0
LINE
8
DEFAULT_255_2_778
10
33.0289452
20
49.6242876
11
33.0154452
21
49.5443876
0
LINE
8
DEFAULT_255_2_778
10
33.0154452
20
49.5443876
11
33.0098452
21
49.5041876
0
LINE
8
DEFAULT_255_2_778
10
33.0098452
20
49.5041876
11
33.0045452
21
49.4586876
0
LINE
8
DEFAULT_255_2_778
10
33.0045452
20
49.4586876
11
33.0000452
21
49.4128876
0
LINE
8
DEFAULT_255_2_778
10
33.0000452
20
49.4128876
11
32.9966452
21
49.3670876
0
LINE
8
DEFAULT_255_2_778
10
32.9966452
20
49.3670876
11
32.9966452
21
49.0244876
0
LINE
8
DEFAULT_255_2_778
10
32.9966452
20
49.0244876
11
32.9998452
21
48.9847876
0
LINE
8
DEFAULT_255_2_778
10
32.9998452
20
48.9847876
11
33.0040452
21
48.9450876
0
LINE
8
DEFAULT_255_2_778
10
33.0040452
20
48.9450876
11
33.0090452
21
48.9056876
0
LINE
8
DEFAULT_255_2_778
10
33.0090452
20
48.9056876
11
33.0201452
21
48.8368876
0
LINE
8
DEFAULT_255_2_778
10
33.0201452
20
48.8368876
11
33.0344452
21
48.7685876
0
LINE
8
DEFAULT_255_2_778
10
33.0344452
20
48.7685876
11
33.0524452
21
48.7013876
0
LINE
8
DEFAULT_255_2_778
10
33.0524452
20
48.7013876
11
33.0812452
21
48.6172876
0
LINE
8
DEFAULT_255_2_778
10
33.0812452
20
48.6172876
11
33.1138452
21
48.5426876
0
LINE
8
DEFAULT_255_2_778
10
33.1138452
20
48.5426876
11
33.1659452
21
48.4508876
0
LINE
8
DEFAULT_255_2_778
10
33.1659452
20
48.4508876
11
33.2400452
21
48.3553876
0
LINE
8
DEFAULT_255_2_778
10
33.2400452
20
48.3553876
11
33.3292452
21
48.2751876
0
LINE
8
DEFAULT_255_2_778
10
33.3292452
20
48.2751876
11
33.4511452
21
48.2050876
0
LINE
8
DEFAULT_255_2_778
10
33.4511452
20
48.2050876
11
33.5922452
21
48.1611876
0
LINE
8
DEFAULT_255_2_778
10
33.5922452
20
48.1611876
11
33.8001452
21
48.1441876
0
LINE
8
DEFAULT_255_2_778
10
33.8001452
20
48.1441876
11
34.0179452
21
48.1719876
0
LINE
8
DEFAULT_255_2_778
10
34.0179452
20
48.1719876
11
34.1602452
21
48.2222876
0
LINE
8
DEFAULT_255_2_778
10
34.1602452
20
48.2222876
11
34.2851452
21
48.2978876
0
LINE
8
DEFAULT_255_2_778
10
34.2851452
20
48.2978876
11
34.3743452
21
48.3793876
0
LINE
8
DEFAULT_255_2_778
10
34.3743452
20
48.3793876
11
34.4335452
21
48.4550876
0
LINE
8
DEFAULT_255_2_778
10
34.4335452
20
48.4550876
11
34.4706452
21
48.5177876
0
LINE
8
DEFAULT_255_2_778
10
34.4706452
20
48.5177876
11
34.5007452
21
48.5857876
0
LINE
8
DEFAULT_255_2_778
10
34.5007452
20
48.5857876
11
34.5169452
21
48.6328876
0
LINE
8
DEFAULT_255_2_778
10
34.5169452
20
48.6328876
11
34.5298452
21
48.6807876
0
LINE
8
DEFAULT_255_2_778
10
34.5298452
20
48.6807876
11
34.5407452
21
48.7347876
0
LINE
8
DEFAULT_255_2_778
10
34.5407452
20
48.7347876
11
34.5386452
21
49.0778876
0
LINE
8
DEFAULT_255_2_778
10
34.5386452
20
49.0778876
11
34.5285452
21
49.1257876
0
LINE
8
DEFAULT_255_2_778
10
34.5285452
20
49.1257876
11
34.5092452
21
49.1927876
0
LINE
8
DEFAULT_255_2_778
10
34.5092452
20
49.1927876
11
34.4838452
21
49.2575876
0
LINE
8
DEFAULT_255_2_778
10
34.4838452
20
49.2575876
11
34.4346452
21
49.3474876
0
LINE
8
DEFAULT_255_2_778
10
34.4346452
20
49.3474876
11
34.3605452
21
49.4414876
0
LINE
8
DEFAULT_255_2_778
10
34.3605452
20
49.4414876
11
34.2687452
21
49.5218876
0
LINE
8
DEFAULT_255_2_778
10
34.2687452
20
49.5218876
11
34.1433452
21
49.5895876
0
LINE
8
DEFAULT_255_2_778
10
34.1433452
20
49.5895876
11
33.9777452
21
49.6319876
0
LINE
8
DEFAULT_255_2_778
10
33.9777452
20
49.6319876
11
33.7797452
21
49.6332876
0
LINE
8
DEFAULT_255_2_778
10
33.7797452
20
49.6332876
11
33.6139452
21
49.5917876
0
LINE
8
DEFAULT_255_2_778
10
33.6139452
20
49.5917876
11
33.4831452
21
49.5208876
0
LINE
8
DEFAULT_255_2_778
10
33.4831452
20
49.5208876
11
33.3651452
21
49.4181876
0
LINE
8
DEFAULT_255_2_778
10
33.3651452
20
49.4181876
11
33.2897452
21
49.3250876
0
LINE
8
DEFAULT_255_2_778
10
33.2897452
20
49.3250876
11
33.2799452
21
49.3096876
0
LINE
8
DEFAULT_255_2_778
10
33.2799452
20
49.3096876
11
33.2829452
21
49.3459876
0
LINE
8
DEFAULT_255_2_778
10
33.2829452
20
49.3459876
11
33.2860452
21
49.3821876
0
LINE
8
DEFAULT_255_2_778
10
33.2860452
20
49.3821876
11
33.2942452
21
49.4543876
0
LINE
8
DEFAULT_255_2_778
10
33.2942452
20
49.4543876
11
33.3048452
21
49.5263876
0
LINE
8
DEFAULT_255_2_778
10
33.3048452
20
49.5263876
11
33.3165452
21
49.5895876
0
LINE
8
DEFAULT_255_2_778
10
33.3165452
20
49.5895876
11
33.3307452
21
49.6522876
0
LINE
8
DEFAULT_255_2_778
10
33.3307452
20
49.6522876
11
33.3551452
21
49.7377876
0
LINE
8
DEFAULT_255_2_778
10
33.3551452
20
49.7377876
11
33.3890452
21
49.8295876
0
LINE
8
DEFAULT_255_2_778
10
33.3890452
20
49.8295876
11
33.4450452
21
49.9406876
0
LINE
8
DEFAULT_255_2_778
10
33.4450452
20
49.9406876
11
33.5117452
21
50.0319876
0
LINE
8
DEFAULT_255_2_778
10
33.5117452
20
50.0319876
11
33.6184452
21
50.1214876
0
LINE
8
DEFAULT_255_2_778
10
33.6184452
20
50.1214876
11
33.7348452
21
50.1692876
0
LINE
8
DEFAULT_255_2_778
10
33.7348452
20
50.1692876
11
33.9028452
21
50.1809876
0
LINE
8
DEFAULT_255_2_778
10
33.9028452
20
50.1809876
11
34.0287452
21
50.1513876
0
LINE
8
DEFAULT_255_2_778
10
34.0287452
20
50.1513876
11
34.1248452
21
50.0888876
0
LINE
8
DEFAULT_255_2_778
10
34.1248452
20
50.0888876
11
34.1727452
21
50.0295876
0
LINE
8
DEFAULT_255_2_778
10
34.1727452
20
50.0295876
11
34.1954452
21
49.9824876
0
LINE
8
DEFAULT_255_2_778
10
34.1954452
20
49.9824876
11
34.2070452
21
49.9449876
0
LINE
8
DEFAULT_255_2_778
10
34.2070452
20
49.9449876
11
34.2129452
21
49.9160876
0
LINE
8
DEFAULT_255_2_778
10
34.2129452
20
49.9160876
11
34.2166452
21
49.8869876
0
LINE
8
DEFAULT_255_2_778
10
34.2166452
20
49.8869876
11
34.2184452
21
49.8433876
0
LINE
8
DEFAULT_255_2_778
10
34.2184452
20
49.8433876
11
34.5068452
21
49.8433876
0
LINE
8
DEFAULT_255_2_778
10
34.5068452
20
49.8433876
11
34.5055452
21
49.8941876
0
LINE
8
DEFAULT_255_2_778
10
34.5055452
20
49.8941876
11
34.5036452
21
49.9195876
0
LINE
8
DEFAULT_255_2_778
10
34.5036452
20
49.9195876
11
34.5007452
21
49.9449876
0
LINE
8
DEFAULT_255_2_778
10
34.5007452
20
49.9449876
11
34.4968452
21
49.9703876
0
LINE
8
DEFAULT_255_2_778
10
34.4968452
20
49.9703876
11
34.4859452
21
50.0205876
0
LINE
8
DEFAULT_255_2_778
10
34.4859452
20
50.0205876
11
34.4677452
21
50.0780876
0
LINE
8
DEFAULT_255_2_778
10
34.4677452
20
50.0780876
11
34.4431452
21
50.1327876
0
LINE
8
DEFAULT_255_2_778
10
34.4431452
20
50.1327876
11
34.4005452
21
50.1997876
0
LINE
8
DEFAULT_255_2_778
10
34.4005452
20
50.1997876
11
34.3333452
21
50.2716876
0
LINE
8
DEFAULT_255_2_778
10
34.3333452
20
50.2716876
11
34.2282452
21
50.3441876
0
LINE
8
DEFAULT_255_2_778
10
34.2282452
20
50.3441876
11
34.1129452
21
50.3912876
0
LINE
8
DEFAULT_255_2_778
10
34.1129452
20
50.3912876
11
34.0025452
21
50.4158876
0
LINE
8
DEFAULT_255_2_778
10
33.2479452
20
106.1842876
11
34.0134452
21
106.1842876
0
LINE
8
DEFAULT_255_2_778
10
34.0134452
20
106.1842876
11
34.0134452
21
107.2804876
0
LINE
8
DEFAULT_255_2_778
10
34.0134452
20
107.2804876
11
33.2479452
21
106.1842876
0
LINE
8
DEFAULT_255_2_778
10
33.9605452
20
107.5936876
11
34.3081452
21
107.5936876
0
LINE
8
DEFAULT_255_2_778
10
34.3081452
20
107.5936876
11
34.3081452
21
106.1842876
0
LINE
8
DEFAULT_255_2_778
10
34.3081452
20
106.1842876
11
34.7243452
21
106.1842876
0
LINE
8
DEFAULT_255_2_778
10
34.7243452
20
106.1842876
11
34.7243452
21
105.9439876
0
LINE
8
DEFAULT_255_2_778
10
34.7243452
20
105.9439876
11
34.3081452
21
105.9439876
0
LINE
8
DEFAULT_255_2_778
10
34.3081452
20
105.9439876
11
34.3081452
21
105.3936876
0
LINE
8
DEFAULT_255_2_778
10
34.3081452
20
105.3936876
11
34.0134452
21
105.3936876
0
LINE
8
DEFAULT_255_2_778
10
34.0134452
20
105.3936876
11
34.0134452
21
105.9439876
0
LINE
8
DEFAULT_255_2_778
10
34.0134452
20
105.9439876
11
32.9905452
21
105.9439876
0
LINE
8
DEFAULT_255_2_778
10
32.9905452
20
105.9439876
11
32.9905452
21
106.2091876
0
LINE
8
DEFAULT_255_2_778
10
32.9905452
20
106.2091876
11
33.9605452
21
107.5936876
0
LINE
8
DEFAULT_255_2_778
10
6.7092452
20
107.6259876
11
6.5631452
21
107.6087876
0
LINE
8
DEFAULT_255_2_778
10
6.5631452
20
107.6087876
11
6.4263452
21
107.5650876
0
LINE
8
DEFAULT_255_2_778
10
6.4263452
20
107.5650876
11
6.3049452
21
107.4965876
0
LINE
8
DEFAULT_255_2_778
10
6.3049452
20
107.4965876
11
6.2160452
21
107.4224876
0
LINE
8
DEFAULT_255_2_778
10
6.2160452
20
107.4224876
11
6.1366452
21
107.3322876
0
LINE
8
DEFAULT_255_2_778
10
6.1366452
20
107.3322876
11
6.0797452
21
107.2491876
0
LINE
8
DEFAULT_255_2_778
10
6.0797452
20
107.2491876
11
6.0302452
21
107.1600876
0
LINE
8
DEFAULT_255_2_778
10
6.0302452
20
107.1600876
11
5.9890452
21
107.0668876
0
LINE
8
DEFAULT_255_2_778
10
5.9890452
20
107.0668876
11
5.9646452
21
106.9996876
0
LINE
8
DEFAULT_255_2_778
10
5.9646452
20
106.9996876
11
5.9432452
21
106.9279876
0
LINE
8
DEFAULT_255_2_778
10
5.9432452
20
106.9279876
11
5.9257452
21
106.8552876
0
LINE
8
DEFAULT_255_2_778
10
5.9257452
20
106.8552876
11
5.9120452
21
106.7816876
0
LINE
8
DEFAULT_255_2_778
10
5.9120452
20
106.7816876
11
5.9051452
21
106.7345876
0
LINE
8
DEFAULT_255_2_778
10
5.9051452
20
106.7345876
11
5.8995452
21
106.6874876
0
LINE
8
DEFAULT_255_2_778
10
5.8995452
20
106.6874876
11
5.8953452
21
106.6401876
0
LINE
8
DEFAULT_255_2_778
10
5.8953452
20
106.6401876
11
5.8924452
21
106.5927876
0
LINE
8
DEFAULT_255_2_778
10
5.8924452
20
106.5927876
11
5.8924452
21
106.4009876
0
LINE
8
DEFAULT_255_2_778
10
5.8924452
20
106.4009876
11
5.8953452
21
106.3527876
0
LINE
8
DEFAULT_255_2_778
10
5.8953452
20
106.3527876
11
5.8995452
21
106.3046876
0
LINE
8
DEFAULT_255_2_778
10
5.8995452
20
106.3046876
11
5.9048452
21
106.2564876
0
LINE
8
DEFAULT_255_2_778
10
5.9048452
20
106.2564876
11
5.9117452
21
106.2085876
0
LINE
8
DEFAULT_255_2_778
10
5.9117452
20
106.2085876
11
5.9252452
21
106.1336876
0
LINE
8
DEFAULT_255_2_778
10
5.9252452
20
106.1336876
11
5.9424452
21
106.0596876
0
LINE
8
DEFAULT_255_2_778
10
5.9424452
20
106.0596876
11
5.9636452
21
105.9865876
0
LINE
8
DEFAULT_255_2_778
10
5.9636452
20
105.9865876
11
5.9879452
21
105.9170876
0
LINE
8
DEFAULT_255_2_778
10
5.9879452
20
105.9170876
11
6.0305452
21
105.8185876
0
LINE
8
DEFAULT_255_2_778
10
6.0305452
20
105.8185876
11
6.0821452
21
105.7241876
0
LINE
8
DEFAULT_255_2_778
10
6.0821452
20
105.7241876
11
6.1520452
21
105.6233876
0
LINE
8
DEFAULT_255_2_778
10
6.1520452
20
105.6233876
11
6.2348452
21
105.5330876
0
LINE
8
DEFAULT_255_2_778
10
6.2348452
20
105.5330876
11
6.3253452
21
105.4616876
0
LINE
8
DEFAULT_255_2_778
10
6.3253452
20
105.4616876
11
6.4501452
21
105.3957876
0
LINE
8
DEFAULT_255_2_778
10
6.4501452
20
105.3957876
11
6.5909452
21
105.3560876
0
LINE
8
DEFAULT_255_2_778
10
6.5909452
20
105.3560876
11
6.7684452
21
105.3441876
0
LINE
8
DEFAULT_255_2_778
10
6.7684452
20
105.3441876
11
6.9158452
21
105.3619876
0
LINE
8
DEFAULT_255_2_778
10
6.9158452
20
105.3619876
11
7.0537452
21
105.4071876
0
LINE
8
DEFAULT_255_2_778
10
7.0537452
20
105.4071876
11
7.1756452
21
105.4780876
0
LINE
8
DEFAULT_255_2_778
10
7.1756452
20
105.4780876
11
7.2648452
21
105.5547876
0
LINE
8
DEFAULT_255_2_778
10
7.2648452
20
105.5547876
11
7.3439452
21
105.6479876
0
LINE
8
DEFAULT_255_2_778
10
7.3439452
20
105.6479876
11
7.3950452
21
105.7243876
0
LINE
8
DEFAULT_255_2_778
10
7.3950452
20
105.7243876
11
7.4466452
21
105.8191876
0
LINE
8
DEFAULT_255_2_778
10
7.4466452
20
105.8191876
11
7.4892452
21
105.9180876
0
LINE
8
DEFAULT_255_2_778
10
7.4892452
20
105.9180876
11
7.5135452
21
105.9879876
0
LINE
8
DEFAULT_255_2_778
10
7.5135452
20
105.9879876
11
7.5347452
21
106.0609876
0
LINE
8
DEFAULT_255_2_778
10
7.5347452
20
106.0609876
11
7.5519452
21
106.1350876
0
LINE
8
DEFAULT_255_2_778
10
7.5519452
20
106.1350876
11
7.5654452
21
106.2098876
0
LINE
8
DEFAULT_255_2_778
10
7.5654452
20
106.2098876
11
7.5722452
21
106.2575876
0
LINE
8
DEFAULT_255_2_778
10
7.5722452
20
106.2575876
11
7.5775452
21
106.3054876
0
LINE
8
DEFAULT_255_2_778
10
7.5775452
20
106.3054876
11
7.5818452
21
106.3535876
0
LINE
8
DEFAULT_255_2_778
10
7.5818452
20
106.3535876
11
7.5847452
21
106.4017876
0
LINE
8
DEFAULT_255_2_778
10
7.5847452
20
106.4017876
11
7.5847452
21
106.5932876
0
LINE
8
DEFAULT_255_2_778
10
7.5847452
20
106.5932876
11
7.5818452
21
106.6406876
0
LINE
8
DEFAULT_255_2_778
10
7.5818452
20
106.6406876
11
7.5775452
21
106.6879876
0
LINE
8
DEFAULT_255_2_778
10
7.5775452
20
106.6879876
11
7.5720452
21
106.7350876
0
LINE
8
DEFAULT_255_2_778
10
7.5720452
20
106.7350876
11
7.5651452
21
106.7821876
0
LINE
8
DEFAULT_255_2_778
10
7.5651452
20
106.7821876
11
7.5513452
21
106.8557876
0
LINE
8
DEFAULT_255_2_778
10
7.5513452
20
106.8557876
11
7.5339452
21
106.9285876
0
LINE
8
DEFAULT_255_2_778
10
7.5339452
20
106.9285876
11
7.5124452
21
107.0002876
0
LINE
8
DEFAULT_255_2_778
10
7.5124452
20
107.0002876
11
7.4876452
21
107.0687876
0
LINE
8
DEFAULT_255_2_778
10
7.4876452
20
107.0687876
11
7.4442452
21
107.1658876
0
LINE
8
DEFAULT_255_2_778
10
7.4442452
20
107.1658876
11
7.3921452
21
107.2587876
0
LINE
8
DEFAULT_255_2_778
10
7.3921452
20
107.2587876
11
7.3225452
21
107.3563876
0
LINE
8
DEFAULT_255_2_778
10
7.3225452
20
107.3563876
11
7.2402452
21
107.4433876
0
LINE
8
DEFAULT_255_2_778
10
7.2402452
20
107.4433876
11
7.1500452
21
107.5124876
0
LINE
8
DEFAULT_255_2_778
10
7.1500452
20
107.5124876
11
7.0259452
21
107.5759876
0
LINE
8
DEFAULT_255_2_778
10
7.0259452
20
107.5759876
11
6.8856452
21
107.6143876
0
LINE
8
DEFAULT_255_2_778
10
6.8856452
20
107.6143876
11
6.7092452
21
107.6259876
0
LINE
8
DEFAULT_255_2_778
10
6.7012452
20
107.3756876
11
6.8505452
21
107.3650876
0
LINE
8
DEFAULT_255_2_778
10
6.8505452
20
107.3650876
11
6.9703452
21
107.3182876
0
LINE
8
DEFAULT_255_2_778
10
6.9703452
20
107.3182876
11
7.0576452
21
107.2520876
0
LINE
8
DEFAULT_255_2_778
10
7.0576452
20
107.2520876
11
7.1153452
21
107.1862876
0
LINE
8
DEFAULT_255_2_778
10
7.1153452
20
107.1862876
11
7.1650452
21
107.1081876
0
LINE
8
DEFAULT_255_2_778
10
7.1650452
20
107.1081876
11
7.2013452
21
107.0338876
0
LINE
8
DEFAULT_255_2_778
10
7.2013452
20
107.0338876
11
7.2320452
21
106.9536876
0
LINE
8
DEFAULT_255_2_778
10
7.2320452
20
106.9536876
11
7.2487452
21
106.8988876
0
LINE
8
DEFAULT_255_2_778
10
7.2487452
20
106.8988876
11
7.2643452
21
106.8359876
0
LINE
8
DEFAULT_255_2_778
10
7.2643452
20
106.8359876
11
7.2767452
21
106.7721876
0
LINE
8
DEFAULT_255_2_778
10
7.2767452
20
106.7721876
11
7.2860452
21
106.7078876
0
LINE
8
DEFAULT_255_2_778
10
7.2860452
20
106.7078876
11
7.2899452
21
106.6723876
0
LINE
8
DEFAULT_255_2_778
10
7.2899452
20
106.6723876
11
7.2931452
21
106.6369876
0
LINE
8
DEFAULT_255_2_778
10
7.2931452
20
106.6369876
11
7.2931452
21
106.3501876
0
LINE
8
DEFAULT_255_2_778
10
7.2931452
20
106.3501876
11
7.2899452
21
106.3141876
0
LINE
8
DEFAULT_255_2_778
10
7.2899452
20
106.3141876
11
7.2860452
21
106.2781876
0
LINE
8
DEFAULT_255_2_778
10
7.2860452
20
106.2781876
11
7.2767452
21
106.2130876
0
LINE
8
DEFAULT_255_2_778
10
7.2767452
20
106.2130876
11
7.2645452
21
106.1482876
0
LINE
8
DEFAULT_255_2_778
10
7.2645452
20
106.1482876
11
7.2492452
21
106.0842876
0
LINE
8
DEFAULT_255_2_778
10
7.2492452
20
106.0842876
11
7.2320452
21
106.0260876
0
LINE
8
DEFAULT_255_2_778
10
7.2320452
20
106.0260876
11
7.2000452
21
105.9405876
0
LINE
8
DEFAULT_255_2_778
10
7.2000452
20
105.9405876
11
7.1553452
21
105.8495876
0
LINE
8
DEFAULT_255_2_778
10
7.1553452
20
105.8495876
11
7.1029452
21
105.7709876
0
LINE
8
DEFAULT_255_2_778
10
7.1029452
20
105.7709876
11
7.0317452
21
105.6968876
0
LINE
8
DEFAULT_255_2_778
10
7.0317452
20
105.6968876
11
6.9391452
21
105.6362876
0
LINE
8
DEFAULT_255_2_778
10
6.9391452
20
105.6362876
11
6.8139452
21
105.5984876
0
LINE
8
DEFAULT_255_2_778
10
6.8139452
20
105.5984876
11
6.6631452
21
105.5984876
0
LINE
8
DEFAULT_255_2_778
10
6.6631452
20
105.5984876
11
6.5380452
21
105.6362876
0
LINE
8
DEFAULT_255_2_778
10
6.5380452
20
105.6362876
11
6.4454452
21
105.6968876
0
LINE
8
DEFAULT_255_2_778
10
6.4454452
20
105.6968876
11
6.3742452
21
105.7709876
0
LINE
8
DEFAULT_255_2_778
10
6.3742452
20
105.7709876
11
6.3218452
21
105.8495876
0
LINE
8
DEFAULT_255_2_778
10
6.3218452
20
105.8495876
11
6.2895452
21
105.9127876
0
LINE
8
DEFAULT_255_2_778
10
6.2895452
20
105.9127876
11
6.2551452
21
105.9971876
0
LINE
8
DEFAULT_255_2_778
10
6.2551452
20
105.9971876
11
6.2364452
21
106.0548876
0
LINE
8
DEFAULT_255_2_778
10
6.2364452
20
106.0548876
11
6.2200452
21
106.1159876
0
LINE
8
DEFAULT_255_2_778
10
6.2200452
20
106.1159876
11
6.2062452
21
106.1802876
0
LINE
8
DEFAULT_255_2_778
10
6.2062452
20
106.1802876
11
6.1956452
21
106.2453876
0
LINE
8
DEFAULT_255_2_778
10
6.1956452
20
106.2453876
11
6.1914452
21
106.2778876
0
LINE
8
DEFAULT_255_2_778
10
6.1914452
20
106.2778876
11
6.1874452
21
106.3138876
0
LINE
8
DEFAULT_255_2_778
10
6.1874452
20
106.3138876
11
6.1842452
21
106.3498876
0
LINE
8
DEFAULT_255_2_778
10
6.1842452
20
106.3498876
11
6.1842452
21
106.6366876
0
LINE
8
DEFAULT_255_2_778
10
6.1842452
20
106.6366876
11
6.1874452
21
106.6721876
0
LINE
8
DEFAULT_255_2_778
10
6.1874452
20
106.6721876
11
6.1914452
21
106.7075876
0
LINE
8
DEFAULT_255_2_778
10
6.1914452
20
106.7075876
11
6.2006452
21
106.7718876
0
LINE
8
DEFAULT_255_2_778
10
6.2006452
20
106.7718876
11
6.2131452
21
106.8356876
0
LINE
8
DEFAULT_255_2_778
10
6.2131452
20
106.8356876
11
6.2287452
21
106.8986876
0
LINE
8
DEFAULT_255_2_778
10
6.2287452
20
106.8986876
11
6.2461452
21
106.9557876
0
LINE
8
DEFAULT_255_2_778
10
6.2461452
20
106.9557876
11
6.2784452
21
107.0396876
0
LINE
8
DEFAULT_255_2_778
10
6.2784452
20
107.0396876
11
6.3234452
21
107.1282876
0
LINE
8
DEFAULT_255_2_778
10
6.3234452
20
107.1282876
11
6.3758452
21
107.2044876
0
LINE
8
DEFAULT_255_2_778
10
6.3758452
20
107.2044876
11
6.4467452
21
107.2764876
0
LINE
8
DEFAULT_255_2_778
10
6.4467452
20
107.2764876
11
6.5390452
21
107.3351876
0
LINE
8
DEFAULT_255_2_778
10
6.5390452
20
107.3351876
11
6.6637452
21
107.3719876
0
LINE
8
DEFAULT_255_2_778
10
6.6637452
20
107.3719876
11
6.7012452
21
107.3756876
0
LINE
8
DEFAULT_255_2_778
10
25.1387452
20
119.2070876
11
24.9943452
21
119.2176876
0
LINE
8
DEFAULT_255_2_778
10
24.9943452
20
119.2176876
11
24.8723452
21
119.1885876
0
LINE
8
DEFAULT_255_2_778
10
24.8723452
20
119.1885876
11
24.7855452
21
119.1345876
0
LINE
8
DEFAULT_255_2_778
10
24.7855452
20
119.1345876
11
24.6858452
21
119.0056876
0
LINE
8
DEFAULT_255_2_778
10
24.6858452
20
119.0056876
11
24.6492452
21
118.9043876
0
LINE
8
DEFAULT_255_2_778
10
24.6492452
20
118.9043876
11
24.6379452
21
118.8448876
0
LINE
8
DEFAULT_255_2_778
10
24.6379452
20
118.8448876
11
24.6331452
21
118.8006876
0
LINE
8
DEFAULT_255_2_778
10
24.6331452
20
118.8006876
11
24.6305452
21
118.7347876
0
LINE
8
DEFAULT_255_2_778
10
24.6305452
20
118.7347876
11
24.7958452
21
118.7347876
0
LINE
8
DEFAULT_255_2_778
10
24.7958452
20
118.7347876
11
24.7974452
21
118.7781876
0
LINE
8
DEFAULT_255_2_778
10
24.7974452
20
118.7781876
11
24.8011452
21
118.8106876
0
LINE
8
DEFAULT_255_2_778
10
24.8011452
20
118.8106876
11
24.8114452
21
118.8588876
0
LINE
8
DEFAULT_255_2_778
10
24.8114452
20
118.8588876
11
24.8464452
21
118.9363876
0
LINE
8
DEFAULT_255_2_778
10
24.8464452
20
118.9363876
11
24.9382452
21
119.0173876
0
LINE
8
DEFAULT_255_2_778
10
24.9382452
20
119.0173876
11
25.1091452
21
119.0241876
0
LINE
8
DEFAULT_255_2_778
10
25.1091452
20
119.0241876
11
25.2112452
21
118.9501876
0
LINE
8
DEFAULT_255_2_778
10
25.2112452
20
118.9501876
11
25.2472452
21
118.8815876
0
LINE
8
DEFAULT_255_2_778
10
25.2472452
20
118.8815876
11
25.2594452
21
118.8331876
0
LINE
8
DEFAULT_255_2_778
10
25.2594452
20
118.8331876
11
25.2591452
21
118.6953876
0
LINE
8
DEFAULT_255_2_778
10
25.2591452
20
118.6953876
11
25.2488452
21
118.6479876
0
LINE
8
DEFAULT_255_2_778
10
25.2488452
20
118.6479876
11
25.2263452
21
118.5789876
0
LINE
8
DEFAULT_255_2_778
10
25.2263452
20
118.5789876
11
25.1877452
21
118.4907876
0
LINE
8
DEFAULT_255_2_778
10
25.1877452
20
118.4907876
11
25.1215452
21
118.3719876
0
LINE
8
DEFAULT_255_2_778
10
25.1215452
20
118.3719876
11
24.9874452
21
118.1735876
0
LINE
8
DEFAULT_255_2_778
10
24.9874452
20
118.1735876
11
24.7934452
21
117.9306876
0
LINE
8
DEFAULT_255_2_778
10
24.7934452
20
117.9306876
11
24.5781452
21
117.6975876
0
LINE
8
DEFAULT_255_2_778
10
24.5781452
20
117.6975876
11
24.5781452
21
117.4938876
0
LINE
8
DEFAULT_255_2_778
10
24.5781452
20
117.4938876
11
25.4573452
21
117.4938876
0
LINE
8
DEFAULT_255_2_778
10
25.4573452
20
117.4938876
11
25.4573452
21
117.6793876
0
LINE
8
DEFAULT_255_2_778
10
25.4573452
20
117.6793876
11
24.7858452
21
117.6793876
0
LINE
8
DEFAULT_255_2_778
10
24.7858452
20
117.6793876
11
25.0509452
21
117.9663876
0
LINE
8
DEFAULT_255_2_778
10
25.0509452
20
117.9663876
11
25.1863452
21
118.1378876
0
LINE
8
DEFAULT_255_2_778
10
25.1863452
20
118.1378876
11
25.2641452
21
118.2555876
0
LINE
8
DEFAULT_255_2_778
10
25.2641452
20
118.2555876
11
25.3155452
21
118.3479876
0
LINE
8
DEFAULT_255_2_778
10
25.3155452
20
118.3479876
11
25.3594452
21
118.4442876
0
LINE
8
DEFAULT_255_2_778
10
25.3594452
20
118.4442876
11
25.3861452
21
118.5167876
0
LINE
8
DEFAULT_255_2_778
10
25.3861452
20
118.5167876
11
25.4075452
21
118.5910876
0
LINE
8
DEFAULT_255_2_778
10
25.4075452
20
118.5910876
11
25.4184452
21
118.6413876
0
LINE
8
DEFAULT_255_2_778
10
25.4184452
20
118.6413876
11
25.4226452
21
118.6667876
0
LINE
8
DEFAULT_255_2_778
10
25.4226452
20
118.6667876
11
25.4261452
21
118.6921876
0
LINE
8
DEFAULT_255_2_778
10
25.4261452
20
118.6921876
11
25.4255452
21
118.8601876
0
LINE
8
DEFAULT_255_2_778
10
25.4255452
20
118.8601876
11
25.4221452
21
118.8829876
0
LINE
8
DEFAULT_255_2_778
10
25.4221452
20
118.8829876
11
25.4131452
21
118.9252876
0
LINE
8
DEFAULT_255_2_778
10
25.4131452
20
118.9252876
11
25.4015452
21
118.9638876
0
LINE
8
DEFAULT_255_2_778
10
25.4015452
20
118.9638876
11
25.3774452
21
119.0194876
0
LINE
8
DEFAULT_255_2_778
10
25.3774452
20
119.0194876
11
25.3321452
21
119.0869876
0
LINE
8
DEFAULT_255_2_778
10
25.3321452
20
119.0869876
11
25.2594452
21
119.1535876
0
LINE
8
DEFAULT_255_2_778
10
25.2594452
20
119.1535876
11
25.1543452
21
119.2030876
0
LINE
8
DEFAULT_255_2_778
10
25.1543452
20
119.2030876
11
25.1382452
21
119.2072876
0
LINE
8
DEFAULT_255_2_778
10
17.5917452
20
118.6897876
11
17.8349452
21
118.6897876
0
LINE
8
DEFAULT_255_2_778
10
17.8349452
20
118.6897876
11
17.4036452
21
118.1222876
0
LINE
8
DEFAULT_255_2_778
10
17.4036452
20
118.1222876
11
17.8537452
21
117.5054876
0
LINE
8
DEFAULT_255_2_778
10
17.8537452
20
117.5054876
11
17.5859452
21
117.5054876
0
LINE
8
DEFAULT_255_2_778
10
17.5859452
20
117.5054876
11
17.2563452
21
117.9849876
0
LINE
8
DEFAULT_255_2_778
10
17.2563452
20
117.9849876
11
16.9290452
21
117.5054876
0
LINE
8
DEFAULT_255_2_778
10
16.9290452
20
117.5054876
11
16.6813452
21
117.5054876
0
LINE
8
DEFAULT_255_2_778
10
16.6813452
20
117.5054876
11
17.1441452
21
118.1113876
0
LINE
8
DEFAULT_255_2_778
10
17.1441452
20
118.1113876
11
16.7128452
21
118.6897876
0
LINE
8
DEFAULT_255_2_778
10
16.7128452
20
118.6897876
11
16.9909452
21
118.6897876
0
LINE
8
DEFAULT_255_2_778
10
16.9909452
20
118.6897876
11
17.2888452
21
118.2524876
0
LINE
8
DEFAULT_255_2_778
10
17.2888452
20
118.2524876
11
17.5915452
21
118.6897876
0
LINE
8
DEFAULT_255_2_778
10
28.9844452
20
119.1937876
11
29.1734452
21
119.1937876
0
LINE
8
DEFAULT_255_2_778
10
29.1734452
20
119.1937876
11
28.6672452
21
117.4938876
0
LINE
8
DEFAULT_255_2_778
10
28.6672452
20
117.4938876
11
28.4719452
21
117.4938876
0
LINE
8
DEFAULT_255_2_778
10
28.4719452
20
117.4938876
11
27.9658452
21
119.1937876
0
LINE
8
DEFAULT_255_2_778
10
27.9658452
20
119.1937876
11
28.1547452
21
119.1937876
0
LINE
8
DEFAULT_255_2_778
10
28.1547452
20
119.1937876
11
28.5722452
21
117.7166876
0
LINE
8
DEFAULT_255_2_778
10
28.5722452
20
117.7166876
11
28.9842452
21
119.1937876
0
LINE
8
DEFAULT_255_2_778
10
23.9714452
20
119.2112876
11
23.7737452
21
119.2247876
0
LINE
8
DEFAULT_255_2_778
10
23.7737452
20
119.2247876
11
23.6354452
21
119.1919876
0
LINE
8
DEFAULT_255_2_778
10
23.6354452
20
119.1919876
11
23.5187452
21
119.1215876
0
LINE
8
DEFAULT_255_2_778
10
23.5187452
20
119.1215876
11
23.4425452
21
119.0421876
0
LINE
8
DEFAULT_255_2_778
10
23.4425452
20
119.0421876
11
23.3909452
21
118.9644876
0
LINE
8
DEFAULT_255_2_778
10
23.3909452
20
118.9644876
11
23.3491452
21
118.8794876
0
LINE
8
DEFAULT_255_2_778
10
23.3491452
20
118.8794876
11
23.3165452
21
118.7905876
0
LINE
8
DEFAULT_255_2_778
10
23.3165452
20
118.7905876
11
23.2956452
21
118.7130876
0
LINE
8
DEFAULT_255_2_778
10
23.2956452
20
118.7130876
11
23.2845452
21
118.6606876
0
LINE
8
DEFAULT_255_2_778
10
23.2845452
20
118.6606876
11
23.2755452
21
118.6077876
0
LINE
8
DEFAULT_255_2_778
10
23.2755452
20
118.6077876
11
23.2676452
21
118.5463876
0
LINE
8
DEFAULT_255_2_778
10
23.2676452
20
118.5463876
11
23.2641452
21
118.5114876
0
LINE
8
DEFAULT_255_2_778
10
23.2641452
20
118.5114876
11
23.2647452
21
118.1568876
0
LINE
8
DEFAULT_255_2_778
10
23.2647452
20
118.1568876
11
23.2679452
21
118.1243876
0
LINE
8
DEFAULT_255_2_778
10
23.2679452
20
118.1243876
11
23.2755452
21
118.0656876
0
LINE
8
DEFAULT_255_2_778
10
23.2755452
20
118.0656876
11
23.2845452
21
118.0132876
0
LINE
8
DEFAULT_255_2_778
10
23.2845452
20
118.0132876
11
23.2956452
21
117.9611876
0
LINE
8
DEFAULT_255_2_778
10
23.2956452
20
117.9611876
11
23.3168452
21
117.8841876
0
LINE
8
DEFAULT_255_2_778
10
23.3168452
20
117.8841876
11
23.3493452
21
117.7962876
0
LINE
8
DEFAULT_255_2_778
10
23.3493452
20
117.7962876
11
23.4009452
21
117.6970876
0
LINE
8
DEFAULT_255_2_778
10
23.4009452
20
117.6970876
11
23.4666452
21
117.6099876
0
LINE
8
DEFAULT_255_2_778
10
23.4666452
20
117.6099876
11
23.5600452
21
117.5319876
0
LINE
8
DEFAULT_255_2_778
10
23.5600452
20
117.5319876
11
23.6851452
21
117.4771876
0
LINE
8
DEFAULT_255_2_778
10
23.6851452
20
117.4771876
11
23.8796452
21
117.4618876
0
LINE
8
DEFAULT_255_2_778
10
23.8796452
20
117.4618876
11
24.0423452
21
117.5025876
0
LINE
8
DEFAULT_255_2_778
10
24.0423452
20
117.5025876
11
24.1524452
21
117.5716876
0
LINE
8
DEFAULT_255_2_778
10
24.1524452
20
117.5716876
11
24.2209452
21
117.6441876
0
LINE
8
DEFAULT_255_2_778
10
24.2209452
20
117.6441876
11
24.2643452
21
117.7158876
0
LINE
8
DEFAULT_255_2_778
10
24.2643452
20
117.7158876
11
24.2889452
21
117.7790876
0
LINE
8
DEFAULT_255_2_778
10
24.2889452
20
117.7790876
11
24.3024452
21
117.8319876
0
LINE
8
DEFAULT_255_2_778
10
24.3024452
20
117.8319876
11
24.3087452
21
117.8692876
0
LINE
8
DEFAULT_255_2_778
10
24.3087452
20
117.8692876
11
24.3108452
21
117.8880876
0
LINE
8
DEFAULT_255_2_778
10
24.3108452
20
117.8880876
11
24.3124452
21
117.9068876
0
LINE
8
DEFAULT_255_2_778
10
24.3124452
20
117.9068876
11
24.3140452
21
117.9441876
0
LINE
8
DEFAULT_255_2_778
10
24.3140452
20
117.9441876
11
24.1352452
21
117.9441876
0
LINE
8
DEFAULT_255_2_778
10
24.1352452
20
117.9441876
11
24.1315452
21
117.9140876
0
LINE
8
DEFAULT_255_2_778
10
24.1315452
20
117.9140876
11
24.1256452
21
117.8838876
0
LINE
8
DEFAULT_255_2_778
10
24.1256452
20
117.8838876
11
24.1132452
21
117.8412876
0
LINE
8
DEFAULT_255_2_778
10
24.1132452
20
117.8412876
11
24.0904452
21
117.7915876
0
LINE
8
DEFAULT_255_2_778
10
24.0904452
20
117.7915876
11
24.0322452
21
117.7213876
0
LINE
8
DEFAULT_255_2_778
10
24.0322452
20
117.7213876
11
23.9327452
21
117.6671876
0
LINE
8
DEFAULT_255_2_778
10
23.9327452
20
117.6671876
11
23.7838452
21
117.6576876
0
LINE
8
DEFAULT_255_2_778
10
23.7838452
20
117.6576876
11
23.6724452
21
117.6962876
0
LINE
8
DEFAULT_255_2_778
10
23.6724452
20
117.6962876
11
23.5917452
21
117.7642876
0
LINE
8
DEFAULT_255_2_778
10
23.5917452
20
117.7642876
11
23.5340452
21
117.8507876
0
LINE
8
DEFAULT_255_2_778
10
23.5340452
20
117.8507876
11
23.4975452
21
117.9346876
0
LINE
8
DEFAULT_255_2_778
10
23.4975452
20
117.9346876
11
23.4737452
21
118.0129876
0
LINE
8
DEFAULT_255_2_778
10
23.4737452
20
118.0129876
11
23.4586452
21
118.0817876
0
LINE
8
DEFAULT_255_2_778
10
23.4586452
20
118.0817876
11
23.4512452
21
118.1280876
0
LINE
8
DEFAULT_255_2_778
10
23.4512452
20
118.1280876
11
23.4454452
21
118.1746876
0
LINE
8
DEFAULT_255_2_778
10
23.4454452
20
118.1746876
11
23.4462452
21
118.5455876
0
LINE
8
DEFAULT_255_2_778
10
23.4462452
20
118.5455876
11
23.4549452
21
118.6045876
0
LINE
8
DEFAULT_255_2_778
10
23.4549452
20
118.6045876
11
23.4668452
21
118.6630876
0
LINE
8
DEFAULT_255_2_778
10
23.4668452
20
118.6630876
11
23.4912452
21
118.7455876
0
LINE
8
DEFAULT_255_2_778
10
23.4912452
20
118.7455876
11
23.5343452
21
118.8416876
0
LINE
8
DEFAULT_255_2_778
10
23.5343452
20
118.8416876
11
23.5928452
21
118.9236876
0
LINE
8
DEFAULT_255_2_778
10
23.5928452
20
118.9236876
11
23.7065452
21
119.0043876
0
LINE
8
DEFAULT_255_2_778
10
23.7065452
20
119.0043876
11
23.8700452
21
119.0297876
0
LINE
8
DEFAULT_255_2_778
10
23.8700452
20
119.0297876
11
24.0174452
21
118.9826876
0
LINE
8
DEFAULT_255_2_778
10
24.0174452
20
118.9826876
11
24.0878452
21
118.9146876
0
LINE
8
DEFAULT_255_2_778
10
24.0878452
20
118.9146876
11
24.1158452
21
118.8612876
0
LINE
8
DEFAULT_255_2_778
10
24.1158452
20
118.8612876
11
24.1277452
21
118.8209876
0
LINE
8
DEFAULT_255_2_778
10
24.1277452
20
118.8209876
11
24.1333452
21
118.7873876
0
LINE
8
DEFAULT_255_2_778
10
24.1333452
20
118.7873876
11
24.1357452
21
118.7424876
0
LINE
8
DEFAULT_255_2_778
10
24.1357452
20
118.7424876
11
24.3145452
21
118.7424876
0
LINE
8
DEFAULT_255_2_778
10
24.3145452
20
118.7424876
11
24.3127452
21
118.7995876
0
LINE
8
DEFAULT_255_2_778
10
24.3127452
20
118.7995876
11
24.3108452
21
118.8186876
0
LINE
8
DEFAULT_255_2_778
10
24.3108452
20
118.8186876
11
24.3053452
21
118.8567876
0
LINE
8
DEFAULT_255_2_778
10
24.3053452
20
118.8567876
11
24.2971452
21
118.8945876
0
LINE
8
DEFAULT_255_2_778
10
24.2971452
20
118.8945876
11
24.2820452
21
118.9437876
0
LINE
8
DEFAULT_255_2_778
10
24.2820452
20
118.9437876
11
24.2534452
21
119.0056876
0
LINE
8
DEFAULT_255_2_778
10
24.2534452
20
119.0056876
11
24.2050452
21
119.0734876
0
LINE
8
DEFAULT_255_2_778
10
24.2050452
20
119.0734876
11
24.1185452
21
119.1480876
0
LINE
8
DEFAULT_255_2_778
10
24.1185452
20
119.1480876
11
24.0084452
21
119.2001876
0
LINE
8
DEFAULT_255_2_778
10
24.0084452
20
119.2001876
11
23.9714452
21
119.2107876
0
LINE
8
DEFAULT_255_2_778
10
20.3225452
20
119.1937876
11
20.4969452
21
119.1937876
0
LINE
8
DEFAULT_255_2_778
10
20.4969452
20
119.1937876
11
20.4969452
21
117.6864876
0
LINE
8
DEFAULT_255_2_778
10
20.4969452
20
117.6864876
11
21.0988452
21
117.6864876
0
LINE
8
DEFAULT_255_2_778
10
21.0988452
20
117.6864876
11
21.0988452
21
117.4935876
0
LINE
8
DEFAULT_255_2_778
10
21.0988452
20
117.4935876
11
20.3225452
21
117.4935876
0
LINE
8
DEFAULT_255_2_778
10
20.3225452
20
117.4935876
11
20.3225452
21
119.1935876
0
LINE
8
DEFAULT_255_2_778
10
19.2689452
20
119.1937876
11
20.0460452
21
119.1937876
0
LINE
8
DEFAULT_255_2_778
10
20.0460452
20
119.1937876
11
20.0460452
21
119.0009876
0
LINE
8
DEFAULT_255_2_778
10
20.0460452
20
119.0009876
11
19.4433452
21
119.0009876
0
LINE
8
DEFAULT_255_2_778
10
19.4433452
20
119.0009876
11
19.4433452
21
118.4648876
0
LINE
8
DEFAULT_255_2_778
10
19.4433452
20
118.4648876
11
20.0225452
21
118.4648876
0
LINE
8
DEFAULT_255_2_778
10
20.0225452
20
118.4648876
11
20.0225452
21
118.2719876
0
LINE
8
DEFAULT_255_2_778
10
20.0225452
20
118.2719876
11
19.4433452
21
118.2719876
0
LINE
8
DEFAULT_255_2_778
10
19.4433452
20
118.2719876
11
19.4433452
21
117.6864876
0
LINE
8
DEFAULT_255_2_778
10
19.4433452
20
117.6864876
11
20.0622452
21
117.6864876
0
LINE
8
DEFAULT_255_2_778
10
20.0622452
20
117.6864876
11
20.0622452
21
117.4935876
0
LINE
8
DEFAULT_255_2_778
10
20.0622452
20
117.4935876
11
19.2687452
21
117.4935876
0
LINE
8
DEFAULT_255_2_778
10
19.2687452
20
117.4935876
11
19.2687452
21
119.1935876
0
LINE
8
DEFAULT_255_2_778
10
26.2293452
20
119.0297876
11
26.3468452
21
118.9657876
0
LINE
8
DEFAULT_255_2_778
10
26.3468452
20
118.9657876
11
26.3963452
21
118.8924876
0
LINE
8
DEFAULT_255_2_778
10
26.3963452
20
118.8924876
11
26.4143452
21
118.8355876
0
LINE
8
DEFAULT_255_2_778
10
26.4143452
20
118.8355876
11
26.4204452
21
118.7971876
0
LINE
8
DEFAULT_255_2_778
10
26.4204452
20
118.7971876
11
26.4185452
21
118.6939876
0
LINE
8
DEFAULT_255_2_778
10
26.4185452
20
118.6939876
11
26.4037452
21
118.6376876
0
LINE
8
DEFAULT_255_2_778
10
26.4037452
20
118.6376876
11
26.3312452
21
118.5328876
0
LINE
8
DEFAULT_255_2_778
10
26.3312452
20
118.5328876
11
26.1336452
21
118.4571876
0
LINE
8
DEFAULT_255_2_778
10
26.1336452
20
118.4571876
11
26.0767452
21
118.4571876
0
LINE
8
DEFAULT_255_2_778
10
26.0767452
20
118.4571876
11
26.0767452
21
118.2669876
0
LINE
8
DEFAULT_255_2_778
10
26.0767452
20
118.2669876
11
26.2889452
21
118.2402876
0
LINE
8
DEFAULT_255_2_778
10
26.2889452
20
118.2402876
11
26.3934452
21
118.1632876
0
LINE
8
DEFAULT_255_2_778
10
26.3934452
20
118.1632876
11
26.4294452
21
118.1008876
0
LINE
8
DEFAULT_255_2_778
10
26.4294452
20
118.1008876
11
26.4426452
21
118.0552876
0
LINE
8
DEFAULT_255_2_778
10
26.4426452
20
118.0552876
11
26.4402452
21
117.8851876
0
LINE
8
DEFAULT_255_2_778
10
26.4402452
20
117.8851876
11
26.4257452
21
117.8317876
0
LINE
8
DEFAULT_255_2_778
10
26.4257452
20
117.8317876
11
26.3849452
21
117.7541876
0
LINE
8
DEFAULT_255_2_778
10
26.3849452
20
117.7541876
11
26.2963452
21
117.6764876
0
LINE
8
DEFAULT_255_2_778
10
26.2963452
20
117.6764876
11
26.0790452
21
117.6652876
0
LINE
8
DEFAULT_255_2_778
10
26.0790452
20
117.6652876
11
25.9677452
21
117.7602876
0
LINE
8
DEFAULT_255_2_778
10
25.9677452
20
117.7602876
11
25.9126452
21
117.8695876
0
LINE
8
DEFAULT_255_2_778
10
25.9126452
20
117.8695876
11
25.8896452
21
117.9568876
0
LINE
8
DEFAULT_255_2_778
10
25.8896452
20
117.9568876
11
25.7152452
21
117.9568876
0
LINE
8
DEFAULT_255_2_778
10
25.7152452
20
117.9568876
11
25.7211452
21
117.9155876
0
LINE
8
DEFAULT_255_2_778
10
25.7211452
20
117.9155876
11
25.7287452
21
117.8743876
0
LINE
8
DEFAULT_255_2_778
10
25.7287452
20
117.8743876
11
25.7441452
21
117.8131876
0
LINE
8
DEFAULT_255_2_778
10
25.7441452
20
117.8131876
11
25.7724452
21
117.7354876
0
LINE
8
DEFAULT_255_2_778
10
25.7724452
20
117.7354876
11
25.8184452
21
117.6510876
0
LINE
8
DEFAULT_255_2_778
10
25.8184452
20
117.6510876
11
25.8970452
21
117.5589876
0
LINE
8
DEFAULT_255_2_778
10
25.8970452
20
117.5589876
11
26.0031452
21
117.4882876
0
LINE
8
DEFAULT_255_2_778
10
26.0031452
20
117.4882876
11
26.1672452
21
117.4544876
0
LINE
8
DEFAULT_255_2_778
10
26.1672452
20
117.4544876
11
26.3434452
21
117.4851876
0
LINE
8
DEFAULT_255_2_778
10
26.3434452
20
117.4851876
11
26.4638452
21
117.5581876
0
LINE
8
DEFAULT_255_2_778
10
26.4638452
20
117.5581876
11
26.5381452
21
117.6446876
0
LINE
8
DEFAULT_255_2_778
10
26.5381452
20
117.6446876
11
26.5728452
21
117.7097876
0
LINE
8
DEFAULT_255_2_778
10
26.5728452
20
117.7097876
11
26.5937452
21
117.7674876
0
LINE
8
DEFAULT_255_2_778
10
26.5937452
20
117.7674876
11
26.6050452
21
117.8121876
0
LINE
8
DEFAULT_255_2_778
10
26.6050452
20
117.8121876
11
26.6119452
21
117.8507876
0
LINE
8
DEFAULT_255_2_778
10
26.6119452
20
117.8507876
11
26.6101452
21
118.0870876
0
LINE
8
DEFAULT_255_2_778
10
26.6101452
20
118.0870876
11
26.5884452
21
118.1635876
0
LINE
8
DEFAULT_255_2_778
10
26.5884452
20
118.1635876
11
26.5201452
21
118.2751876
0
LINE
8
DEFAULT_255_2_778
10
26.5201452
20
118.2751876
11
26.3833452
21
118.3632876
0
LINE
8
DEFAULT_255_2_778
10
26.3833452
20
118.3632876
11
26.4765452
21
118.4378876
0
LINE
8
DEFAULT_255_2_778
10
26.4765452
20
118.4378876
11
26.5347452
21
118.5185876
0
LINE
8
DEFAULT_255_2_778
10
26.5347452
20
118.5185876
11
26.5643452
21
118.5852876
0
LINE
8
DEFAULT_255_2_778
10
26.5643452
20
118.5852876
11
26.5802452
21
118.6418876
0
LINE
8
DEFAULT_255_2_778
10
26.5802452
20
118.6418876
11
26.5860452
21
118.6736876
0
LINE
8
DEFAULT_255_2_778
10
26.5860452
20
118.6736876
11
26.5849452
21
118.8723876
0
LINE
8
DEFAULT_255_2_778
10
26.5849452
20
118.8723876
11
26.5749452
21
118.9188876
0
LINE
8
DEFAULT_255_2_778
10
26.5749452
20
118.9188876
11
26.5524452
21
118.9831876
0
LINE
8
DEFAULT_255_2_778
10
26.5524452
20
118.9831876
11
26.5127452
21
119.0530876
0
LINE
8
DEFAULT_255_2_778
10
26.5127452
20
119.0530876
11
26.4381452
21
119.1313876
0
LINE
8
DEFAULT_255_2_778
10
26.4381452
20
119.1313876
11
26.3233452
21
119.1943876
0
LINE
8
DEFAULT_255_2_778
10
26.3233452
20
119.1943876
11
26.1555452
21
119.2181876
0
LINE
8
DEFAULT_255_2_778
10
26.1555452
20
119.2181876
11
25.9846452
21
119.1808876
0
LINE
8
DEFAULT_255_2_778
10
25.9846452
20
119.1808876
11
25.8483452
21
119.0736876
0
LINE
8
DEFAULT_255_2_778
10
25.8483452
20
119.0736876
11
25.7914452
21
118.9776876
0
LINE
8
DEFAULT_255_2_778
10
25.7914452
20
118.9776876
11
25.7655452
21
118.8940876
0
LINE
8
DEFAULT_255_2_778
10
25.7655452
20
118.8940876
11
25.7563452
21
118.8392876
0
LINE
8
DEFAULT_255_2_778
10
25.7563452
20
118.8392876
11
25.7531452
21
118.8061876
0
LINE
8
DEFAULT_255_2_778
10
25.7531452
20
118.8061876
11
25.7512452
21
118.7511876
0
LINE
8
DEFAULT_255_2_778
10
25.7512452
20
118.7511876
11
25.9166452
21
118.7511876
0
LINE
8
DEFAULT_255_2_778
10
25.9166452
20
118.7511876
11
25.9190452
21
118.7985876
0
LINE
8
DEFAULT_255_2_778
10
25.9190452
20
118.7985876
11
25.9251452
21
118.8360876
0
LINE
8
DEFAULT_255_2_778
10
25.9251452
20
118.8360876
11
25.9436452
21
118.8924876
0
LINE
8
DEFAULT_255_2_778
10
25.9436452
20
118.8924876
11
26.0058452
21
118.9765876
0
LINE
8
DEFAULT_255_2_778
10
26.0058452
20
118.9765876
11
26.1359452
21
119.0337876
0
LINE
8
DEFAULT_255_2_778
10
26.1359452
20
119.0337876
11
26.2291452
21
119.0297876
0
LINE
8
DEFAULT_255_2_778
10
12.7689452
20
119.1840876
11
12.9099452
21
119.1451876
0
LINE
8
DEFAULT_255_2_778
10
12.9099452
20
119.1451876
11
13.0007452
21
119.0964876
0
LINE
8
DEFAULT_255_2_778
10
13.0007452
20
119.0964876
11
13.0809452
21
119.0265876
0
LINE
8
DEFAULT_255_2_778
10
13.0809452
20
119.0265876
11
13.1465452
21
118.9408876
0
LINE
8
DEFAULT_255_2_778
10
13.1465452
20
118.9408876
11
13.1888452
21
118.8646876
0
LINE
8
DEFAULT_255_2_778
10
13.1888452
20
118.8646876
11
13.2147452
21
118.8048876
0
LINE
8
DEFAULT_255_2_778
10
13.2147452
20
118.8048876
11
13.2362452
21
118.7421876
0
LINE
8
DEFAULT_255_2_778
10
13.2362452
20
118.7421876
11
13.2531452
21
118.6786876
0
LINE
8
DEFAULT_255_2_778
10
13.2531452
20
118.6786876
11
13.2658452
21
118.6143876
0
LINE
8
DEFAULT_255_2_778
10
13.2658452
20
118.6143876
11
13.2708452
21
118.5818876
0
LINE
8
DEFAULT_255_2_778
10
13.2708452
20
118.5818876
11
13.2751452
21
118.5492876
0
LINE
8
DEFAULT_255_2_778
10
13.2751452
20
118.5492876
11
13.2785452
21
118.5164876
0
LINE
8
DEFAULT_255_2_778
10
13.2785452
20
118.5164876
11
13.2788452
21
118.1320876
0
LINE
8
DEFAULT_255_2_778
10
13.2788452
20
118.1320876
11
13.2756452
21
118.1010876
0
LINE
8
DEFAULT_255_2_778
10
13.2756452
20
118.1010876
11
13.2716452
21
118.0703876
0
LINE
8
DEFAULT_255_2_778
10
13.2716452
20
118.0703876
11
13.2613452
21
118.0092876
0
LINE
8
DEFAULT_255_2_778
10
13.2613452
20
118.0092876
11
13.2476452
21
117.9489876
0
LINE
8
DEFAULT_255_2_778
10
13.2476452
20
117.9489876
11
13.2296452
21
117.8893876
0
LINE
8
DEFAULT_255_2_778
10
13.2296452
20
117.8893876
11
13.1944452
21
117.8034876
0
LINE
8
DEFAULT_255_2_778
10
13.1944452
20
117.8034876
11
13.1430452
21
117.7145876
0
LINE
8
DEFAULT_255_2_778
10
13.1430452
20
117.7145876
11
13.0782452
21
117.6361876
0
LINE
8
DEFAULT_255_2_778
10
13.0782452
20
117.6361876
11
12.9991452
21
117.5734876
0
LINE
8
DEFAULT_255_2_778
10
12.9991452
20
117.5734876
11
12.8856452
21
117.5226876
0
LINE
8
DEFAULT_255_2_778
10
12.8856452
20
117.5226876
11
12.6996452
21
117.4933876
0
LINE
8
DEFAULT_255_2_778
10
12.6996452
20
117.4933876
11
12.2408452
21
117.4930876
0
LINE
8
DEFAULT_255_2_778
10
12.2408452
20
117.4930876
11
12.2408452
21
119.1930876
0
LINE
8
DEFAULT_255_2_778
10
12.2408452
20
119.1930876
11
12.7689452
21
119.1840876
0
LINE
8
DEFAULT_255_2_778
10
12.7245452
20
118.9953876
11
12.8628452
21
118.9532876
0
LINE
8
DEFAULT_255_2_778
10
12.8628452
20
118.9532876
11
12.9404452
21
118.8993876
0
LINE
8
DEFAULT_255_2_778
10
12.9404452
20
118.8993876
11
13.0015452
21
118.8268876
0
LINE
8
DEFAULT_255_2_778
10
13.0015452
20
118.8268876
11
13.0475452
21
118.7421876
0
LINE
8
DEFAULT_255_2_778
10
13.0475452
20
118.7421876
11
13.0679452
21
118.6892876
0
LINE
8
DEFAULT_255_2_778
10
13.0679452
20
118.6892876
11
13.0819452
21
118.6421876
0
LINE
8
DEFAULT_255_2_778
10
13.0819452
20
118.6421876
11
13.0928452
21
118.5945876
0
LINE
8
DEFAULT_255_2_778
10
13.0928452
20
118.5945876
11
13.1007452
21
118.5463876
0
LINE
8
DEFAULT_255_2_778
10
13.1007452
20
118.5463876
11
13.1063452
21
118.4979876
0
LINE
8
DEFAULT_255_2_778
10
13.1063452
20
118.4979876
11
13.1049452
21
118.1862876
0
LINE
8
DEFAULT_255_2_778
10
13.1049452
20
118.1862876
11
13.1015452
21
118.1534876
0
LINE
8
DEFAULT_255_2_778
10
13.1015452
20
118.1534876
11
13.0941452
21
118.0992876
0
LINE
8
DEFAULT_255_2_778
10
13.0941452
20
118.0992876
11
13.0840452
21
118.0452876
0
LINE
8
DEFAULT_255_2_778
10
13.0840452
20
118.0452876
11
13.0655452
21
117.9735876
0
LINE
8
DEFAULT_255_2_778
10
13.0655452
20
117.9735876
11
13.0459452
21
117.9192876
0
LINE
8
DEFAULT_255_2_778
10
13.0459452
20
117.9192876
11
13.0049452
21
117.8428876
0
LINE
8
DEFAULT_255_2_778
10
13.0049452
20
117.8428876
11
12.9475452
21
117.7766876
0
LINE
8
DEFAULT_255_2_778
10
12.9475452
20
117.7766876
11
12.8499452
21
117.7166876
0
LINE
8
DEFAULT_255_2_778
10
12.8499452
20
117.7166876
11
12.7160452
21
117.6880876
0
LINE
8
DEFAULT_255_2_778
10
12.7160452
20
117.6880876
11
12.4152452
21
117.6869876
0
LINE
8
DEFAULT_255_2_778
10
12.4152452
20
117.6869876
11
12.4152452
21
119.0014876
0
LINE
8
DEFAULT_255_2_778
10
12.4152452
20
119.0014876
11
12.7245452
21
118.9953876
0
LINE
8
DEFAULT_255_2_778
10
13.9962753
20
117.4685051
11
14.1566753
21
117.4630051
0
LINE
8
DEFAULT_255_2_778
10
14.1566753
20
117.4630051
11
14.2913753
21
117.4960051
0
LINE
8
DEFAULT_255_2_778
10
14.2913753
20
117.4960051
11
14.3902753
21
117.5527051
0
LINE
8
DEFAULT_255_2_778
10
14.3902753
20
117.5527051
11
14.4632753
21
117.6209051
0
LINE
8
DEFAULT_255_2_778
10
14.4632753
20
117.6209051
11
14.5241753
21
117.7048051
0
LINE
8
DEFAULT_255_2_778
10
14.5241753
20
117.7048051
11
14.5598753
21
117.7707051
0
LINE
8
DEFAULT_255_2_778
10
14.5598753
20
117.7707051
11
14.5916753
21
117.8456051
0
LINE
8
DEFAULT_255_2_778
10
14.5916753
20
117.8456051
11
14.6090753
21
117.8969051
0
LINE
8
DEFAULT_255_2_778
10
14.6090753
20
117.8969051
11
14.6254753
21
117.9561051
0
LINE
8
DEFAULT_255_2_778
10
14.6254753
20
117.9561051
11
14.6387753
21
118.0162051
0
LINE
8
DEFAULT_255_2_778
10
14.6387753
20
118.0162051
11
14.6492753
21
118.0768051
0
LINE
8
DEFAULT_255_2_778
10
14.6492753
20
118.0768051
11
14.6535753
21
118.1072051
0
LINE
8
DEFAULT_255_2_778
10
14.6535753
20
118.1072051
11
14.6582753
21
118.1482051
0
LINE
8
DEFAULT_255_2_778
10
14.6582753
20
118.1482051
11
14.6619753
21
118.1892051
0
LINE
8
DEFAULT_255_2_778
10
14.6619753
20
118.1892051
11
14.6648753
21
118.2303051
0
LINE
8
DEFAULT_255_2_778
10
14.6648753
20
118.2303051
11
14.6646753
21
118.4750051
0
LINE
8
DEFAULT_255_2_778
10
14.6646753
20
118.4750051
11
14.6617753
21
118.5152051
0
LINE
8
DEFAULT_255_2_778
10
14.6617753
20
118.5152051
11
14.6577753
21
118.5554051
0
LINE
8
DEFAULT_255_2_778
10
14.6577753
20
118.5554051
11
14.6527753
21
118.5956051
0
LINE
8
DEFAULT_255_2_778
10
14.6527753
20
118.5956051
11
14.6432753
21
118.6554051
0
LINE
8
DEFAULT_255_2_778
10
14.6432753
20
118.6554051
11
14.6310753
21
118.7147051
0
LINE
8
DEFAULT_255_2_778
10
14.6310753
20
118.7147051
11
14.6156753
21
118.7732051
0
LINE
8
DEFAULT_255_2_778
10
14.6156753
20
118.7732051
11
14.5886753
21
118.8526051
0
LINE
8
DEFAULT_255_2_778
10
14.5886753
20
118.8526051
11
14.5561753
21
118.9261051
0
LINE
8
DEFAULT_255_2_778
10
14.5561753
20
118.9261051
11
14.5085753
21
119.0076051
0
LINE
8
DEFAULT_255_2_778
10
14.5085753
20
119.0076051
11
14.4447753
21
119.0867051
0
LINE
8
DEFAULT_255_2_778
10
14.4447753
20
119.0867051
11
14.3548753
21
119.1589051
0
LINE
8
DEFAULT_255_2_778
10
14.3548753
20
119.1589051
11
14.2516753
21
119.2055051
0
LINE
8
DEFAULT_255_2_778
10
14.2516753
20
119.2055051
11
14.0955753
21
119.2275051
0
LINE
8
DEFAULT_255_2_778
10
14.0955753
20
119.2275051
11
13.9576753
21
119.2108051
0
LINE
8
DEFAULT_255_2_778
10
13.9576753
20
119.2108051
11
13.8351753
21
119.1589051
0
LINE
8
DEFAULT_255_2_778
10
13.8351753
20
119.1589051
11
13.7594753
21
119.1013051
0
LINE
8
DEFAULT_255_2_778
10
13.7594753
20
119.1013051
11
13.6930753
21
119.0251051
0
LINE
8
DEFAULT_255_2_778
10
13.6930753
20
119.0251051
11
13.6430753
21
118.9441051
0
LINE
8
DEFAULT_255_2_778
10
13.6430753
20
118.9441051
11
13.6107753
21
118.8750051
0
LINE
8
DEFAULT_255_2_778
10
13.6107753
20
118.8750051
11
13.5846753
21
118.8033051
0
LINE
8
DEFAULT_255_2_778
10
13.5846753
20
118.8033051
11
13.5679753
21
118.7451051
0
LINE
8
DEFAULT_255_2_778
10
13.5679753
20
118.7451051
11
13.5544753
21
118.6861051
0
LINE
8
DEFAULT_255_2_778
10
13.5544753
20
118.6861051
11
13.5438753
21
118.6266051
0
LINE
8
DEFAULT_255_2_778
10
13.5438753
20
118.6266051
11
13.5396753
21
118.5967051
0
LINE
8
DEFAULT_255_2_778
10
13.5396753
20
118.5967051
11
13.5348753
21
118.5565051
0
LINE
8
DEFAULT_255_2_778
10
13.5348753
20
118.5565051
11
13.5311753
21
118.5160051
0
LINE
8
DEFAULT_255_2_778
10
13.5311753
20
118.5160051
11
13.5282753
21
118.4755051
0
LINE
8
DEFAULT_255_2_778
10
13.5282753
20
118.4755051
11
13.5282753
21
118.2300051
0
LINE
8
DEFAULT_255_2_778
10
13.5282753
20
118.2300051
11
13.5311753
21
118.1887051
0
LINE
8
DEFAULT_255_2_778
10
13.5311753
20
118.1887051
11
13.5348753
21
118.1477051
0
LINE
8
DEFAULT_255_2_778
10
13.5348753
20
118.1477051
11
13.5396753
21
118.1067051
0
LINE
8
DEFAULT_255_2_778
10
13.5396753
20
118.1067051
11
13.5488753
21
118.0458051
0
LINE
8
DEFAULT_255_2_778
10
13.5488753
20
118.0458051
11
13.5607753
21
117.9853051
0
LINE
8
DEFAULT_255_2_778
10
13.5607753
20
117.9853051
11
13.5756753
21
117.9255051
0
LINE
8
DEFAULT_255_2_778
10
13.5756753
20
117.9255051
11
13.6015753
21
117.8445051
0
LINE
8
DEFAULT_255_2_778
10
13.6015753
20
117.8445051
11
13.6330753
21
117.7694051
0
LINE
8
DEFAULT_255_2_778
10
13.6330753
20
117.7694051
11
13.6795753
21
117.6857051
0
LINE
8
DEFAULT_255_2_778
10
13.6795753
20
117.6857051
11
13.7430753
21
117.6045051
0
LINE
8
DEFAULT_255_2_778
10
13.7430753
20
117.6045051
11
13.8335753
21
117.5304051
0
LINE
8
DEFAULT_255_2_778
10
13.8335753
20
117.5304051
11
13.9378753
21
117.4823051
0
LINE
8
DEFAULT_255_2_778
10
13.9378753
20
117.4823051
11
13.9962753
21
117.4685051
0
LINE
8
DEFAULT_255_2_778
10
14.1545753
20
119.0304051
11
14.2619753
21
118.9925051
0
LINE
8
DEFAULT_255_2_778
10
14.2619753
20
118.9925051
11
14.3391753
21
118.9290051
0
LINE
8
DEFAULT_255_2_778
10
14.3391753
20
118.9290051
11
14.3937753
21
118.8510051
0
LINE
8
DEFAULT_255_2_778
10
14.3937753
20
118.8510051
11
14.4286753
21
118.7761051
0
LINE
8
DEFAULT_255_2_778
10
14.4286753
20
118.7761051
11
14.4500753
21
118.7131051
0
LINE
8
DEFAULT_255_2_778
10
14.4500753
20
118.7131051
11
14.4624753
21
118.6660051
0
LINE
8
DEFAULT_255_2_778
10
14.4624753
20
118.6660051
11
14.4733753
21
118.6139051
0
LINE
8
DEFAULT_255_2_778
10
14.4733753
20
118.6139051
11
14.4815753
21
118.5612051
0
LINE
8
DEFAULT_255_2_778
10
14.4815753
20
118.5612051
11
14.4847753
21
118.5348051
0
LINE
8
DEFAULT_255_2_778
10
14.4847753
20
118.5348051
11
14.4878753
21
118.5044051
0
LINE
8
DEFAULT_255_2_778
10
14.4878753
20
118.5044051
11
14.4878753
21
118.1961051
0
LINE
8
DEFAULT_255_2_778
10
14.4878753
20
118.1961051
11
14.4849753
21
118.1652051
0
LINE
8
DEFAULT_255_2_778
10
14.4849753
20
118.1652051
11
14.4781753
21
118.1115051
0
LINE
8
DEFAULT_255_2_778
10
14.4781753
20
118.1115051
11
14.4688753
21
118.0580051
0
LINE
8
DEFAULT_255_2_778
10
14.4688753
20
118.0580051
11
14.4569753
21
118.0054051
0
LINE
8
DEFAULT_255_2_778
10
14.4569753
20
118.0054051
11
14.4368753
21
117.9379051
0
LINE
8
DEFAULT_255_2_778
10
14.4368753
20
117.9379051
11
14.4032753
21
117.8577051
0
LINE
8
DEFAULT_255_2_778
10
14.4032753
20
117.8577051
11
14.3614753
21
117.7881051
0
LINE
8
DEFAULT_255_2_778
10
14.3614753
20
117.7881051
11
14.2987753
21
117.7217051
0
LINE
8
DEFAULT_255_2_778
10
14.2987753
20
117.7217051
11
14.2121753
21
117.6722051
0
LINE
8
DEFAULT_255_2_778
10
14.2121753
20
117.6722051
11
14.0822753
21
117.6535051
0
LINE
8
DEFAULT_255_2_778
10
14.0822753
20
117.6535051
11
13.9682753
21
117.6775051
0
LINE
8
DEFAULT_255_2_778
10
13.9682753
20
117.6775051
11
13.8846753
21
117.7307051
0
LINE
8
DEFAULT_255_2_778
10
13.8846753
20
117.7307051
11
13.8237753
21
117.8014051
0
LINE
8
DEFAULT_255_2_778
10
13.8237753
20
117.8014051
11
13.7843753
21
117.8723051
0
LINE
8
DEFAULT_255_2_778
10
13.7843753
20
117.8723051
11
13.7579753
21
117.9382051
0
LINE
8
DEFAULT_255_2_778
10
13.7579753
20
117.9382051
11
13.7375753
21
118.0059051
0
LINE
8
DEFAULT_255_2_778
10
13.7375753
20
118.0059051
11
13.7256753
21
118.0588051
0
LINE
8
DEFAULT_255_2_778
10
13.7256753
20
118.0588051
11
13.7163753
21
118.1123051
0
LINE
8
DEFAULT_255_2_778
10
13.7163753
20
118.1123051
11
13.7094753
21
118.1660051
0
LINE
8
DEFAULT_255_2_778
10
13.7094753
20
118.1660051
11
13.7065753
21
118.1969051
0
LINE
8
DEFAULT_255_2_778
10
13.7065753
20
118.1969051
11
13.7068753
21
118.5046051
0
LINE
8
DEFAULT_255_2_778
10
13.7068753
20
118.5046051
11
13.7100753
21
118.5351051
0
LINE
8
DEFAULT_255_2_778
10
13.7100753
20
118.5351051
11
13.7171753
21
118.5880051
0
LINE
8
DEFAULT_255_2_778
10
13.7171753
20
118.5880051
11
13.7266753
21
118.6404051
0
LINE
8
DEFAULT_255_2_778
10
13.7266753
20
118.6404051
11
13.7388753
21
118.6922051
0
LINE
8
DEFAULT_255_2_778
10
13.7388753
20
118.6922051
11
13.7594753
21
118.7589051
0
LINE
8
DEFAULT_255_2_778
10
13.7594753
20
118.7589051
11
13.7936753
21
118.8375051
0
LINE
8
DEFAULT_255_2_778
10
13.7936753
20
118.8375051
11
13.8354753
21
118.9049051
0
LINE
8
DEFAULT_255_2_778
10
13.8354753
20
118.9049051
11
13.9089753
21
118.9777051
0
LINE
8
DEFAULT_255_2_778
10
13.9089753
20
118.9777051
11
13.9970753
21
119.0214051
0
LINE
8
DEFAULT_255_2_778
10
13.9970753
20
119.0214051
11
14.1407753
21
119.0330051
0
LINE
8
DEFAULT_255_2_778
10
14.1407753
20
119.0330051
11
14.1545753
21
119.0304051
0
LINE
8
DEFAULT_255_2_778
10
16.0888753
20
119.2108051
11
15.9044753
21
119.2108051
0
LINE
8
DEFAULT_255_2_778
10
15.9044753
20
119.2108051
11
15.7502753
21
119.1486051
0
LINE
8
DEFAULT_255_2_778
10
15.7502753
20
119.1486051
11
15.6541753
21
119.0576051
0
LINE
8
DEFAULT_255_2_778
10
15.6541753
20
119.0576051
11
15.6121753
21
118.9859051
0
LINE
8
DEFAULT_255_2_778
10
15.6121753
20
118.9859051
11
15.5888753
21
118.9176051
0
LINE
8
DEFAULT_255_2_778
10
15.5888753
20
118.9176051
11
15.5800753
21
118.8740051
0
LINE
8
DEFAULT_255_2_778
10
15.5800753
20
118.8740051
11
15.5814753
21
118.6890051
0
LINE
8
DEFAULT_255_2_778
10
15.5814753
20
118.6890051
11
15.5930753
21
118.6374051
0
LINE
8
DEFAULT_255_2_778
10
15.5930753
20
118.6374051
11
15.6144753
21
118.5779051
0
LINE
8
DEFAULT_255_2_778
10
15.6144753
20
118.5779051
11
15.6660753
21
118.4930051
0
LINE
8
DEFAULT_255_2_778
10
15.6660753
20
118.4930051
11
15.7639753
21
118.4044051
0
LINE
8
DEFAULT_255_2_778
10
15.7639753
20
118.4044051
11
15.8044753
21
118.3829051
0
LINE
8
DEFAULT_255_2_778
10
15.8044753
20
118.3829051
11
15.6877753
21
118.3072051
0
LINE
8
DEFAULT_255_2_778
10
15.6877753
20
118.3072051
11
15.6211753
21
118.2289051
0
LINE
8
DEFAULT_255_2_778
10
15.6211753
20
118.2289051
11
15.5848753
21
118.1625051
0
LINE
8
DEFAULT_255_2_778
10
15.5848753
20
118.1625051
11
15.5639753
21
118.1048051
0
LINE
8
DEFAULT_255_2_778
10
15.5639753
20
118.1048051
11
15.5528753
21
118.0585051
0
LINE
8
DEFAULT_255_2_778
10
15.5528753
20
118.0585051
11
15.5475753
21
118.0255051
0
LINE
8
DEFAULT_255_2_778
10
15.5475753
20
118.0255051
11
15.5480753
21
117.8498051
0
LINE
8
DEFAULT_255_2_778
10
15.5480753
20
117.8498051
11
15.5541753
21
117.8133051
0
LINE
8
DEFAULT_255_2_778
10
15.5541753
20
117.8133051
11
15.5658753
21
117.7667051
0
LINE
8
DEFAULT_255_2_778
10
15.5658753
20
117.7667051
11
15.5922753
21
117.6979051
0
LINE
8
DEFAULT_255_2_778
10
15.5922753
20
117.6979051
11
15.6375753
21
117.6244051
0
LINE
8
DEFAULT_255_2_778
10
15.6375753
20
117.6244051
11
15.7285753
21
117.5363051
0
LINE
8
DEFAULT_255_2_778
10
15.7285753
20
117.5363051
11
15.8491753
21
117.4762051
0
LINE
8
DEFAULT_255_2_778
10
15.8491753
20
117.4762051
11
16.0312753
21
117.4558051
0
LINE
8
DEFAULT_255_2_778
10
16.0312753
20
117.4558051
11
16.1854753
21
117.4905051
0
LINE
8
DEFAULT_255_2_778
10
16.1854753
20
117.4905051
11
16.3090753
21
117.5706051
0
LINE
8
DEFAULT_255_2_778
10
16.3090753
20
117.5706051
11
16.3823753
21
117.6598051
0
LINE
8
DEFAULT_255_2_778
10
16.3823753
20
117.6598051
11
16.4172753
21
117.7310051
0
LINE
8
DEFAULT_255_2_778
10
16.4172753
20
117.7310051
11
16.4368753
21
117.7945051
0
LINE
8
DEFAULT_255_2_778
10
16.4368753
20
117.7945051
11
16.4460753
21
117.8432051
0
LINE
8
DEFAULT_255_2_778
10
16.4460753
20
117.8432051
11
16.4450753
21
118.0421051
0
LINE
8
DEFAULT_255_2_778
10
16.4450753
20
118.0421051
11
16.4354753
21
118.0882051
0
LINE
8
DEFAULT_255_2_778
10
16.4354753
20
118.0882051
11
16.4140753
21
118.1527051
0
LINE
8
DEFAULT_255_2_778
10
16.4140753
20
118.1527051
11
16.3690753
21
118.2350051
0
LINE
8
DEFAULT_255_2_778
10
16.3690753
20
118.2350051
11
16.2955753
21
118.3160051
0
LINE
8
DEFAULT_255_2_778
10
16.2955753
20
118.3160051
11
16.1896753
21
118.3813051
0
LINE
8
DEFAULT_255_2_778
10
16.1896753
20
118.3813051
11
16.2804753
21
118.4409051
0
LINE
8
DEFAULT_255_2_778
10
16.2804753
20
118.4409051
11
16.3468753
21
118.5176051
0
LINE
8
DEFAULT_255_2_778
10
16.3468753
20
118.5176051
11
16.3804753
21
118.5792051
0
LINE
8
DEFAULT_255_2_778
10
16.3804753
20
118.5792051
11
16.3997753
21
118.6330051
0
LINE
8
DEFAULT_255_2_778
10
16.3997753
20
118.6330051
11
16.4100753
21
118.6758051
0
LINE
8
DEFAULT_255_2_778
10
16.4100753
20
118.6758051
11
16.4151753
21
118.7068051
0
LINE
8
DEFAULT_255_2_778
10
16.4151753
20
118.7068051
11
16.4143753
21
118.8679051
0
LINE
8
DEFAULT_255_2_778
10
16.4143753
20
118.8679051
11
16.4085753
21
118.9007051
0
LINE
8
DEFAULT_255_2_778
10
16.4085753
20
118.9007051
11
16.3931753
21
118.9555051
0
LINE
8
DEFAULT_255_2_778
10
16.3931753
20
118.9555051
11
16.3659753
21
119.0163051
0
LINE
8
DEFAULT_255_2_778
10
16.3659753
20
119.0163051
11
16.3024753
21
119.0994051
0
LINE
8
DEFAULT_255_2_778
10
16.3024753
20
119.0994051
11
16.1997753
21
119.1735051
0
LINE
8
DEFAULT_255_2_778
10
16.1997753
20
119.1735051
11
16.0888753
21
119.2108051
0
LINE
8
DEFAULT_255_2_778
10
16.0515753
20
118.2800051
11
16.1833753
21
118.2213051
0
LINE
8
DEFAULT_255_2_778
10
16.1833753
20
118.2213051
11
16.2457753
21
118.1459051
0
LINE
8
DEFAULT_255_2_778
10
16.2457753
20
118.1459051
11
16.2706753
21
118.0845051
0
LINE
8
DEFAULT_255_2_778
10
16.2706753
20
118.0845051
11
16.2799753
21
118.0421051
0
LINE
8
DEFAULT_255_2_778
10
16.2799753
20
118.0421051
11
16.2780753
21
117.8839051
0
LINE
8
DEFAULT_255_2_778
10
16.2780753
20
117.8839051
11
16.2653753
21
117.8347051
0
LINE
8
DEFAULT_255_2_778
10
16.2653753
20
117.8347051
11
16.2322753
21
117.7672051
0
LINE
8
DEFAULT_255_2_778
10
16.2322753
20
117.7672051
11
16.1484753
21
117.6871051
0
LINE
8
DEFAULT_255_2_778
10
16.1484753
20
117.6871051
11
16.0079753
21
117.6484051
0
LINE
8
DEFAULT_255_2_778
10
16.0079753
20
117.6484051
11
15.8531753
21
117.6826051
0
LINE
8
DEFAULT_255_2_778
10
15.8531753
20
117.6826051
11
15.7671753
21
117.7598051
0
LINE
8
DEFAULT_255_2_778
10
15.7671753
20
117.7598051
11
15.7346753
21
117.8202051
0
LINE
8
DEFAULT_255_2_778
10
15.7346753
20
117.8202051
11
15.7192753
21
117.8720051
0
LINE
8
DEFAULT_255_2_778
10
15.7192753
20
117.8720051
11
15.7131753
21
117.9085051
0
LINE
8
DEFAULT_255_2_778
10
15.7131753
20
117.9085051
11
15.7150753
21
118.0421051
0
LINE
8
DEFAULT_255_2_778
10
15.7150753
20
118.0421051
11
15.7269753
21
118.0932051
0
LINE
8
DEFAULT_255_2_778
10
15.7269753
20
118.0932051
11
15.7581753
21
118.1612051
0
LINE
8
DEFAULT_255_2_778
10
15.7581753
20
118.1612051
11
15.8396753
21
118.2424051
0
LINE
8
DEFAULT_255_2_778
10
15.8396753
20
118.2424051
11
15.9751753
21
118.2840051
0
LINE
8
DEFAULT_255_2_778
10
15.9751753
20
118.2840051
11
16.0515753
21
118.2800051
0
LINE
8
DEFAULT_255_2_778
10
15.9481753
20
118.4806051
11
15.8198753
21
118.5419051
0
LINE
8
DEFAULT_255_2_778
10
15.8198753
20
118.5419051
11
15.7684753
21
118.6131051
0
LINE
8
DEFAULT_255_2_778
10
15.7684753
20
118.6131051
11
15.7499753
21
118.6689051
0
LINE
8
DEFAULT_255_2_778
10
15.7499753
20
118.6689051
11
15.7443753
21
118.7007051
0
LINE
8
DEFAULT_255_2_778
10
15.7443753
20
118.7007051
11
15.7459753
21
118.8176051
0
LINE
8
DEFAULT_255_2_778
10
15.7459753
20
118.8176051
11
15.7565753
21
118.8626051
0
LINE
8
DEFAULT_255_2_778
10
15.7565753
20
118.8626051
11
15.7891753
21
118.9282051
0
LINE
8
DEFAULT_255_2_778
10
15.7891753
20
118.9282051
11
15.8706753
21
118.9986051
0
LINE
8
DEFAULT_255_2_778
10
15.8706753
20
118.9986051
11
16.0449753
21
119.0229051
0
LINE
8
DEFAULT_255_2_778
10
16.0449753
20
119.0229051
11
16.1664753
21
118.9695051
0
LINE
8
DEFAULT_255_2_778
10
16.1664753
20
118.9695051
11
16.2211753
21
118.9010051
0
LINE
8
DEFAULT_255_2_778
10
16.2211753
20
118.9010051
11
16.2436753
21
118.8385051
0
LINE
8
DEFAULT_255_2_778
10
16.2436753
20
118.8385051
11
16.2492753
21
118.8073051
0
LINE
8
DEFAULT_255_2_778
10
16.2492753
20
118.8073051
11
16.2476753
21
118.6904051
0
LINE
8
DEFAULT_255_2_778
10
16.2476753
20
118.6904051
11
16.2370753
21
118.6449051
0
LINE
8
DEFAULT_255_2_778
10
16.2370753
20
118.6449051
11
16.2047753
21
118.5784051
0
LINE
8
DEFAULT_255_2_778
10
16.2047753
20
118.5784051
11
16.1092753
21
118.4993051
0
LINE
8
DEFAULT_255_2_778
10
16.1092753
20
118.4993051
11
15.9481753
21
118.4806051
0
LINE
8
DEFAULT_255_2_778
10
18.6892753
20
119.1830051
11
18.5791753
21
119.1939051
0
LINE
8
DEFAULT_255_2_778
10
18.5791753
20
119.1939051
11
18.0714753
21
119.1939051
0
LINE
8
DEFAULT_255_2_778
10
18.0714753
20
119.1939051
11
18.0714753
21
117.4939051
0
LINE
8
DEFAULT_255_2_778
10
18.0714753
20
117.4939051
11
18.2457753
21
117.4939051
0
LINE
8
DEFAULT_255_2_778
10
18.2457753
20
117.4939051
11
18.2457753
21
118.2554051
0
LINE
8
DEFAULT_255_2_778
10
18.2457753
20
118.2554051
11
18.6863753
21
118.2107051
0
LINE
8
DEFAULT_255_2_778
10
18.6863753
20
118.2107051
11
18.7384753
21
118.1334051
0
LINE
8
DEFAULT_255_2_778
10
18.7384753
20
118.1334051
11
18.7601753
21
118.0575051
0
LINE
8
DEFAULT_255_2_778
10
18.7601753
20
118.0575051
11
18.7688753
21
117.9998051
0
LINE
8
DEFAULT_255_2_778
10
18.7688753
20
117.9998051
11
18.7879753
21
117.8373051
0
LINE
8
DEFAULT_255_2_778
10
18.7879753
20
117.8373051
11
18.8080753
21
117.6881051
0
LINE
8
DEFAULT_255_2_778
10
18.8080753
20
117.6881051
11
18.8260753
21
117.5802051
0
LINE
8
DEFAULT_255_2_778
10
18.8260753
20
117.5802051
11
18.8439753
21
117.4950051
0
LINE
8
DEFAULT_255_2_778
10
18.8439753
20
117.4950051
11
19.0292753
21
117.4950051
0
LINE
8
DEFAULT_255_2_778
10
19.0292753
20
117.4950051
11
18.9995753
21
117.6085051
0
LINE
8
DEFAULT_255_2_778
10
18.9995753
20
117.6085051
11
18.9884753
21
117.6775051
0
LINE
8
DEFAULT_255_2_778
10
18.9884753
20
117.6775051
11
18.9670753
21
117.8413051
0
LINE
8
DEFAULT_255_2_778
10
18.9670753
20
117.8413051
11
18.9413753
21
118.0628051
0
LINE
8
DEFAULT_255_2_778
10
18.9413753
20
118.0628051
11
18.9320753
21
118.1207051
0
LINE
8
DEFAULT_255_2_778
10
18.9320753
20
118.1207051
11
18.9170753
21
118.1840051
0
LINE
8
DEFAULT_255_2_778
10
18.9170753
20
118.1840051
11
18.8847753
21
118.2609051
0
LINE
8
DEFAULT_255_2_778
10
18.8847753
20
118.2609051
11
18.8215753
21
118.3199051
0
LINE
8
DEFAULT_255_2_778
10
18.8215753
20
118.3199051
11
18.7413753
21
118.3443051
0
LINE
8
DEFAULT_255_2_778
10
18.7413753
20
118.3443051
11
18.8556753
21
118.4128051
0
LINE
8
DEFAULT_255_2_778
10
18.8556753
20
118.4128051
11
18.9286753
21
118.4983051
0
LINE
8
DEFAULT_255_2_778
10
18.9286753
20
118.4983051
11
18.9622753
21
118.5665051
0
LINE
8
DEFAULT_255_2_778
10
18.9622753
20
118.5665051
11
18.9805753
21
118.6285051
0
LINE
8
DEFAULT_255_2_778
10
18.9805753
20
118.6285051
11
18.9866753
21
118.6602051
0
LINE
8
DEFAULT_255_2_778
10
18.9866753
20
118.6602051
11
18.9905753
21
118.6925051
0
LINE
8
DEFAULT_255_2_778
10
18.9905753
20
118.6925051
11
18.9895753
21
118.8340051
0
LINE
8
DEFAULT_255_2_778
10
18.9895753
20
118.8340051
11
18.9852753
21
118.8645051
0
LINE
8
DEFAULT_255_2_778
10
18.9852753
20
118.8645051
11
18.9760753
21
118.9076051
0
LINE
8
DEFAULT_255_2_778
10
18.9760753
20
118.9076051
11
18.9543753
21
118.9714051
0
LINE
8
DEFAULT_255_2_778
10
18.9543753
20
118.9714051
11
18.9159753
21
119.0394051
0
LINE
8
DEFAULT_255_2_778
10
18.9159753
20
119.0394051
11
18.8368753
21
119.1187051
0
LINE
8
DEFAULT_255_2_778
10
18.8368753
20
119.1187051
11
18.6892753
21
119.1830051
0
LINE
8
DEFAULT_255_2_778
10
18.6130753
20
118.9923051
11
18.7479753
21
118.9285051
0
LINE
8
DEFAULT_255_2_778
10
18.7479753
20
118.9285051
11
18.7913753
21
118.8637051
0
LINE
8
DEFAULT_255_2_778
10
18.7913753
20
118.8637051
11
18.8077753
21
118.8142051
0
LINE
8
DEFAULT_255_2_778
10
18.8077753
20
118.8142051
11
18.8140753
21
118.7803051
0
LINE
8
DEFAULT_255_2_778
10
18.8140753
20
118.7803051
11
18.8117753
21
118.6311051
0
LINE
8
DEFAULT_255_2_778
10
18.8117753
20
118.6311051
11
18.7998753
21
118.5888051
0
LINE
8
DEFAULT_255_2_778
10
18.7998753
20
118.5888051
11
18.7532753
21
118.5171051
0
LINE
8
DEFAULT_255_2_778
10
18.7532753
20
118.5171051
11
18.6484753
21
118.4586051
0
LINE
8
DEFAULT_255_2_778
10
18.6484753
20
118.4586051
11
18.5495753
21
118.4483051
0
LINE
8
DEFAULT_255_2_778
10
18.5495753
20
118.4483051
11
18.2457753
21
118.4483051
0
LINE
8
DEFAULT_255_2_778
10
18.2457753
20
118.4483051
11
18.2457753
21
119.0013051
0
LINE
8
DEFAULT_255_2_778
10
18.2457753
20
119.0013051
11
18.6130753
21
118.9923051
0
LINE
8
DEFAULT_255_2_778
10
22.3481753
20
119.1939051
11
22.5396753
21
119.1939051
0
LINE
8
DEFAULT_255_2_778
10
22.5396753
20
119.1939051
11
23.0627753
21
117.4939051
0
LINE
8
DEFAULT_255_2_778
10
23.0627753
20
117.4939051
11
22.8730753
21
117.4939051
0
LINE
8
DEFAULT_255_2_778
10
22.8730753
20
117.4939051
11
22.7447753
21
117.9374051
0
LINE
8
DEFAULT_255_2_778
10
22.7447753
20
117.9374051
11
22.1446753
21
117.9374051
0
LINE
8
DEFAULT_255_2_778
10
22.1446753
20
117.9374051
11
22.0181753
21
117.4939051
0
LINE
8
DEFAULT_255_2_778
10
22.0181753
20
117.4939051
11
21.8247753
21
117.4939051
0
LINE
8
DEFAULT_255_2_778
10
21.8247753
20
117.4939051
11
22.3481753
21
119.1939051
0
LINE
8
DEFAULT_255_2_778
10
22.2010753
20
118.1300051
11
22.6899753
21
118.1300051
0
LINE
8
DEFAULT_255_2_778
10
22.6899753
20
118.1300051
11
22.4449753
21
118.9745051
0
LINE
8
DEFAULT_255_2_778
10
22.4449753
20
118.9745051
11
22.2010753
21
118.1300051
0
LINE
8
DEFAULT_255_2_778
10
27.4133753
20
119.2095051
11
27.2926753
21
119.2174051
0
LINE
8
DEFAULT_255_2_778
10
27.2926753
20
119.2174051
11
27.1765753
21
119.1873051
0
LINE
8
DEFAULT_255_2_778
10
27.1765753
20
119.1873051
11
27.0881753
21
119.1296051
0
LINE
8
DEFAULT_255_2_778
10
27.0881753
20
119.1296051
11
27.0233753
21
119.0603051
0
LINE
8
DEFAULT_255_2_778
10
27.0233753
20
119.0603051
11
26.9672753
21
118.9719051
0
LINE
8
DEFAULT_255_2_778
10
26.9672753
20
118.9719051
11
26.9333753
21
118.9002051
0
LINE
8
DEFAULT_255_2_778
10
26.9333753
20
118.9002051
11
26.9026753
21
118.8182051
0
LINE
8
DEFAULT_255_2_778
10
26.9026753
20
118.8182051
11
26.8860753
21
118.7621051
0
LINE
8
DEFAULT_255_2_778
10
26.8860753
20
118.7621051
11
26.8701753
21
118.6975051
0
LINE
8
DEFAULT_255_2_778
10
26.8701753
20
118.6975051
11
26.8576753
21
118.6322051
0
LINE
8
DEFAULT_255_2_778
10
26.8576753
20
118.6322051
11
26.8481753
21
118.5663051
0
LINE
8
DEFAULT_255_2_778
10
26.8481753
20
118.5663051
11
26.8441753
21
118.5298051
0
LINE
8
DEFAULT_255_2_778
10
26.8441753
20
118.5298051
11
26.8410753
21
118.4933051
0
LINE
8
DEFAULT_255_2_778
10
26.8410753
20
118.4933051
11
26.8410753
21
118.1977051
0
LINE
8
DEFAULT_255_2_778
10
26.8410753
20
118.1977051
11
26.8441753
21
118.1607051
0
LINE
8
DEFAULT_255_2_778
10
26.8441753
20
118.1607051
11
26.8481753
21
118.1236051
0
LINE
8
DEFAULT_255_2_778
10
26.8481753
20
118.1236051
11
26.8574753
21
118.0567051
0
LINE
8
DEFAULT_255_2_778
10
26.8574753
20
118.0567051
11
26.8695753
21
117.9903051
0
LINE
8
DEFAULT_255_2_778
10
26.8695753
20
117.9903051
11
26.8852753
21
117.9244051
0
LINE
8
DEFAULT_255_2_778
10
26.8852753
20
117.9244051
11
26.9024753
21
117.8649051
0
LINE
8
DEFAULT_255_2_778
10
26.9024753
20
117.8649051
11
26.9344753
21
117.7776051
0
LINE
8
DEFAULT_255_2_778
10
26.9344753
20
117.7776051
11
26.9754753
21
117.6916051
0
LINE
8
DEFAULT_255_2_778
10
26.9754753
20
117.6916051
11
27.0214753
21
117.6193051
0
LINE
8
DEFAULT_255_2_778
10
27.0214753
20
117.6193051
11
27.0862753
21
117.5476051
0
LINE
8
DEFAULT_255_2_778
10
27.0862753
20
117.5476051
11
27.1593753
21
117.4960051
0
LINE
8
DEFAULT_255_2_778
10
27.1593753
20
117.4960051
11
27.2802753
21
117.4582051
0
LINE
8
DEFAULT_255_2_778
10
27.2802753
20
117.4582051
11
27.4207753
21
117.4669051
0
LINE
8
DEFAULT_255_2_778
10
27.4207753
20
117.4669051
11
27.5109753
21
117.5048051
0
LINE
8
DEFAULT_255_2_778
10
27.5109753
20
117.5048051
11
27.5942753
21
117.5728051
0
LINE
8
DEFAULT_255_2_778
10
27.5942753
20
117.5728051
11
27.6456753
21
117.6368051
0
LINE
8
DEFAULT_255_2_778
10
27.6456753
20
117.6368051
11
27.6985753
21
117.7299051
0
LINE
8
DEFAULT_255_2_778
10
27.6985753
20
117.7299051
11
27.7313753
21
117.8067051
0
LINE
8
DEFAULT_255_2_778
10
27.7313753
20
117.8067051
11
27.7519753
21
117.8654051
0
LINE
8
DEFAULT_255_2_778
10
27.7519753
20
117.8654051
11
27.7694753
21
117.9249051
0
LINE
8
DEFAULT_255_2_778
10
27.7694753
20
117.9249051
11
27.7850753
21
117.9908051
0
LINE
8
DEFAULT_255_2_778
10
27.7850753
20
117.9908051
11
27.7972753
21
118.0572051
0
LINE
8
DEFAULT_255_2_778
10
27.7972753
20
118.0572051
11
27.8064753
21
118.1242051
0
LINE
8
DEFAULT_255_2_778
10
27.8064753
20
118.1242051
11
27.8104753
21
118.1612051
0
LINE
8
DEFAULT_255_2_778
10
27.8104753
20
118.1612051
11
27.8136753
21
118.1982051
0
LINE
8
DEFAULT_255_2_778
10
27.8136753
20
118.1982051
11
27.8136753
21
118.4935051
0
LINE
8
DEFAULT_255_2_778
10
27.8136753
20
118.4935051
11
27.8104753
21
118.5300051
0
LINE
8
DEFAULT_255_2_778
10
27.8104753
20
118.5300051
11
27.8064753
21
118.5665051
0
LINE
8
DEFAULT_255_2_778
10
27.8064753
20
118.5665051
11
27.7969753
21
118.6324051
0
LINE
8
DEFAULT_255_2_778
10
27.7969753
20
118.6324051
11
27.7845753
21
118.6978051
0
LINE
8
DEFAULT_255_2_778
10
27.7845753
20
118.6978051
11
27.7686753
21
118.7623051
0
LINE
8
DEFAULT_255_2_778
10
27.7686753
20
118.7623051
11
27.7509753
21
118.8208051
0
LINE
8
DEFAULT_255_2_778
10
27.7509753
20
118.8208051
11
27.7183753
21
118.9068051
0
LINE
8
DEFAULT_255_2_778
10
27.7183753
20
118.9068051
11
27.6771753
21
118.9907051
0
LINE
8
DEFAULT_255_2_778
10
27.6771753
20
118.9907051
11
27.6313753
21
119.0605051
0
LINE
8
DEFAULT_255_2_778
10
27.6313753
20
119.0605051
11
27.5667753
21
119.1298051
0
LINE
8
DEFAULT_255_2_778
10
27.5667753
20
119.1298051
11
27.4784753
21
119.1875051
0
LINE
8
DEFAULT_255_2_778
10
27.4784753
20
119.1875051
11
27.4133753
21
119.2095051
0
LINE
8
DEFAULT_255_2_778
10
27.3712753
20
119.0219051
11
27.4530753
21
118.9870051
0
LINE
8
DEFAULT_255_2_778
10
27.4530753
20
118.9870051
11
27.5194753
21
118.9195051
0
LINE
8
DEFAULT_255_2_778
10
27.5194753
20
118.9195051
11
27.5612753
21
118.8478051
0
LINE
8
DEFAULT_255_2_778
10
27.5612753
20
118.8478051
11
27.5884753
21
118.7803051
0
LINE
8
DEFAULT_255_2_778
10
27.5884753
20
118.7803051
11
27.6109753
21
118.7062051
0
LINE
8
DEFAULT_255_2_778
10
27.6109753
20
118.7062051
11
27.6226753
21
118.6560051
0
LINE
8
DEFAULT_255_2_778
10
27.6226753
20
118.6560051
11
27.6331753
21
118.5972051
0
LINE
8
DEFAULT_255_2_778
10
27.6331753
20
118.5972051
11
27.6411753
21
118.5382051
0
LINE
8
DEFAULT_255_2_778
10
27.6411753
20
118.5382051
11
27.6440753
21
118.5086051
0
LINE
8
DEFAULT_255_2_778
10
27.6440753
20
118.5086051
11
27.6440753
21
118.1765051
0
LINE
8
DEFAULT_255_2_778
10
27.6440753
20
118.1765051
11
27.6411753
21
118.1464051
0
LINE
8
DEFAULT_255_2_778
10
27.6411753
20
118.1464051
11
27.6331753
21
118.0863051
0
LINE
8
DEFAULT_255_2_778
10
27.6331753
20
118.0863051
11
27.6226753
21
118.0268051
0
LINE
8
DEFAULT_255_2_778
10
27.6226753
20
118.0268051
11
27.6104753
21
117.9733051
0
LINE
8
DEFAULT_255_2_778
10
27.6104753
20
117.9733051
11
27.5956753
21
117.9204051
0
LINE
8
DEFAULT_255_2_778
10
27.5956753
20
117.9204051
11
27.5688753
21
117.8466051
0
LINE
8
DEFAULT_255_2_778
10
27.5688753
20
117.8466051
11
27.5294753
21
117.7712051
0
LINE
8
DEFAULT_255_2_778
10
27.5294753
20
117.7712051
11
27.4720753
21
117.7027051
0
LINE
8
DEFAULT_255_2_778
10
27.4720753
20
117.7027051
11
27.3926753
21
117.6572051
0
LINE
8
DEFAULT_255_2_778
10
27.3926753
20
117.6572051
11
27.2826753
21
117.6516051
0
LINE
8
DEFAULT_255_2_778
10
27.2826753
20
117.6516051
11
27.2003753
21
117.6876051
0
LINE
8
DEFAULT_255_2_778
10
27.2003753
20
117.6876051
11
27.1336753
21
117.7569051
0
LINE
8
DEFAULT_255_2_778
10
27.1336753
20
117.7569051
11
27.0915753
21
117.8310051
0
LINE
8
DEFAULT_255_2_778
10
27.0915753
20
117.8310051
11
27.0664753
21
117.8942051
0
LINE
8
DEFAULT_255_2_778
10
27.0664753
20
117.8942051
11
27.0500753
21
117.9466051
0
LINE
8
DEFAULT_255_2_778
10
27.0500753
20
117.9466051
11
27.0365753
21
117.9998051
0
LINE
8
DEFAULT_255_2_778
10
27.0365753
20
117.9998051
11
27.0251753
21
118.0564051
0
LINE
8
DEFAULT_255_2_778
10
27.0251753
20
118.0564051
11
27.0159753
21
118.1162051
0
LINE
8
DEFAULT_255_2_778
10
27.0159753
20
118.1162051
11
27.0122753
21
118.1464051
0
LINE
8
DEFAULT_255_2_778
10
27.0122753
20
118.1464051
11
27.0092753
21
118.1765051
0
LINE
8
DEFAULT_255_2_778
10
27.0092753
20
118.1765051
11
27.0092753
21
118.5086051
0
LINE
8
DEFAULT_255_2_778
10
27.0092753
20
118.5086051
11
27.0122753
21
118.5382051
0
LINE
8
DEFAULT_255_2_778
10
27.0122753
20
118.5382051
11
27.0201753
21
118.5972051
0
LINE
8
DEFAULT_255_2_778
10
27.0201753
20
118.5972051
11
27.0307753
21
118.6560051
0
LINE
8
DEFAULT_255_2_778
10
27.0307753
20
118.6560051
11
27.0466753
21
118.7216051
0
LINE
8
DEFAULT_255_2_778
10
27.0466753
20
118.7216051
11
27.0786753
21
118.8171051
0
LINE
8
DEFAULT_255_2_778
10
27.0786753
20
118.8171051
11
27.1153753
21
118.8914051
0
LINE
8
DEFAULT_255_2_778
10
27.1153753
20
118.8914051
11
27.1728753
21
118.9642051
0
LINE
8
DEFAULT_255_2_778
10
27.1728753
20
118.9642051
11
27.2503753
21
119.0129051
0
LINE
8
DEFAULT_255_2_778
10
27.2503753
20
119.0129051
11
27.3593753
21
119.0235051
0
LINE
8
DEFAULT_255_2_778
10
27.3593753
20
119.0235051
11
27.3712753
21
119.0219051
0
LINE
8
DEFAULT_255_2_778
10
19.5514753
20
122.9054051
11
18.8537753
21
122.9054051
0
LINE
8
DEFAULT_255_2_778
10
18.8537753
20
122.9054051
11
18.8537753
21
120.9766051
0
LINE
8
DEFAULT_255_2_778
10
18.8537753
20
120.9766051
11
19.2437753
21
120.9766051
0
LINE
8
DEFAULT_255_2_778
10
19.2437753
20
120.9766051
11
19.2437753
21
122.2077051
0
LINE
8
DEFAULT_255_2_778
10
19.2437753
20
122.2077051
11
19.7771753
21
120.9560051
0
LINE
8
DEFAULT_255_2_778
10
19.7771753
20
120.9560051
11
20.1258753
21
120.9560051
0
LINE
8
DEFAULT_255_2_778
10
20.1258753
20
120.9560051
11
20.6799753
21
122.2281051
0
LINE
8
DEFAULT_255_2_778
10
20.6799753
20
122.2281051
11
20.6799753
21
120.9764051
0
LINE
8
DEFAULT_255_2_778
10
20.6799753
20
120.9764051
11
21.2339753
21
120.9764051
0
LINE
8
DEFAULT_255_2_778
10
21.2339753
20
120.9764051
11
21.2339753
21
122.9052051
0
LINE
8
DEFAULT_255_2_778
10
21.2339753
20
122.9052051
11
20.5362753
21
122.9052051
0
LINE
8
DEFAULT_255_2_778
10
20.5362753
20
122.9052051
11
20.0642753
21
121.7355051
0
LINE
8
DEFAULT_255_2_778
10
20.0642753
20
121.7355051
11
19.5512753
21
122.9052051
0
LINE
8
DEFAULT_255_2_778
10
26.6595753
20
122.5805051
11
26.7640753
21
122.5530051
0
LINE
8
DEFAULT_255_2_778
10
26.7640753
20
122.5530051
11
26.8770753
21
122.5154051
0
LINE
8
DEFAULT_255_2_778
10
26.8770753
20
122.5154051
11
26.8770753
21
122.8851051
0
LINE
8
DEFAULT_255_2_778
10
26.8770753
20
122.8851051
11
26.6116753
21
122.9285051
0
LINE
8
DEFAULT_255_2_778
10
26.6116753
20
122.9285051
11
26.3690753
21
122.9533051
0
LINE
8
DEFAULT_255_2_778
10
26.3690753
20
122.9533051
11
26.1533753
21
122.9446051
0
LINE
8
DEFAULT_255_2_778
10
26.1533753
20
122.9446051
11
25.9676753
21
122.9062051
0
LINE
8
DEFAULT_255_2_778
10
25.9676753
20
122.9062051
11
25.8136753
21
122.8443051
0
LINE
8
DEFAULT_255_2_778
10
25.8136753
20
122.8443051
11
25.6914753
21
122.7647051
0
LINE
8
DEFAULT_255_2_778
10
25.6914753
20
122.7647051
11
25.6019753
21
122.6731051
0
LINE
8
DEFAULT_255_2_778
10
25.6019753
20
122.6731051
11
25.5405753
21
122.5678051
0
LINE
8
DEFAULT_255_2_778
10
25.5405753
20
122.5678051
11
25.5056753
21
122.4456051
0
LINE
8
DEFAULT_255_2_778
10
25.5056753
20
122.4456051
11
25.5001753
21
122.3101051
0
LINE
8
DEFAULT_255_2_778
10
25.5001753
20
122.3101051
11
25.5239753
21
122.1839051
0
LINE
8
DEFAULT_255_2_778
10
25.5239753
20
122.1839051
11
25.5779753
21
122.0707051
0
LINE
8
DEFAULT_255_2_778
10
25.5779753
20
122.0707051
11
25.6612753
21
121.9683051
0
LINE
8
DEFAULT_255_2_778
10
25.6612753
20
121.9683051
11
25.7562753
21
121.8913051
0
LINE
8
DEFAULT_255_2_778
10
25.7562753
20
121.8913051
11
25.8483753
21
121.8378051
0
LINE
8
DEFAULT_255_2_778
10
25.8483753
20
121.8378051
11
26.3282753
21
121.6217051
0
LINE
8
DEFAULT_255_2_778
10
26.3282753
20
121.6217051
11
26.3748753
21
121.5955051
0
LINE
8
DEFAULT_255_2_778
10
26.3748753
20
121.5955051
11
26.4150753
21
121.5677051
0
LINE
8
DEFAULT_255_2_778
10
26.4150753
20
121.5677051
11
26.4467753
21
121.5362051
0
LINE
8
DEFAULT_255_2_778
10
26.4467753
20
121.5362051
11
26.4682753
21
121.5021051
0
LINE
8
DEFAULT_255_2_778
10
26.4682753
20
121.5021051
11
26.4766753
21
121.4674051
0
LINE
8
DEFAULT_255_2_778
10
26.4766753
20
121.4674051
11
26.4706753
21
121.4325051
0
LINE
8
DEFAULT_255_2_778
10
26.4706753
20
121.4325051
11
26.4504753
21
121.3986051
0
LINE
8
DEFAULT_255_2_778
10
26.4504753
20
121.3986051
11
26.4168753
21
121.3698051
0
LINE
8
DEFAULT_255_2_778
10
26.4168753
20
121.3698051
11
26.3732753
21
121.3465051
0
LINE
8
DEFAULT_255_2_778
10
26.3732753
20
121.3465051
11
26.3221753
21
121.3280051
0
LINE
8
DEFAULT_255_2_778
10
26.3221753
20
121.3280051
11
26.1999753
21
121.3018051
0
LINE
8
DEFAULT_255_2_778
10
26.1999753
20
121.3018051
11
26.0493753
21
121.2899051
0
LINE
8
DEFAULT_255_2_778
10
26.0493753
20
121.2899051
11
25.9623753
21
121.2912051
0
LINE
8
DEFAULT_255_2_778
10
25.9623753
20
121.2912051
11
25.8665753
21
121.2992051
0
LINE
8
DEFAULT_255_2_778
10
25.8665753
20
121.2992051
11
25.7615753
21
121.3161051
0
LINE
8
DEFAULT_255_2_778
10
25.7615753
20
121.3161051
11
25.6469753
21
121.3447051
0
LINE
8
DEFAULT_255_2_778
10
25.6469753
20
121.3447051
11
25.5228753
21
121.3873051
0
LINE
8
DEFAULT_255_2_778
10
25.5228753
20
121.3873051
11
25.5228753
21
121.0179051
0
LINE
8
DEFAULT_255_2_778
10
25.5228753
20
121.0179051
11
25.8054753
21
120.9533051
0
LINE
8
DEFAULT_255_2_778
10
25.8054753
20
120.9533051
11
26.0602753
21
120.9285051
0
LINE
8
DEFAULT_255_2_778
10
26.0602753
20
120.9285051
11
26.2859753
21
120.9372051
0
LINE
8
DEFAULT_255_2_778
10
26.2859753
20
120.9372051
11
26.4822753
21
120.9727051
0
LINE
8
DEFAULT_255_2_778
10
26.4822753
20
120.9727051
11
26.6484753
21
121.0303051
0
LINE
8
DEFAULT_255_2_778
10
26.6484753
20
121.0303051
11
26.7838753
21
121.1063051
0
LINE
8
DEFAULT_255_2_778
10
26.7838753
20
121.1063051
11
26.8857753
21
121.1960051
0
LINE
8
DEFAULT_255_2_778
10
26.8857753
20
121.1960051
11
26.9550753
21
121.2968051
0
LINE
8
DEFAULT_255_2_778
10
26.9550753
20
121.2968051
11
26.9973753
21
121.4111051
0
LINE
8
DEFAULT_255_2_778
10
26.9973753
20
121.4111051
11
27.0124753
21
121.5447051
0
LINE
8
DEFAULT_255_2_778
10
27.0124753
20
121.5447051
11
26.9984753
21
121.6778051
0
LINE
8
DEFAULT_255_2_778
10
26.9984753
20
121.6778051
11
26.9561753
21
121.7963051
0
LINE
8
DEFAULT_255_2_778
10
26.9561753
20
121.7963051
11
26.8838753
21
121.9058051
0
LINE
8
DEFAULT_255_2_778
10
26.8838753
20
121.9058051
11
26.7904753
21
121.9961051
0
LINE
8
DEFAULT_255_2_778
10
26.7904753
20
121.9961051
11
26.6936753
21
122.0593051
0
LINE
8
DEFAULT_255_2_778
10
26.6936753
20
122.0593051
11
26.5187753
21
122.1471051
0
LINE
8
DEFAULT_255_2_778
10
26.5187753
20
122.1471051
11
26.2414753
21
122.2718051
0
LINE
8
DEFAULT_255_2_778
10
26.2414753
20
122.2718051
11
26.1380753
21
122.3302051
0
LINE
8
DEFAULT_255_2_778
10
26.1380753
20
122.3302051
11
26.0978753
21
122.3630051
0
LINE
8
DEFAULT_255_2_778
10
26.0978753
20
122.3630051
11
26.0687753
21
122.4001051
0
LINE
8
DEFAULT_255_2_778
10
26.0687753
20
122.4001051
11
26.0530753
21
122.4390051
0
LINE
8
DEFAULT_255_2_778
10
26.0530753
20
122.4390051
11
26.0528753
21
122.4779051
0
LINE
8
DEFAULT_255_2_778
10
26.0528753
20
122.4779051
11
26.0676753
21
122.5173051
0
LINE
8
DEFAULT_255_2_778
10
26.0676753
20
122.5173051
11
26.0972753
21
122.5528051
0
LINE
8
DEFAULT_255_2_778
10
26.0972753
20
122.5528051
11
26.1398753
21
122.5784051
0
LINE
8
DEFAULT_255_2_778
10
26.1398753
20
122.5784051
11
26.1935753
21
122.5956051
0
LINE
8
DEFAULT_255_2_778
10
26.1935753
20
122.5956051
11
26.2541753
21
122.6070051
0
LINE
8
DEFAULT_255_2_778
10
26.2541753
20
122.6070051
11
26.3205753
21
122.6128051
0
LINE
8
DEFAULT_255_2_778
10
26.3205753
20
122.6128051
11
26.4745753
21
122.6094051
0
LINE
8
DEFAULT_255_2_778
10
26.4745753
20
122.6094051
11
26.5629753
21
122.5991051
0
LINE
8
DEFAULT_255_2_778
10
26.5629753
20
122.5991051
11
26.6592753
21
122.5808051
0
LINE
8
DEFAULT_255_2_778
10
15.2861753
20
122.5983051
11
15.3800753
21
122.5784051
0
LINE
8
DEFAULT_255_2_778
10
15.3800753
20
122.5784051
11
15.4816753
21
122.5509051
0
LINE
8
DEFAULT_255_2_778
10
15.4816753
20
122.5509051
11
15.5912753
21
122.5154051
0
LINE
8
DEFAULT_255_2_778
10
15.5912753
20
122.5154051
11
15.5912753
21
122.8851051
0
LINE
8
DEFAULT_255_2_778
10
15.5912753
20
122.8851051
11
15.3295753
21
122.9300051
0
LINE
8
DEFAULT_255_2_778
10
15.3295753
20
122.9300051
11
15.0903753
21
122.9573051
0
LINE
8
DEFAULT_255_2_778
10
15.0903753
20
122.9573051
11
14.8768753
21
122.9523051
0
LINE
8
DEFAULT_255_2_778
10
14.8768753
20
122.9523051
11
14.6916753
21
122.9195051
0
LINE
8
DEFAULT_255_2_778
10
14.6916753
20
122.9195051
11
14.5355753
21
122.8644051
0
LINE
8
DEFAULT_255_2_778
10
14.5355753
20
122.8644051
11
14.4098753
21
122.7911051
0
LINE
8
DEFAULT_255_2_778
10
14.4098753
20
122.7911051
11
14.3153753
21
122.7041051
0
LINE
8
DEFAULT_255_2_778
10
14.3153753
20
122.7041051
11
14.2489753
21
122.6014051
0
LINE
8
DEFAULT_255_2_778
10
14.2489753
20
122.6014051
11
14.2082753
21
122.4816051
0
LINE
8
DEFAULT_255_2_778
10
14.2082753
20
122.4816051
11
14.1957753
21
122.3456051
0
LINE
8
DEFAULT_255_2_778
10
14.1957753
20
122.3456051
11
14.2111753
21
122.2178051
0
LINE
8
DEFAULT_255_2_778
10
14.2111753
20
122.2178051
11
14.2537753
21
122.1056051
0
LINE
8
DEFAULT_255_2_778
10
14.2537753
20
122.1056051
11
14.3272753
21
121.9992051
0
LINE
8
DEFAULT_255_2_778
10
14.3272753
20
121.9992051
11
14.4201753
21
121.9133051
0
LINE
8
DEFAULT_255_2_778
10
14.4201753
20
121.9133051
11
14.5143753
21
121.8535051
0
LINE
8
DEFAULT_255_2_778
10
14.5143753
20
121.8535051
11
14.6850753
21
121.7704051
0
LINE
8
DEFAULT_255_2_778
10
14.6850753
20
121.7704051
11
15.0101753
21
121.6267051
0
LINE
8
DEFAULT_255_2_778
10
15.0101753
20
121.6267051
11
15.0583753
21
121.5997051
0
LINE
8
DEFAULT_255_2_778
10
15.0583753
20
121.5997051
11
15.1001753
21
121.5711051
0
LINE
8
DEFAULT_255_2_778
10
15.1001753
20
121.5711051
11
15.1332753
21
121.5394051
0
LINE
8
DEFAULT_255_2_778
10
15.1332753
20
121.5394051
11
15.1562753
21
121.5042051
0
LINE
8
DEFAULT_255_2_778
10
15.1562753
20
121.5042051
11
15.1662753
21
121.4695051
0
LINE
8
DEFAULT_255_2_778
10
15.1662753
20
121.4695051
11
15.1628753
21
121.4354051
0
LINE
8
DEFAULT_255_2_778
10
15.1628753
20
121.4354051
11
15.1459753
21
121.4005051
0
LINE
8
DEFAULT_255_2_778
10
15.1459753
20
121.4005051
11
15.1146753
21
121.3695051
0
LINE
8
DEFAULT_255_2_778
10
15.1146753
20
121.3695051
11
15.0720753
21
121.3444051
0
LINE
8
DEFAULT_255_2_778
10
15.0720753
20
121.3444051
11
15.0212753
21
121.3246051
0
LINE
8
DEFAULT_255_2_778
10
15.0212753
20
121.3246051
11
14.9630753
21
121.3095051
0
LINE
8
DEFAULT_255_2_778
10
14.9630753
20
121.3095051
11
14.8257753
21
121.2910051
0
LINE
8
DEFAULT_255_2_778
10
14.8257753
20
121.2910051
11
14.6585753
21
121.2894051
0
LINE
8
DEFAULT_255_2_778
10
14.6585753
20
121.2894051
11
14.5622753
21
121.2976051
0
LINE
8
DEFAULT_255_2_778
10
14.5622753
20
121.2976051
11
14.4566753
21
121.3150051
0
LINE
8
DEFAULT_255_2_778
10
14.4566753
20
121.3150051
11
14.3415753
21
121.3441051
0
LINE
8
DEFAULT_255_2_778
10
14.3415753
20
121.3441051
11
14.2169753
21
121.3875051
0
LINE
8
DEFAULT_255_2_778
10
14.2169753
20
121.3875051
11
14.2169753
21
121.0182051
0
LINE
8
DEFAULT_255_2_778
10
14.2169753
20
121.0182051
11
14.5024753
21
120.9523051
0
LINE
8
DEFAULT_255_2_778
10
14.5024753
20
120.9523051
11
14.7598753
21
120.9269051
0
LINE
8
DEFAULT_255_2_778
10
14.7598753
20
120.9269051
11
14.9879753
21
120.9356051
0
LINE
8
DEFAULT_255_2_778
10
14.9879753
20
120.9356051
11
15.1861753
21
120.9713051
0
LINE
8
DEFAULT_255_2_778
10
15.1861753
20
120.9713051
11
15.3538753
21
121.0295051
0
LINE
8
DEFAULT_255_2_778
10
15.3538753
20
121.0295051
11
15.4906753
21
121.1057051
0
LINE
8
DEFAULT_255_2_778
10
15.4906753
20
121.1057051
11
15.5949753
21
121.1965051
0
LINE
8
DEFAULT_255_2_778
10
15.5949753
20
121.1965051
11
15.6668753
21
121.2992051
0
LINE
8
DEFAULT_255_2_778
10
15.6668753
20
121.2992051
11
15.7097753
21
121.4137051
0
LINE
8
DEFAULT_255_2_778
10
15.7097753
20
121.4137051
11
15.7248753
21
121.5442051
0
LINE
8
DEFAULT_255_2_778
10
15.7248753
20
121.5442051
11
15.7107753
21
121.6791051
0
LINE
8
DEFAULT_255_2_778
10
15.7107753
20
121.6791051
11
15.6666753
21
121.8016051
0
LINE
8
DEFAULT_255_2_778
10
15.6666753
20
121.8016051
11
15.5930753
21
121.9117051
0
LINE
8
DEFAULT_255_2_778
10
15.5930753
20
121.9117051
11
15.5023753
21
121.9987051
0
LINE
8
DEFAULT_255_2_778
10
15.5023753
20
121.9987051
11
15.4104753
21
122.0596051
0
LINE
8
DEFAULT_255_2_778
10
15.4104753
20
122.0596051
11
15.2438753
21
122.1453051
0
LINE
8
DEFAULT_255_2_778
10
15.2438753
20
122.1453051
11
14.9241753
21
122.2913051
0
LINE
8
DEFAULT_255_2_778
10
14.9241753
20
122.2913051
11
14.8337753
21
122.3456051
0
LINE
8
DEFAULT_255_2_778
10
14.8337753
20
122.3456051
11
14.7987753
21
122.3757051
0
LINE
8
DEFAULT_255_2_778
10
14.7987753
20
122.3757051
11
14.7725753
21
122.4091051
0
LINE
8
DEFAULT_255_2_778
10
14.7725753
20
122.4091051
11
14.7575753
21
122.4432051
0
LINE
8
DEFAULT_255_2_778
10
14.7575753
20
122.4432051
11
14.7553753
21
122.4773051
0
LINE
8
DEFAULT_255_2_778
10
14.7553753
20
122.4773051
11
14.7670753
21
122.5109051
0
LINE
8
DEFAULT_255_2_778
10
14.7670753
20
122.5109051
11
14.7924753
21
122.5406051
0
LINE
8
DEFAULT_255_2_778
10
14.7924753
20
122.5406051
11
14.8294753
21
122.5652051
0
LINE
8
DEFAULT_255_2_778
10
14.8294753
20
122.5652051
11
14.8744753
21
122.5845051
0
LINE
8
DEFAULT_255_2_778
10
14.8744753
20
122.5845051
11
14.9260753
21
122.6001051
0
LINE
8
DEFAULT_255_2_778
10
14.9260753
20
122.6001051
11
14.9839753
21
122.6118051
0
LINE
8
DEFAULT_255_2_778
10
14.9839753
20
122.6118051
11
15.0490753
21
122.6181051
0
LINE
8
DEFAULT_255_2_778
10
15.0490753
20
122.6181051
11
15.1210753
21
122.6181051
0
LINE
8
DEFAULT_255_2_778
10
15.1210753
20
122.6181051
11
15.2001753
21
122.6118051
0
LINE
8
DEFAULT_255_2_778
10
15.2001753
20
122.6118051
11
15.2864753
21
122.5991051
0
LINE
8
DEFAULT_255_2_778
10
24.1068753
20
122.9054051
11
23.4707753
21
122.9054051
0
LINE
8
DEFAULT_255_2_778
10
23.4707753
20
122.9054051
11
23.4707753
21
120.9766051
0
LINE
8
DEFAULT_255_2_778
10
23.4707753
20
120.9766051
11
23.8607753
21
120.9766051
0
LINE
8
DEFAULT_255_2_778
10
23.8607753
20
120.9766051
11
23.8607753
21
122.2077051
0
LINE
8
DEFAULT_255_2_778
10
23.8607753
20
122.2077051
11
24.5584753
21
120.9766051
0
LINE
8
DEFAULT_255_2_778
10
24.5584753
20
120.9766051
11
25.1945753
21
120.9766051
0
LINE
8
DEFAULT_255_2_778
10
25.1945753
20
120.9766051
11
25.1945753
21
122.9054051
0
LINE
8
DEFAULT_255_2_778
10
25.1945753
20
122.9054051
11
24.7841753
21
122.9054051
0
LINE
8
DEFAULT_255_2_778
10
24.7841753
20
122.9054051
11
24.7841753
21
121.7153051
0
LINE
8
DEFAULT_255_2_778
10
24.7841753
20
121.7153051
11
24.1070753
21
122.9054051
0
LINE
8
DEFAULT_255_2_778
10
23.1220753
20
122.9054051
11
21.6856753
21
122.9054051
0
LINE
8
DEFAULT_255_2_778
10
21.6856753
20
122.9054051
11
21.6856753
21
120.9766051
0
LINE
8
DEFAULT_255_2_778
10
21.6856753
20
120.9766051
11
23.1424753
21
120.9766051
0
LINE
8
DEFAULT_255_2_778
10
23.1424753
20
120.9766051
11
23.1424753
21
121.3254051
0
LINE
8
DEFAULT_255_2_778
10
23.1424753
20
121.3254051
11
22.2600753
21
121.3254051
0
LINE
8
DEFAULT_255_2_778
10
22.2600753
20
121.3254051
11
22.2600753
21
121.7974051
0
LINE
8
DEFAULT_255_2_778
10
22.2600753
20
121.7974051
11
23.0193753
21
121.7974051
0
LINE
8
DEFAULT_255_2_778
10
23.0193753
20
121.7974051
11
23.0193753
21
122.1051051
0
LINE
8
DEFAULT_255_2_778
10
23.0193753
20
122.1051051
11
22.2600753
21
122.1051051
0
LINE
8
DEFAULT_255_2_778
10
22.2600753
20
122.1051051
11
22.2600753
21
122.5567051
0
LINE
8
DEFAULT_255_2_778
10
22.2600753
20
122.5567051
11
23.1217753
21
122.5567051
0
LINE
8
DEFAULT_255_2_778
10
23.1217753
20
122.5567051
11
23.1217753
21
122.9054051
0
LINE
8
DEFAULT_255_2_778
10
18.4844753
20
122.9054051
11
17.0686753
21
122.9054051
0
LINE
8
DEFAULT_255_2_778
10
17.0686753
20
122.9054051
11
17.0686753
21
120.9766051
0
LINE
8
DEFAULT_255_2_778
10
17.0686753
20
120.9766051
11
18.5050753
21
120.9766051
0
LINE
8
DEFAULT_255_2_778
10
18.5050753
20
120.9766051
11
18.5050753
21
121.3254051
0
LINE
8
DEFAULT_255_2_778
10
18.5050753
20
121.3254051
11
17.6226753
21
121.3254051
0
LINE
8
DEFAULT_255_2_778
10
17.6226753
20
121.3254051
11
17.6226753
21
121.7974051
0
LINE
8
DEFAULT_255_2_778
10
17.6226753
20
121.7974051
11
18.3820753
21
121.7974051
0
LINE
8
DEFAULT_255_2_778
10
18.3820753
20
121.7974051
11
18.3820753
21
122.1051051
0
LINE
8
DEFAULT_255_2_778
10
18.3820753
20
122.1051051
11
17.6226753
21
122.1051051
0
LINE
8
DEFAULT_255_2_778
10
17.6226753
20
122.1051051
11
17.6226753
21
122.5567051
0
LINE
8
DEFAULT_255_2_778
10
17.6226753
20
122.5567051
11
18.4844753
21
122.5567051
0
LINE
8
DEFAULT_255_2_778
10
18.4844753
20
122.5567051
11
18.4844753
21
122.9054051
0
LINE
8
DEFAULT_255_2_778
10
16.6169753
20
122.9054051
11
16.0219753
21
122.9054051
0
LINE
8
DEFAULT_255_2_778
10
16.0219753
20
122.9054051
11
16.0219753
21
120.9766051
0
LINE
8
DEFAULT_255_2_778
10
16.0219753
20
120.9766051
11
16.6169753
21
120.9766051
0
LINE
8
DEFAULT_255_2_778
10
16.6169753
20
120.9766051
11
16.6169753
21
122.9054051
0
LINE
8
DEFAULT_255_2_778
10
34.6205753
20
117.9940051
11
35.9754753
21
117.9940051
0
LINE
8
DEFAULT_255_2_778
10
35.9754753
20
117.9940051
11
35.9754753
21
117.7445051
0
LINE
8
DEFAULT_255_2_778
10
35.9754753
20
117.7445051
11
34.9213753
21
117.7445051
0
LINE
8
DEFAULT_255_2_778
10
34.9213753
20
117.7445051
11
34.9213753
21
117.0507051
0
LINE
8
DEFAULT_255_2_778
10
34.9213753
20
117.0507051
11
35.9207753
21
117.0507051
0
LINE
8
DEFAULT_255_2_778
10
35.9207753
20
117.0507051
11
35.9207753
21
116.8012051
0
LINE
8
DEFAULT_255_2_778
10
35.9207753
20
116.8012051
11
34.9213753
21
116.8012051
0
LINE
8
DEFAULT_255_2_778
10
34.9213753
20
116.8012051
11
34.9213753
21
115.7940051
0
LINE
8
DEFAULT_255_2_778
10
34.9213753
20
115.7940051
11
34.6205753
21
115.7940051
0
LINE
8
DEFAULT_255_2_778
10
34.6205753
20
115.7940051
11
34.6205753
21
117.9940051
0
LINE
8
DEFAULT_255_2_778
10
33.6447753
20
118.0067051
11
33.3976753
21
118.0371051
0
LINE
8
DEFAULT_255_2_778
10
33.3976753
20
118.0371051
11
33.1611753
21
118.0268051
0
LINE
8
DEFAULT_255_2_778
10
33.1611753
20
118.0268051
11
32.9629753
21
117.9839051
0
LINE
8
DEFAULT_255_2_778
10
32.9629753
20
117.9839051
11
32.8200753
21
117.9231051
0
LINE
8
DEFAULT_255_2_778
10
32.8200753
20
117.9231051
11
32.7065753
21
117.8456051
0
LINE
8
DEFAULT_255_2_778
10
32.7065753
20
117.8456051
11
32.6314753
21
117.7680051
0
LINE
8
DEFAULT_255_2_778
10
32.6314753
20
117.7680051
11
32.5856753
21
117.6987051
0
LINE
8
DEFAULT_255_2_778
10
32.5856753
20
117.6987051
11
32.5589753
21
117.6424051
0
LINE
8
DEFAULT_255_2_778
10
32.5589753
20
117.6424051
11
32.5446753
21
117.6032051
0
LINE
8
DEFAULT_255_2_778
10
32.5446753
20
117.6032051
11
32.5327753
21
117.5598051
0
LINE
8
DEFAULT_255_2_778
10
32.5327753
20
117.5598051
11
32.5240753
21
117.5156051
0
LINE
8
DEFAULT_255_2_778
10
32.5240753
20
117.5156051
11
32.5240753
21
117.2950051
0
LINE
8
DEFAULT_255_2_778
10
32.5240753
20
117.2950051
11
32.5367753
21
117.2373051
0
LINE
8
DEFAULT_255_2_778
10
32.5367753
20
117.2373051
11
32.5634753
21
117.1650051
0
LINE
8
DEFAULT_255_2_778
10
32.5634753
20
117.1650051
11
32.6163753
21
117.0777051
0
LINE
8
DEFAULT_255_2_778
10
32.6163753
20
117.0777051
11
32.7211753
21
116.9796051
0
LINE
8
DEFAULT_255_2_778
10
32.7211753
20
116.9796051
11
32.9118753
21
116.8848051
0
LINE
8
DEFAULT_255_2_778
10
32.9118753
20
116.8848051
11
33.0738753
21
116.8370051
0
LINE
8
DEFAULT_255_2_778
10
33.0738753
20
116.8370051
11
33.6413753
21
116.6922051
0
LINE
8
DEFAULT_255_2_778
10
33.6413753
20
116.6922051
11
33.7783753
21
116.6097051
0
LINE
8
DEFAULT_255_2_778
10
33.7783753
20
116.6097051
11
33.8244753
21
116.5549051
0
LINE
8
DEFAULT_255_2_778
10
33.8244753
20
116.5549051
11
33.8471753
21
116.5054051
0
LINE
8
DEFAULT_255_2_778
10
33.8471753
20
116.5054051
11
33.8577753
21
116.4623051
0
LINE
8
DEFAULT_255_2_778
10
33.8577753
20
116.4623051
11
33.8559753
21
116.3144051
0
LINE
8
DEFAULT_255_2_778
10
33.8559753
20
116.3144051
11
33.8426753
21
116.2649051
0
LINE
8
DEFAULT_255_2_778
10
33.8426753
20
116.2649051
11
33.8167753
21
116.2070051
0
LINE
8
DEFAULT_255_2_778
10
33.8167753
20
116.2070051
11
33.7630753
21
116.1369051
0
LINE
8
DEFAULT_255_2_778
10
33.7630753
20
116.1369051
11
33.6252753
21
116.0461051
0
LINE
8
DEFAULT_255_2_778
10
33.6252753
20
116.0461051
11
33.4235753
21
116.0025051
0
LINE
8
DEFAULT_255_2_778
10
33.4235753
20
116.0025051
11
33.1502753
21
116.0138051
0
LINE
8
DEFAULT_255_2_778
10
33.1502753
20
116.0138051
11
32.9359753
21
116.1107051
0
LINE
8
DEFAULT_255_2_778
10
32.9359753
20
116.1107051
11
32.8333753
21
116.2342051
0
LINE
8
DEFAULT_255_2_778
10
32.8333753
20
116.2342051
11
32.8026753
21
116.3120051
0
LINE
8
DEFAULT_255_2_778
10
32.8026753
20
116.3120051
11
32.7944753
21
116.3536051
0
LINE
8
DEFAULT_255_2_778
10
32.7944753
20
116.3536051
11
32.7936753
21
116.4316051
0
LINE
8
DEFAULT_255_2_778
10
32.7936753
20
116.4316051
11
32.4912753
21
116.4316051
0
LINE
8
DEFAULT_255_2_778
10
32.4912753
20
116.4316051
11
32.4925753
21
116.3665051
0
LINE
8
DEFAULT_255_2_778
10
32.4925753
20
116.3665051
11
32.4946753
21
116.3451051
0
LINE
8
DEFAULT_255_2_778
10
32.4946753
20
116.3451051
11
32.5012753
21
116.3028051
0
LINE
8
DEFAULT_255_2_778
10
32.5012753
20
116.3028051
11
32.5107753
21
116.2612051
0
LINE
8
DEFAULT_255_2_778
10
32.5107753
20
116.2612051
11
32.5306753
21
116.2009051
0
LINE
8
DEFAULT_255_2_778
10
32.5306753
20
116.2009051
11
32.5663753
21
116.1244051
0
LINE
8
DEFAULT_255_2_778
10
32.5663753
20
116.1244051
11
32.6256753
21
116.0350051
0
LINE
8
DEFAULT_255_2_778
10
32.6256753
20
116.0350051
11
32.7028753
21
115.9511051
0
LINE
8
DEFAULT_255_2_778
10
32.7028753
20
115.9511051
11
32.8113753
21
115.8686051
0
LINE
8
DEFAULT_255_2_778
10
32.8113753
20
115.8686051
11
32.9425753
21
115.8051051
0
LINE
8
DEFAULT_255_2_778
10
32.9425753
20
115.8051051
11
33.1322753
21
115.7609051
0
LINE
8
DEFAULT_255_2_778
10
33.1322753
20
115.7609051
11
33.4265753
21
115.7535051
0
LINE
8
DEFAULT_255_2_778
10
33.4265753
20
115.7535051
11
33.6405753
21
115.7855051
0
LINE
8
DEFAULT_255_2_778
10
33.6405753
20
115.7855051
11
33.8141753
21
115.8493051
0
LINE
8
DEFAULT_255_2_778
10
33.8141753
20
115.8493051
11
33.9307753
21
115.9226051
0
LINE
8
DEFAULT_255_2_778
10
33.9307753
20
115.9226051
11
34.0114753
21
115.9974051
0
LINE
8
DEFAULT_255_2_778
10
34.0114753
20
115.9974051
11
34.0649753
21
116.0673051
0
LINE
8
DEFAULT_255_2_778
10
34.0649753
20
116.0673051
11
34.1064753
21
116.1445051
0
LINE
8
DEFAULT_255_2_778
10
34.1064753
20
116.1445051
11
34.1300753
21
116.2059051
0
LINE
8
DEFAULT_255_2_778
10
34.1300753
20
116.2059051
11
34.1427753
21
116.2504051
0
LINE
8
DEFAULT_255_2_778
10
34.1427753
20
116.2504051
11
34.1527753
21
116.2977051
0
LINE
8
DEFAULT_255_2_778
10
34.1527753
20
116.2977051
11
34.1517753
21
116.5726051
0
LINE
8
DEFAULT_255_2_778
10
34.1517753
20
116.5726051
11
34.1379753
21
116.6256051
0
LINE
8
DEFAULT_255_2_778
10
34.1379753
20
116.6256051
11
34.1078753
21
116.6988051
0
LINE
8
DEFAULT_255_2_778
10
34.1078753
20
116.6988051
11
34.0490753
21
116.7864051
0
LINE
8
DEFAULT_255_2_778
10
34.0490753
20
116.7864051
11
33.9122753
21
116.8989051
0
LINE
8
DEFAULT_255_2_778
10
33.9122753
20
116.8989051
11
33.6797753
21
116.9957051
0
LINE
8
DEFAULT_255_2_778
10
33.6797753
20
116.9957051
11
33.0201753
21
117.1658051
0
LINE
8
DEFAULT_255_2_778
10
33.0201753
20
117.1658051
11
32.8888753
21
117.2526051
0
LINE
8
DEFAULT_255_2_778
10
32.8888753
20
117.2526051
11
32.8475753
21
117.3122051
0
LINE
8
DEFAULT_255_2_778
10
32.8475753
20
117.3122051
11
32.8301753
21
117.3619051
0
LINE
8
DEFAULT_255_2_778
10
32.8301753
20
117.3619051
11
32.8243753
21
117.3934051
0
LINE
8
DEFAULT_255_2_778
10
32.8243753
20
117.3934051
11
32.8266753
21
117.4910051
0
LINE
8
DEFAULT_255_2_778
10
32.8266753
20
117.4910051
11
32.8375753
21
117.5333051
0
LINE
8
DEFAULT_255_2_778
10
32.8375753
20
117.5333051
11
32.8655753
21
117.5939051
0
LINE
8
DEFAULT_255_2_778
10
32.8655753
20
117.5939051
11
32.9248753
21
117.6638051
0
LINE
8
DEFAULT_255_2_778
10
32.9248753
20
117.6638051
11
33.0648753
21
117.7410051
0
LINE
8
DEFAULT_255_2_778
10
33.0648753
20
117.7410051
11
33.2759753
21
117.7807051
0
LINE
8
DEFAULT_255_2_778
10
33.2759753
20
117.7807051
11
33.4757753
21
117.7699051
0
LINE
8
DEFAULT_255_2_778
10
33.4757753
20
117.7699051
11
33.7040753
21
117.6572051
0
LINE
8
DEFAULT_255_2_778
10
33.7040753
20
117.6572051
11
33.7757753
21
117.5540051
0
LINE
8
DEFAULT_255_2_778
10
33.7757753
20
117.5540051
11
33.7958753
21
117.4889051
0
LINE
8
DEFAULT_255_2_778
10
33.7958753
20
117.4889051
11
33.8000753
21
117.4590051
0
LINE
8
DEFAULT_255_2_778
10
33.8000753
20
117.4590051
11
33.8011753
21
117.4439051
0
LINE
8
DEFAULT_255_2_778
10
33.8011753
20
117.4439051
11
34.1067753
21
117.4439051
0
LINE
8
DEFAULT_255_2_778
10
34.1067753
20
117.4439051
11
34.1056753
21
117.5206051
0
LINE
8
DEFAULT_255_2_778
10
34.1056753
20
117.5206051
11
34.1035753
21
117.5394051
0
LINE
8
DEFAULT_255_2_778
10
34.1035753
20
117.5394051
11
34.0969753
21
117.5762051
0
LINE
8
DEFAULT_255_2_778
10
34.0969753
20
117.5762051
11
34.0821753
21
117.6294051
0
LINE
8
DEFAULT_255_2_778
10
34.0821753
20
117.6294051
11
34.0533753
21
117.6966051
0
LINE
8
DEFAULT_255_2_778
10
34.0533753
20
117.6966051
11
34.0046753
21
117.7738051
0
LINE
8
DEFAULT_255_2_778
10
34.0046753
20
117.7738051
11
33.9318753
21
117.8543051
0
LINE
8
DEFAULT_255_2_778
10
33.9318753
20
117.8543051
11
33.8273753
21
117.9323051
0
LINE
8
DEFAULT_255_2_778
10
33.8273753
20
117.9323051
11
33.6984753
21
117.9916051
0
LINE
8
DEFAULT_255_2_778
10
33.6984753
20
117.9916051
11
33.6455753
21
118.0072051
0
ENDSEC
0
EOF