0
SECTION
2
HEADER
9
$MEASUREMENT
70
1
0
ENDSEC
0
SECTION
2
TABLES
0
TABLE
2
LTYPE
0
LTYPE
72
65
70
64
2
CONTINUOUS
3
______
73
0
40
0
0
ENDTAB
0
TABLE
2
LAYER
0
LAYER
2
DEFAULT_255_2_778
70
0
62
255
6
CONTINUOUS
0
ENDTAB
0
ENDSEC
0
SECTION
2
ENTITIES
0
LINE
8
DEFAULT_255_2_778
10
46.5531281
20
76.3813473
11
46.3035281
21
76.3813473
0
LINE
8
DEFAULT_255_2_778
10
46.3035281
20
76.3813473
11
46.0387281
21
76.1741473
0
LINE
8
DEFAULT_255_2_778
10
46.0387281
20
76.1741473
11
45.7765281
21
76.0429473
0
LINE
8
DEFAULT_255_2_778
10
45.7765281
20
76.0429473
11
45.7765281
21
75.7685473
0
LINE
8
DEFAULT_255_2_778
10
45.7765281
20
75.7685473
11
46.1533281
21
75.9603473
0
LINE
8
DEFAULT_255_2_778
10
46.1533281
20
75.9603473
11
46.2583281
21
76.0413473
0
LINE
8
DEFAULT_255_2_778
10
46.2583281
20
76.0413473
11
46.2583281
21
74.1937473
0
LINE
8
DEFAULT_255_2_778
10
46.2583281
20
74.1937473
11
46.5531281
21
74.1937473
0
LINE
8
DEFAULT_255_2_778
10
46.5531281
20
74.1937473
11
46.5531281
21
76.3813473
0
LINE
8
DEFAULT_255_2_778
10
46.5591281
20
32.7933473
11
46.3493281
21
32.8383473
0
LINE
8
DEFAULT_255_2_778
10
46.3493281
20
32.8383473
11
46.2041281
21
32.9476473
0
LINE
8
DEFAULT_255_2_778
10
46.2041281
20
32.9476473
11
46.1279281
21
33.0584473
0
LINE
8
DEFAULT_255_2_778
10
46.1279281
20
33.0584473
11
46.0882281
21
33.1555473
0
LINE
8
DEFAULT_255_2_778
10
46.0882281
20
33.1555473
11
46.0773281
21
33.1939473
0
LINE
8
DEFAULT_255_2_778
10
46.0773281
20
33.1939473
11
45.7765281
21
33.1939473
0
LINE
8
DEFAULT_255_2_778
10
45.7765281
20
33.1939473
11
45.7850281
21
33.1465473
0
LINE
8
DEFAULT_255_2_778
10
45.7850281
20
33.1465473
11
45.7961281
21
33.0997473
0
LINE
8
DEFAULT_255_2_778
10
45.7961281
20
33.0997473
11
45.8178281
21
33.0306473
0
LINE
8
DEFAULT_255_2_778
10
45.8178281
20
33.0306473
11
45.8543281
21
32.9462473
0
LINE
8
DEFAULT_255_2_778
10
45.8543281
20
32.9462473
11
45.9001281
21
32.8685473
0
LINE
8
DEFAULT_255_2_778
10
45.9001281
20
32.8685473
11
45.9710281
21
32.7809473
0
LINE
8
DEFAULT_255_2_778
10
45.9710281
20
32.7809473
11
46.0575281
21
32.7034473
0
LINE
8
DEFAULT_255_2_778
10
46.0575281
20
32.7034473
11
46.1898281
21
32.6221473
0
LINE
8
DEFAULT_255_2_778
10
46.1898281
20
32.6221473
11
46.3374281
21
32.5695473
0
LINE
8
DEFAULT_255_2_778
10
46.3374281
20
32.5695473
11
46.5284281
21
32.5446473
0
LINE
8
DEFAULT_255_2_778
10
46.5284281
20
32.5446473
11
46.7369281
21
32.5568473
0
LINE
8
DEFAULT_255_2_778
10
46.7369281
20
32.5568473
11
46.9240281
21
32.6047473
0
LINE
8
DEFAULT_255_2_778
10
46.9240281
20
32.6047473
11
47.0671281
21
32.6772473
0
LINE
8
DEFAULT_255_2_778
10
47.0671281
20
32.6772473
11
47.1666281
21
32.7579473
0
LINE
8
DEFAULT_255_2_778
10
47.1666281
20
32.7579473
11
47.2336281
21
32.8380473
0
LINE
8
DEFAULT_255_2_778
10
47.2336281
20
32.8380473
11
47.2748281
21
32.9097473
0
LINE
8
DEFAULT_255_2_778
10
47.2748281
20
32.9097473
11
47.2989281
21
32.9671473
0
LINE
8
DEFAULT_255_2_778
10
47.2989281
20
32.9671473
11
47.3174281
21
33.0283473
0
LINE
8
DEFAULT_255_2_778
10
47.3174281
20
33.0283473
11
47.3267281
21
33.0724473
0
LINE
8
DEFAULT_255_2_778
10
47.3267281
20
33.0724473
11
47.3330281
21
33.1172473
0
LINE
8
DEFAULT_255_2_778
10
47.3330281
20
33.1172473
11
47.3309281
21
33.3045473
0
LINE
8
DEFAULT_255_2_778
10
47.3309281
20
33.3045473
11
47.3203281
21
33.3603473
0
LINE
8
DEFAULT_255_2_778
10
47.3203281
20
33.3603473
11
47.2965281
21
33.4323473
0
LINE
8
DEFAULT_255_2_778
10
47.2965281
20
33.4323473
11
47.2312281
21
33.5389473
0
LINE
8
DEFAULT_255_2_778
10
47.2312281
20
33.5389473
11
47.0727281
21
33.6678473
0
LINE
8
DEFAULT_255_2_778
10
47.0727281
20
33.6678473
11
46.9293281
21
33.7196473
0
LINE
8
DEFAULT_255_2_778
10
46.9293281
20
33.7196473
11
47.0735281
21
33.8035473
0
LINE
8
DEFAULT_255_2_778
10
47.0735281
20
33.8035473
11
47.1640281
21
33.8879473
0
LINE
8
DEFAULT_255_2_778
10
47.1640281
20
33.8879473
11
47.2124281
21
33.9535473
0
LINE
8
DEFAULT_255_2_778
10
47.2124281
20
33.9535473
11
47.2489281
21
34.0242473
0
LINE
8
DEFAULT_255_2_778
10
47.2489281
20
34.0242473
11
47.2687281
21
34.0802473
0
LINE
8
DEFAULT_255_2_778
10
47.2687281
20
34.0802473
11
47.2788281
21
34.1210473
0
LINE
8
DEFAULT_255_2_778
10
47.2788281
20
34.1210473
11
47.2857281
21
34.1625473
0
LINE
8
DEFAULT_255_2_778
10
47.2857281
20
34.1625473
11
47.2836281
21
34.3451473
0
LINE
8
DEFAULT_255_2_778
10
47.2836281
20
34.3451473
11
47.2759281
21
34.3837473
0
LINE
8
DEFAULT_255_2_778
10
47.2759281
20
34.3837473
11
47.2595281
21
34.4393473
0
LINE
8
DEFAULT_255_2_778
10
47.2595281
20
34.4393473
11
47.2291281
21
34.5070473
0
LINE
8
DEFAULT_255_2_778
10
47.2291281
20
34.5070473
11
47.1888281
21
34.5695473
0
LINE
8
DEFAULT_255_2_778
10
47.1888281
20
34.5695473
11
47.1081281
21
34.6539473
0
LINE
8
DEFAULT_255_2_778
10
47.1081281
20
34.6539473
11
46.9819281
21
34.7369473
0
LINE
8
DEFAULT_255_2_778
10
46.9819281
20
34.7369473
11
46.8248281
21
34.7959473
0
LINE
8
DEFAULT_255_2_778
10
46.8248281
20
34.7959473
11
46.6184281
21
34.8256473
0
LINE
8
DEFAULT_255_2_778
10
46.6184281
20
34.8256473
11
46.3972281
21
34.8153473
0
LINE
8
DEFAULT_255_2_778
10
46.3972281
20
34.8153473
11
46.2244281
21
34.7721473
0
LINE
8
DEFAULT_255_2_778
10
46.2244281
20
34.7721473
11
46.0202281
21
34.6523473
0
LINE
8
DEFAULT_255_2_778
10
46.0202281
20
34.6523473
11
45.9181281
21
34.5322473
0
LINE
8
DEFAULT_255_2_778
10
45.9181281
20
34.5322473
11
45.8704281
21
34.4287473
0
LINE
8
DEFAULT_255_2_778
10
45.8704281
20
34.4287473
11
45.8514281
21
34.3581473
0
LINE
8
DEFAULT_255_2_778
10
45.8514281
20
34.3581473
11
45.8434281
21
34.3086473
0
LINE
8
DEFAULT_255_2_778
10
45.8434281
20
34.3086473
11
45.8411281
21
34.2837473
0
LINE
8
DEFAULT_255_2_778
10
45.8411281
20
34.2837473
11
45.8392281
21
34.2218473
0
LINE
8
DEFAULT_255_2_778
10
45.8392281
20
34.2218473
11
46.1244281
21
34.2218473
0
LINE
8
DEFAULT_255_2_778
10
46.1244281
20
34.2218473
11
46.1268281
21
34.2710473
0
LINE
8
DEFAULT_255_2_778
10
46.1268281
20
34.2710473
11
46.1332281
21
34.3075473
0
LINE
8
DEFAULT_255_2_778
10
46.1332281
20
34.3075473
11
46.1469281
21
34.3533473
0
LINE
8
DEFAULT_255_2_778
10
46.1469281
20
34.3533473
11
46.1779281
21
34.4147473
0
LINE
8
DEFAULT_255_2_778
10
46.1779281
20
34.4147473
11
46.2588281
21
34.4993473
0
LINE
8
DEFAULT_255_2_778
10
46.2588281
20
34.4993473
11
46.3882281
21
34.5652473
0
LINE
8
DEFAULT_255_2_778
10
46.3882281
20
34.5652473
11
46.5951281
21
34.5890473
0
LINE
8
DEFAULT_255_2_778
10
46.5951281
20
34.5890473
11
46.7663281
21
34.5552473
0
LINE
8
DEFAULT_255_2_778
10
46.7663281
20
34.5552473
11
46.8938281
21
34.4769473
0
LINE
8
DEFAULT_255_2_778
10
46.8938281
20
34.4769473
11
46.9520281
21
34.4052473
0
LINE
8
DEFAULT_255_2_778
10
46.9520281
20
34.4052473
11
46.9801281
21
34.3419473
0
LINE
8
DEFAULT_255_2_778
10
46.9801281
20
34.3419473
11
46.9920281
21
34.2940473
0
LINE
8
DEFAULT_255_2_778
10
46.9920281
20
34.2940473
11
46.9899281
21
34.1440473
0
LINE
8
DEFAULT_255_2_778
10
46.9899281
20
34.1440473
11
46.9727281
21
34.0908473
0
LINE
8
DEFAULT_255_2_778
10
46.9727281
20
34.0908473
11
46.9237281
21
34.0128473
0
LINE
8
DEFAULT_255_2_778
10
46.9237281
20
34.0128473
11
46.7875281
21
33.9080473
0
LINE
8
DEFAULT_255_2_778
10
46.7875281
20
33.9080473
11
46.5528281
21
33.8432473
0
LINE
8
DEFAULT_255_2_778
10
46.5528281
20
33.8432473
11
46.4007281
21
33.8413473
0
LINE
8
DEFAULT_255_2_778
10
46.4007281
20
33.8413473
11
46.4007281
21
33.5950473
0
LINE
8
DEFAULT_255_2_778
10
46.4007281
20
33.5950473
11
46.7176281
21
33.5738473
0
LINE
8
DEFAULT_255_2_778
10
46.7176281
20
33.5738473
11
46.9102281
21
33.4908473
0
LINE
8
DEFAULT_255_2_778
10
46.9102281
20
33.4908473
11
46.9867281
21
33.4159473
0
LINE
8
DEFAULT_255_2_778
10
46.9867281
20
33.4159473
11
47.0195281
21
33.3569473
0
LINE
8
DEFAULT_255_2_778
10
47.0195281
20
33.3569473
11
47.0335281
21
33.3124473
0
LINE
8
DEFAULT_255_2_778
10
47.0335281
20
33.3124473
11
47.0396281
21
33.2775473
0
LINE
8
DEFAULT_255_2_778
10
47.0396281
20
33.2775473
11
47.0386281
21
33.1576473
0
LINE
8
DEFAULT_255_2_778
10
47.0386281
20
33.1576473
11
47.0306281
21
33.1150473
0
LINE
8
DEFAULT_255_2_778
10
47.0306281
20
33.1150473
11
47.0150281
21
33.0632473
0
LINE
8
DEFAULT_255_2_778
10
47.0150281
20
33.0632473
11
46.9870281
21
33.0037473
0
LINE
8
DEFAULT_255_2_778
10
46.9870281
20
33.0037473
11
46.9216281
21
32.9216473
0
LINE
8
DEFAULT_255_2_778
10
46.9216281
20
32.9216473
11
46.8057281
21
32.8425473
0
LINE
8
DEFAULT_255_2_778
10
46.8057281
20
32.8425473
11
46.6255281
21
32.7960473
0
LINE
8
DEFAULT_255_2_778
10
46.6255281
20
32.7960473
11
46.5591281
21
32.7933473
0
ARC
8
DEFAULT_255_2_778
10
1.212914
20
0.7924452
40
0.9963191
50
179.916016
51
221.6459452
0
ARC
8
DEFAULT_255_2_778
10
1.2155415
20
0.7914643
40
0.9976339
50
221.5035703
51
268.2692494
0
ARC
8
DEFAULT_255_2_778
10
1.2166862
20
0.8125647
40
1.0187593
50
268.2407389
51
270.0005447
0
ARC
8
DEFAULT_255_2_778
10
1.2152769
20
123.797484
40
0.9963226
50
89.9183951
51
131.6458612
0
ARC
8
DEFAULT_255_2_778
10
1.2142574
20
123.7948219
40
0.9976376
50
131.5005114
51
178.267068
0
ARC
8
DEFAULT_255_2_778
10
1.2353551
20
123.7937152
40
1.0187592
50
178.2407388
51
180.0005446
0
LINE
8
DEFAULT_255_2_778
10
1.2166959
20
-0.2061944
11
80.2167959
21
-0.2061944
0
LINE
8
DEFAULT_255_2_778
10
80.2167959
20
-0.2061944
11
80.2167959
21
124.7938056
0
LINE
8
DEFAULT_255_2_778
10
80.2167959
20
124.7938056
11
1.2166959
21
124.7938056
0
LINE
8
DEFAULT_255_2_778
10
0.2165959
20
123.7937056
11
0.2165959
21
0.7936056
0
LINE
8
DEFAULT_255_2_778
10
6.7666017
20
9.4439056
11
1.6665017
21
9.4439056
0
LINE
8
DEFAULT_255_2_778
10
1.6665017
20
9.4439056
11
1.6665017
21
4.3438056
0
LINE
8
DEFAULT_255_2_778
10
1.6665017
20
4.3438056
11
6.7666017
21
4.3438056
0
LINE
8
DEFAULT_255_2_778
10
6.7666017
20
4.3438056
11
6.7666017
21
9.4439056
0
LINE
8
DEFAULT_255_2_778
10
42.7166017
20
-0.2061944
11
42.7166017
21
2.0938056
0
LINE
8
DEFAULT_255_2_778
10
42.7166017
20
2.0938056
11
49.8167017
21
2.0938056
0
LINE
8
DEFAULT_255_2_778
10
49.8167017
20
2.0938056
11
49.8167017
21
122.4938056
0
LINE
8
DEFAULT_255_2_778
10
49.8167017
20
122.4938056
11
42.7166017
21
122.4938056
0
LINE
8
DEFAULT_255_2_778
10
42.7166017
20
122.4938056
11
42.7166017
21
124.7938056
0
ARC
8
DEFAULT_255_2_778
10
69.0647762
20
20.6881685
40
1.1943384
50
234.5479662
51
270.0918639
0
ARC
8
DEFAULT_255_2_778
10
69.0658041
20
20.6932153
40
1.1990475
50
185.3464965
51
234.6478285
0
ARC
8
DEFAULT_255_2_778
10
69.0813821
20
20.6935685
40
1.2145911
50
179.9923059
51
185.2946162
0
ARC
8
DEFAULT_255_2_778
10
69.0610225
20
20.6955499
40
1.1942328
50
144.5463566
51
180.0872367
0
ARC
8
DEFAULT_255_2_778
10
69.0663484
20
20.6944924
40
1.1991866
50
95.3542067
51
144.6527959
0
ARC
8
DEFAULT_255_2_778
10
69.0665257
20
20.679696
40
1.2139355
50
89.9921948
51
95.2973763
0
ARC
8
DEFAULT_255_2_778
10
69.0647762
20
46.6879685
40
1.1943384
50
234.5479662
51
270.0918639
0
ARC
8
DEFAULT_255_2_778
10
69.0658041
20
46.6930153
40
1.1990475
50
185.3464965
51
234.6478285
0
ARC
8
DEFAULT_255_2_778
10
69.0813821
20
46.6933685
40
1.2145911
50
179.9923059
51
185.2946162
0
ARC
8
DEFAULT_255_2_778
10
69.0610225
20
46.6953499
40
1.1942328
50
144.5463566
51
180.0872367
0
ARC
8
DEFAULT_255_2_778
10
69.0663484
20
46.6942924
40
1.1991866
50
95.3542067
51
144.6527959
0
ARC
8
DEFAULT_255_2_778
10
69.0665257
20
46.679496
40
1.2139355
50
89.9921948
51
95.2973763
0
ARC
8
DEFAULT_255_2_778
10
69.064763
20
77.8877753
40
1.1944452
50
234.5578036
51
270.0924899
0
ARC
8
DEFAULT_255_2_778
10
69.0656369
20
77.8925931
40
1.1988788
50
185.3466739
51
234.6572939
0
ARC
8
DEFAULT_255_2_778
10
69.0813091
20
77.8929658
40
1.214518
50
179.992175
51
185.2952861
0
ARC
8
DEFAULT_255_2_778
10
69.0610576
20
77.8949822
40
1.1942679
50
144.5468923
51
180.0887817
0
ARC
8
DEFAULT_255_2_778
10
69.0662908
20
77.893934
40
1.1991408
50
95.3516494
51
144.6511289
0
ARC
8
DEFAULT_255_2_778
10
69.0665258
20
77.8789088
40
1.2141228
50
89.9921976
51
95.2965583
0
ARC
8
DEFAULT_255_2_778
10
69.0647762
20
103.8879685
40
1.1943384
50
234.5479662
51
270.0918639
0
ARC
8
DEFAULT_255_2_778
10
69.0658041
20
103.8930153
40
1.1990475
50
185.3464965
51
234.6478285
0
ARC
8
DEFAULT_255_2_778
10
69.0813821
20
103.8933685
40
1.2145911
50
179.9923059
51
185.2946162
0
ARC
8
DEFAULT_255_2_778
10
69.0610225
20
103.8953499
40
1.1942328
50
144.5463566
51
180.0872367
0
ARC
8
DEFAULT_255_2_778
10
69.0663484
20
103.8942924
40
1.1991866
50
95.3542067
51
144.6527959
0
ARC
8
DEFAULT_255_2_778
10
69.0665257
20
103.879496
40
1.2139355
50
89.9921948
51
95.2973763
0
ARC
8
DEFAULT_255_2_778
10
51.3685234
20
103.8992262
40
1.194407
50
54.5513289
51
90.0926922
0
ARC
8
DEFAULT_255_2_778
10
51.3675624
20
103.8943262
40
1.1989577
50
5.3438778
51
54.6497258
0
ARC
8
DEFAULT_255_2_778
10
51.3515959
20
103.8938958
40
1.2148953
50
359.9922565
51
5.293957
0
ARC
8
DEFAULT_255_2_778
10
51.3724081
20
103.8918999
40
1.1940844
50
324.5440759
51
0.0878931
0
ARC
8
DEFAULT_255_2_778
10
51.3669867
20
103.8930689
40
1.1991807
50
275.3516985
51
324.6488348
0
ARC
8
DEFAULT_255_2_778
10
51.3667564
20
103.9080544
40
1.2141228
50
269.9921976
51
275.2965582
0
ARC
8
DEFAULT_255_2_778
10
51.3685234
20
77.8994262
40
1.194407
50
54.5513289
51
90.0926922
0
ARC
8
DEFAULT_255_2_778
10
51.3675624
20
77.8945262
40
1.1989577
50
5.3438778
51
54.6497258
0
ARC
8
DEFAULT_255_2_778
10
51.3515959
20
77.8940958
40
1.2148953
50
359.9922565
51
5.293957
0
ARC
8
DEFAULT_255_2_778
10
51.3724081
20
77.8920999
40
1.1940844
50
324.5440759
51
0.0878931
0
ARC
8
DEFAULT_255_2_778
10
51.3669867
20
77.8932689
40
1.1991807
50
275.3516985
51
324.6488348
0
ARC
8
DEFAULT_255_2_778
10
51.3667564
20
77.9082544
40
1.2141228
50
269.9921976
51
275.2965582
0
ARC
8
DEFAULT_255_2_778
10
51.368506
20
46.6998947
40
1.1943384
50
54.5479662
51
90.0918639
0
ARC
8
DEFAULT_255_2_778
10
51.3674781
20
46.694848
40
1.1990475
50
5.3464965
51
54.6478285
0
ARC
8
DEFAULT_255_2_778
10
51.3519001
20
46.6944947
40
1.2145911
50
359.9923059
51
5.2946162
0
ARC
8
DEFAULT_255_2_778
10
51.3722597
20
46.6925133
40
1.1942328
50
324.5463566
51
0.0872367
0
ARC
8
DEFAULT_255_2_778
10
51.3669339
20
46.6935709
40
1.1991866
50
275.3542067
51
324.6527959
0
ARC
8
DEFAULT_255_2_778
10
51.3667565
20
46.7083672
40
1.2139355
50
269.9921948
51
275.2973763
0
ARC
8
DEFAULT_255_2_778
10
51.3685192
20
20.699888
40
1.1944452
50
54.5578036
51
90.0924899
0
ARC
8
DEFAULT_255_2_778
10
51.3676453
20
20.6950702
40
1.1988788
50
5.3466739
51
54.6572939
0
ARC
8
DEFAULT_255_2_778
10
51.3519731
20
20.6946975
40
1.214518
50
359.992175
51
5.2952861
0
ARC
8
DEFAULT_255_2_778
10
51.3722246
20
20.6926811
40
1.1942679
50
324.5468923
51
0.0887817
0
ARC
8
DEFAULT_255_2_778
10
51.3669914
20
20.6937293
40
1.1991408
50
275.3516494
51
324.6511289
0
ARC
8
DEFAULT_255_2_778
10
51.3667564
20
20.7087544
40
1.2141228
50
269.9921976
51
275.2965583
0
LINE
8
DEFAULT_255_2_778
10
46.1521911
20
49.7997316
11
45.8669911
21
49.7997316
0
LINE
8
DEFAULT_255_2_778
10
45.8669911
20
49.7997316
11
45.8687911
21
49.8616316
0
LINE
8
DEFAULT_255_2_778
10
45.8687911
20
49.8616316
11
45.8724911
21
49.8989316
0
LINE
8
DEFAULT_255_2_778
10
45.8724911
20
49.8989316
11
45.8806911
21
49.9484316
0
LINE
8
DEFAULT_255_2_778
10
45.8806911
20
49.9484316
11
45.9023911
21
50.0285316
0
LINE
8
DEFAULT_255_2_778
10
45.9023911
20
50.0285316
11
45.9497911
21
50.1312316
0
LINE
8
DEFAULT_255_2_778
10
45.9497911
20
50.1312316
11
46.0664911
21
50.2677316
0
LINE
8
DEFAULT_255_2_778
10
46.0664911
20
50.2677316
11
46.1577911
21
50.3318316
0
LINE
8
DEFAULT_255_2_778
10
46.1577911
20
50.3318316
11
46.2844911
21
50.3873316
0
LINE
8
DEFAULT_255_2_778
10
46.2844911
20
50.3873316
11
46.4307911
21
50.4191316
0
LINE
8
DEFAULT_255_2_778
10
46.4307911
20
50.4191316
11
46.6506911
21
50.4230316
0
LINE
8
DEFAULT_255_2_778
10
46.6506911
20
50.4230316
11
46.8244911
21
50.3921316
0
LINE
8
DEFAULT_255_2_778
10
46.8244911
20
50.3921316
11
46.9509911
21
50.3421316
0
LINE
8
DEFAULT_255_2_778
10
46.9509911
20
50.3421316
11
47.0583911
21
50.2717316
0
LINE
8
DEFAULT_255_2_778
10
47.0583911
20
50.2717316
11
47.1266911
21
50.2056316
0
LINE
8
DEFAULT_255_2_778
10
47.1266911
20
50.2056316
11
47.1686911
21
50.1484316
0
LINE
8
DEFAULT_255_2_778
10
47.1686911
20
50.1484316
11
47.2014911
21
50.0865316
0
LINE
8
DEFAULT_255_2_778
10
47.2014911
20
50.0865316
11
47.2184911
21
50.0428316
0
LINE
8
DEFAULT_255_2_778
10
47.2184911
20
50.0428316
11
47.2321911
21
49.9957316
0
LINE
8
DEFAULT_255_2_778
10
47.2321911
20
49.9957316
11
47.2377911
21
49.9709316
0
LINE
8
DEFAULT_255_2_778
10
47.2377911
20
49.9709316
11
47.2419911
21
49.9457316
0
LINE
8
DEFAULT_255_2_778
10
47.2419911
20
49.9457316
11
47.2451911
21
49.9203316
0
LINE
8
DEFAULT_255_2_778
10
47.2451911
20
49.9203316
11
47.2451911
21
49.7857316
0
LINE
8
DEFAULT_255_2_778
10
47.2451911
20
49.7857316
11
47.2417911
21
49.7566316
0
LINE
8
DEFAULT_255_2_778
10
47.2417911
20
49.7566316
11
47.2369911
21
49.7277316
0
LINE
8
DEFAULT_255_2_778
10
47.2369911
20
49.7277316
11
47.2242911
21
49.6703316
0
LINE
8
DEFAULT_255_2_778
10
47.2242911
20
49.6703316
11
47.2075911
21
49.6137316
0
LINE
8
DEFAULT_255_2_778
10
47.2075911
20
49.6137316
11
47.1763911
21
49.5306316
0
LINE
8
DEFAULT_255_2_778
10
47.1763911
20
49.5306316
11
47.1247911
21
49.4237316
0
LINE
8
DEFAULT_255_2_778
10
47.1247911
20
49.4237316
11
47.0586911
21
49.3126316
0
LINE
8
DEFAULT_255_2_778
10
47.0586911
20
49.3126316
11
46.9842911
21
49.2078316
0
LINE
8
DEFAULT_255_2_778
10
46.9842911
20
49.2078316
11
46.8448911
21
49.0454316
0
LINE
8
DEFAULT_255_2_778
10
46.8448911
20
49.0454316
11
46.6617911
21
48.8689316
0
LINE
8
DEFAULT_255_2_778
10
46.6617911
20
48.8689316
11
46.1352911
21
48.4342316
0
LINE
8
DEFAULT_255_2_778
10
46.1352911
20
48.4342316
11
47.2935911
21
48.4342316
0
LINE
8
DEFAULT_255_2_778
10
47.2935911
20
48.4342316
11
47.2935911
21
48.1939316
0
LINE
8
DEFAULT_255_2_778
10
47.2935911
20
48.1939316
11
45.7764911
21
48.1939316
0
LINE
8
DEFAULT_255_2_778
10
45.7764911
20
48.1939316
11
45.7764911
21
48.4575316
0
LINE
8
DEFAULT_255_2_778
10
45.7764911
20
48.4575316
11
46.0886911
21
48.7078316
0
LINE
8
DEFAULT_255_2_778
10
46.0886911
20
48.7078316
11
46.3749911
21
48.9665316
0
LINE
8
DEFAULT_255_2_778
10
46.3749911
20
48.9665316
11
46.6014911
21
49.1986316
0
LINE
8
DEFAULT_255_2_778
10
46.6014911
20
49.1986316
11
46.7898911
21
49.4274316
0
LINE
8
DEFAULT_255_2_778
10
46.7898911
20
49.4274316
11
46.8633911
21
49.5383316
0
LINE
8
DEFAULT_255_2_778
10
46.8633911
20
49.5383316
11
46.9183911
21
49.6465316
0
LINE
8
DEFAULT_255_2_778
10
46.9183911
20
49.6465316
11
46.9408911
21
49.7066316
0
LINE
8
DEFAULT_255_2_778
10
46.9408911
20
49.7066316
11
46.9522911
21
49.7476316
0
LINE
8
DEFAULT_255_2_778
10
46.9522911
20
49.7476316
11
46.9564911
21
49.7682316
0
LINE
8
DEFAULT_255_2_778
10
46.9564911
20
49.7682316
11
46.9556911
21
49.9150316
0
LINE
8
DEFAULT_255_2_778
10
46.9556911
20
49.9150316
11
46.9398911
21
49.9698316
0
LINE
8
DEFAULT_255_2_778
10
46.9398911
20
49.9698316
11
46.9043911
21
50.0375316
0
LINE
8
DEFAULT_255_2_778
10
46.9043911
20
50.0375316
11
46.8159911
21
50.1217316
0
LINE
8
DEFAULT_255_2_778
10
46.8159911
20
50.1217316
11
46.6686911
21
50.1796316
0
LINE
8
DEFAULT_255_2_778
10
46.6686911
20
50.1796316
11
46.4580911
21
50.1807316
0
LINE
8
DEFAULT_255_2_778
10
46.4580911
20
50.1807316
11
46.3132911
21
50.1241316
0
LINE
8
DEFAULT_255_2_778
10
46.3132911
20
50.1241316
11
46.2198911
21
50.0349316
0
LINE
8
DEFAULT_255_2_778
10
46.2198911
20
50.0349316
11
46.1820911
21
49.9661316
0
LINE
8
DEFAULT_255_2_778
10
46.1820911
20
49.9661316
11
46.1645911
21
49.9119316
0
LINE
8
DEFAULT_255_2_778
10
46.1645911
20
49.9119316
11
46.1566911
21
49.8701316
0
LINE
8
DEFAULT_255_2_778
10
46.1566911
20
49.8701316
11
46.1534911
21
49.8420316
0
LINE
8
DEFAULT_255_2_778
10
46.1534911
20
49.8420316
11
46.1521911
21
49.7999316
0
LINE
8
DEFAULT_255_2_778
10
68.6314911
20
124.0206316
11
52.2992911
21
124.0206316
0
LINE
8
DEFAULT_255_2_778
10
52.2992911
20
124.0206316
11
52.2992911
21
119.8206316
0
LINE
8
DEFAULT_255_2_778
10
52.2992911
20
119.8206316
11
68.6314911
21
119.8206316
0
LINE
8
DEFAULT_255_2_778
10
68.6314911
20
119.8206316
11
68.6314911
21
124.0206316
0
LINE
8
DEFAULT_255_2_778
10
72.8364911
20
34.7938316
11
74.3316911
21
34.7938316
0
LINE
8
DEFAULT_255_2_778
10
74.3316911
20
34.7938316
11
74.3316911
21
34.5242316
0
LINE
8
DEFAULT_255_2_778
10
74.3316911
20
34.5242316
11
73.4881911
21
32.5941316
0
LINE
8
DEFAULT_255_2_778
10
73.4881911
20
32.5941316
11
73.1341911
21
32.5941316
0
LINE
8
DEFAULT_255_2_778
10
73.1341911
20
32.5941316
11
74.0212911
21
34.5478316
0
LINE
8
DEFAULT_255_2_778
10
74.0212911
20
34.5478316
11
72.8361911
21
34.5478316
0
LINE
8
DEFAULT_255_2_778
10
72.8361911
20
34.5478316
11
72.8361911
21
34.7941316
0
LINE
8
DEFAULT_255_2_778
10
69.0666911
20
21.8936316
11
69.0666911
21
45.4936316
0
LINE
8
DEFAULT_255_2_778
10
69.0666911
20
47.8934316
11
69.0666911
21
76.6933316
0
LINE
8
DEFAULT_255_2_778
10
69.0666911
20
79.0930316
11
69.0666911
21
102.6936316
0
LINE
8
DEFAULT_255_2_778
10
69.0666911
20
105.0934316
11
69.0666911
21
114.2937316
0
LINE
8
DEFAULT_255_2_778
10
69.0666911
20
114.2937316
11
51.3665911
21
114.2937316
0
LINE
8
DEFAULT_255_2_778
10
51.3665911
20
114.2937316
11
51.3665911
21
105.0936316
0
LINE
8
DEFAULT_255_2_778
10
51.3665911
20
102.6939316
11
51.3665911
21
79.0938316
0
LINE
8
DEFAULT_255_2_778
10
51.3665911
20
76.6941316
11
51.3665911
21
47.8942316
0
LINE
8
DEFAULT_255_2_778
10
51.3665911
20
45.4944316
11
51.3665911
21
21.8943316
0
LINE
8
DEFAULT_255_2_778
10
51.3665911
20
19.4946316
11
51.3665911
21
10.2945316
0
LINE
8
DEFAULT_255_2_778
10
51.3665911
20
10.2945316
11
69.0666911
21
10.2945316
0
LINE
8
DEFAULT_255_2_778
10
69.0666911
20
10.2945316
11
69.0666911
21
19.4946316
0
LINE
8
DEFAULT_255_2_778
10
80.2164911
20
122.3937316
11
70.6165911
21
122.3937316
0
LINE
8
DEFAULT_255_2_778
10
70.6165911
20
122.3937316
11
70.6165911
21
2.1937316
0
LINE
8
DEFAULT_255_2_778
10
70.6165911
20
2.1937316
11
80.2164911
21
2.1937316
0
LINE
8
DEFAULT_255_2_778
10
72.9049345
20
76.3813304
11
74.1789345
21
76.3813304
0
LINE
8
DEFAULT_255_2_778
10
74.1789345
20
76.3813304
11
74.1789345
21
76.1411304
0
LINE
8
DEFAULT_255_2_778
10
74.1789345
20
76.1411304
11
73.1812345
21
76.1411304
0
LINE
8
DEFAULT_255_2_778
10
73.1812345
20
76.1411304
11
73.1640345
21
75.4333304
0
LINE
8
DEFAULT_255_2_778
10
73.1640345
20
75.4333304
11
73.2952345
21
75.5529304
0
LINE
8
DEFAULT_255_2_778
10
73.2952345
20
75.5529304
11
73.4219345
21
75.6175304
0
LINE
8
DEFAULT_255_2_778
10
73.4219345
20
75.6175304
11
73.6116345
21
75.6524304
0
LINE
8
DEFAULT_255_2_778
10
73.6116345
20
75.6524304
11
73.8087345
21
75.6381304
0
LINE
8
DEFAULT_255_2_778
10
73.8087345
20
75.6381304
11
73.9635345
21
75.5825304
0
LINE
8
DEFAULT_255_2_778
10
73.9635345
20
75.5825304
11
74.0797345
21
75.4987304
0
LINE
8
DEFAULT_255_2_778
10
74.0797345
20
75.4987304
11
74.1514345
21
75.4166304
0
LINE
8
DEFAULT_255_2_778
10
74.1514345
20
75.4166304
11
74.2099345
21
75.3187304
0
LINE
8
DEFAULT_255_2_778
10
74.2099345
20
75.3187304
11
74.2421345
21
75.2415304
0
LINE
8
DEFAULT_255_2_778
10
74.2421345
20
75.2415304
11
74.2622345
21
75.1759304
0
LINE
8
DEFAULT_255_2_778
10
74.2622345
20
75.1759304
11
74.2771345
21
75.1089304
0
LINE
8
DEFAULT_255_2_778
10
74.2771345
20
75.1089304
11
74.2826345
21
75.0756304
0
LINE
8
DEFAULT_255_2_778
10
74.2826345
20
75.0756304
11
74.2871345
21
75.0420304
0
LINE
8
DEFAULT_255_2_778
10
74.2871345
20
75.0420304
11
74.2866345
21
74.7716304
0
LINE
8
DEFAULT_255_2_778
10
74.2866345
20
74.7716304
11
74.2786345
21
74.7181304
0
LINE
8
DEFAULT_255_2_778
10
74.2786345
20
74.7181304
11
74.2681345
21
74.6679304
0
LINE
8
DEFAULT_255_2_778
10
74.2681345
20
74.6679304
11
74.2551345
21
74.6208304
0
LINE
8
DEFAULT_255_2_778
10
74.2551345
20
74.6208304
11
74.2302345
21
74.5520304
0
LINE
8
DEFAULT_255_2_778
10
74.2302345
20
74.5520304
11
74.1990345
21
74.4869304
0
LINE
8
DEFAULT_255_2_778
10
74.1990345
20
74.4869304
11
74.1487345
21
74.4083304
0
LINE
8
DEFAULT_255_2_778
10
74.1487345
20
74.4083304
11
74.0744345
21
74.3250304
0
LINE
8
DEFAULT_255_2_778
10
74.0744345
20
74.3250304
11
73.9566345
21
74.2377304
0
LINE
8
DEFAULT_255_2_778
10
73.9566345
20
74.2377304
11
73.8236345
21
74.1802304
0
LINE
8
DEFAULT_255_2_778
10
73.8236345
20
74.1802304
11
73.6447345
21
74.1469304
0
LINE
8
DEFAULT_255_2_778
10
73.6447345
20
74.1469304
11
73.4314345
21
74.1527304
0
LINE
8
DEFAULT_255_2_778
10
73.4314345
20
74.1527304
11
73.2605345
21
74.1958304
0
LINE
8
DEFAULT_255_2_778
10
73.2605345
20
74.1958304
11
73.1314345
21
74.2617304
0
LINE
8
DEFAULT_255_2_778
10
73.1314345
20
74.2617304
11
73.0253345
21
74.3475304
0
LINE
8
DEFAULT_255_2_778
10
73.0253345
20
74.3475304
11
72.9555345
21
74.4292304
0
LINE
8
DEFAULT_255_2_778
10
72.9555345
20
74.4292304
11
72.9110345
21
74.5022304
0
LINE
8
DEFAULT_255_2_778
10
72.9110345
20
74.5022304
11
72.8766345
21
74.5808304
0
LINE
8
DEFAULT_255_2_778
10
72.8766345
20
74.5808304
11
72.8562345
21
74.6467304
0
LINE
8
DEFAULT_255_2_778
10
72.8562345
20
74.6467304
11
72.8462345
21
74.6917304
0
LINE
8
DEFAULT_255_2_778
10
72.8462345
20
74.6917304
11
72.8390345
21
74.7369304
0
LINE
8
DEFAULT_255_2_778
10
72.8390345
20
74.7369304
11
72.8364345
21
74.7597304
0
LINE
8
DEFAULT_255_2_778
10
72.8364345
20
74.7597304
11
73.1372345
21
74.7597304
0
LINE
8
DEFAULT_255_2_778
10
73.1372345
20
74.7597304
11
73.1433345
21
74.7218304
0
LINE
8
DEFAULT_255_2_778
10
73.1433345
20
74.7218304
11
73.1573345
21
74.6721304
0
LINE
8
DEFAULT_255_2_778
10
73.1573345
20
74.6721304
11
73.1896345
21
74.6004304
0
LINE
8
DEFAULT_255_2_778
10
73.1896345
20
74.6004304
11
73.2592345
21
74.5075304
0
LINE
8
DEFAULT_255_2_778
10
73.2592345
20
74.5075304
11
73.3605345
21
74.4340304
0
LINE
8
DEFAULT_255_2_778
10
73.3605345
20
74.4340304
11
73.5645345
21
74.3932304
0
LINE
8
DEFAULT_255_2_778
10
73.5645345
20
74.3932304
11
73.7405345
21
74.4274304
0
LINE
8
DEFAULT_255_2_778
10
73.7405345
20
74.4274304
11
73.8505345
21
74.5036304
0
LINE
8
DEFAULT_255_2_778
10
73.8505345
20
74.5036304
11
73.9148345
21
74.5874304
0
LINE
8
DEFAULT_255_2_778
10
73.9148345
20
74.5874304
11
73.9535345
21
74.6673304
0
LINE
8
DEFAULT_255_2_778
10
73.9535345
20
74.6673304
11
73.9723345
21
74.7266304
0
LINE
8
DEFAULT_255_2_778
10
73.9723345
20
74.7266304
11
73.9820345
21
74.7724304
0
LINE
8
DEFAULT_255_2_778
10
73.9820345
20
74.7724304
11
73.9887345
21
74.8176304
0
LINE
8
DEFAULT_255_2_778
10
73.9887345
20
74.8176304
11
73.9879345
21
75.0063304
0
LINE
8
DEFAULT_255_2_778
10
73.9879345
20
75.0063304
11
73.9820345
21
75.0449304
0
LINE
8
DEFAULT_255_2_778
10
73.9820345
20
75.0449304
11
73.9680345
21
75.1050304
0
LINE
8
DEFAULT_255_2_778
10
73.9680345
20
75.1050304
11
73.9416345
21
75.1761304
0
LINE
8
DEFAULT_255_2_778
10
73.9416345
20
75.1761304
11
73.8894345
21
75.2632304
0
LINE
8
DEFAULT_255_2_778
10
73.8894345
20
75.2632304
11
73.8138345
21
75.3402304
0
LINE
8
DEFAULT_255_2_778
10
73.8138345
20
75.3402304
11
73.6947345
21
75.3992304
0
LINE
8
DEFAULT_255_2_778
10
73.6947345
20
75.3992304
11
73.5166345
21
75.4140304
0
LINE
8
DEFAULT_255_2_778
10
73.5166345
20
75.4140304
11
73.3603345
21
75.3674304
0
LINE
8
DEFAULT_255_2_778
10
73.3603345
20
75.3674304
11
73.2608345
21
75.2873304
0
LINE
8
DEFAULT_255_2_778
10
73.2608345
20
75.2873304
11
73.2179345
21
75.2232304
0
LINE
8
DEFAULT_255_2_778
10
73.2179345
20
75.2232304
11
73.1981345
21
75.1751304
0
LINE
8
DEFAULT_255_2_778
10
73.1981345
20
75.1751304
11
73.1875345
21
75.1354304
0
LINE
8
DEFAULT_255_2_778
10
73.1875345
20
75.1354304
11
73.1830345
21
75.1084304
0
LINE
8
DEFAULT_255_2_778
10
73.1830345
20
75.1084304
11
73.1814345
21
75.0949304
0
LINE
8
DEFAULT_255_2_778
10
73.1814345
20
75.0949304
11
72.8867345
21
75.0949304
0
LINE
8
DEFAULT_255_2_778
10
72.8867345
20
75.0949304
11
72.9055345
21
76.3813304
0
LINE
8
DEFAULT_255_2_778
10
76.4165345
20
55.9938304
11
78.9165345
21
55.9938304
0
LINE
8
DEFAULT_255_2_778
10
76.4665345
20
118.3937304
11
78.9665345
21
118.3937304
0
ARC
8
DEFAULT_255_2_778
10
42.7153696
20
23.2950304
40
0.5488398
50
89.8682888
51
180.1317112
0
ARC
8
DEFAULT_255_2_778
10
42.7178782
20
23.2951154
40
0.5487547
50
359.8593896
51
90.1301939
0
ARC
8
DEFAULT_255_2_778
10
42.7179632
20
23.2924368
40
0.5486696
50
269.8609058
51
0.1390942
0
ARC
8
DEFAULT_255_2_778
10
42.7152846
20
23.2925218
40
0.5487547
50
179.8698061
51
270.1406104
0
LINE
8
DEFAULT_255_2_778
10
42.1665313
20
23.2937687
11
42.1665313
21
23.2937687
0
ARC
8
DEFAULT_255_2_778
10
42.7153696
20
85.6948304
40
0.5488398
50
89.8682888
51
180.1317112
0
ARC
8
DEFAULT_255_2_778
10
42.7178782
20
85.6949154
40
0.5487547
50
359.8593896
51
90.1301939
0
ARC
8
DEFAULT_255_2_778
10
42.7179632
20
85.6922368
40
0.5486696
50
269.8609058
51
0.1390942
0
ARC
8
DEFAULT_255_2_778
10
42.7152846
20
85.6923218
40
0.5487547
50
179.8698061
51
270.1406104
0
LINE
8
DEFAULT_255_2_778
10
42.1665313
20
85.6935687
11
42.1665313
21
85.6935687
0
ARC
8
DEFAULT_255_2_778
10
4.2152691
20
6.9379309
40
0.6316295
50
90.0026769
51
179.9973231
0
ARC
8
DEFAULT_255_2_778
10
4.2151954
20
6.9380162
40
0.6315442
50
359.9949337
51
89.995994
0
ARC
8
DEFAULT_255_2_778
10
4.2152808
20
6.9379192
40
0.6314588
50
269.9962618
51
0.0037382
0
ARC
8
DEFAULT_255_2_778
10
4.2151838
20
6.9380046
40
0.6315442
50
180.004006
51
270.0050663
0
LINE
8
DEFAULT_255_2_778
10
3.5836396
20
6.9379604
11
3.5836396
21
6.9379604
0
ARC
8
DEFAULT_255_2_778
10
12.1654696
20
96.0948304
40
0.5488398
50
89.8682888
51
180.1317112
0
ARC
8
DEFAULT_255_2_778
10
12.1679782
20
96.0949154
40
0.5487547
50
359.8593896
51
90.1301939
0
ARC
8
DEFAULT_255_2_778
10
12.1680632
20
96.0922368
40
0.5486696
50
269.8609058
51
0.1390942
0
ARC
8
DEFAULT_255_2_778
10
12.1653846
20
96.0923218
40
0.5487547
50
179.8698061
51
270.1406104
0
LINE
8
DEFAULT_255_2_778
10
11.6166313
20
96.0935687
11
11.6166313
21
96.0935687
0
ARC
8
DEFAULT_255_2_778
10
12.1654696
20
90.8950304
40
0.5488398
50
89.8682888
51
180.1317112
0
ARC
8
DEFAULT_255_2_778
10
12.1679782
20
90.8951154
40
0.5487547
50
359.8593896
51
90.1301939
0
ARC
8
DEFAULT_255_2_778
10
12.1680632
20
90.8924368
40
0.5486696
50
269.8609058
51
0.1390942
0
ARC
8
DEFAULT_255_2_778
10
12.1653846
20
90.8925218
40
0.5487547
50
179.8698061
51
270.1406104
0
LINE
8
DEFAULT_255_2_778
10
11.6166313
20
90.8937687
11
11.6166313
21
90.8937687
0
LINE
8
DEFAULT_255_2_778
10
10.6665448
20
94.5937281
11
13.6666448
21
94.5937281
0
LINE
8
DEFAULT_255_2_778
10
10.6665448
20
92.3937281
11
13.6666448
21
92.3937281
0
LINE
8
DEFAULT_255_2_778
10
10.6665448
20
89.3938281
11
13.6666448
21
89.3938281
0
ARC
8
DEFAULT_255_2_778
10
12.1654696
20
106.4948304
40
0.5488398
50
89.8682888
51
180.1317112
0
ARC
8
DEFAULT_255_2_778
10
12.1679782
20
106.4949154
40
0.5487547
50
359.8593896
51
90.1301939
0
ARC
8
DEFAULT_255_2_778
10
12.1680632
20
106.4922368
40
0.5486696
50
269.8609058
51
0.1390942
0
ARC
8
DEFAULT_255_2_778
10
12.1653846
20
106.4923218
40
0.5487547
50
179.8698061
51
270.1406104
0
LINE
8
DEFAULT_255_2_778
10
11.6166313
20
106.4935687
11
11.6166313
21
106.4935687
0
ARC
8
DEFAULT_255_2_778
10
12.1654696
20
101.2949304
40
0.5488398
50
89.8682888
51
180.1317112
0
ARC
8
DEFAULT_255_2_778
10
12.1679782
20
101.2950154
40
0.5487547
50
359.8593896
51
90.1301939
0
ARC
8
DEFAULT_255_2_778
10
12.1680632
20
101.2923368
40
0.5486696
50
269.8609058
51
0.1390942
0
ARC
8
DEFAULT_255_2_778
10
12.1653846
20
101.2924218
40
0.5487547
50
179.8698061
51
270.1406104
0
LINE
8
DEFAULT_255_2_778
10
11.6166313
20
101.2936687
11
11.6166313
21
101.2936687
0
LINE
8
DEFAULT_255_2_778
10
10.6665448
20
107.9937884
11
13.6666448
21
107.9937884
0
LINE
8
DEFAULT_255_2_778
10
10.6665448
20
104.9936884
11
13.6666448
21
104.9936884
0
LINE
8
DEFAULT_255_2_778
10
10.6665448
20
102.7936884
11
13.6666448
21
102.7936884
0
LINE
8
DEFAULT_255_2_778
10
10.6665448
20
97.5937884
11
13.6666448
21
97.5937884
0
LINE
8
DEFAULT_255_2_778
10
10.6665448
20
99.7938
11
13.6666448
21
99.7938
0
LINE
8
DEFAULT_255_2_778
10
13.6666448
20
118.8938225
11
10.6665448
21
118.8938225
0
LINE
8
DEFAULT_255_2_778
10
10.6665448
20
118.8938225
11
10.6665448
21
88.8938225
0
LINE
8
DEFAULT_255_2_778
10
10.6665448
20
88.8938225
11
13.6666448
21
88.8938225
0
LINE
8
DEFAULT_255_2_778
10
13.6666448
20
88.8938225
11
13.6666448
21
118.8938225
0
ARC
8
DEFAULT_255_2_778
10
12.1654696
20
116.8950304
40
0.5488398
50
89.8682888
51
180.1317112
0
ARC
8
DEFAULT_255_2_778
10
12.1679782
20
116.8951154
40
0.5487547
50
359.8593896
51
90.1301939
0
ARC
8
DEFAULT_255_2_778
10
12.1680632
20
116.8924368
40
0.5486696
50
269.8609058
51
0.1390942
0
ARC
8
DEFAULT_255_2_778
10
12.1653846
20
116.8925218
40
0.5487547
50
179.8698061
51
270.1406104
0
LINE
8
DEFAULT_255_2_778
10
11.6166313
20
116.8937687
11
11.6166313
21
116.8937687
0
LINE
8
DEFAULT_255_2_778
10
10.6665448
20
118.3938
11
13.6666448
21
118.3938
0
ARC
8
DEFAULT_255_2_778
10
12.1654696
20
111.6949304
40
0.5488398
50
89.8682888
51
180.1317112
0
ARC
8
DEFAULT_255_2_778
10
12.1679782
20
111.6950154
40
0.5487547
50
359.8593896
51
90.1301939
0
ARC
8
DEFAULT_255_2_778
10
12.1680632
20
111.6923368
40
0.5486696
50
269.8609058
51
0.1390942
0
ARC
8
DEFAULT_255_2_778
10
12.1653846
20
111.6924218
40
0.5487547
50
179.8698061
51
270.1406104
0
LINE
8
DEFAULT_255_2_778
10
11.6166313
20
111.6936687
11
11.6166313
21
111.6936687
0
LINE
8
DEFAULT_255_2_778
10
10.6665448
20
115.3938603
11
13.6666448
21
115.3938603
0
LINE
8
DEFAULT_255_2_778
10
10.6665448
20
113.1938603
11
13.6666448
21
113.1938603
0
LINE
8
DEFAULT_255_2_778
10
10.6665448
20
110.1937603
11
13.6666448
21
110.1937603
0
ARC
8
DEFAULT_255_2_778
10
77.6654696
20
49.2948304
40
0.5488398
50
89.8682888
51
180.1317112
0
ARC
8
DEFAULT_255_2_778
10
77.6679782
20
49.2949154
40
0.5487547
50
359.8593896
51
90.1301939
0
ARC
8
DEFAULT_255_2_778
10
77.6680632
20
49.2922368
40
0.5486696
50
269.8609058
51
0.1390942
0
ARC
8
DEFAULT_255_2_778
10
77.6653846
20
49.2923218
40
0.5487547
50
179.8698061
51
270.1406104
0
LINE
8
DEFAULT_255_2_778
10
77.1166313
20
49.2935687
11
77.1166313
21
49.2935687
0
ARC
8
DEFAULT_255_2_778
10
77.6654696
20
54.4949304
40
0.5488398
50
89.8682888
51
180.1317112
0
ARC
8
DEFAULT_255_2_778
10
77.6679782
20
54.4950154
40
0.5487547
50
359.8593896
51
90.1301939
0
ARC
8
DEFAULT_255_2_778
10
77.6680632
20
54.4923368
40
0.5486696
50
269.8609058
51
0.1390942
0
ARC
8
DEFAULT_255_2_778
10
77.6653846
20
54.4924218
40
0.5487547
50
179.8698061
51
270.1406104
0
LINE
8
DEFAULT_255_2_778
10
77.1166313
20
54.4936687
11
77.1166313
21
54.4936687
0
LINE
8
DEFAULT_255_2_778
10
76.4165761
20
52.9937655
11
78.9165761
21
52.9937655
0
LINE
8
DEFAULT_255_2_778
10
76.4165761
20
50.7937655
11
78.9165761
21
50.7937655
0
LINE
8
DEFAULT_255_2_778
10
76.4165761
20
47.7936655
11
78.9165761
21
47.7936655
0
LINE
8
DEFAULT_255_2_778
10
76.4165761
20
45.5936655
11
78.9165761
21
45.5936655
0
ARC
8
DEFAULT_255_2_778
10
77.6654696
20
38.8948304
40
0.5488398
50
89.8682888
51
180.1317112
0
ARC
8
DEFAULT_255_2_778
10
77.6679782
20
38.8949154
40
0.5487547
50
359.8593896
51
90.1301939
0
ARC
8
DEFAULT_255_2_778
10
77.6680632
20
38.8922368
40
0.5486696
50
269.8609058
51
0.1390942
0
ARC
8
DEFAULT_255_2_778
10
77.6653846
20
38.8923218
40
0.5487547
50
179.8698061
51
270.1406104
0
LINE
8
DEFAULT_255_2_778
10
77.1166313
20
38.8935687
11
77.1166313
21
38.8935687
0
ARC
8
DEFAULT_255_2_778
10
77.6654696
20
44.0949304
40
0.5488398
50
89.8682888
51
180.1317112
0
ARC
8
DEFAULT_255_2_778
10
77.6679782
20
44.0950154
40
0.5487547
50
359.8593896
51
90.1301939
0
ARC
8
DEFAULT_255_2_778
10
77.6680632
20
44.0923368
40
0.5486696
50
269.8609058
51
0.1390942
0
ARC
8
DEFAULT_255_2_778
10
77.6653846
20
44.0924218
40
0.5487547
50
179.8698061
51
270.1406104
0
LINE
8
DEFAULT_255_2_778
10
77.1166313
20
44.0936687
11
77.1166313
21
44.0936687
0
LINE
8
DEFAULT_255_2_778
10
76.4165761
20
42.5937603
11
78.9165761
21
42.5937603
0
LINE
8
DEFAULT_255_2_778
10
76.4165761
20
40.3937603
11
78.9165761
21
40.3937603
0
LINE
8
DEFAULT_255_2_778
10
76.4165761
20
37.3936603
11
78.9165761
21
37.3936603
0
ARC
8
DEFAULT_255_2_778
10
77.6654696
20
28.4948304
40
0.5488398
50
89.8682888
51
180.1317112
0
ARC
8
DEFAULT_255_2_778
10
77.6679782
20
28.4949154
40
0.5487547
50
359.8593896
51
90.1301939
0
ARC
8
DEFAULT_255_2_778
10
77.6680632
20
28.4922368
40
0.5486696
50
269.8609058
51
0.1390942
0
ARC
8
DEFAULT_255_2_778
10
77.6653846
20
28.4923218
40
0.5487547
50
179.8698061
51
270.1406104
0
LINE
8
DEFAULT_255_2_778
10
77.1166313
20
28.4935687
11
77.1166313
21
28.4935687
0
ARC
8
DEFAULT_255_2_778
10
77.6654696
20
33.6949304
40
0.5488398
50
89.8682888
51
180.1317112
0
ARC
8
DEFAULT_255_2_778
10
77.6679782
20
33.6950154
40
0.5487547
50
359.8593896
51
90.1301939
0
ARC
8
DEFAULT_255_2_778
10
77.6680632
20
33.6923368
40
0.5486696
50
269.8609058
51
0.1390942
0
ARC
8
DEFAULT_255_2_778
10
77.6653846
20
33.6924218
40
0.5487547
50
179.8698061
51
270.1406104
0
LINE
8
DEFAULT_255_2_778
10
77.1166313
20
33.6936687
11
77.1166313
21
33.6936687
0
LINE
8
DEFAULT_255_2_778
10
76.4165761
20
35.1936884
11
78.9165761
21
35.1936884
0
LINE
8
DEFAULT_255_2_778
10
76.4165761
20
32.1938884
11
78.9165761
21
32.1938884
0
LINE
8
DEFAULT_255_2_778
10
76.4165761
20
29.9937884
11
78.9165761
21
29.9937884
0
LINE
8
DEFAULT_255_2_778
10
76.4165761
20
24.7936884
11
78.9165761
21
24.7936884
0
LINE
8
DEFAULT_255_2_778
10
76.4165761
20
26.9937
11
78.9165761
21
26.9937
0
LINE
8
DEFAULT_255_2_778
10
76.4165761
20
56.6937243
11
78.9165761
21
56.6937243
0
LINE
8
DEFAULT_255_2_778
10
78.9165761
20
56.6937243
11
78.9165761
21
5.4937243
0
LINE
8
DEFAULT_255_2_778
10
78.9165761
20
5.4937243
11
76.4165761
21
5.4937243
0
LINE
8
DEFAULT_255_2_778
10
76.4165761
20
5.4937243
11
76.4165761
21
56.6937243
0
ARC
8
DEFAULT_255_2_778
10
77.6654696
20
18.0949304
40
0.5488398
50
89.8682888
51
180.1317112
0
ARC
8
DEFAULT_255_2_778
10
77.6679782
20
18.0950154
40
0.5487547
50
359.8593896
51
90.1301939
0
ARC
8
DEFAULT_255_2_778
10
77.6680632
20
18.0923368
40
0.5486696
50
269.8609058
51
0.1390942
0
ARC
8
DEFAULT_255_2_778
10
77.6653846
20
18.0924218
40
0.5487547
50
179.8698061
51
270.1406104
0
LINE
8
DEFAULT_255_2_778
10
77.1166313
20
18.0936687
11
77.1166313
21
18.0936687
0
ARC
8
DEFAULT_255_2_778
10
77.6654696
20
23.2950304
40
0.5488398
50
89.8682888
51
180.1317112
0
ARC
8
DEFAULT_255_2_778
10
77.6679782
20
23.2951154
40
0.5487547
50
359.8593896
51
90.1301939
0
ARC
8
DEFAULT_255_2_778
10
77.6680632
20
23.2924368
40
0.5486696
50
269.8609058
51
0.1390942
0
ARC
8
DEFAULT_255_2_778
10
77.6653846
20
23.2925218
40
0.5487547
50
179.8698061
51
270.1406104
0
LINE
8
DEFAULT_255_2_778
10
77.1166313
20
23.2937687
11
77.1166313
21
23.2937687
0
LINE
8
DEFAULT_255_2_778
10
76.4165761
20
21.7938655
11
78.9165761
21
21.7938655
0
LINE
8
DEFAULT_255_2_778
10
76.4165761
20
19.5938655
11
78.9165761
21
19.5938655
0
LINE
8
DEFAULT_255_2_778
10
76.4165761
20
16.5937655
11
78.9165761
21
16.5937655
0
LINE
8
DEFAULT_255_2_778
10
76.4165761
20
14.3937655
11
78.9165761
21
14.3937655
0
ARC
8
DEFAULT_255_2_778
10
77.6654696
20
7.6949304
40
0.5488398
50
89.8682888
51
180.1317112
0
ARC
8
DEFAULT_255_2_778
10
77.6679782
20
7.6950154
40
0.5487547
50
359.8593896
51
90.1301939
0
ARC
8
DEFAULT_255_2_778
10
77.6680632
20
7.6923368
40
0.5486696
50
269.8609058
51
0.1390942
0
ARC
8
DEFAULT_255_2_778
10
77.6653846
20
7.6924218
40
0.5487547
50
179.8698061
51
270.1406104
0
LINE
8
DEFAULT_255_2_778
10
77.1166313
20
7.6936687
11
77.1166313
21
7.6936687
0
ARC
8
DEFAULT_255_2_778
10
77.6654696
20
12.8950304
40
0.5488398
50
89.8682888
51
180.1317112
0
ARC
8
DEFAULT_255_2_778
10
77.6679782
20
12.8951154
40
0.5487547
50
359.8593896
51
90.1301939
0
ARC
8
DEFAULT_255_2_778
10
77.6680632
20
12.8924368
40
0.5486696
50
269.8609058
51
0.1390942
0
ARC
8
DEFAULT_255_2_778
10
77.6653846
20
12.8925218
40
0.5487547
50
179.8698061
51
270.1406104
0
LINE
8
DEFAULT_255_2_778
10
77.1166313
20
12.8937687
11
77.1166313
21
12.8937687
0
LINE
8
DEFAULT_255_2_778
10
76.4165761
20
11.3938603
11
78.9165761
21
11.3938603
0
LINE
8
DEFAULT_255_2_778
10
76.4165761
20
9.1938603
11
78.9165761
21
9.1938603
0
LINE
8
DEFAULT_255_2_778
10
76.4165761
20
6.1937603
11
78.9165761
21
6.1937603
0
ARC
8
DEFAULT_255_2_778
10
42.7153696
20
7.6949304
40
0.5488398
50
89.8682888
51
180.1317112
0
ARC
8
DEFAULT_255_2_778
10
42.7178782
20
7.6950154
40
0.5487547
50
359.8593896
51
90.1301939
0
ARC
8
DEFAULT_255_2_778
10
42.7179632
20
7.6923368
40
0.5486696
50
269.8609058
51
0.1390942
0
ARC
8
DEFAULT_255_2_778
10
42.7152846
20
7.6924218
40
0.5487547
50
179.8698061
51
270.1406104
0
LINE
8
DEFAULT_255_2_778
10
42.1665313
20
7.6936687
11
42.1665313
21
7.6936687
0
LINE
8
DEFAULT_255_2_778
10
41.4666761
20
11.3938603
11
43.9666761
21
11.3938603
0
LINE
8
DEFAULT_255_2_778
10
41.4666761
20
9.1938603
11
43.9666761
21
9.1938603
0
LINE
8
DEFAULT_255_2_778
10
41.4666761
20
6.1937603
11
43.9666761
21
6.1937603
0
ARC
8
DEFAULT_255_2_778
10
42.7153696
20
18.0949304
40
0.5488398
50
89.8682888
51
180.1317112
0
ARC
8
DEFAULT_255_2_778
10
42.7178782
20
18.0950154
40
0.5487547
50
359.8593896
51
90.1301939
0
ARC
8
DEFAULT_255_2_778
10
42.7179632
20
18.0923368
40
0.5486696
50
269.8609058
51
0.1390942
0
ARC
8
DEFAULT_255_2_778
10
42.7152846
20
18.0924218
40
0.5487547
50
179.8698061
51
270.1406104
0
LINE
8
DEFAULT_255_2_778
10
42.1665313
20
18.0936687
11
42.1665313
21
18.0936687
0
ARC
8
DEFAULT_255_2_778
10
42.7153696
20
12.8950304
40
0.5488398
50
89.8682888
51
180.1317112
0
ARC
8
DEFAULT_255_2_778
10
42.7178782
20
12.8951154
40
0.5487547
50
359.8593896
51
90.1301939
0
ARC
8
DEFAULT_255_2_778
10
42.7179632
20
12.8924368
40
0.5486696
50
269.8609058
51
0.1390942
0
ARC
8
DEFAULT_255_2_778
10
42.7152846
20
12.8925218
40
0.5487547
50
179.8698061
51
270.1406104
0
LINE
8
DEFAULT_255_2_778
10
42.1665313
20
12.8937687
11
42.1665313
21
12.8937687
0
LINE
8
DEFAULT_255_2_778
10
41.4666761
20
21.7938655
11
43.9666761
21
21.7938655
0
LINE
8
DEFAULT_255_2_778
10
41.4666761
20
19.5938655
11
43.9666761
21
19.5938655
0
LINE
8
DEFAULT_255_2_778
10
41.4666761
20
16.5937655
11
43.9666761
21
16.5937655
0
LINE
8
DEFAULT_255_2_778
10
41.4666761
20
14.3937655
11
43.9666761
21
14.3937655
0
ARC
8
DEFAULT_255_2_778
10
42.7153696
20
33.6949304
40
0.5488398
50
89.8682888
51
180.1317112
0
ARC
8
DEFAULT_255_2_778
10
42.7178782
20
33.6950154
40
0.5487547
50
359.8593896
51
90.1301939
0
ARC
8
DEFAULT_255_2_778
10
42.7179632
20
33.6923368
40
0.5486696
50
269.8609058
51
0.1390942
0
ARC
8
DEFAULT_255_2_778
10
42.7152846
20
33.6924218
40
0.5487547
50
179.8698061
51
270.1406104
0
LINE
8
DEFAULT_255_2_778
10
42.1665313
20
33.6936687
11
42.1665313
21
33.6936687
0
ARC
8
DEFAULT_255_2_778
10
42.7153696
20
28.4948304
40
0.5488398
50
89.8682888
51
180.1317112
0
ARC
8
DEFAULT_255_2_778
10
42.7178782
20
28.4949154
40
0.5487547
50
359.8593896
51
90.1301939
0
ARC
8
DEFAULT_255_2_778
10
42.7179632
20
28.4922368
40
0.5486696
50
269.8609058
51
0.1390942
0
ARC
8
DEFAULT_255_2_778
10
42.7152846
20
28.4923218
40
0.5487547
50
179.8698061
51
270.1406104
0
LINE
8
DEFAULT_255_2_778
10
42.1665313
20
28.4935687
11
42.1665313
21
28.4935687
0
LINE
8
DEFAULT_255_2_778
10
41.4666761
20
35.1936884
11
43.9666761
21
35.1936884
0
LINE
8
DEFAULT_255_2_778
10
41.4666761
20
32.1938884
11
43.9666761
21
32.1938884
0
LINE
8
DEFAULT_255_2_778
10
41.4666761
20
29.9937884
11
43.9666761
21
29.9937884
0
LINE
8
DEFAULT_255_2_778
10
41.4666761
20
24.7936884
11
43.9666761
21
24.7936884
0
LINE
8
DEFAULT_255_2_778
10
41.4666761
20
26.9937
11
43.9666761
21
26.9937
0
LINE
8
DEFAULT_255_2_778
10
41.4666761
20
56.4936993
11
43.9666761
21
56.4936993
0
LINE
8
DEFAULT_255_2_778
10
43.9666761
20
56.4936993
11
43.9666761
21
5.6936993
0
LINE
8
DEFAULT_255_2_778
10
43.9666761
20
5.6936993
11
41.4666761
21
5.6936993
0
LINE
8
DEFAULT_255_2_778
10
41.4666761
20
5.6936993
11
41.4666761
21
56.4936993
0
ARC
8
DEFAULT_255_2_778
10
42.7153696
20
38.8948304
40
0.5488398
50
89.8682888
51
180.1317112
0
ARC
8
DEFAULT_255_2_778
10
42.7178782
20
38.8949154
40
0.5487547
50
359.8593896
51
90.1301939
0
ARC
8
DEFAULT_255_2_778
10
42.7179632
20
38.8922368
40
0.5486696
50
269.8609058
51
0.1390942
0
ARC
8
DEFAULT_255_2_778
10
42.7152846
20
38.8923218
40
0.5487547
50
179.8698061
51
270.1406104
0
LINE
8
DEFAULT_255_2_778
10
42.1665313
20
38.8935687
11
42.1665313
21
38.8935687
0
LINE
8
DEFAULT_255_2_778
10
41.4666761
20
42.5937603
11
43.9666761
21
42.5937603
0
LINE
8
DEFAULT_255_2_778
10
41.4666761
20
40.3937603
11
43.9666761
21
40.3937603
0
LINE
8
DEFAULT_255_2_778
10
41.4666761
20
37.3936603
11
43.9666761
21
37.3936603
0
ARC
8
DEFAULT_255_2_778
10
42.7153696
20
49.2948304
40
0.5488398
50
89.8682888
51
180.1317112
0
ARC
8
DEFAULT_255_2_778
10
42.7178782
20
49.2949154
40
0.5487547
50
359.8593896
51
90.1301939
0
ARC
8
DEFAULT_255_2_778
10
42.7179632
20
49.2922368
40
0.5486696
50
269.8609058
51
0.1390942
0
ARC
8
DEFAULT_255_2_778
10
42.7152846
20
49.2923218
40
0.5487547
50
179.8698061
51
270.1406104
0
LINE
8
DEFAULT_255_2_778
10
42.1665313
20
49.2935687
11
42.1665313
21
49.2935687
0
ARC
8
DEFAULT_255_2_778
10
42.7153696
20
44.0949304
40
0.5488398
50
89.8682888
51
180.1317112
0
ARC
8
DEFAULT_255_2_778
10
42.7178782
20
44.0950154
40
0.5487547
50
359.8593896
51
90.1301939
0
ARC
8
DEFAULT_255_2_778
10
42.7179632
20
44.0923368
40
0.5486696
50
269.8609058
51
0.1390942
0
ARC
8
DEFAULT_255_2_778
10
42.7152846
20
44.0924218
40
0.5487547
50
179.8698061
51
270.1406104
0
LINE
8
DEFAULT_255_2_778
10
42.1665313
20
44.0936687
11
42.1665313
21
44.0936687
0
LINE
8
DEFAULT_255_2_778
10
41.4666761
20
52.9937655
11
43.9666761
21
52.9937655
0
LINE
8
DEFAULT_255_2_778
10
41.4666761
20
50.7937655
11
43.9666761
21
50.7937655
0
LINE
8
DEFAULT_255_2_778
10
41.4666761
20
47.7936655
11
43.9666761
21
47.7936655
0
LINE
8
DEFAULT_255_2_778
10
41.4666761
20
45.5936655
11
43.9666761
21
45.5936655
0
ARC
8
DEFAULT_255_2_778
10
42.7153696
20
54.4949304
40
0.5488398
50
89.8682888
51
180.1317112
0
ARC
8
DEFAULT_255_2_778
10
42.7178782
20
54.4950154
40
0.5487547
50
359.8593896
51
90.1301939
0
ARC
8
DEFAULT_255_2_778
10
42.7179632
20
54.4923368
40
0.5486696
50
269.8609058
51
0.1390942
0
ARC
8
DEFAULT_255_2_778
10
42.7152846
20
54.4924218
40
0.5487547
50
179.8698061
51
270.1406104
0
LINE
8
DEFAULT_255_2_778
10
42.1665313
20
54.4936687
11
42.1665313
21
54.4936687
0
LINE
8
DEFAULT_255_2_778
10
41.4666761
20
55.9939
11
43.9666761
21
55.9939
0
ARC
8
DEFAULT_255_2_778
10
77.7154696
20
111.6949304
40
0.5488398
50
89.8682888
51
180.1317112
0
ARC
8
DEFAULT_255_2_778
10
77.7179782
20
111.6950154
40
0.5487547
50
359.8593896
51
90.1301939
0
ARC
8
DEFAULT_255_2_778
10
77.7180632
20
111.6923368
40
0.5486696
50
269.8609058
51
0.1390942
0
ARC
8
DEFAULT_255_2_778
10
77.7153846
20
111.6924218
40
0.5487547
50
179.8698061
51
270.1406104
0
LINE
8
DEFAULT_255_2_778
10
77.1666313
20
111.6936687
11
77.1666313
21
111.6936687
0
ARC
8
DEFAULT_255_2_778
10
77.7154696
20
116.8948304
40
0.5488398
50
89.8682888
51
180.1317112
0
ARC
8
DEFAULT_255_2_778
10
77.7179782
20
116.8949154
40
0.5487547
50
359.8593896
51
90.1301939
0
ARC
8
DEFAULT_255_2_778
10
77.7180632
20
116.8922368
40
0.5486696
50
269.8609058
51
0.1390942
0
ARC
8
DEFAULT_255_2_778
10
77.7153846
20
116.8923218
40
0.5487547
50
179.8698061
51
270.1406104
0
LINE
8
DEFAULT_255_2_778
10
77.1666313
20
116.8935687
11
77.1666313
21
116.8935687
0
LINE
8
DEFAULT_255_2_778
10
76.4665761
20
115.3936332
11
78.9665761
21
115.3936332
0
LINE
8
DEFAULT_255_2_778
10
76.4665761
20
113.1936332
11
78.9665761
21
113.1936332
0
LINE
8
DEFAULT_255_2_778
10
76.4665761
20
110.1937332
11
78.9665761
21
110.1937332
0
LINE
8
DEFAULT_255_2_778
10
76.4665761
20
107.9937332
11
78.9665761
21
107.9937332
0
ARC
8
DEFAULT_255_2_778
10
77.7154696
20
101.2949304
40
0.5488398
50
89.8682888
51
180.1317112
0
ARC
8
DEFAULT_255_2_778
10
77.7179782
20
101.2950154
40
0.5487547
50
359.8593896
51
90.1301939
0
ARC
8
DEFAULT_255_2_778
10
77.7180632
20
101.2923368
40
0.5486696
50
269.8609058
51
0.1390942
0
ARC
8
DEFAULT_255_2_778
10
77.7153846
20
101.2924218
40
0.5487547
50
179.8698061
51
270.1406104
0
LINE
8
DEFAULT_255_2_778
10
77.1666313
20
101.2936687
11
77.1666313
21
101.2936687
0
ARC
8
DEFAULT_255_2_778
10
77.7154696
20
106.4948304
40
0.5488398
50
89.8682888
51
180.1317112
0
ARC
8
DEFAULT_255_2_778
10
77.7179782
20
106.4949154
40
0.5487547
50
359.8593896
51
90.1301939
0
ARC
8
DEFAULT_255_2_778
10
77.7180632
20
106.4922368
40
0.5486696
50
269.8609058
51
0.1390942
0
ARC
8
DEFAULT_255_2_778
10
77.7153846
20
106.4923218
40
0.5487547
50
179.8698061
51
270.1406104
0
LINE
8
DEFAULT_255_2_778
10
77.1666313
20
106.4935687
11
77.1666313
21
106.4935687
0
LINE
8
DEFAULT_255_2_778
10
76.4665761
20
104.9936281
11
78.9665761
21
104.9936281
0
LINE
8
DEFAULT_255_2_778
10
76.4665761
20
102.7936281
11
78.9665761
21
102.7936281
0
LINE
8
DEFAULT_255_2_778
10
76.4665761
20
99.7937281
11
78.9665761
21
99.7937281
0
ARC
8
DEFAULT_255_2_778
10
77.7154696
20
90.8950304
40
0.5488398
50
89.8682888
51
180.1317112
0
ARC
8
DEFAULT_255_2_778
10
77.7179782
20
90.8951154
40
0.5487547
50
359.8593896
51
90.1301939
0
ARC
8
DEFAULT_255_2_778
10
77.7180632
20
90.8924368
40
0.5486696
50
269.8609058
51
0.1390942
0
ARC
8
DEFAULT_255_2_778
10
77.7153846
20
90.8925218
40
0.5487547
50
179.8698061
51
270.1406104
0
LINE
8
DEFAULT_255_2_778
10
77.1666313
20
90.8937687
11
77.1666313
21
90.8937687
0
ARC
8
DEFAULT_255_2_778
10
77.7154696
20
96.0948304
40
0.5488398
50
89.8682888
51
180.1317112
0
ARC
8
DEFAULT_255_2_778
10
77.7179782
20
96.0949154
40
0.5487547
50
359.8593896
51
90.1301939
0
ARC
8
DEFAULT_255_2_778
10
77.7180632
20
96.0922368
40
0.5486696
50
269.8609058
51
0.1390942
0
ARC
8
DEFAULT_255_2_778
10
77.7153846
20
96.0923218
40
0.5487547
50
179.8698061
51
270.1406104
0
LINE
8
DEFAULT_255_2_778
10
77.1666313
20
96.0935687
11
77.1666313
21
96.0935687
0
LINE
8
DEFAULT_255_2_778
10
76.4665761
20
97.5937884
11
78.9665761
21
97.5937884
0
LINE
8
DEFAULT_255_2_778
10
76.4665761
20
94.5936884
11
78.9665761
21
94.5936884
0
LINE
8
DEFAULT_255_2_778
10
76.4665761
20
92.3936884
11
78.9665761
21
92.3936884
0
LINE
8
DEFAULT_255_2_778
10
76.4665761
20
87.1937884
11
78.9665761
21
87.1937884
0
LINE
8
DEFAULT_255_2_778
10
76.4665761
20
89.3938
11
78.9665761
21
89.3938
0
LINE
8
DEFAULT_255_2_778
10
76.4665761
20
118.8938118
11
78.9665761
21
118.8938118
0
LINE
8
DEFAULT_255_2_778
10
78.9665761
20
118.8938118
11
78.9665761
21
67.8938118
0
LINE
8
DEFAULT_255_2_778
10
78.9665761
20
67.8938118
11
76.4665761
21
67.8938118
0
LINE
8
DEFAULT_255_2_778
10
76.4665761
20
67.8938118
11
76.4665761
21
118.8938118
0
ARC
8
DEFAULT_255_2_778
10
77.7154696
20
80.4950304
40
0.5488398
50
89.8682888
51
180.1317112
0
ARC
8
DEFAULT_255_2_778
10
77.7179782
20
80.4951154
40
0.5487547
50
359.8593896
51
90.1301939
0
ARC
8
DEFAULT_255_2_778
10
77.7180632
20
80.4924368
40
0.5486696
50
269.8609058
51
0.1390942
0
ARC
8
DEFAULT_255_2_778
10
77.7153846
20
80.4925218
40
0.5487547
50
179.8698061
51
270.1406104
0
LINE
8
DEFAULT_255_2_778
10
77.1666313
20
80.4937687
11
77.1666313
21
80.4937687
0
ARC
8
DEFAULT_255_2_778
10
77.7154696
20
85.6948304
40
0.5488398
50
89.8682888
51
180.1317112
0
ARC
8
DEFAULT_255_2_778
10
77.7179782
20
85.6949154
40
0.5487547
50
359.8593896
51
90.1301939
0
ARC
8
DEFAULT_255_2_778
10
77.7180632
20
85.6922368
40
0.5486696
50
269.8609058
51
0.1390942
0
ARC
8
DEFAULT_255_2_778
10
77.7153846
20
85.6923218
40
0.5487547
50
179.8698061
51
270.1406104
0
LINE
8
DEFAULT_255_2_778
10
77.1666313
20
85.6935687
11
77.1666313
21
85.6935687
0
LINE
8
DEFAULT_255_2_778
10
76.4665761
20
84.1937332
11
78.9665761
21
84.1937332
0
LINE
8
DEFAULT_255_2_778
10
76.4665761
20
81.9937332
11
78.9665761
21
81.9937332
0
LINE
8
DEFAULT_255_2_778
10
76.4665761
20
78.9938332
11
78.9665761
21
78.9938332
0
LINE
8
DEFAULT_255_2_778
10
76.4665761
20
76.7938332
11
78.9665761
21
76.7938332
0
ARC
8
DEFAULT_255_2_778
10
77.7154696
20
70.0950304
40
0.5488398
50
89.8682888
51
180.1317112
0
ARC
8
DEFAULT_255_2_778
10
77.7179782
20
70.0951154
40
0.5487547
50
359.8593896
51
90.1301939
0
ARC
8
DEFAULT_255_2_778
10
77.7180632
20
70.0924368
40
0.5486696
50
269.8609058
51
0.1390942
0
ARC
8
DEFAULT_255_2_778
10
77.7153846
20
70.0925218
40
0.5487547
50
179.8698061
51
270.1406104
0
LINE
8
DEFAULT_255_2_778
10
77.1666313
20
70.0937687
11
77.1666313
21
70.0937687
0
ARC
8
DEFAULT_255_2_778
10
77.7154696
20
75.2949304
40
0.5488398
50
89.8682888
51
180.1317112
0
ARC
8
DEFAULT_255_2_778
10
77.7179782
20
75.2950154
40
0.5487547
50
359.8593896
51
90.1301939
0
ARC
8
DEFAULT_255_2_778
10
77.7180632
20
75.2923368
40
0.5486696
50
269.8609058
51
0.1390942
0
ARC
8
DEFAULT_255_2_778
10
77.7153846
20
75.2924218
40
0.5487547
50
179.8698061
51
270.1406104
0
LINE
8
DEFAULT_255_2_778
10
77.1666313
20
75.2936687
11
77.1666313
21
75.2936687
0
LINE
8
DEFAULT_255_2_778
10
76.4665761
20
73.7937281
11
78.9665761
21
73.7937281
0
LINE
8
DEFAULT_255_2_778
10
76.4665761
20
71.5937281
11
78.9665761
21
71.5937281
0
LINE
8
DEFAULT_255_2_778
10
76.4665761
20
68.5938281
11
78.9665761
21
68.5938281
0
ARC
8
DEFAULT_255_2_778
10
42.7153696
20
70.0950304
40
0.5488398
50
89.8682888
51
180.1317112
0
ARC
8
DEFAULT_255_2_778
10
42.7178782
20
70.0951154
40
0.5487547
50
359.8593896
51
90.1301939
0
ARC
8
DEFAULT_255_2_778
10
42.7179632
20
70.0924368
40
0.5486696
50
269.8609058
51
0.1390942
0
ARC
8
DEFAULT_255_2_778
10
42.7152846
20
70.0925218
40
0.5487547
50
179.8698061
51
270.1406104
0
LINE
8
DEFAULT_255_2_778
10
42.1665313
20
70.0937687
11
42.1665313
21
70.0937687
0
LINE
8
DEFAULT_255_2_778
10
41.4666761
20
73.7937281
11
43.9666761
21
73.7937281
0
LINE
8
DEFAULT_255_2_778
10
41.4666761
20
71.5937281
11
43.9666761
21
71.5937281
0
LINE
8
DEFAULT_255_2_778
10
41.4666761
20
68.5938281
11
43.9666761
21
68.5938281
0
ARC
8
DEFAULT_255_2_778
10
42.7153696
20
80.4950304
40
0.5488398
50
89.8682888
51
180.1317112
0
ARC
8
DEFAULT_255_2_778
10
42.7178782
20
80.4951154
40
0.5487547
50
359.8593896
51
90.1301939
0
ARC
8
DEFAULT_255_2_778
10
42.7179632
20
80.4924368
40
0.5486696
50
269.8609058
51
0.1390942
0
ARC
8
DEFAULT_255_2_778
10
42.7152846
20
80.4925218
40
0.5487547
50
179.8698061
51
270.1406104
0
LINE
8
DEFAULT_255_2_778
10
42.1665313
20
80.4937687
11
42.1665313
21
80.4937687
0
ARC
8
DEFAULT_255_2_778
10
42.7153696
20
75.2949304
40
0.5488398
50
89.8682888
51
180.1317112
0
ARC
8
DEFAULT_255_2_778
10
42.7178782
20
75.2950154
40
0.5487547
50
359.8593896
51
90.1301939
0
ARC
8
DEFAULT_255_2_778
10
42.7179632
20
75.2923368
40
0.5486696
50
269.8609058
51
0.1390942
0
ARC
8
DEFAULT_255_2_778
10
42.7152846
20
75.2924218
40
0.5487547
50
179.8698061
51
270.1406104
0
LINE
8
DEFAULT_255_2_778
10
42.1665313
20
75.2936687
11
42.1665313
21
75.2936687
0
LINE
8
DEFAULT_255_2_778
10
41.4666761
20
84.1937332
11
43.9666761
21
84.1937332
0
LINE
8
DEFAULT_255_2_778
10
41.4666761
20
81.9937332
11
43.9666761
21
81.9937332
0
LINE
8
DEFAULT_255_2_778
10
41.4666761
20
78.9938332
11
43.9666761
21
78.9938332
0
LINE
8
DEFAULT_255_2_778
10
41.4666761
20
76.7938332
11
43.9666761
21
76.7938332
0
ARC
8
DEFAULT_255_2_778
10
42.7153696
20
96.0948304
40
0.5488398
50
89.8682888
51
180.1317112
0
ARC
8
DEFAULT_255_2_778
10
42.7178782
20
96.0949154
40
0.5487547
50
359.8593896
51
90.1301939
0
ARC
8
DEFAULT_255_2_778
10
42.7179632
20
96.0922368
40
0.5486696
50
269.8609058
51
0.1390942
0
ARC
8
DEFAULT_255_2_778
10
42.7152846
20
96.0923218
40
0.5487547
50
179.8698061
51
270.1406104
0
LINE
8
DEFAULT_255_2_778
10
42.1665313
20
96.0935687
11
42.1665313
21
96.0935687
0
ARC
8
DEFAULT_255_2_778
10
42.7153696
20
90.8950304
40
0.5488398
50
89.8682888
51
180.1317112
0
ARC
8
DEFAULT_255_2_778
10
42.7178782
20
90.8951154
40
0.5487547
50
359.8593896
51
90.1301939
0
ARC
8
DEFAULT_255_2_778
10
42.7179632
20
90.8924368
40
0.5486696
50
269.8609058
51
0.1390942
0
ARC
8
DEFAULT_255_2_778
10
42.7152846
20
90.8925218
40
0.5487547
50
179.8698061
51
270.1406104
0
LINE
8
DEFAULT_255_2_778
10
42.1665313
20
90.8937687
11
42.1665313
21
90.8937687
0
LINE
8
DEFAULT_255_2_778
10
41.4666761
20
97.5937884
11
43.9666761
21
97.5937884
0
LINE
8
DEFAULT_255_2_778
10
41.4666761
20
94.5936884
11
43.9666761
21
94.5936884
0
LINE
8
DEFAULT_255_2_778
10
41.4666761
20
92.3936884
11
43.9666761
21
92.3936884
0
LINE
8
DEFAULT_255_2_778
10
41.4666761
20
87.1937884
11
43.9666761
21
87.1937884
0
LINE
8
DEFAULT_255_2_778
10
41.4666761
20
89.3938
11
43.9666761
21
89.3938
0
LINE
8
DEFAULT_255_2_778
10
43.9666761
20
119.0938118
11
41.4666761
21
119.0938118
0
LINE
8
DEFAULT_255_2_778
10
41.4666761
20
119.0938118
11
41.4666761
21
68.0938118
0
LINE
8
DEFAULT_255_2_778
10
41.4666761
20
68.0938118
11
43.9666761
21
68.0938118
0
LINE
8
DEFAULT_255_2_778
10
43.9666761
20
68.0938118
11
43.9666761
21
119.0938118
0
ARC
8
DEFAULT_255_2_778
10
42.7153696
20
101.2949304
40
0.5488398
50
89.8682888
51
180.1317112
0
ARC
8
DEFAULT_255_2_778
10
42.7178782
20
101.2950154
40
0.5487547
50
359.8593896
51
90.1301939
0
ARC
8
DEFAULT_255_2_778
10
42.7179632
20
101.2923368
40
0.5486696
50
269.8609058
51
0.1390942
0
ARC
8
DEFAULT_255_2_778
10
42.7152846
20
101.2924218
40
0.5487547
50
179.8698061
51
270.1406104
0
LINE
8
DEFAULT_255_2_778
10
42.1665313
20
101.2936687
11
42.1665313
21
101.2936687
0
LINE
8
DEFAULT_255_2_778
10
41.4666761
20
104.9936281
11
43.9666761
21
104.9936281
0
LINE
8
DEFAULT_255_2_778
10
41.4666761
20
102.7936281
11
43.9666761
21
102.7936281
0
LINE
8
DEFAULT_255_2_778
10
41.4666761
20
99.7937281
11
43.9666761
21
99.7937281
0
ARC
8
DEFAULT_255_2_778
10
42.7153696
20
111.6949304
40
0.5488398
50
89.8682888
51
180.1317112
0
ARC
8
DEFAULT_255_2_778
10
42.7178782
20
111.6950154
40
0.5487547
50
359.8593896
51
90.1301939
0
ARC
8
DEFAULT_255_2_778
10
42.7179632
20
111.6923368
40
0.5486696
50
269.8609058
51
0.1390942
0
ARC
8
DEFAULT_255_2_778
10
42.7152846
20
111.6924218
40
0.5487547
50
179.8698061
51
270.1406104
0
LINE
8
DEFAULT_255_2_778
10
42.1665313
20
111.6936687
11
42.1665313
21
111.6936687
0
ARC
8
DEFAULT_255_2_778
10
42.7153696
20
106.4948304
40
0.5488398
50
89.8682888
51
180.1317112
0
ARC
8
DEFAULT_255_2_778
10
42.7178782
20
106.4949154
40
0.5487547
50
359.8593896
51
90.1301939
0
ARC
8
DEFAULT_255_2_778
10
42.7179632
20
106.4922368
40
0.5486696
50
269.8609058
51
0.1390942
0
ARC
8
DEFAULT_255_2_778
10
42.7152846
20
106.4923218
40
0.5487547
50
179.8698061
51
270.1406104
0
LINE
8
DEFAULT_255_2_778
10
42.1665313
20
106.4935687
11
42.1665313
21
106.4935687
0
LINE
8
DEFAULT_255_2_778
10
41.4666761
20
115.3936332
11
43.9666761
21
115.3936332
0
LINE
8
DEFAULT_255_2_778
10
41.4666761
20
113.1939332
11
43.9666761
21
113.1939332
0
LINE
8
DEFAULT_255_2_778
10
41.4666761
20
110.1937332
11
43.9666761
21
110.1937332
0
LINE
8
DEFAULT_255_2_778
10
41.4666761
20
107.9937332
11
43.9666761
21
107.9937332
0
ARC
8
DEFAULT_255_2_778
10
42.7153696
20
116.8948304
40
0.5488398
50
89.8682888
51
180.1317112
0
ARC
8
DEFAULT_255_2_778
10
42.7178782
20
116.8949154
40
0.5487547
50
359.8593896
51
90.1301939
0
ARC
8
DEFAULT_255_2_778
10
42.7179632
20
116.8922368
40
0.5486696
50
269.8609058
51
0.1390942
0
ARC
8
DEFAULT_255_2_778
10
42.7152846
20
116.8923218
40
0.5487547
50
179.8698061
51
270.1406104
0
LINE
8
DEFAULT_255_2_778
10
42.1665313
20
116.8935687
11
42.1665313
21
116.8935687
0
LINE
8
DEFAULT_255_2_778
10
41.4666888
20
118.3937109
11
43.9666888
21
118.3937109
0
LINE
8
DEFAULT_255_2_778
10
62.3573888
20
3.2341109
11
62.1837888
21
3.2341109
0
LINE
8
DEFAULT_255_2_778
10
62.1837888
20
3.2341109
11
61.9496888
21
3.0412109
0
LINE
8
DEFAULT_255_2_778
10
61.9496888
20
3.0412109
11
61.8173888
21
2.9724109
0
LINE
8
DEFAULT_255_2_778
10
61.8173888
20
2.9724109
11
61.8173888
21
2.7605109
0
LINE
8
DEFAULT_255_2_778
10
61.8173888
20
2.7605109
11
62.1194888
21
2.9420109
0
LINE
8
DEFAULT_255_2_778
10
62.1194888
20
2.9420109
11
62.1523888
21
2.9713109
0
LINE
8
DEFAULT_255_2_778
10
62.1523888
20
2.9713109
11
62.1523888
21
1.5436109
0
LINE
8
DEFAULT_255_2_778
10
62.1523888
20
1.5436109
11
62.3573888
21
1.5436109
0
LINE
8
DEFAULT_255_2_778
10
62.3573888
20
1.5436109
11
62.3573888
21
3.2341109
0
LINE
8
DEFAULT_255_2_778
10
55.4403888
20
2.2631109
11
55.9674888
21
2.2631109
0
LINE
8
DEFAULT_255_2_778
10
55.9674888
20
2.2631109
11
55.9674888
21
2.1027109
0
LINE
8
DEFAULT_255_2_778
10
55.9674888
20
2.1027109
11
55.4403888
21
2.1027109
0
LINE
8
DEFAULT_255_2_778
10
55.4403888
20
2.1027109
11
55.4403888
21
2.2631109
0
LINE
8
DEFAULT_255_2_778
10
62.9754888
20
2.2631109
11
63.5024888
21
2.2631109
0
LINE
8
DEFAULT_255_2_778
10
63.5024888
20
2.2631109
11
63.5024888
21
2.1027109
0
LINE
8
DEFAULT_255_2_778
10
63.5024888
20
2.1027109
11
62.9754888
21
2.1027109
0
LINE
8
DEFAULT_255_2_778
10
62.9754888
20
2.1027109
11
62.9754888
21
2.2631109
0
LINE
8
DEFAULT_255_2_778
10
51.8608888
20
1.6979109
11
51.6808888
21
1.7537109
0
LINE
8
DEFAULT_255_2_778
10
51.6808888
20
1.7537109
11
51.5827888
21
1.8617109
0
LINE
8
DEFAULT_255_2_778
10
51.5827888
20
1.8617109
11
51.5393888
21
1.9585109
0
LINE
8
DEFAULT_255_2_778
10
51.5393888
20
1.9585109
11
51.5258888
21
2.0075109
0
LINE
8
DEFAULT_255_2_778
10
51.5258888
20
2.0075109
11
51.3165888
21
2.0075109
0
LINE
8
DEFAULT_255_2_778
10
51.3165888
20
2.0075109
11
51.3234888
21
1.9659109
0
LINE
8
DEFAULT_255_2_778
10
51.3234888
20
1.9659109
11
51.3326888
21
1.9246109
0
LINE
8
DEFAULT_255_2_778
10
51.3326888
20
1.9246109
11
51.3512888
21
1.8638109
0
LINE
8
DEFAULT_255_2_778
10
51.3512888
20
1.8638109
11
51.3856888
21
1.7855109
0
LINE
8
DEFAULT_255_2_778
10
51.3856888
20
1.7855109
11
51.4409888
21
1.7011109
0
LINE
8
DEFAULT_255_2_778
10
51.4409888
20
1.7011109
11
51.5353888
21
1.6090109
0
LINE
8
DEFAULT_255_2_778
10
51.5353888
20
1.6090109
11
51.6626888
21
1.5386109
0
LINE
8
DEFAULT_255_2_778
10
51.6626888
20
1.5386109
11
51.8200888
21
1.5061109
0
LINE
8
DEFAULT_255_2_778
10
51.8200888
20
1.5061109
11
52.0237888
21
1.5225109
0
LINE
8
DEFAULT_255_2_778
10
52.0237888
20
1.5225109
11
52.1743888
21
1.5815109
0
LINE
8
DEFAULT_255_2_778
10
52.1743888
20
1.5815109
11
52.2730888
21
1.6590109
0
LINE
8
DEFAULT_255_2_778
10
52.2730888
20
1.6590109
11
52.3296888
21
1.7318109
0
LINE
8
DEFAULT_255_2_778
10
52.3296888
20
1.7318109
11
52.3645888
21
1.8021109
0
LINE
8
DEFAULT_255_2_778
10
52.3645888
20
1.8021109
11
52.3838888
21
1.8619109
0
LINE
8
DEFAULT_255_2_778
10
52.3838888
20
1.8619109
11
52.3920888
21
1.9003109
0
LINE
8
DEFAULT_255_2_778
10
52.3920888
20
1.9003109
11
52.3976888
21
1.9392109
0
LINE
8
DEFAULT_255_2_778
10
52.3976888
20
1.9392109
11
52.3973888
21
2.0921109
0
LINE
8
DEFAULT_255_2_778
10
52.3973888
20
2.0921109
11
52.3881888
21
2.1435109
0
LINE
8
DEFAULT_255_2_778
10
52.3881888
20
2.1435109
11
52.3568888
21
2.2271109
0
LINE
8
DEFAULT_255_2_778
10
52.3568888
20
2.2271109
11
52.2447888
21
2.3554109
0
LINE
8
DEFAULT_255_2_778
10
52.2447888
20
2.3554109
11
52.1174888
21
2.4133109
0
LINE
8
DEFAULT_255_2_778
10
52.1174888
20
2.4133109
11
52.2291888
21
2.4879109
0
LINE
8
DEFAULT_255_2_778
10
52.2291888
20
2.4879109
11
52.2986888
21
2.5684109
0
LINE
8
DEFAULT_255_2_778
10
52.2986888
20
2.5684109
11
52.3341888
21
2.6351109
0
LINE
8
DEFAULT_255_2_778
10
52.3341888
20
2.6351109
11
52.3534888
21
2.6922109
0
LINE
8
DEFAULT_255_2_778
10
52.3534888
20
2.6922109
11
52.3606888
21
2.7240109
0
LINE
8
DEFAULT_255_2_778
10
52.3606888
20
2.7240109
11
52.3653888
21
2.7560109
0
LINE
8
DEFAULT_255_2_778
10
52.3653888
20
2.7560109
11
52.3637888
21
2.8967109
0
LINE
8
DEFAULT_255_2_778
10
52.3637888
20
2.8967109
11
52.3584888
21
2.9266109
0
LINE
8
DEFAULT_255_2_778
10
52.3584888
20
2.9266109
11
52.3471888
21
2.9695109
0
LINE
8
DEFAULT_255_2_778
10
52.3471888
20
2.9695109
11
52.3198888
21
3.0340109
0
LINE
8
DEFAULT_255_2_778
10
52.3198888
20
3.0340109
11
52.2719888
21
3.1039109
0
LINE
8
DEFAULT_255_2_778
10
52.2719888
20
3.1039109
11
52.1825888
21
3.1819109
0
LINE
8
DEFAULT_255_2_778
10
52.1825888
20
3.1819109
11
52.0449888
21
3.2449109
0
LINE
8
DEFAULT_255_2_778
10
52.0449888
20
3.2449109
11
51.8441888
21
3.2685109
0
LINE
8
DEFAULT_255_2_778
10
51.8441888
20
3.2685109
11
51.6602888
21
3.2386109
0
LINE
8
DEFAULT_255_2_778
10
51.6602888
20
3.2386109
11
51.4723888
21
3.1203109
0
LINE
8
DEFAULT_255_2_778
10
51.4723888
20
3.1203109
11
51.4012888
21
3.0139109
0
LINE
8
DEFAULT_255_2_778
10
51.4012888
20
3.0139109
11
51.3739888
21
2.9338109
0
LINE
8
DEFAULT_255_2_778
10
51.3739888
20
2.9338109
11
51.3644888
21
2.8827109
0
LINE
8
DEFAULT_255_2_778
10
51.3644888
20
2.8827109
11
51.3612888
21
2.8520109
0
LINE
8
DEFAULT_255_2_778
10
51.3612888
20
2.8520109
11
51.3596888
21
2.8009109
0
LINE
8
DEFAULT_255_2_778
10
51.3596888
20
2.8009109
11
51.5581888
21
2.8009109
0
LINE
8
DEFAULT_255_2_778
10
51.5581888
20
2.8009109
11
51.5597888
21
2.8388109
0
LINE
8
DEFAULT_255_2_778
10
51.5597888
20
2.8388109
11
51.5639888
21
2.8671109
0
LINE
8
DEFAULT_255_2_778
10
51.5639888
20
2.8671109
11
51.5795888
21
2.9187109
0
LINE
8
DEFAULT_255_2_778
10
51.5795888
20
2.9187109
11
51.6261888
21
2.9914109
0
LINE
8
DEFAULT_255_2_778
10
51.6261888
20
2.9914109
11
51.7462888
21
3.0679109
0
LINE
8
DEFAULT_255_2_778
10
51.7462888
20
3.0679109
11
51.9317888
21
3.0796109
0
LINE
8
DEFAULT_255_2_778
10
51.9317888
20
3.0796109
11
52.0806888
21
3.0097109
0
LINE
8
DEFAULT_255_2_778
10
52.0806888
20
3.0097109
11
52.1372888
21
2.9346109
0
LINE
8
DEFAULT_255_2_778
10
52.1372888
20
2.9346109
11
52.1550888
21
2.8854109
0
LINE
8
DEFAULT_255_2_778
10
52.1550888
20
2.8854109
11
52.1624888
21
2.8473109
0
LINE
8
DEFAULT_255_2_778
10
52.1624888
20
2.8473109
11
52.1608888
21
2.7483109
0
LINE
8
DEFAULT_255_2_778
10
52.1608888
20
2.7483109
11
52.1449888
21
2.6938109
0
LINE
8
DEFAULT_255_2_778
10
52.1449888
20
2.6938109
11
52.0724888
21
2.5967109
0
LINE
8
DEFAULT_255_2_778
10
52.0724888
20
2.5967109
11
51.8928888
21
2.5133109
0
LINE
8
DEFAULT_255_2_778
10
51.8928888
20
2.5133109
11
51.8182888
21
2.5073109
0
LINE
8
DEFAULT_255_2_778
10
51.8182888
20
2.5073109
11
51.7499888
21
2.5073109
0
LINE
8
DEFAULT_255_2_778
10
51.7499888
20
2.5073109
11
51.7499888
21
2.3170109
0
LINE
8
DEFAULT_255_2_778
10
51.7499888
20
2.3170109
11
52.0044888
21
2.2903109
0
LINE
8
DEFAULT_255_2_778
10
52.0044888
20
2.2903109
11
52.1309888
21
2.2123109
0
LINE
8
DEFAULT_255_2_778
10
52.1309888
20
2.2123109
11
52.1775888
21
2.1408109
0
LINE
8
DEFAULT_255_2_778
10
52.1775888
20
2.1408109
11
52.1888888
21
2.1054109
0
LINE
8
DEFAULT_255_2_778
10
52.1888888
20
2.1054109
11
52.1941888
21
2.0755109
0
LINE
8
DEFAULT_255_2_778
10
52.1941888
20
2.0755109
11
52.1923888
21
1.9680109
0
LINE
8
DEFAULT_255_2_778
10
52.1923888
20
1.9680109
11
52.1833888
21
1.9254109
0
LINE
8
DEFAULT_255_2_778
10
52.1833888
20
1.9254109
11
52.1626888
21
1.8691109
0
LINE
8
DEFAULT_255_2_778
10
52.1626888
20
1.8691109
11
52.1060888
21
1.7900109
0
LINE
8
DEFAULT_255_2_778
10
52.1060888
20
1.7900109
11
51.9933888
21
1.7188109
0
LINE
8
DEFAULT_255_2_778
10
51.9933888
20
1.7188109
11
51.8605888
21
1.6976109
0
LINE
8
DEFAULT_255_2_778
10
56.5204208
20
2.7845479
11
56.3220208
21
2.7845479
0
LINE
8
DEFAULT_255_2_778
10
56.3220208
20
2.7845479
11
56.3244208
21
2.8459479
0
LINE
8
DEFAULT_255_2_778
10
56.3244208
20
2.8459479
11
56.3294208
21
2.8869479
0
LINE
8
DEFAULT_255_2_778
10
56.3294208
20
2.8869479
11
56.3463208
21
2.9610479
0
LINE
8
DEFAULT_255_2_778
10
56.3463208
20
2.9610479
11
56.3966208
21
3.0695479
0
LINE
8
DEFAULT_255_2_778
10
56.3966208
20
3.0695479
11
56.4784208
21
3.1618479
0
LINE
8
DEFAULT_255_2_778
10
56.4784208
20
3.1618479
11
56.5564208
21
3.2145479
0
LINE
8
DEFAULT_255_2_778
10
56.5564208
20
3.2145479
11
56.6702208
21
3.2555479
0
LINE
8
DEFAULT_255_2_778
10
56.6702208
20
3.2555479
11
56.8453208
21
3.2679479
0
LINE
8
DEFAULT_255_2_778
10
56.8453208
20
3.2679479
11
56.9880208
21
3.2422479
0
LINE
8
DEFAULT_255_2_778
10
56.9880208
20
3.2422479
11
57.0919208
21
3.1938479
0
LINE
8
DEFAULT_255_2_778
10
57.0919208
20
3.1938479
11
57.1753208
21
3.1245479
0
LINE
8
DEFAULT_255_2_778
10
57.1753208
20
3.1245479
11
57.2179208
21
3.0692479
0
LINE
8
DEFAULT_255_2_778
10
57.2179208
20
3.0692479
11
57.2427208
21
3.0224479
0
LINE
8
DEFAULT_255_2_778
10
57.2427208
20
3.0224479
11
57.2613208
21
2.9724479
0
LINE
8
DEFAULT_255_2_778
10
57.2613208
20
2.9724479
11
57.2708208
21
2.9361479
0
LINE
8
DEFAULT_255_2_778
10
57.2708208
20
2.9361479
11
57.2777208
21
2.8972479
0
LINE
8
DEFAULT_255_2_778
10
57.2777208
20
2.8972479
11
57.2769208
21
2.7469479
0
LINE
8
DEFAULT_255_2_778
10
57.2769208
20
2.7469479
11
57.2687208
21
2.6996479
0
LINE
8
DEFAULT_255_2_778
10
57.2687208
20
2.6996479
11
57.2573208
21
2.6527479
0
LINE
8
DEFAULT_255_2_778
10
57.2573208
20
2.6527479
11
57.2348208
21
2.5837479
0
LINE
8
DEFAULT_255_2_778
10
57.2348208
20
2.5837479
11
57.1964208
21
2.4945479
0
LINE
8
DEFAULT_255_2_778
10
57.1964208
20
2.4945479
11
57.1472208
21
2.4038479
0
LINE
8
DEFAULT_255_2_778
10
57.1472208
20
2.4038479
11
57.0708208
21
2.2897479
0
LINE
8
DEFAULT_255_2_778
10
57.0708208
20
2.2897479
11
56.9382208
21
2.1315479
0
LINE
8
DEFAULT_255_2_778
10
56.9382208
20
2.1315479
11
56.5080208
21
1.7299479
0
LINE
8
DEFAULT_255_2_778
10
56.5080208
20
1.7299479
11
57.3137208
21
1.7299479
0
LINE
8
DEFAULT_255_2_778
10
57.3137208
20
1.7299479
11
57.3137208
21
1.5444479
0
LINE
8
DEFAULT_255_2_778
10
57.3137208
20
1.5444479
11
56.2585208
21
1.5444479
0
LINE
8
DEFAULT_255_2_778
10
56.2585208
20
1.5444479
11
56.2585208
21
1.7481479
0
LINE
8
DEFAULT_255_2_778
10
56.2585208
20
1.7481479
11
56.5167208
21
1.9810479
0
LINE
8
DEFAULT_255_2_778
10
56.5167208
20
1.9810479
11
56.7125208
21
2.1826479
0
LINE
8
DEFAULT_255_2_778
10
56.7125208
20
2.1826479
11
56.8850208
21
2.3879479
0
LINE
8
DEFAULT_255_2_778
10
56.8850208
20
2.3879479
11
56.9898208
21
2.5403479
0
LINE
8
DEFAULT_255_2_778
10
56.9898208
20
2.5403479
11
57.0366208
21
2.6287479
0
LINE
8
DEFAULT_255_2_778
10
57.0366208
20
2.6287479
11
57.0636208
21
2.6977479
0
LINE
8
DEFAULT_255_2_778
10
57.0636208
20
2.6977479
11
57.0761208
21
2.7451479
0
LINE
8
DEFAULT_255_2_778
10
57.0761208
20
2.7451479
11
57.0814208
21
2.7771479
0
LINE
8
DEFAULT_255_2_778
10
57.0814208
20
2.7771479
11
57.0800208
21
2.8652479
0
LINE
8
DEFAULT_255_2_778
10
57.0800208
20
2.8652479
11
57.0676208
21
2.9168479
0
LINE
8
DEFAULT_255_2_778
10
57.0676208
20
2.9168479
11
57.0337208
21
2.9824479
0
LINE
8
DEFAULT_255_2_778
10
57.0337208
20
2.9824479
11
56.9374208
21
3.0599479
0
LINE
8
DEFAULT_255_2_778
10
56.9374208
20
3.0599479
11
56.7422208
21
3.0816479
0
LINE
8
DEFAULT_255_2_778
10
56.7422208
20
3.0816479
11
56.6030208
21
3.0115479
0
LINE
8
DEFAULT_255_2_778
10
56.6030208
20
3.0115479
11
56.5543208
21
2.9454479
0
LINE
8
DEFAULT_255_2_778
10
56.5543208
20
2.9454479
11
56.5331208
21
2.8909479
0
LINE
8
DEFAULT_255_2_778
10
56.5331208
20
2.8909479
11
56.5244208
21
2.8504479
0
LINE
8
DEFAULT_255_2_778
10
56.5244208
20
2.8504479
11
56.5218208
21
2.8287479
0
LINE
8
DEFAULT_255_2_778
10
56.5218208
20
2.8287479
11
56.5199208
21
2.7853479
0
LINE
8
DEFAULT_255_2_778
10
52.9986208
20
2.7845479
11
52.8001208
21
2.7845479
0
LINE
8
DEFAULT_255_2_778
10
52.8001208
20
2.7845479
11
52.8025208
21
2.8459479
0
LINE
8
DEFAULT_255_2_778
10
52.8025208
20
2.8459479
11
52.8075208
21
2.8869479
0
LINE
8
DEFAULT_255_2_778
10
52.8075208
20
2.8869479
11
52.8244208
21
2.9610479
0
LINE
8
DEFAULT_255_2_778
10
52.8244208
20
2.9610479
11
52.8747208
21
3.0695479
0
LINE
8
DEFAULT_255_2_778
10
52.8747208
20
3.0695479
11
52.9565208
21
3.1618479
0
LINE
8
DEFAULT_255_2_778
10
52.9565208
20
3.1618479
11
53.0345208
21
3.2145479
0
LINE
8
DEFAULT_255_2_778
10
53.0345208
20
3.2145479
11
53.1483208
21
3.2555479
0
LINE
8
DEFAULT_255_2_778
10
53.1483208
20
3.2555479
11
53.3234208
21
3.2679479
0
LINE
8
DEFAULT_255_2_778
10
53.3234208
20
3.2679479
11
53.4661208
21
3.2422479
0
LINE
8
DEFAULT_255_2_778
10
53.4661208
20
3.2422479
11
53.5700208
21
3.1938479
0
LINE
8
DEFAULT_255_2_778
10
53.5700208
20
3.1938479
11
53.6534208
21
3.1245479
0
LINE
8
DEFAULT_255_2_778
10
53.6534208
20
3.1245479
11
53.6960208
21
3.0692479
0
LINE
8
DEFAULT_255_2_778
10
53.6960208
20
3.0692479
11
53.7208208
21
3.0224479
0
LINE
8
DEFAULT_255_2_778
10
53.7208208
20
3.0224479
11
53.7394208
21
2.9724479
0
LINE
8
DEFAULT_255_2_778
10
53.7394208
20
2.9724479
11
53.7489208
21
2.9361479
0
LINE
8
DEFAULT_255_2_778
10
53.7489208
20
2.9361479
11
53.7558208
21
2.8972479
0
LINE
8
DEFAULT_255_2_778
10
53.7558208
20
2.8972479
11
53.7550208
21
2.7469479
0
LINE
8
DEFAULT_255_2_778
10
53.7550208
20
2.7469479
11
53.7468208
21
2.6996479
0
LINE
8
DEFAULT_255_2_778
10
53.7468208
20
2.6996479
11
53.7354208
21
2.6527479
0
LINE
8
DEFAULT_255_2_778
10
53.7354208
20
2.6527479
11
53.7129208
21
2.5837479
0
LINE
8
DEFAULT_255_2_778
10
53.7129208
20
2.5837479
11
53.6745208
21
2.4945479
0
LINE
8
DEFAULT_255_2_778
10
53.6745208
20
2.4945479
11
53.6253208
21
2.4038479
0
LINE
8
DEFAULT_255_2_778
10
53.6253208
20
2.4038479
11
53.5489208
21
2.2897479
0
LINE
8
DEFAULT_255_2_778
10
53.5489208
20
2.2897479
11
53.4163208
21
2.1315479
0
LINE
8
DEFAULT_255_2_778
10
53.4163208
20
2.1315479
11
52.9861208
21
1.7299479
0
LINE
8
DEFAULT_255_2_778
10
52.9861208
20
1.7299479
11
53.7918208
21
1.7299479
0
LINE
8
DEFAULT_255_2_778
10
53.7918208
20
1.7299479
11
53.7918208
21
1.5444479
0
LINE
8
DEFAULT_255_2_778
10
53.7918208
20
1.5444479
11
52.7366208
21
1.5444479
0
LINE
8
DEFAULT_255_2_778
10
52.7366208
20
1.5444479
11
52.7366208
21
1.7481479
0
LINE
8
DEFAULT_255_2_778
10
52.7366208
20
1.7481479
11
52.9948208
21
1.9810479
0
LINE
8
DEFAULT_255_2_778
10
52.9948208
20
1.9810479
11
53.1906208
21
2.1826479
0
LINE
8
DEFAULT_255_2_778
10
53.1906208
20
2.1826479
11
53.3631208
21
2.3879479
0
LINE
8
DEFAULT_255_2_778
10
53.3631208
20
2.3879479
11
53.4679208
21
2.5403479
0
LINE
8
DEFAULT_255_2_778
10
53.4679208
20
2.5403479
11
53.5147208
21
2.6287479
0
LINE
8
DEFAULT_255_2_778
10
53.5147208
20
2.6287479
11
53.5417208
21
2.6977479
0
LINE
8
DEFAULT_255_2_778
10
53.5417208
20
2.6977479
11
53.5542208
21
2.7451479
0
LINE
8
DEFAULT_255_2_778
10
53.5542208
20
2.7451479
11
53.5595208
21
2.7771479
0
LINE
8
DEFAULT_255_2_778
10
53.5595208
20
2.7771479
11
53.5581208
21
2.8652479
0
LINE
8
DEFAULT_255_2_778
10
53.5581208
20
2.8652479
11
53.5457208
21
2.9168479
0
LINE
8
DEFAULT_255_2_778
10
53.5457208
20
2.9168479
11
53.5119208
21
2.9824479
0
LINE
8
DEFAULT_255_2_778
10
53.5119208
20
2.9824479
11
53.4155208
21
3.0599479
0
LINE
8
DEFAULT_255_2_778
10
53.4155208
20
3.0599479
11
53.2203208
21
3.0816479
0
LINE
8
DEFAULT_255_2_778
10
53.2203208
20
3.0816479
11
53.0811208
21
3.0115479
0
LINE
8
DEFAULT_255_2_778
10
53.0811208
20
3.0115479
11
53.0324208
21
2.9454479
0
LINE
8
DEFAULT_255_2_778
10
53.0324208
20
2.9454479
11
53.0112208
21
2.8909479
0
LINE
8
DEFAULT_255_2_778
10
53.0112208
20
2.8909479
11
53.0025208
21
2.8504479
0
LINE
8
DEFAULT_255_2_778
10
53.0025208
20
2.8504479
11
52.9999208
21
2.8287479
0
LINE
8
DEFAULT_255_2_778
10
52.9999208
20
2.8287479
11
52.9980208
21
2.7853479
0
LINE
8
DEFAULT_255_2_778
10
59.0563959
20
3.2436781
11
59.9985959
21
3.2436781
0
LINE
8
DEFAULT_255_2_778
10
59.9985959
20
3.2436781
11
59.9985959
21
3.0507781
0
LINE
8
DEFAULT_255_2_778
10
59.9985959
20
3.0507781
11
59.2656959
21
3.0507781
0
LINE
8
DEFAULT_255_2_778
10
59.2656959
20
3.0507781
11
59.2656959
21
2.5146781
0
LINE
8
DEFAULT_255_2_778
10
59.2656959
20
2.5146781
11
59.9607959
21
2.5146781
0
LINE
8
DEFAULT_255_2_778
10
59.9607959
20
2.5146781
11
59.9607959
21
2.3218781
0
LINE
8
DEFAULT_255_2_778
10
59.9607959
20
2.3218781
11
59.2656959
21
2.3218781
0
LINE
8
DEFAULT_255_2_778
10
59.2656959
20
2.3218781
11
59.2656959
21
1.5434781
0
LINE
8
DEFAULT_255_2_778
10
59.2656959
20
1.5434781
11
59.0563959
21
1.5434781
0
LINE
8
DEFAULT_255_2_778
10
59.0563959
20
1.5434781
11
59.0563959
21
3.2433781
0
LINE
8
DEFAULT_255_2_778
10
54.9685959
20
2.8184781
11
55.1691959
21
2.8184781
0
LINE
8
DEFAULT_255_2_778
10
55.1691959
20
2.8184781
11
55.1667959
21
2.8771781
0
LINE
8
DEFAULT_255_2_778
10
55.1667959
20
2.8771781
11
55.1646959
21
2.8967781
0
LINE
8
DEFAULT_255_2_778
10
55.1646959
20
2.8967781
11
55.1585959
21
2.9359781
0
LINE
8
DEFAULT_255_2_778
10
55.1585959
20
2.9359781
11
55.1500959
21
2.9721781
0
LINE
8
DEFAULT_255_2_778
10
55.1500959
20
2.9721781
11
55.1333959
21
3.0218781
0
LINE
8
DEFAULT_255_2_778
10
55.1333959
20
3.0218781
11
55.1019959
21
3.0829781
0
LINE
8
DEFAULT_255_2_778
10
55.1019959
20
3.0829781
11
55.0497959
21
3.1475781
0
LINE
8
DEFAULT_255_2_778
10
55.0497959
20
3.1475781
11
54.9619959
21
3.2129781
0
LINE
8
DEFAULT_255_2_778
10
54.9619959
20
3.2129781
11
54.8397959
21
3.2565781
0
LINE
8
DEFAULT_255_2_778
10
54.8397959
20
3.2565781
11
54.6391959
21
3.2642781
0
LINE
8
DEFAULT_255_2_778
10
54.6391959
20
3.2642781
11
54.4986959
21
3.2266781
0
LINE
8
DEFAULT_255_2_778
10
54.4986959
20
3.2266781
11
54.3943959
21
3.1628781
0
LINE
8
DEFAULT_255_2_778
10
54.3943959
20
3.1628781
11
54.3163959
21
3.0843781
0
LINE
8
DEFAULT_255_2_778
10
54.3163959
20
3.0843781
11
54.2520959
21
2.9867781
0
LINE
8
DEFAULT_255_2_778
10
54.2520959
20
2.9867781
11
54.2118959
21
2.9015781
0
LINE
8
DEFAULT_255_2_778
10
54.2118959
20
2.9015781
11
54.1835959
21
2.8237781
0
LINE
8
DEFAULT_255_2_778
10
54.1835959
20
2.8237781
11
54.1602959
21
2.7406781
0
LINE
8
DEFAULT_255_2_778
10
54.1602959
20
2.7406781
11
54.1470959
21
2.6797781
0
LINE
8
DEFAULT_255_2_778
10
54.1470959
20
2.6797781
11
54.1364959
21
2.6184781
0
LINE
8
DEFAULT_255_2_778
10
54.1364959
20
2.6184781
11
54.1282959
21
2.5564781
0
LINE
8
DEFAULT_255_2_778
10
54.1282959
20
2.5564781
11
54.1245959
21
2.5213781
0
LINE
8
DEFAULT_255_2_778
10
54.1245959
20
2.5213781
11
54.1237959
21
2.1283781
0
LINE
8
DEFAULT_255_2_778
10
54.1237959
20
2.1283781
11
54.1277959
21
2.0942781
0
LINE
8
DEFAULT_255_2_778
10
54.1277959
20
2.0942781
11
54.1353959
21
2.0413781
0
LINE
8
DEFAULT_255_2_778
10
54.1353959
20
2.0413781
11
54.1454959
21
1.9886781
0
LINE
8
DEFAULT_255_2_778
10
54.1454959
20
1.9886781
11
54.1578959
21
1.9365781
0
LINE
8
DEFAULT_255_2_778
10
54.1578959
20
1.9365781
11
54.1848959
21
1.8521781
0
LINE
8
DEFAULT_255_2_778
10
54.1848959
20
1.8521781
11
54.2182959
21
1.7767781
0
LINE
8
DEFAULT_255_2_778
10
54.2182959
20
1.7767781
11
54.2660959
21
1.6979781
0
LINE
8
DEFAULT_255_2_778
10
54.2660959
20
1.6979781
11
54.3491959
21
1.6082781
0
LINE
8
DEFAULT_255_2_778
10
54.3491959
20
1.6082781
11
54.4669959
21
1.5391781
0
LINE
8
DEFAULT_255_2_778
10
54.4669959
20
1.5391781
11
54.6404959
21
1.5060781
0
LINE
8
DEFAULT_255_2_778
10
54.6404959
20
1.5060781
11
54.8293959
21
1.5275781
0
LINE
8
DEFAULT_255_2_778
10
54.8293959
20
1.5275781
11
54.9590959
21
1.5838781
0
LINE
8
DEFAULT_255_2_778
10
54.9590959
20
1.5838781
11
55.0537959
21
1.6611781
0
LINE
8
DEFAULT_255_2_778
10
55.0537959
20
1.6611781
11
55.1090959
21
1.7315781
0
LINE
8
DEFAULT_255_2_778
10
55.1090959
20
1.7315781
11
55.1442959
21
1.7950781
0
LINE
8
DEFAULT_255_2_778
10
55.1442959
20
1.7950781
11
55.1654959
21
1.8479781
0
LINE
8
DEFAULT_255_2_778
10
55.1654959
20
1.8479781
11
55.1812959
21
1.9027781
0
LINE
8
DEFAULT_255_2_778
10
55.1812959
20
1.9027781
11
55.1894959
21
1.9421781
0
LINE
8
DEFAULT_255_2_778
10
55.1894959
20
1.9421781
11
55.1958959
21
1.9841781
0
LINE
8
DEFAULT_255_2_778
10
55.1958959
20
1.9841781
11
55.1947959
21
2.2059781
0
LINE
8
DEFAULT_255_2_778
10
55.1947959
20
2.2059781
11
55.1881959
21
2.2474781
0
LINE
8
DEFAULT_255_2_778
10
55.1881959
20
2.2474781
11
55.1762959
21
2.2995781
0
LINE
8
DEFAULT_255_2_778
10
55.1762959
20
2.2995781
11
55.1535959
21
2.3670781
0
LINE
8
DEFAULT_255_2_778
10
55.1535959
20
2.3670781
11
55.1117959
21
2.4490781
0
LINE
8
DEFAULT_255_2_778
10
55.1117959
20
2.4490781
11
55.0373959
21
2.5416781
0
LINE
8
DEFAULT_255_2_778
10
55.0373959
20
2.5416781
11
54.9299959
21
2.6173781
0
LINE
8
DEFAULT_255_2_778
10
54.9299959
20
2.6173781
11
54.7703959
21
2.6596781
0
LINE
8
DEFAULT_255_2_778
10
54.7703959
20
2.6596781
11
54.6042959
21
2.6453781
0
LINE
8
DEFAULT_255_2_778
10
54.6042959
20
2.6453781
11
54.4700959
21
2.5800781
0
LINE
8
DEFAULT_255_2_778
10
54.4700959
20
2.5800781
11
54.3647959
21
2.4781781
0
LINE
8
DEFAULT_255_2_778
10
54.3647959
20
2.4781781
11
54.3161959
21
2.4070781
0
LINE
8
DEFAULT_255_2_778
10
54.3161959
20
2.4070781
11
54.3203959
21
2.4628781
0
LINE
8
DEFAULT_255_2_778
10
54.3203959
20
2.4628781
11
54.3258959
21
2.5186781
0
LINE
8
DEFAULT_255_2_778
10
54.3258959
20
2.5186781
11
54.3332959
21
2.5742781
0
LINE
8
DEFAULT_255_2_778
10
54.3332959
20
2.5742781
11
54.3462959
21
2.6474781
0
LINE
8
DEFAULT_255_2_778
10
54.3462959
20
2.6474781
11
54.3684959
21
2.7377781
0
LINE
8
DEFAULT_255_2_778
10
54.3684959
20
2.7377781
11
54.3989959
21
2.8258781
0
LINE
8
DEFAULT_255_2_778
10
54.3989959
20
2.8258781
11
54.4449959
21
2.9184781
0
LINE
8
DEFAULT_255_2_778
10
54.4449959
20
2.9184781
11
54.5251959
21
3.0139781
0
LINE
8
DEFAULT_255_2_778
10
54.5251959
20
3.0139781
11
54.6388959
21
3.0726781
0
LINE
8
DEFAULT_255_2_778
10
54.6388959
20
3.0726781
11
54.7960959
21
3.0718781
0
LINE
8
DEFAULT_255_2_778
10
54.7960959
20
3.0718781
11
54.8897959
21
3.0226781
0
LINE
8
DEFAULT_255_2_778
10
54.8897959
20
3.0226781
11
54.9370959
21
2.9631781
0
LINE
8
DEFAULT_255_2_778
10
54.9370959
20
2.9631781
11
54.9558959
21
2.9171781
0
LINE
8
DEFAULT_255_2_778
10
54.9558959
20
2.9171781
11
54.9635959
21
2.8848781
0
LINE
8
DEFAULT_255_2_778
10
54.9635959
20
2.8848781
11
54.9669959
21
2.8586781
0
LINE
8
DEFAULT_255_2_778
10
54.9669959
20
2.8586781
11
54.9685959
21
2.8184781
0
LINE
8
DEFAULT_255_2_778
10
54.4491959
20
2.3678781
11
54.5518959
21
2.4387781
0
LINE
8
DEFAULT_255_2_778
10
54.5518959
20
2.4387781
11
54.7410959
21
2.4660781
0
LINE
8
DEFAULT_255_2_778
10
54.7410959
20
2.4660781
11
54.8701959
21
2.4175781
0
LINE
8
DEFAULT_255_2_778
10
54.8701959
20
2.4175781
11
54.9362959
21
2.3445781
0
LINE
8
DEFAULT_255_2_778
10
54.9362959
20
2.3445781
11
54.9693959
21
2.2794781
0
LINE
8
DEFAULT_255_2_778
10
54.9693959
20
2.2794781
11
54.9852959
21
2.2292781
0
LINE
8
DEFAULT_255_2_778
10
54.9852959
20
2.2292781
11
54.9931959
21
2.1903781
0
LINE
8
DEFAULT_255_2_778
10
54.9931959
20
2.1903781
11
54.9971959
21
2.1609781
0
LINE
8
DEFAULT_255_2_778
10
54.9971959
20
2.1609781
11
54.9966959
21
2.0088781
0
LINE
8
DEFAULT_255_2_778
10
54.9966959
20
2.0088781
11
54.9894959
21
1.9659781
0
LINE
8
DEFAULT_255_2_778
10
54.9894959
20
1.9659781
11
54.9730959
21
1.9074781
0
LINE
8
DEFAULT_255_2_778
10
54.9730959
20
1.9074781
11
54.9373959
21
1.8352781
0
LINE
8
DEFAULT_255_2_778
10
54.9373959
20
1.8352781
11
54.8693959
21
1.7593781
0
LINE
8
DEFAULT_255_2_778
10
54.8693959
20
1.7593781
11
54.7592959
21
1.7071781
0
LINE
8
DEFAULT_255_2_778
10
54.7592959
20
1.7071781
11
54.5910959
21
1.7071781
0
LINE
8
DEFAULT_255_2_778
10
54.5910959
20
1.7071781
11
54.4804959
21
1.7606781
0
LINE
8
DEFAULT_255_2_778
10
54.4804959
20
1.7606781
11
54.4129959
21
1.8365781
0
LINE
8
DEFAULT_255_2_778
10
54.4129959
20
1.8365781
11
54.3809959
21
1.8992781
0
LINE
8
DEFAULT_255_2_778
10
54.3809959
20
1.8992781
11
54.3642959
21
1.9521781
0
LINE
8
DEFAULT_255_2_778
10
54.3642959
20
1.9521781
11
54.3557959
21
1.9945781
0
LINE
8
DEFAULT_255_2_778
10
54.3557959
20
1.9945781
11
54.3573959
21
2.1839781
0
LINE
8
DEFAULT_255_2_778
10
54.3573959
20
2.1839781
11
54.3695959
21
2.2336781
0
LINE
8
DEFAULT_255_2_778
10
54.3695959
20
2.2336781
11
54.3933959
21
2.2911781
0
LINE
8
DEFAULT_255_2_778
10
54.3933959
20
2.2911781
11
54.4491959
21
2.3678781
0
LINE
8
DEFAULT_255_2_778
10
57.6631531
20
3.2436739
11
58.3438531
21
3.2312739
0
LINE
8
DEFAULT_255_2_778
10
58.3438531
20
3.2312739
11
58.5486531
21
3.1584739
0
LINE
8
DEFAULT_255_2_778
10
58.5486531
20
3.1584739
11
58.6423531
21
3.0780739
0
LINE
8
DEFAULT_255_2_778
10
58.6423531
20
3.0780739
11
58.6814531
21
3.0147739
0
LINE
8
DEFAULT_255_2_778
10
58.6814531
20
3.0147739
11
58.7029531
21
2.9549739
0
LINE
8
DEFAULT_255_2_778
10
58.7029531
20
2.9549739
11
58.7111531
21
2.9171739
0
LINE
8
DEFAULT_255_2_778
10
58.7111531
20
2.9171739
11
58.7164531
21
2.8785739
0
LINE
8
DEFAULT_255_2_778
10
58.7164531
20
2.8785739
11
58.7153531
21
2.7581739
0
LINE
8
DEFAULT_255_2_778
10
58.7153531
20
2.7581739
11
58.7087531
21
2.7181739
0
LINE
8
DEFAULT_255_2_778
10
58.7087531
20
2.7181739
11
58.6939531
21
2.6665739
0
LINE
8
DEFAULT_255_2_778
10
58.6939531
20
2.6665739
11
58.6611531
21
2.6004739
0
LINE
8
DEFAULT_255_2_778
10
58.6611531
20
2.6004739
11
58.5896531
21
2.5168739
0
LINE
8
DEFAULT_255_2_778
10
58.5896531
20
2.5168739
11
58.4724531
21
2.4475739
0
LINE
8
DEFAULT_255_2_778
10
58.4724531
20
2.4475739
11
58.4489531
21
2.4401739
0
LINE
8
DEFAULT_255_2_778
10
58.4489531
20
2.4401739
11
58.5875531
21
2.3821739
0
LINE
8
DEFAULT_255_2_778
10
58.5875531
20
2.3821739
11
58.6764531
21
2.3072739
0
LINE
8
DEFAULT_255_2_778
10
58.6764531
20
2.3072739
11
58.7235531
21
2.2387739
0
LINE
8
DEFAULT_255_2_778
10
58.7235531
20
2.2387739
11
58.7510531
21
2.1734739
0
LINE
8
DEFAULT_255_2_778
10
58.7510531
20
2.1734739
11
58.7627531
21
2.1307739
0
LINE
8
DEFAULT_255_2_778
10
58.7627531
20
2.1307739
11
58.7685531
21
2.0995739
0
LINE
8
DEFAULT_255_2_778
10
58.7685531
20
2.0995739
11
58.7666531
21
1.8916739
0
LINE
8
DEFAULT_255_2_778
10
58.7666531
20
1.8916739
11
58.7579531
21
1.8503739
0
LINE
8
DEFAULT_255_2_778
10
58.7579531
20
1.8503739
11
58.7404531
21
1.7977739
0
LINE
8
DEFAULT_255_2_778
10
58.7404531
20
1.7977739
11
58.7087531
21
1.7373739
0
LINE
8
DEFAULT_255_2_778
10
58.7087531
20
1.7373739
11
58.6378531
21
1.6587739
0
LINE
8
DEFAULT_255_2_778
10
58.6378531
20
1.6587739
11
58.5359531
21
1.5950739
0
LINE
8
DEFAULT_255_2_778
10
58.5359531
20
1.5950739
11
58.3444531
21
1.5482739
0
LINE
8
DEFAULT_255_2_778
10
58.3444531
20
1.5482739
11
58.2364531
21
1.5437739
0
LINE
8
DEFAULT_255_2_778
10
58.2364531
20
1.5437739
11
57.6628531
21
1.5437739
0
LINE
8
DEFAULT_255_2_778
10
57.6628531
20
1.5437739
11
57.6631531
21
3.2436739
0
LINE
8
DEFAULT_255_2_778
10
58.1703531
20
2.5255739
11
58.4097531
21
2.5816739
0
LINE
8
DEFAULT_255_2_778
10
58.4097531
20
2.5816739
11
58.4793531
21
2.6515739
0
LINE
8
DEFAULT_255_2_778
10
58.4793531
20
2.6515739
11
58.5018531
21
2.7089739
0
LINE
8
DEFAULT_255_2_778
10
58.5018531
20
2.7089739
11
58.5084531
21
2.7480739
0
LINE
8
DEFAULT_255_2_778
10
58.5084531
20
2.7480739
11
58.5058531
21
2.8390739
0
LINE
8
DEFAULT_255_2_778
10
58.5058531
20
2.8390739
11
58.4931531
21
2.8872739
0
LINE
8
DEFAULT_255_2_778
10
58.4931531
20
2.8872739
11
58.4568531
21
2.9491739
0
LINE
8
DEFAULT_255_2_778
10
58.4568531
20
2.9491739
11
58.3539531
21
3.0211739
0
LINE
8
DEFAULT_255_2_778
10
58.3539531
20
3.0211739
11
58.1586531
21
3.0512739
0
LINE
8
DEFAULT_255_2_778
10
58.1586531
20
3.0512739
11
57.8723531
21
3.0512739
0
LINE
8
DEFAULT_255_2_778
10
57.8723531
20
3.0512739
11
57.8723531
21
2.5261739
0
LINE
8
DEFAULT_255_2_778
10
57.8723531
20
2.5261739
11
58.1703531
21
2.5255739
0
LINE
8
DEFAULT_255_2_778
10
58.2184531
20
1.7363739
11
58.4417531
21
1.7780739
0
LINE
8
DEFAULT_255_2_778
10
58.4417531
20
1.7780739
11
58.5211531
21
1.8503739
0
LINE
8
DEFAULT_255_2_778
10
58.5211531
20
1.8503739
11
58.5502531
21
1.9143739
0
LINE
8
DEFAULT_255_2_778
10
58.5502531
20
1.9143739
11
58.5597531
21
1.9540739
0
LINE
8
DEFAULT_255_2_778
10
58.5597531
20
1.9540739
11
58.5645531
21
1.9884739
0
LINE
8
DEFAULT_255_2_778
10
58.5645531
20
1.9884739
11
58.5629531
21
2.0829739
0
LINE
8
DEFAULT_255_2_778
10
58.5629531
20
2.0829739
11
58.5560531
21
2.1204739
0
LINE
8
DEFAULT_255_2_778
10
58.5560531
20
2.1204739
11
58.5372531
21
2.1736739
0
LINE
8
DEFAULT_255_2_778
10
58.5372531
20
2.1736739
11
58.4780531
21
2.2477739
0
LINE
8
DEFAULT_255_2_778
10
58.4780531
20
2.2477739
11
58.3600531
21
2.3080739
0
LINE
8
DEFAULT_255_2_778
10
58.3600531
20
2.3080739
11
58.1840531
21
2.3281739
0
LINE
8
DEFAULT_255_2_778
10
58.1840531
20
2.3281739
11
57.8718531
21
2.3281739
0
LINE
8
DEFAULT_255_2_778
10
57.8718531
20
2.3281739
11
57.8718531
21
1.7365739
0
LINE
8
DEFAULT_255_2_778
10
57.8718531
20
1.7365739
11
58.2184531
21
1.7363739
0
LINE
8
DEFAULT_255_2_778
10
60.8672469
20
3.2436416
11
61.1091469
21
3.2436416
0
LINE
8
DEFAULT_255_2_778
10
61.1091469
20
3.2436416
11
61.1091469
21
2.1546416
0
LINE
8
DEFAULT_255_2_778
10
61.1091469
20
2.1546416
11
61.3985469
21
2.1546416
0
LINE
8
DEFAULT_255_2_778
10
61.3985469
20
2.1546416
11
61.3985469
21
1.9691416
0
LINE
8
DEFAULT_255_2_778
10
61.3985469
20
1.9691416
11
61.1091469
21
1.9691416
0
LINE
8
DEFAULT_255_2_778
10
61.1091469
20
1.9691416
11
61.1091469
21
1.5439416
0
LINE
8
DEFAULT_255_2_778
10
61.1091469
20
1.5439416
11
60.9040469
21
1.5439416
0
LINE
8
DEFAULT_255_2_778
10
60.9040469
20
1.5439416
11
60.9040469
21
1.9691416
0
LINE
8
DEFAULT_255_2_778
10
60.9040469
20
1.9691416
11
60.1928469
21
1.9691416
0
LINE
8
DEFAULT_255_2_778
10
60.1928469
20
1.9691416
11
60.1928469
21
2.1739416
0
LINE
8
DEFAULT_255_2_778
10
60.1928469
20
2.1739416
11
60.8672469
21
3.2436416
0
LINE
8
DEFAULT_255_2_778
10
60.3717469
20
2.1543416
11
60.9040469
21
2.1543416
0
LINE
8
DEFAULT_255_2_778
10
60.9040469
20
2.1543416
11
60.9040469
21
3.0012416
0
LINE
8
DEFAULT_255_2_778
10
60.9040469
20
3.0012416
11
60.3717469
21
2.1543416
0
LINE
8
DEFAULT_255_2_778
10
63.8496833
20
2.9774434
11
63.8099833
21
2.8965434
0
LINE
8
DEFAULT_255_2_778
10
63.8099833
20
2.8965434
11
63.7781833
21
2.8121434
0
LINE
8
DEFAULT_255_2_778
10
63.7781833
20
2.8121434
11
63.7593833
21
2.7478434
0
LINE
8
DEFAULT_255_2_778
10
63.7593833
20
2.7478434
11
63.7443833
21
2.6824434
0
LINE
8
DEFAULT_255_2_778
10
63.7443833
20
2.6824434
11
63.7329833
21
2.6162434
0
LINE
8
DEFAULT_255_2_778
10
63.7329833
20
2.6162434
11
63.7281833
21
2.5797434
0
LINE
8
DEFAULT_255_2_778
10
63.7281833
20
2.5797434
11
63.7244833
21
2.5432434
0
LINE
8
DEFAULT_255_2_778
10
63.7244833
20
2.5432434
11
63.7215833
21
2.5067434
0
LINE
8
DEFAULT_255_2_778
10
63.7215833
20
2.5067434
11
63.7215833
21
2.2847434
0
LINE
8
DEFAULT_255_2_778
10
63.7215833
20
2.2847434
11
63.7244833
21
2.2474434
0
LINE
8
DEFAULT_255_2_778
10
63.7244833
20
2.2474434
11
63.7281833
21
2.2104434
0
LINE
8
DEFAULT_255_2_778
10
63.7281833
20
2.2104434
11
63.7329833
21
2.1733434
0
LINE
8
DEFAULT_255_2_778
10
63.7329833
20
2.1733434
11
63.7440833
21
2.1062434
0
LINE
8
DEFAULT_255_2_778
10
63.7440833
20
2.1062434
11
63.7588833
21
2.0397434
0
LINE
8
DEFAULT_255_2_778
10
63.7588833
20
2.0397434
11
63.7773833
21
1.9741434
0
LINE
8
DEFAULT_255_2_778
10
63.7773833
20
1.9741434
11
63.8048833
21
1.8974434
0
LINE
8
DEFAULT_255_2_778
10
63.8048833
20
1.8974434
11
63.8387833
21
1.8230434
0
LINE
8
DEFAULT_255_2_778
10
63.8387833
20
1.8230434
11
63.8866833
21
1.7405434
0
LINE
8
DEFAULT_255_2_778
10
63.8866833
20
1.7405434
11
63.9419833
21
1.6683434
0
LINE
8
DEFAULT_255_2_778
10
63.9419833
20
1.6683434
11
64.0199833
21
1.5965434
0
LINE
8
DEFAULT_255_2_778
10
64.0199833
20
1.5965434
11
64.1255833
21
1.5376434
0
LINE
8
DEFAULT_255_2_778
10
64.1255833
20
1.5376434
11
64.2663833
21
1.5063434
0
LINE
8
DEFAULT_255_2_778
10
64.2663833
20
1.5063434
11
64.4110833
21
1.5145434
0
LINE
8
DEFAULT_255_2_778
10
64.4110833
20
1.5145434
11
64.5272833
21
1.5540434
0
LINE
8
DEFAULT_255_2_778
10
64.5272833
20
1.5540434
11
64.6274833
21
1.6220434
0
LINE
8
DEFAULT_255_2_778
10
64.6274833
20
1.6220434
11
64.7028833
21
1.7032434
0
LINE
8
DEFAULT_255_2_778
10
64.7028833
20
1.7032434
11
64.7640833
21
1.7987434
0
LINE
8
DEFAULT_255_2_778
10
64.7640833
20
1.7987434
11
64.7999833
21
1.8723434
0
LINE
8
DEFAULT_255_2_778
10
64.7999833
20
1.8723434
11
64.8296833
21
1.9485434
0
LINE
8
DEFAULT_255_2_778
10
64.8296833
20
1.9485434
11
64.8478833
21
2.0069434
0
LINE
8
DEFAULT_255_2_778
10
64.8478833
20
2.0069434
11
64.8645833
21
2.0731434
0
LINE
8
DEFAULT_255_2_778
10
64.8645833
20
2.0731434
11
64.8775833
21
2.1400434
0
LINE
8
DEFAULT_255_2_778
10
64.8775833
20
2.1400434
11
64.8828833
21
2.1736434
0
LINE
8
DEFAULT_255_2_778
10
64.8828833
20
2.1736434
11
64.8875833
21
2.2106434
0
LINE
8
DEFAULT_255_2_778
10
64.8875833
20
2.2106434
11
64.8912833
21
2.2477434
0
LINE
8
DEFAULT_255_2_778
10
64.8912833
20
2.2477434
11
64.8941833
21
2.2847434
0
LINE
8
DEFAULT_255_2_778
10
64.8941833
20
2.2847434
11
64.8941833
21
2.5065434
0
LINE
8
DEFAULT_255_2_778
10
64.8941833
20
2.5065434
11
64.8912833
21
2.5430434
0
LINE
8
DEFAULT_255_2_778
10
64.8912833
20
2.5430434
11
64.8875833
21
2.5795434
0
LINE
8
DEFAULT_255_2_778
10
64.8875833
20
2.5795434
11
64.8828833
21
2.6160434
0
LINE
8
DEFAULT_255_2_778
10
64.8828833
20
2.6160434
11
64.8714833
21
2.6821434
0
LINE
8
DEFAULT_255_2_778
10
64.8714833
20
2.6821434
11
64.8563833
21
2.7475434
0
LINE
8
DEFAULT_255_2_778
10
64.8563833
20
2.7475434
11
64.8375833
21
2.8118434
0
LINE
8
DEFAULT_255_2_778
10
64.8375833
20
2.8118434
11
64.8095833
21
2.8875434
0
LINE
8
DEFAULT_255_2_778
10
64.8095833
20
2.8875434
11
64.7751833
21
2.9605434
0
LINE
8
DEFAULT_255_2_778
10
64.7751833
20
2.9605434
11
64.7142833
21
3.0592434
0
LINE
8
DEFAULT_255_2_778
10
64.7142833
20
3.0592434
11
64.6568833
21
3.1269434
0
LINE
8
DEFAULT_255_2_778
10
64.6568833
20
3.1269434
11
64.5780833
21
3.1915434
0
LINE
8
DEFAULT_255_2_778
10
64.5780833
20
3.1915434
11
64.4700833
21
3.2439434
0
LINE
8
DEFAULT_255_2_778
10
64.4700833
20
3.2439434
11
64.3285833
21
3.2682434
0
LINE
8
DEFAULT_255_2_778
10
64.3285833
20
3.2682434
11
64.1853833
21
3.2550434
0
LINE
8
DEFAULT_255_2_778
10
64.1853833
20
3.2550434
11
64.0723833
21
3.2121434
0
LINE
8
DEFAULT_255_2_778
10
64.0723833
20
3.2121434
11
63.9752833
21
3.1422434
0
LINE
8
DEFAULT_255_2_778
10
63.9752833
20
3.1422434
11
63.9017833
21
3.0592434
0
LINE
8
DEFAULT_255_2_778
10
63.9017833
20
3.0592434
11
63.8496833
21
2.9774434
0
LINE
8
DEFAULT_255_2_778
10
63.9956833
20
1.9447434
11
63.9715833
21
2.0101434
0
LINE
8
DEFAULT_255_2_778
10
63.9715833
20
2.0101434
11
63.9527833
21
2.0770434
0
LINE
8
DEFAULT_255_2_778
10
63.9527833
20
2.0770434
11
63.9419833
21
2.1265434
0
LINE
8
DEFAULT_255_2_778
10
63.9419833
20
2.1265434
11
63.9334833
21
2.1765434
0
LINE
8
DEFAULT_255_2_778
10
63.9334833
20
2.1765434
11
63.9271833
21
2.2268434
0
LINE
8
DEFAULT_255_2_778
10
63.9271833
20
2.2268434
11
63.9239833
21
2.2601434
0
LINE
8
DEFAULT_255_2_778
10
63.9239833
20
2.2601434
11
63.9239833
21
2.5260434
0
LINE
8
DEFAULT_255_2_778
10
63.9239833
20
2.5260434
11
63.9271833
21
2.5589434
0
LINE
8
DEFAULT_255_2_778
10
63.9271833
20
2.5589434
11
63.9337833
21
2.6083434
0
LINE
8
DEFAULT_255_2_778
10
63.9337833
20
2.6083434
11
63.9424833
21
2.6575434
0
LINE
8
DEFAULT_255_2_778
10
63.9424833
20
2.6575434
11
63.9591833
21
2.7285434
0
LINE
8
DEFAULT_255_2_778
10
63.9591833
20
2.7285434
11
63.9797833
21
2.7938434
0
LINE
8
DEFAULT_255_2_778
10
63.9797833
20
2.7938434
11
64.0189833
21
2.8835434
0
LINE
8
DEFAULT_255_2_778
10
64.0189833
20
2.8835434
11
64.0657833
21
2.9562434
0
LINE
8
DEFAULT_255_2_778
10
64.0657833
20
2.9562434
11
64.1462833
21
3.0303434
0
LINE
8
DEFAULT_255_2_778
10
64.1462833
20
3.0303434
11
64.2554833
21
3.0719434
0
LINE
8
DEFAULT_255_2_778
10
64.2554833
20
3.0719434
11
64.3859833
21
3.0666434
0
LINE
8
DEFAULT_255_2_778
10
64.3859833
20
3.0666434
11
64.4803833
21
3.0227434
0
LINE
8
DEFAULT_255_2_778
10
64.4803833
20
3.0227434
11
64.5388833
21
2.9692434
0
LINE
8
DEFAULT_255_2_778
10
64.5388833
20
2.9692434
11
64.5885833
21
2.8983434
0
LINE
8
DEFAULT_255_2_778
10
64.5885833
20
2.8983434
11
64.6216833
21
2.8306434
0
LINE
8
DEFAULT_255_2_778
10
64.6216833
20
2.8306434
11
64.6510833
21
2.7483434
0
LINE
8
DEFAULT_255_2_778
10
64.6510833
20
2.7483434
11
64.6682833
21
2.6819434
0
LINE
8
DEFAULT_255_2_778
10
64.6682833
20
2.6819434
11
64.6780833
21
2.6329434
0
LINE
8
DEFAULT_255_2_778
10
64.6780833
20
2.6329434
11
64.6854833
21
2.5835434
0
LINE
8
DEFAULT_255_2_778
10
64.6854833
20
2.5835434
11
64.6883833
21
2.5586434
0
LINE
8
DEFAULT_255_2_778
10
64.6883833
20
2.5586434
11
64.6915833
21
2.5258434
0
LINE
8
DEFAULT_255_2_778
10
64.6915833
20
2.5258434
11
64.6915833
21
2.2599434
0
LINE
8
DEFAULT_255_2_778
10
64.6915833
20
2.2599434
11
64.6883833
21
2.2265434
0
LINE
8
DEFAULT_255_2_778
10
64.6883833
20
2.2265434
11
64.6819833
21
2.1762434
0
LINE
8
DEFAULT_255_2_778
10
64.6819833
20
2.1762434
11
64.6735833
21
2.1263434
0
LINE
8
DEFAULT_255_2_778
10
64.6735833
20
2.1263434
11
64.6571833
21
2.0543434
0
LINE
8
DEFAULT_255_2_778
10
64.6571833
20
2.0543434
11
64.6367833
21
1.9879434
0
LINE
8
DEFAULT_255_2_778
10
64.6367833
20
1.9879434
11
64.5978833
21
1.8961434
0
LINE
8
DEFAULT_255_2_778
10
64.5978833
20
1.8961434
11
64.5507833
21
1.8209434
0
LINE
8
DEFAULT_255_2_778
10
64.5507833
20
1.8209434
11
64.4811833
21
1.7521434
0
LINE
8
DEFAULT_255_2_778
10
64.4811833
20
1.7521434
11
64.3861833
21
1.7069434
0
LINE
8
DEFAULT_255_2_778
10
64.3861833
20
1.7069434
11
64.2549833
21
1.7013434
0
LINE
8
DEFAULT_255_2_778
10
64.2549833
20
1.7013434
11
64.1565833
21
1.7371434
0
LINE
8
DEFAULT_255_2_778
10
64.1565833
20
1.7371434
11
64.0758833
21
1.8069434
0
LINE
8
DEFAULT_255_2_778
10
64.0758833
20
1.8069434
11
64.0258833
21
1.8802434
0
LINE
8
DEFAULT_255_2_778
10
64.0258833
20
1.8802434
11
63.9956833
21
1.9447434
0
LINE
8
DEFAULT_255_2_778
10
65.7046823
20
3.2436739
11
65.9345823
21
3.2436739
0
LINE
8
DEFAULT_255_2_778
10
65.9345823
20
3.2436739
11
66.5623823
21
1.5437739
0
LINE
8
DEFAULT_255_2_778
10
66.5623823
20
1.5437739
11
66.3345823
21
1.5437739
0
LINE
8
DEFAULT_255_2_778
10
66.3345823
20
1.5437739
11
66.1805823
21
1.9871739
0
LINE
8
DEFAULT_255_2_778
10
66.1805823
20
1.9871739
11
65.4606823
21
1.9871739
0
LINE
8
DEFAULT_255_2_778
10
65.4606823
20
1.9871739
11
65.3087823
21
1.5437739
0
LINE
8
DEFAULT_255_2_778
10
65.3087823
20
1.5437739
11
65.0767823
21
1.5437739
0
LINE
8
DEFAULT_255_2_778
10
65.0767823
20
1.5437739
11
65.7046823
21
3.2436739
0
LINE
8
DEFAULT_255_2_778
10
65.5278823
20
2.1797739
11
66.1144823
21
2.1797739
0
LINE
8
DEFAULT_255_2_778
10
66.1144823
20
2.1797739
11
65.8204823
21
3.0243739
0
LINE
8
DEFAULT_255_2_778
10
65.8204823
20
3.0243739
11
65.5278823
21
2.1797739
0
LINE
8
DEFAULT_255_2_778
10
66.8368531
20
3.2436739
11
67.5175531
21
3.2312739
0
LINE
8
DEFAULT_255_2_778
10
67.5175531
20
3.2312739
11
67.7223531
21
3.1584739
0
LINE
8
DEFAULT_255_2_778
10
67.7223531
20
3.1584739
11
67.8160531
21
3.0780739
0
LINE
8
DEFAULT_255_2_778
10
67.8160531
20
3.0780739
11
67.8551531
21
3.0147739
0
LINE
8
DEFAULT_255_2_778
10
67.8551531
20
3.0147739
11
67.8766531
21
2.9549739
0
LINE
8
DEFAULT_255_2_778
10
67.8766531
20
2.9549739
11
67.8848531
21
2.9171739
0
LINE
8
DEFAULT_255_2_778
10
67.8848531
20
2.9171739
11
67.8901531
21
2.8785739
0
LINE
8
DEFAULT_255_2_778
10
67.8901531
20
2.8785739
11
67.8890531
21
2.7581739
0
LINE
8
DEFAULT_255_2_778
10
67.8890531
20
2.7581739
11
67.8824531
21
2.7181739
0
LINE
8
DEFAULT_255_2_778
10
67.8824531
20
2.7181739
11
67.8676531
21
2.6665739
0
LINE
8
DEFAULT_255_2_778
10
67.8676531
20
2.6665739
11
67.8348531
21
2.6004739
0
LINE
8
DEFAULT_255_2_778
10
67.8348531
20
2.6004739
11
67.7633531
21
2.5168739
0
LINE
8
DEFAULT_255_2_778
10
67.7633531
20
2.5168739
11
67.6461531
21
2.4475739
0
LINE
8
DEFAULT_255_2_778
10
67.6461531
20
2.4475739
11
67.6226531
21
2.4401739
0
LINE
8
DEFAULT_255_2_778
10
67.6226531
20
2.4401739
11
67.7612531
21
2.3821739
0
LINE
8
DEFAULT_255_2_778
10
67.7612531
20
2.3821739
11
67.8501531
21
2.3072739
0
LINE
8
DEFAULT_255_2_778
10
67.8501531
20
2.3072739
11
67.8972531
21
2.2387739
0
LINE
8
DEFAULT_255_2_778
10
67.8972531
20
2.2387739
11
67.9247531
21
2.1734739
0
LINE
8
DEFAULT_255_2_778
10
67.9247531
20
2.1734739
11
67.9364531
21
2.1307739
0
LINE
8
DEFAULT_255_2_778
10
67.9364531
20
2.1307739
11
67.9422531
21
2.0995739
0
LINE
8
DEFAULT_255_2_778
10
67.9422531
20
2.0995739
11
67.9403531
21
1.8916739
0
LINE
8
DEFAULT_255_2_778
10
67.9403531
20
1.8916739
11
67.9316531
21
1.8503739
0
LINE
8
DEFAULT_255_2_778
10
67.9316531
20
1.8503739
11
67.9141531
21
1.7977739
0
LINE
8
DEFAULT_255_2_778
10
67.9141531
20
1.7977739
11
67.8824531
21
1.7373739
0
LINE
8
DEFAULT_255_2_778
10
67.8824531
20
1.7373739
11
67.8115531
21
1.6587739
0
LINE
8
DEFAULT_255_2_778
10
67.8115531
20
1.6587739
11
67.7096531
21
1.5950739
0
LINE
8
DEFAULT_255_2_778
10
67.7096531
20
1.5950739
11
67.5181531
21
1.5482739
0
LINE
8
DEFAULT_255_2_778
10
67.5181531
20
1.5482739
11
67.4101531
21
1.5437739
0
LINE
8
DEFAULT_255_2_778
10
67.4101531
20
1.5437739
11
66.8365531
21
1.5437739
0
LINE
8
DEFAULT_255_2_778
10
66.8365531
20
1.5437739
11
66.8368531
21
3.2436739
0
LINE
8
DEFAULT_255_2_778
10
67.3440531
20
2.5255739
11
67.5834531
21
2.5816739
0
LINE
8
DEFAULT_255_2_778
10
67.5834531
20
2.5816739
11
67.6530531
21
2.6515739
0
LINE
8
DEFAULT_255_2_778
10
67.6530531
20
2.6515739
11
67.6755531
21
2.7089739
0
LINE
8
DEFAULT_255_2_778
10
67.6755531
20
2.7089739
11
67.6821531
21
2.7480739
0
LINE
8
DEFAULT_255_2_778
10
67.6821531
20
2.7480739
11
67.6795531
21
2.8390739
0
LINE
8
DEFAULT_255_2_778
10
67.6795531
20
2.8390739
11
67.6668531
21
2.8872739
0
LINE
8
DEFAULT_255_2_778
10
67.6668531
20
2.8872739
11
67.6305531
21
2.9491739
0
LINE
8
DEFAULT_255_2_778
10
67.6305531
20
2.9491739
11
67.5276531
21
3.0211739
0
LINE
8
DEFAULT_255_2_778
10
67.5276531
20
3.0211739
11
67.3323531
21
3.0512739
0
LINE
8
DEFAULT_255_2_778
10
67.3323531
20
3.0512739
11
67.0460531
21
3.0512739
0
LINE
8
DEFAULT_255_2_778
10
67.0460531
20
3.0512739
11
67.0460531
21
2.5261739
0
LINE
8
DEFAULT_255_2_778
10
67.0460531
20
2.5261739
11
67.3440531
21
2.5255739
0
LINE
8
DEFAULT_255_2_778
10
67.3921531
20
1.7363739
11
67.6154531
21
1.7780739
0
LINE
8
DEFAULT_255_2_778
10
67.6154531
20
1.7780739
11
67.6948531
21
1.8503739
0
LINE
8
DEFAULT_255_2_778
10
67.6948531
20
1.8503739
11
67.7239531
21
1.9143739
0
LINE
8
DEFAULT_255_2_778
10
67.7239531
20
1.9143739
11
67.7334531
21
1.9540739
0
LINE
8
DEFAULT_255_2_778
10
67.7334531
20
1.9540739
11
67.7382531
21
1.9884739
0
LINE
8
DEFAULT_255_2_778
10
67.7382531
20
1.9884739
11
67.7366531
21
2.0829739
0
LINE
8
DEFAULT_255_2_778
10
67.7366531
20
2.0829739
11
67.7297531
21
2.1204739
0
LINE
8
DEFAULT_255_2_778
10
67.7297531
20
2.1204739
11
67.7109531
21
2.1736739
0
LINE
8
DEFAULT_255_2_778
10
67.7109531
20
2.1736739
11
67.6517531
21
2.2477739
0
LINE
8
DEFAULT_255_2_778
10
67.6517531
20
2.2477739
11
67.5337531
21
2.3080739
0
LINE
8
DEFAULT_255_2_778
10
67.5337531
20
2.3080739
11
67.3577531
21
2.3281739
0
LINE
8
DEFAULT_255_2_778
10
67.3577531
20
2.3281739
11
67.0455531
21
2.3281739
0
LINE
8
DEFAULT_255_2_778
10
67.0455531
20
2.3281739
11
67.0455531
21
1.7365739
0
LINE
8
DEFAULT_255_2_778
10
67.0455531
20
1.7365739
11
67.3921531
21
1.7363739
0
LINE
8
DEFAULT_255_2_778
10
68.2726833
20
2.9774434
11
68.2329833
21
2.8965434
0
LINE
8
DEFAULT_255_2_778
10
68.2329833
20
2.8965434
11
68.2011833
21
2.8121434
0
LINE
8
DEFAULT_255_2_778
10
68.2011833
20
2.8121434
11
68.1823833
21
2.7478434
0
LINE
8
DEFAULT_255_2_778
10
68.1823833
20
2.7478434
11
68.1673833
21
2.6824434
0
LINE
8
DEFAULT_255_2_778
10
68.1673833
20
2.6824434
11
68.1559833
21
2.6162434
0
LINE
8
DEFAULT_255_2_778
10
68.1559833
20
2.6162434
11
68.1511833
21
2.5797434
0
LINE
8
DEFAULT_255_2_778
10
68.1511833
20
2.5797434
11
68.1474833
21
2.5432434
0
LINE
8
DEFAULT_255_2_778
10
68.1474833
20
2.5432434
11
68.1445833
21
2.5067434
0
LINE
8
DEFAULT_255_2_778
10
68.1445833
20
2.5067434
11
68.1445833
21
2.2847434
0
LINE
8
DEFAULT_255_2_778
10
68.1445833
20
2.2847434
11
68.1474833
21
2.2474434
0
LINE
8
DEFAULT_255_2_778
10
68.1474833
20
2.2474434
11
68.1511833
21
2.2104434
0
LINE
8
DEFAULT_255_2_778
10
68.1511833
20
2.2104434
11
68.1559833
21
2.1733434
0
LINE
8
DEFAULT_255_2_778
10
68.1559833
20
2.1733434
11
68.1670833
21
2.1062434
0
LINE
8
DEFAULT_255_2_778
10
68.1670833
20
2.1062434
11
68.1818833
21
2.0397434
0
LINE
8
DEFAULT_255_2_778
10
68.1818833
20
2.0397434
11
68.2003833
21
1.9741434
0
LINE
8
DEFAULT_255_2_778
10
68.2003833
20
1.9741434
11
68.2278833
21
1.8974434
0
LINE
8
DEFAULT_255_2_778
10
68.2278833
20
1.8974434
11
68.2617833
21
1.8230434
0
LINE
8
DEFAULT_255_2_778
10
68.2617833
20
1.8230434
11
68.3096833
21
1.7405434
0
LINE
8
DEFAULT_255_2_778
10
68.3096833
20
1.7405434
11
68.3649833
21
1.6683434
0
LINE
8
DEFAULT_255_2_778
10
68.3649833
20
1.6683434
11
68.4429833
21
1.5965434
0
LINE
8
DEFAULT_255_2_778
10
68.4429833
20
1.5965434
11
68.5485833
21
1.5376434
0
LINE
8
DEFAULT_255_2_778
10
68.5485833
20
1.5376434
11
68.6893833
21
1.5063434
0
LINE
8
DEFAULT_255_2_778
10
68.6893833
20
1.5063434
11
68.8340833
21
1.5145434
0
LINE
8
DEFAULT_255_2_778
10
68.8340833
20
1.5145434
11
68.9502833
21
1.5540434
0
LINE
8
DEFAULT_255_2_778
10
68.9502833
20
1.5540434
11
69.0504833
21
1.6220434
0
LINE
8
DEFAULT_255_2_778
10
69.0504833
20
1.6220434
11
69.1258833
21
1.7032434
0
LINE
8
DEFAULT_255_2_778
10
69.1258833
20
1.7032434
11
69.1870833
21
1.7987434
0
LINE
8
DEFAULT_255_2_778
10
69.1870833
20
1.7987434
11
69.2229833
21
1.8723434
0
LINE
8
DEFAULT_255_2_778
10
69.2229833
20
1.8723434
11
69.2526833
21
1.9485434
0
LINE
8
DEFAULT_255_2_778
10
69.2526833
20
1.9485434
11
69.2708833
21
2.0069434
0
LINE
8
DEFAULT_255_2_778
10
69.2708833
20
2.0069434
11
69.2875833
21
2.0731434
0
LINE
8
DEFAULT_255_2_778
10
69.2875833
20
2.0731434
11
69.3005833
21
2.1400434
0
LINE
8
DEFAULT_255_2_778
10
69.3005833
20
2.1400434
11
69.3058833
21
2.1736434
0
LINE
8
DEFAULT_255_2_778
10
69.3058833
20
2.1736434
11
69.3105833
21
2.2106434
0
LINE
8
DEFAULT_255_2_778
10
69.3105833
20
2.2106434
11
69.3142833
21
2.2477434
0
LINE
8
DEFAULT_255_2_778
10
69.3142833
20
2.2477434
11
69.3171833
21
2.2847434
0
LINE
8
DEFAULT_255_2_778
10
69.3171833
20
2.2847434
11
69.3171833
21
2.5065434
0
LINE
8
DEFAULT_255_2_778
10
69.3171833
20
2.5065434
11
69.3142833
21
2.5430434
0
LINE
8
DEFAULT_255_2_778
10
69.3142833
20
2.5430434
11
69.3105833
21
2.5795434
0
LINE
8
DEFAULT_255_2_778
10
69.3105833
20
2.5795434
11
69.3058833
21
2.6160434
0
LINE
8
DEFAULT_255_2_778
10
69.3058833
20
2.6160434
11
69.2944833
21
2.6821434
0
LINE
8
DEFAULT_255_2_778
10
69.2944833
20
2.6821434
11
69.2793833
21
2.7475434
0
LINE
8
DEFAULT_255_2_778
10
69.2793833
20
2.7475434
11
69.2605833
21
2.8118434
0
LINE
8
DEFAULT_255_2_778
10
69.2605833
20
2.8118434
11
69.2325833
21
2.8875434
0
LINE
8
DEFAULT_255_2_778
10
69.2325833
20
2.8875434
11
69.1981833
21
2.9605434
0
LINE
8
DEFAULT_255_2_778
10
69.1981833
20
2.9605434
11
69.1372833
21
3.0592434
0
LINE
8
DEFAULT_255_2_778
10
69.1372833
20
3.0592434
11
69.0798833
21
3.1269434
0
LINE
8
DEFAULT_255_2_778
10
69.0798833
20
3.1269434
11
69.0010833
21
3.1915434
0
LINE
8
DEFAULT_255_2_778
10
69.0010833
20
3.1915434
11
68.8930833
21
3.2439434
0
LINE
8
DEFAULT_255_2_778
10
68.8930833
20
3.2439434
11
68.7515833
21
3.2682434
0
LINE
8
DEFAULT_255_2_778
10
68.7515833
20
3.2682434
11
68.6083833
21
3.2550434
0
LINE
8
DEFAULT_255_2_778
10
68.6083833
20
3.2550434
11
68.4953833
21
3.2121434
0
LINE
8
DEFAULT_255_2_778
10
68.4953833
20
3.2121434
11
68.3982833
21
3.1422434
0
LINE
8
DEFAULT_255_2_778
10
68.3982833
20
3.1422434
11
68.3247833
21
3.0592434
0
LINE
8
DEFAULT_255_2_778
10
68.3247833
20
3.0592434
11
68.2726833
21
2.9774434
0
LINE
8
DEFAULT_255_2_778
10
68.4186833
20
1.9447434
11
68.3945833
21
2.0101434
0
LINE
8
DEFAULT_255_2_778
10
68.3945833
20
2.0101434
11
68.3757833
21
2.0770434
0
LINE
8
DEFAULT_255_2_778
10
68.3757833
20
2.0770434
11
68.3649833
21
2.1265434
0
LINE
8
DEFAULT_255_2_778
10
68.3649833
20
2.1265434
11
68.3564833
21
2.1765434
0
LINE
8
DEFAULT_255_2_778
10
68.3564833
20
2.1765434
11
68.3501833
21
2.2268434
0
LINE
8
DEFAULT_255_2_778
10
68.3501833
20
2.2268434
11
68.3469833
21
2.2601434
0
LINE
8
DEFAULT_255_2_778
10
68.3469833
20
2.2601434
11
68.3469833
21
2.5260434
0
LINE
8
DEFAULT_255_2_778
10
68.3469833
20
2.5260434
11
68.3501833
21
2.5589434
0
LINE
8
DEFAULT_255_2_778
10
68.3501833
20
2.5589434
11
68.3567833
21
2.6083434
0
LINE
8
DEFAULT_255_2_778
10
68.3567833
20
2.6083434
11
68.3654833
21
2.6575434
0
LINE
8
DEFAULT_255_2_778
10
68.3654833
20
2.6575434
11
68.3821833
21
2.7285434
0
LINE
8
DEFAULT_255_2_778
10
68.3821833
20
2.7285434
11
68.4027833
21
2.7938434
0
LINE
8
DEFAULT_255_2_778
10
68.4027833
20
2.7938434
11
68.4419833
21
2.8835434
0
LINE
8
DEFAULT_255_2_778
10
68.4419833
20
2.8835434
11
68.4887833
21
2.9562434
0
LINE
8
DEFAULT_255_2_778
10
68.4887833
20
2.9562434
11
68.5692833
21
3.0303434
0
LINE
8
DEFAULT_255_2_778
10
68.5692833
20
3.0303434
11
68.6784833
21
3.0719434
0
LINE
8
DEFAULT_255_2_778
10
68.6784833
20
3.0719434
11
68.8089833
21
3.0666434
0
LINE
8
DEFAULT_255_2_778
10
68.8089833
20
3.0666434
11
68.9033833
21
3.0227434
0
LINE
8
DEFAULT_255_2_778
10
68.9033833
20
3.0227434
11
68.9618833
21
2.9692434
0
LINE
8
DEFAULT_255_2_778
10
68.9618833
20
2.9692434
11
69.0115833
21
2.8983434
0
LINE
8
DEFAULT_255_2_778
10
69.0115833
20
2.8983434
11
69.0446833
21
2.8306434
0
LINE
8
DEFAULT_255_2_778
10
69.0446833
20
2.8306434
11
69.0740833
21
2.7483434
0
LINE
8
DEFAULT_255_2_778
10
69.0740833
20
2.7483434
11
69.0912833
21
2.6819434
0
LINE
8
DEFAULT_255_2_778
10
69.0912833
20
2.6819434
11
69.1010833
21
2.6329434
0
LINE
8
DEFAULT_255_2_778
10
69.1010833
20
2.6329434
11
69.1084833
21
2.5835434
0
LINE
8
DEFAULT_255_2_778
10
69.1084833
20
2.5835434
11
69.1113833
21
2.5586434
0
LINE
8
DEFAULT_255_2_778
10
69.1113833
20
2.5586434
11
69.1145833
21
2.5258434
0
LINE
8
DEFAULT_255_2_778
10
69.1145833
20
2.5258434
11
69.1145833
21
2.2599434
0
LINE
8
DEFAULT_255_2_778
10
69.1145833
20
2.2599434
11
69.1113833
21
2.2265434
0
LINE
8
DEFAULT_255_2_778
10
69.1113833
20
2.2265434
11
69.1049833
21
2.1762434
0
LINE
8
DEFAULT_255_2_778
10
69.1049833
20
2.1762434
11
69.0965833
21
2.1263434
0
LINE
8
DEFAULT_255_2_778
10
69.0965833
20
2.1263434
11
69.0800833
21
2.0543434
0
LINE
8
DEFAULT_255_2_778
10
69.0800833
20
2.0543434
11
69.0597833
21
1.9879434
0
LINE
8
DEFAULT_255_2_778
10
69.0597833
20
1.9879434
11
69.0208833
21
1.8961434
0
LINE
8
DEFAULT_255_2_778
10
69.0208833
20
1.8961434
11
68.9737833
21
1.8209434
0
LINE
8
DEFAULT_255_2_778
10
68.9737833
20
1.8209434
11
68.9041833
21
1.7521434
0
LINE
8
DEFAULT_255_2_778
10
68.9041833
20
1.7521434
11
68.8091833
21
1.7069434
0
LINE
8
DEFAULT_255_2_778
10
68.8091833
20
1.7069434
11
68.6779833
21
1.7013434
0
LINE
8
DEFAULT_255_2_778
10
68.6779833
20
1.7013434
11
68.5795833
21
1.7371434
0
LINE
8
DEFAULT_255_2_778
10
68.5795833
20
1.7371434
11
68.4988833
21
1.8069434
0
LINE
8
DEFAULT_255_2_778
10
68.4988833
20
1.8069434
11
68.4488833
21
1.8802434
0
LINE
8
DEFAULT_255_2_778
10
68.4488833
20
1.8802434
11
68.4186833
21
1.9447434
0
LINE
8
DEFAULT_255_2_778
10
74.0637181
20
49.8433553
11
74.3520181
21
49.8433553
0
LINE
8
DEFAULT_255_2_778
10
74.3520181
20
49.8433553
11
74.3507181
21
49.8941553
0
LINE
8
DEFAULT_255_2_778
10
74.3507181
20
49.8941553
11
74.3489181
21
49.9195553
0
LINE
8
DEFAULT_255_2_778
10
74.3489181
20
49.9195553
11
74.3460181
21
49.9449553
0
LINE
8
DEFAULT_255_2_778
10
74.3460181
20
49.9449553
11
74.3420181
21
49.9703553
0
LINE
8
DEFAULT_255_2_778
10
74.3420181
20
49.9703553
11
74.3312181
21
50.0206553
0
LINE
8
DEFAULT_255_2_778
10
74.3312181
20
50.0206553
11
74.3129181
21
50.0780553
0
LINE
8
DEFAULT_255_2_778
10
74.3129181
20
50.0780553
11
74.2883181
21
50.1328553
0
LINE
8
DEFAULT_255_2_778
10
74.2883181
20
50.1328553
11
74.2457181
21
50.1997553
0
LINE
8
DEFAULT_255_2_778
10
74.2457181
20
50.1997553
11
74.1785181
21
50.2717553
0
LINE
8
DEFAULT_255_2_778
10
74.1785181
20
50.2717553
11
74.0735181
21
50.3442553
0
LINE
8
DEFAULT_255_2_778
10
74.0735181
20
50.3442553
11
73.9581181
21
50.3913553
0
LINE
8
DEFAULT_255_2_778
10
73.9581181
20
50.3913553
11
73.7877181
21
50.4228553
0
LINE
8
DEFAULT_255_2_778
10
73.7877181
20
50.4228553
11
73.5644181
21
50.4175553
0
LINE
8
DEFAULT_255_2_778
10
73.5644181
20
50.4175553
11
73.4115181
21
50.3807553
0
LINE
8
DEFAULT_255_2_778
10
73.4115181
20
50.3807553
11
73.2797181
21
50.3172553
0
LINE
8
DEFAULT_255_2_778
10
73.2797181
20
50.3172553
11
73.1821181
21
50.2442553
0
LINE
8
DEFAULT_255_2_778
10
73.1821181
20
50.2442553
11
73.1098181
21
50.1688553
0
LINE
8
DEFAULT_255_2_778
10
73.1098181
20
50.1688553
11
73.0342181
21
50.0619553
0
LINE
8
DEFAULT_255_2_778
10
73.0342181
20
50.0619553
11
72.9797181
21
49.9595553
0
LINE
8
DEFAULT_255_2_778
10
72.9797181
20
49.9595553
11
72.9429181
21
49.8719553
0
LINE
8
DEFAULT_255_2_778
10
72.9429181
20
49.8719553
11
72.9127181
21
49.7817553
0
LINE
8
DEFAULT_255_2_778
10
72.9127181
20
49.7817553
11
72.8918181
21
49.7034553
0
LINE
8
DEFAULT_255_2_778
10
72.8918181
20
49.7034553
11
72.8746181
21
49.6243553
0
LINE
8
DEFAULT_255_2_778
10
72.8746181
20
49.6243553
11
72.8611181
21
49.5444553
0
LINE
8
DEFAULT_255_2_778
10
72.8611181
20
49.5444553
11
72.8556181
21
49.5041553
0
LINE
8
DEFAULT_255_2_778
10
72.8556181
20
49.5041553
11
72.8503181
21
49.4586553
0
LINE
8
DEFAULT_255_2_778
10
72.8503181
20
49.4586553
11
72.8458181
21
49.4129553
0
LINE
8
DEFAULT_255_2_778
10
72.8458181
20
49.4129553
11
72.8423181
21
49.3671553
0
LINE
8
DEFAULT_255_2_778
10
72.8423181
20
49.3671553
11
72.8423181
21
49.0245553
0
LINE
8
DEFAULT_255_2_778
10
72.8423181
20
49.0245553
11
72.8455181
21
48.9848553
0
LINE
8
DEFAULT_255_2_778
10
72.8455181
20
48.9848553
11
72.8498181
21
48.9451553
0
LINE
8
DEFAULT_255_2_778
10
72.8498181
20
48.9451553
11
72.8548181
21
48.9057553
0
LINE
8
DEFAULT_255_2_778
10
72.8548181
20
48.9057553
11
72.8659181
21
48.8369553
0
LINE
8
DEFAULT_255_2_778
10
72.8659181
20
48.8369553
11
72.8802181
21
48.7686553
0
LINE
8
DEFAULT_255_2_778
10
72.8802181
20
48.7686553
11
72.8982181
21
48.7014553
0
LINE
8
DEFAULT_255_2_778
10
72.8982181
20
48.7014553
11
72.9270181
21
48.6173553
0
LINE
8
DEFAULT_255_2_778
10
72.9270181
20
48.6173553
11
72.9595181
21
48.5427553
0
LINE
8
DEFAULT_255_2_778
10
72.9595181
20
48.5427553
11
73.0117181
21
48.4508553
0
LINE
8
DEFAULT_255_2_778
10
73.0117181
20
48.4508553
11
73.0858181
21
48.3553553
0
LINE
8
DEFAULT_255_2_778
10
73.0858181
20
48.3553553
11
73.1749181
21
48.2752553
0
LINE
8
DEFAULT_255_2_778
10
73.1749181
20
48.2752553
11
73.2969181
21
48.2050553
0
LINE
8
DEFAULT_255_2_778
10
73.2969181
20
48.2050553
11
73.4379181
21
48.1611553
0
LINE
8
DEFAULT_255_2_778
10
73.4379181
20
48.1611553
11
73.6459181
21
48.1442553
0
LINE
8
DEFAULT_255_2_778
10
73.6459181
20
48.1442553
11
73.8636181
21
48.1720553
0
LINE
8
DEFAULT_255_2_778
10
73.8636181
20
48.1720553
11
74.0060181
21
48.2222553
0
LINE
8
DEFAULT_255_2_778
10
74.0060181
20
48.2222553
11
74.1309181
21
48.2979553
0
LINE
8
DEFAULT_255_2_778
10
74.1309181
20
48.2979553
11
74.2200181
21
48.3794553
0
LINE
8
DEFAULT_255_2_778
10
74.2200181
20
48.3794553
11
74.2793181
21
48.4551553
0
LINE
8
DEFAULT_255_2_778
10
74.2793181
20
48.4551553
11
74.3163181
21
48.5178553
0
LINE
8
DEFAULT_255_2_778
10
74.3163181
20
48.5178553
11
74.3465181
21
48.5858553
0
LINE
8
DEFAULT_255_2_778
10
74.3465181
20
48.5858553
11
74.3626181
21
48.6329553
0
LINE
8
DEFAULT_255_2_778
10
74.3626181
20
48.6329553
11
74.3756181
21
48.6808553
0
LINE
8
DEFAULT_255_2_778
10
74.3756181
20
48.6808553
11
74.3864181
21
48.7347553
0
LINE
8
DEFAULT_255_2_778
10
74.3864181
20
48.7347553
11
74.3843181
21
49.0779553
0
LINE
8
DEFAULT_255_2_778
10
74.3843181
20
49.0779553
11
74.3743181
21
49.1258553
0
LINE
8
DEFAULT_255_2_778
10
74.3743181
20
49.1258553
11
74.3550181
21
49.1927553
0
LINE
8
DEFAULT_255_2_778
10
74.3550181
20
49.1927553
11
74.3296181
21
49.2576553
0
LINE
8
DEFAULT_255_2_778
10
74.3296181
20
49.2576553
11
74.2803181
21
49.3475553
0
LINE
8
DEFAULT_255_2_778
10
74.2803181
20
49.3475553
11
74.2063181
21
49.4414553
0
LINE
8
DEFAULT_255_2_778
10
74.2063181
20
49.4414553
11
74.1145181
21
49.5219553
0
LINE
8
DEFAULT_255_2_778
10
74.1145181
20
49.5219553
11
73.9890181
21
49.5896553
0
LINE
8
DEFAULT_255_2_778
10
73.9890181
20
49.5896553
11
73.8234181
21
49.6319553
0
LINE
8
DEFAULT_255_2_778
10
73.8234181
20
49.6319553
11
73.6255181
21
49.6333553
0
LINE
8
DEFAULT_255_2_778
10
73.6255181
20
49.6333553
11
73.4596181
21
49.5917553
0
LINE
8
DEFAULT_255_2_778
10
73.4596181
20
49.5917553
11
73.3289181
21
49.5208553
0
LINE
8
DEFAULT_255_2_778
10
73.3289181
20
49.5208553
11
73.2109181
21
49.4182553
0
LINE
8
DEFAULT_255_2_778
10
73.2109181
20
49.4182553
11
73.1355181
21
49.3250553
0
LINE
8
DEFAULT_255_2_778
10
73.1355181
20
49.3250553
11
73.1257181
21
49.3097553
0
LINE
8
DEFAULT_255_2_778
10
73.1257181
20
49.3097553
11
73.1286181
21
49.3459553
0
LINE
8
DEFAULT_255_2_778
10
73.1286181
20
49.3459553
11
73.1318181
21
49.3822553
0
LINE
8
DEFAULT_255_2_778
10
73.1318181
20
49.3822553
11
73.1400181
21
49.4544553
0
LINE
8
DEFAULT_255_2_778
10
73.1400181
20
49.4544553
11
73.1506181
21
49.5264553
0
LINE
8
DEFAULT_255_2_778
10
73.1506181
20
49.5264553
11
73.1622181
21
49.5896553
0
LINE
8
DEFAULT_255_2_778
10
73.1622181
20
49.5896553
11
73.1765181
21
49.6523553
0
LINE
8
DEFAULT_255_2_778
10
73.1765181
20
49.6523553
11
73.2008181
21
49.7378553
0
LINE
8
DEFAULT_255_2_778
10
73.2008181
20
49.7378553
11
73.2347181
21
49.8296553
0
LINE
8
DEFAULT_255_2_778
10
73.2347181
20
49.8296553
11
73.2908181
21
49.9407553
0
LINE
8
DEFAULT_255_2_778
10
73.2908181
20
49.9407553
11
73.3575181
21
50.0320553
0
LINE
8
DEFAULT_255_2_778
10
73.3575181
20
50.0320553
11
73.4641181
21
50.1214553
0
LINE
8
DEFAULT_255_2_778
10
73.4641181
20
50.1214553
11
73.5805181
21
50.1693553
0
LINE
8
DEFAULT_255_2_778
10
73.5805181
20
50.1693553
11
73.7485181
21
50.1810553
0
LINE
8
DEFAULT_255_2_778
10
73.7485181
20
50.1810553
11
73.8745181
21
50.1513553
0
LINE
8
DEFAULT_255_2_778
10
73.8745181
20
50.1513553
11
73.9705181
21
50.0889553
0
LINE
8
DEFAULT_255_2_778
10
73.9705181
20
50.0889553
11
74.0184181
21
50.0296553
0
LINE
8
DEFAULT_255_2_778
10
74.0184181
20
50.0296553
11
74.0412181
21
49.9825553
0
LINE
8
DEFAULT_255_2_778
10
74.0412181
20
49.9825553
11
74.0528181
21
49.9449553
0
LINE
8
DEFAULT_255_2_778
10
74.0528181
20
49.9449553
11
74.0586181
21
49.9161553
0
LINE
8
DEFAULT_255_2_778
10
74.0586181
20
49.9161553
11
74.0623181
21
49.8870553
0
LINE
8
DEFAULT_255_2_778
10
74.0623181
20
49.8870553
11
74.0637181
21
49.8433553
0
LINE
8
DEFAULT_255_2_778
10
73.3167181
20
49.2602553
11
73.4197181
21
49.3322553
0
LINE
8
DEFAULT_255_2_778
10
73.4197181
20
49.3322553
11
73.5792181
21
49.3819553
0
LINE
8
DEFAULT_255_2_778
10
73.5792181
20
49.3819553
11
73.7684181
21
49.3835553
0
LINE
8
DEFAULT_255_2_778
10
73.7684181
20
49.3835553
11
73.9001181
21
49.3385553
0
LINE
8
DEFAULT_255_2_778
10
73.9001181
20
49.3385553
11
73.9888181
21
49.2660553
0
LINE
8
DEFAULT_255_2_778
10
73.9888181
20
49.2660553
11
74.0435181
21
49.1893553
0
LINE
8
DEFAULT_255_2_778
10
74.0435181
20
49.1893553
11
74.0716181
21
49.1300553
0
LINE
8
DEFAULT_255_2_778
10
74.0716181
20
49.1300553
11
74.0877181
21
49.0811553
0
LINE
8
DEFAULT_255_2_778
10
74.0877181
20
49.0811553
11
74.0994181
21
49.0308553
0
LINE
8
DEFAULT_255_2_778
10
74.0994181
20
49.0308553
11
74.1052181
21
48.9930553
0
LINE
8
DEFAULT_255_2_778
10
74.1052181
20
48.9930553
11
74.1041181
21
48.7961553
0
LINE
8
DEFAULT_255_2_778
10
74.1041181
20
48.7961553
11
74.0973181
21
48.7562553
0
LINE
8
DEFAULT_255_2_778
10
74.0973181
20
48.7562553
11
74.0859181
21
48.7099553
0
LINE
8
DEFAULT_255_2_778
10
74.0859181
20
48.7099553
11
74.0642181
21
48.6501553
0
LINE
8
DEFAULT_255_2_778
10
74.0642181
20
48.6501553
11
74.0189181
21
48.5712553
0
LINE
8
DEFAULT_255_2_778
10
74.0189181
20
48.5712553
11
73.9441181
21
48.4908553
0
LINE
8
DEFAULT_255_2_778
10
73.9441181
20
48.4908553
11
73.8401181
21
48.4291553
0
LINE
8
DEFAULT_255_2_778
10
73.8401181
20
48.4291553
11
73.6766181
21
48.3950553
0
LINE
8
DEFAULT_255_2_778
10
73.6766181
20
48.3950553
11
73.4895181
21
48.4143553
0
LINE
8
DEFAULT_255_2_778
10
73.4895181
20
48.4143553
11
73.3757181
21
48.4665553
0
LINE
8
DEFAULT_255_2_778
10
73.3757181
20
48.4665553
11
73.2842181
21
48.5493553
0
LINE
8
DEFAULT_255_2_778
10
73.2842181
20
48.5493553
11
73.2342181
21
48.6247553
0
LINE
8
DEFAULT_255_2_778
10
73.2342181
20
48.6247553
11
73.2088181
21
48.6818553
0
LINE
8
DEFAULT_255_2_778
10
73.2088181
20
48.6818553
11
73.1908181
21
48.7427553
0
LINE
8
DEFAULT_255_2_778
10
73.1908181
20
48.7427553
11
73.1836181
21
48.7779553
0
LINE
8
DEFAULT_255_2_778
10
73.1836181
20
48.7779553
11
73.1781181
21
48.8176553
0
LINE
8
DEFAULT_255_2_778
10
73.1781181
20
48.8176553
11
73.1799181
21
48.9877553
0
LINE
8
DEFAULT_255_2_778
10
73.1799181
20
48.9877553
11
73.1861181
21
49.0231553
0
LINE
8
DEFAULT_255_2_778
10
73.1861181
20
49.0231553
11
73.1987181
21
49.0721553
0
LINE
8
DEFAULT_255_2_778
10
73.1987181
20
49.0721553
11
73.2225181
21
49.1329553
0
LINE
8
DEFAULT_255_2_778
10
73.2225181
20
49.1329553
11
73.2641181
21
49.2017553
0
LINE
8
DEFAULT_255_2_778
10
73.2641181
20
49.2017553
11
73.3167181
21
49.2602553
0
LINE
8
DEFAULT_255_2_778
10
73.0937181
20
90.5844553
11
73.8591181
21
90.5844553
0
LINE
8
DEFAULT_255_2_778
10
73.8591181
20
90.5844553
11
73.8591181
21
91.6806553
0
LINE
8
DEFAULT_255_2_778
10
73.8591181
20
91.6806553
11
73.0937181
21
90.5844553
0
LINE
8
DEFAULT_255_2_778
10
73.8062181
20
91.9938553
11
74.1539181
21
91.9938553
0
LINE
8
DEFAULT_255_2_778
10
74.1539181
20
91.9938553
11
74.1539181
21
90.5844553
0
LINE
8
DEFAULT_255_2_778
10
74.1539181
20
90.5844553
11
74.5701181
21
90.5844553
0
LINE
8
DEFAULT_255_2_778
10
74.5701181
20
90.5844553
11
74.5701181
21
90.3442553
0
LINE
8
DEFAULT_255_2_778
10
74.5701181
20
90.3442553
11
74.1539181
21
90.3442553
0
LINE
8
DEFAULT_255_2_778
10
74.1539181
20
90.3442553
11
74.1539181
21
89.7938553
0
LINE
8
DEFAULT_255_2_778
10
74.1539181
20
89.7938553
11
73.8591181
21
89.7938553
0
LINE
8
DEFAULT_255_2_778
10
73.8591181
20
89.7938553
11
73.8591181
21
90.3442553
0
LINE
8
DEFAULT_255_2_778
10
73.8591181
20
90.3442553
11
72.8362181
21
90.3442553
0
LINE
8
DEFAULT_255_2_778
10
72.8362181
20
90.3442553
11
72.8362181
21
90.6093553
0
LINE
8
DEFAULT_255_2_778
10
72.8362181
20
90.6093553
11
73.8062181
21
91.9938553
0
LINE
8
DEFAULT_255_2_778
10
45.9662181
20
91.6496553
11
45.9167181
21
91.5605553
0
LINE
8
DEFAULT_255_2_778
10
45.9167181
20
91.5605553
11
45.8755181
21
91.4673553
0
LINE
8
DEFAULT_255_2_778
10
45.8755181
20
91.4673553
11
45.8511181
21
91.4001553
0
LINE
8
DEFAULT_255_2_778
10
45.8511181
20
91.4001553
11
45.8297181
21
91.3284553
0
LINE
8
DEFAULT_255_2_778
10
45.8297181
20
91.3284553
11
45.8122181
21
91.2557553
0
LINE
8
DEFAULT_255_2_778
10
45.8122181
20
91.2557553
11
45.7985181
21
91.1821553
0
LINE
8
DEFAULT_255_2_778
10
45.7985181
20
91.1821553
11
45.7916181
21
91.1350553
0
LINE
8
DEFAULT_255_2_778
10
45.7916181
20
91.1350553
11
45.7860181
21
91.0879553
0
LINE
8
DEFAULT_255_2_778
10
45.7860181
20
91.0879553
11
45.7818181
21
91.0406553
0
LINE
8
DEFAULT_255_2_778
10
45.7818181
20
91.0406553
11
45.7789181
21
90.9932553
0
LINE
8
DEFAULT_255_2_778
10
45.7789181
20
90.9932553
11
45.7789181
21
90.8014553
0
LINE
8
DEFAULT_255_2_778
10
45.7789181
20
90.8014553
11
45.7818181
21
90.7532553
0
LINE
8
DEFAULT_255_2_778
10
45.7818181
20
90.7532553
11
45.7860181
21
90.7051553
0
LINE
8
DEFAULT_255_2_778
10
45.7860181
20
90.7051553
11
45.7913181
21
90.6569553
0
LINE
8
DEFAULT_255_2_778
10
45.7913181
20
90.6569553
11
45.7982181
21
90.6090553
0
LINE
8
DEFAULT_255_2_778
10
45.7982181
20
90.6090553
11
45.8117181
21
90.5341553
0
LINE
8
DEFAULT_255_2_778
10
45.8117181
20
90.5341553
11
45.8289181
21
90.4601553
0
LINE
8
DEFAULT_255_2_778
10
45.8289181
20
90.4601553
11
45.8501181
21
90.3870553
0
LINE
8
DEFAULT_255_2_778
10
45.8501181
20
90.3870553
11
45.8744181
21
90.3174553
0
LINE
8
DEFAULT_255_2_778
10
45.8744181
20
90.3174553
11
45.9170181
21
90.2190553
0
LINE
8
DEFAULT_255_2_778
10
45.9170181
20
90.2190553
11
45.9686181
21
90.1246553
0
LINE
8
DEFAULT_255_2_778
10
45.9686181
20
90.1246553
11
46.0385181
21
90.0238553
0
LINE
8
DEFAULT_255_2_778
10
46.0385181
20
90.0238553
11
46.1213181
21
89.9335553
0
LINE
8
DEFAULT_255_2_778
10
46.1213181
20
89.9335553
11
46.2118181
21
89.8621553
0
LINE
8
DEFAULT_255_2_778
10
46.2118181
20
89.8621553
11
46.3366181
21
89.7962553
0
LINE
8
DEFAULT_255_2_778
10
46.3366181
20
89.7962553
11
46.4774181
21
89.7565553
0
LINE
8
DEFAULT_255_2_778
10
46.4774181
20
89.7565553
11
46.6549181
21
89.7446553
0
LINE
8
DEFAULT_255_2_778
10
46.6549181
20
89.7446553
11
46.8023181
21
89.7624553
0
LINE
8
DEFAULT_255_2_778
10
46.8023181
20
89.7624553
11
46.9402181
21
89.8076553
0
LINE
8
DEFAULT_255_2_778
10
46.9402181
20
89.8076553
11
47.0621181
21
89.8785553
0
LINE
8
DEFAULT_255_2_778
10
47.0621181
20
89.8785553
11
47.1513181
21
89.9552553
0
LINE
8
DEFAULT_255_2_778
10
47.1513181
20
89.9552553
11
47.2304181
21
90.0484553
0
LINE
8
DEFAULT_255_2_778
10
47.2304181
20
90.0484553
11
47.2815181
21
90.1248553
0
LINE
8
DEFAULT_255_2_778
10
47.2815181
20
90.1248553
11
47.3331181
21
90.2196553
0
LINE
8
DEFAULT_255_2_778
10
47.3331181
20
90.2196553
11
47.3757181
21
90.3185553
0
LINE
8
DEFAULT_255_2_778
10
47.3757181
20
90.3185553
11
47.4000181
21
90.3884553
0
LINE
8
DEFAULT_255_2_778
10
47.4000181
20
90.3884553
11
47.4212181
21
90.4614553
0
LINE
8
DEFAULT_255_2_778
10
47.4212181
20
90.4614553
11
47.4384181
21
90.5355553
0
LINE
8
DEFAULT_255_2_778
10
47.4384181
20
90.5355553
11
47.4519181
21
90.6103553
0
LINE
8
DEFAULT_255_2_778
10
47.4519181
20
90.6103553
11
47.4587181
21
90.6580553
0
LINE
8
DEFAULT_255_2_778
10
47.4587181
20
90.6580553
11
47.4640181
21
90.7059553
0
LINE
8
DEFAULT_255_2_778
10
47.4640181
20
90.7059553
11
47.4683181
21
90.7540553
0
LINE
8
DEFAULT_255_2_778
10
47.4683181
20
90.7540553
11
47.4712181
21
90.8022553
0
LINE
8
DEFAULT_255_2_778
10
47.4712181
20
90.8022553
11
47.4712181
21
90.9937553
0
LINE
8
DEFAULT_255_2_778
10
47.4712181
20
90.9937553
11
47.4683181
21
91.0411553
0
LINE
8
DEFAULT_255_2_778
10
47.4683181
20
91.0411553
11
47.4640181
21
91.0884553
0
LINE
8
DEFAULT_255_2_778
10
47.4640181
20
91.0884553
11
47.4585181
21
91.1355553
0
LINE
8
DEFAULT_255_2_778
10
47.4585181
20
91.1355553
11
47.4516181
21
91.1826553
0
LINE
8
DEFAULT_255_2_778
10
47.4516181
20
91.1826553
11
47.4378181
21
91.2562553
0
LINE
8
DEFAULT_255_2_778
10
47.4378181
20
91.2562553
11
47.4204181
21
91.3290553
0
LINE
8
DEFAULT_255_2_778
10
47.4204181
20
91.3290553
11
47.3989181
21
91.4007553
0
LINE
8
DEFAULT_255_2_778
10
47.3989181
20
91.4007553
11
47.3741181
21
91.4692553
0
LINE
8
DEFAULT_255_2_778
10
47.3741181
20
91.4692553
11
47.3307181
21
91.5663553
0
LINE
8
DEFAULT_255_2_778
10
47.3307181
20
91.5663553
11
47.2786181
21
91.6592553
0
LINE
8
DEFAULT_255_2_778
10
47.2786181
20
91.6592553
11
47.2090181
21
91.7568553
0
LINE
8
DEFAULT_255_2_778
10
47.2090181
20
91.7568553
11
47.1267181
21
91.8438553
0
LINE
8
DEFAULT_255_2_778
10
47.1267181
20
91.8438553
11
47.0365181
21
91.9129553
0
LINE
8
DEFAULT_255_2_778
10
47.0365181
20
91.9129553
11
46.9124181
21
91.9764553
0
LINE
8
DEFAULT_255_2_778
10
46.9124181
20
91.9764553
11
46.7721181
21
92.0148553
0
LINE
8
DEFAULT_255_2_778
10
46.7721181
20
92.0148553
11
46.5957181
21
92.0264553
0
LINE
8
DEFAULT_255_2_778
10
46.5957181
20
92.0264553
11
46.4496181
21
92.0092553
0
LINE
8
DEFAULT_255_2_778
10
46.4496181
20
92.0092553
11
46.3128181
21
91.9655553
0
LINE
8
DEFAULT_255_2_778
10
46.3128181
20
91.9655553
11
46.1914181
21
91.8970553
0
LINE
8
DEFAULT_255_2_778
10
46.1914181
20
91.8970553
11
46.1025181
21
91.8229553
0
LINE
8
DEFAULT_255_2_778
10
46.1025181
20
91.8229553
11
46.0231181
21
91.7327553
0
LINE
8
DEFAULT_255_2_778
10
46.0231181
20
91.7327553
11
45.9662181
21
91.6496553
0
LINE
8
DEFAULT_255_2_778
10
46.1760181
20
90.3130553
11
46.1416181
21
90.3974553
0
LINE
8
DEFAULT_255_2_778
10
46.1416181
20
90.3974553
11
46.1229181
21
90.4550553
0
LINE
8
DEFAULT_255_2_778
10
46.1229181
20
90.4550553
11
46.1065181
21
90.5162553
0
LINE
8
DEFAULT_255_2_778
10
46.1065181
20
90.5162553
11
46.0927181
21
90.5804553
0
LINE
8
DEFAULT_255_2_778
10
46.0927181
20
90.5804553
11
46.0821181
21
90.6455553
0
LINE
8
DEFAULT_255_2_778
10
46.0821181
20
90.6455553
11
46.0779181
21
90.6781553
0
LINE
8
DEFAULT_255_2_778
10
46.0779181
20
90.6781553
11
46.0739181
21
90.7141553
0
LINE
8
DEFAULT_255_2_778
10
46.0739181
20
90.7141553
11
46.0707181
21
90.7500553
0
LINE
8
DEFAULT_255_2_778
10
46.0707181
20
90.7500553
11
46.0707181
21
91.0369553
0
LINE
8
DEFAULT_255_2_778
10
46.0707181
20
91.0369553
11
46.0739181
21
91.0723553
0
LINE
8
DEFAULT_255_2_778
10
46.0739181
20
91.0723553
11
46.0779181
21
91.1078553
0
LINE
8
DEFAULT_255_2_778
10
46.0779181
20
91.1078553
11
46.0871181
21
91.1721553
0
LINE
8
DEFAULT_255_2_778
10
46.0871181
20
91.1721553
11
46.0996181
21
91.2358553
0
LINE
8
DEFAULT_255_2_778
10
46.0996181
20
91.2358553
11
46.1152181
21
91.2988553
0
LINE
8
DEFAULT_255_2_778
10
46.1152181
20
91.2988553
11
46.1326181
21
91.3559553
0
LINE
8
DEFAULT_255_2_778
10
46.1326181
20
91.3559553
11
46.1649181
21
91.4398553
0
LINE
8
DEFAULT_255_2_778
10
46.1649181
20
91.4398553
11
46.2099181
21
91.5284553
0
LINE
8
DEFAULT_255_2_778
10
46.2099181
20
91.5284553
11
46.2623181
21
91.6046553
0
LINE
8
DEFAULT_255_2_778
10
46.2623181
20
91.6046553
11
46.3332181
21
91.6766553
0
LINE
8
DEFAULT_255_2_778
10
46.3332181
20
91.6766553
11
46.4255181
21
91.7354553
0
LINE
8
DEFAULT_255_2_778
10
46.4255181
20
91.7354553
11
46.5502181
21
91.7721553
0
LINE
8
DEFAULT_255_2_778
10
46.5502181
20
91.7721553
11
46.6999181
21
91.7721553
0
LINE
8
DEFAULT_255_2_778
10
46.6999181
20
91.7721553
11
46.8245181
21
91.7354553
0
LINE
8
DEFAULT_255_2_778
10
46.8245181
20
91.7354553
11
46.9306181
21
91.6647553
0
LINE
8
DEFAULT_255_2_778
10
46.9306181
20
91.6647553
11
46.9878181
21
91.6046553
0
LINE
8
DEFAULT_255_2_778
10
46.9878181
20
91.6046553
11
47.0402181
21
91.5284553
0
LINE
8
DEFAULT_255_2_778
10
47.0402181
20
91.5284553
11
47.0759181
21
91.4599553
0
LINE
8
DEFAULT_255_2_778
10
47.0759181
20
91.4599553
11
47.1087181
21
91.3805553
0
LINE
8
DEFAULT_255_2_778
10
47.1087181
20
91.3805553
11
47.1349181
21
91.2988553
0
LINE
8
DEFAULT_255_2_778
10
47.1349181
20
91.2988553
11
47.1505181
21
91.2358553
0
LINE
8
DEFAULT_255_2_778
10
47.1505181
20
91.2358553
11
47.1629181
21
91.1721553
0
LINE
8
DEFAULT_255_2_778
10
47.1629181
20
91.1721553
11
47.1722181
21
91.1078553
0
LINE
8
DEFAULT_255_2_778
10
47.1722181
20
91.1078553
11
47.1762181
21
91.0723553
0
LINE
8
DEFAULT_255_2_778
10
47.1762181
20
91.0723553
11
47.1793181
21
91.0369553
0
LINE
8
DEFAULT_255_2_778
10
47.1793181
20
91.0369553
11
47.1793181
21
90.7500553
0
LINE
8
DEFAULT_255_2_778
10
47.1793181
20
90.7500553
11
47.1762181
21
90.7141553
0
LINE
8
DEFAULT_255_2_778
10
47.1762181
20
90.7141553
11
47.1722181
21
90.6781553
0
LINE
8
DEFAULT_255_2_778
10
47.1722181
20
90.6781553
11
47.1629181
21
90.6130553
0
LINE
8
DEFAULT_255_2_778
10
47.1629181
20
90.6130553
11
47.1508181
21
90.5482553
0
LINE
8
DEFAULT_255_2_778
10
47.1508181
20
90.5482553
11
47.1354181
21
90.4841553
0
LINE
8
DEFAULT_255_2_778
10
47.1354181
20
90.4841553
11
47.1182181
21
90.4259553
0
LINE
8
DEFAULT_255_2_778
10
47.1182181
20
90.4259553
11
47.0862181
21
90.3405553
0
LINE
8
DEFAULT_255_2_778
10
47.0862181
20
90.3405553
11
47.0415181
21
90.2495553
0
LINE
8
DEFAULT_255_2_778
10
47.0415181
20
90.2495553
11
46.9891181
21
90.1709553
0
LINE
8
DEFAULT_255_2_778
10
46.9891181
20
90.1709553
11
46.9180181
21
90.0968553
0
LINE
8
DEFAULT_255_2_778
10
46.9180181
20
90.0968553
11
46.8253181
21
90.0362553
0
LINE
8
DEFAULT_255_2_778
10
46.8253181
20
90.0362553
11
46.7002181
21
89.9984553
0
LINE
8
DEFAULT_255_2_778
10
46.7002181
20
89.9984553
11
46.5494181
21
89.9984553
0
LINE
8
DEFAULT_255_2_778
10
46.5494181
20
89.9984553
11
46.4242181
21
90.0362553
0
LINE
8
DEFAULT_255_2_778
10
46.4242181
20
90.0362553
11
46.3316181
21
90.0968553
0
LINE
8
DEFAULT_255_2_778
10
46.3316181
20
90.0968553
11
46.2604181
21
90.1709553
0
LINE
8
DEFAULT_255_2_778
10
46.2604181
20
90.1709553
11
46.2081181
21
90.2495553
0
LINE
8
DEFAULT_255_2_778
10
46.2081181
20
90.2495553
11
46.1760181
21
90.3130553
0
LINE
8
DEFAULT_255_2_778
10
56.1675181
20
118.5387553
11
56.3665181
21
118.5387553
0
LINE
8
DEFAULT_255_2_778
10
56.3665181
20
118.5387553
11
56.0135181
21
118.0381553
0
LINE
8
DEFAULT_255_2_778
10
56.0135181
20
118.0381553
11
56.3818181
21
117.4939553
0
LINE
8
DEFAULT_255_2_778
10
56.3818181
20
117.4939553
11
56.1627181
21
117.4939553
0
LINE
8
DEFAULT_255_2_778
10
56.1627181
20
117.4939553
11
55.8929181
21
117.9169553
0
LINE
8
DEFAULT_255_2_778
10
55.8929181
20
117.9169553
11
55.6248181
21
117.4939553
0
LINE
8
DEFAULT_255_2_778
10
55.6248181
20
117.4939553
11
55.4219181
21
117.4939553
0
LINE
8
DEFAULT_255_2_778
10
55.4219181
20
117.4939553
11
55.8008181
21
118.0286553
0
LINE
8
DEFAULT_255_2_778
10
55.8008181
20
118.0286553
11
55.4478181
21
118.5390553
0
LINE
8
DEFAULT_255_2_778
10
55.4478181
20
118.5390553
11
55.6756181
21
118.5390553
0
LINE
8
DEFAULT_255_2_778
10
55.6756181
20
118.5390553
11
55.9196181
21
118.1529553
0
LINE
8
DEFAULT_255_2_778
10
55.9196181
20
118.1529553
11
56.1675181
21
118.5390553
0
LINE
8
DEFAULT_255_2_778
10
63.6076181
20
118.9938553
11
63.7166181
21
118.9938553
0
LINE
8
DEFAULT_255_2_778
10
63.7166181
20
118.9938553
11
63.2869181
21
117.3811553
0
LINE
8
DEFAULT_255_2_778
10
63.2869181
20
117.3811553
11
63.1779181
21
117.3811553
0
LINE
8
DEFAULT_255_2_778
10
63.1779181
20
117.3811553
11
63.6076181
21
118.9938553
0
LINE
8
DEFAULT_255_2_778
10
58.9165181
20
118.5961553
11
59.1060181
21
118.5961553
0
LINE
8
DEFAULT_255_2_778
10
59.1060181
20
118.5961553
11
59.1046181
21
118.6411553
0
LINE
8
DEFAULT_255_2_778
10
59.1046181
20
118.6411553
11
59.1012181
21
118.6713553
0
LINE
8
DEFAULT_255_2_778
10
59.1012181
20
118.6713553
11
59.0954181
21
118.7012553
0
LINE
8
DEFAULT_255_2_778
10
59.0954181
20
118.7012553
11
59.0827181
21
118.7453553
0
LINE
8
DEFAULT_255_2_778
10
59.0827181
20
118.7453553
11
59.0573181
21
118.8022553
0
LINE
8
DEFAULT_255_2_778
10
59.0573181
20
118.8022553
11
59.0118181
21
118.8660553
0
LINE
8
DEFAULT_255_2_778
10
59.0118181
20
118.8660553
11
58.9395181
21
118.9290553
0
LINE
8
DEFAULT_255_2_778
10
58.9395181
20
118.9290553
11
58.8202181
21
118.9885553
0
LINE
8
DEFAULT_255_2_778
10
58.8202181
20
118.9885553
11
58.6567181
21
119.0213553
0
LINE
8
DEFAULT_255_2_778
10
58.6567181
20
119.0213553
11
58.4588181
21
119.0115553
0
LINE
8
DEFAULT_255_2_778
10
58.4588181
20
119.0115553
11
58.3080181
21
118.9581553
0
LINE
8
DEFAULT_255_2_778
10
58.3080181
20
118.9581553
11
58.2088181
21
118.8866553
0
LINE
8
DEFAULT_255_2_778
10
58.2088181
20
118.8866553
11
58.1281181
21
118.7922553
0
LINE
8
DEFAULT_255_2_778
10
58.1281181
20
118.7922553
11
58.0842181
21
118.7178553
0
LINE
8
DEFAULT_255_2_778
10
58.0842181
20
118.7178553
11
58.0495181
21
118.6387553
0
LINE
8
DEFAULT_255_2_778
10
58.0495181
20
118.6387553
11
58.0273181
21
118.5705553
0
LINE
8
DEFAULT_255_2_778
10
58.0273181
20
118.5705553
11
58.0106181
21
118.5006553
0
LINE
8
DEFAULT_255_2_778
10
58.0106181
20
118.5006553
11
58.0021181
21
118.4535553
0
LINE
8
DEFAULT_255_2_778
10
58.0021181
20
118.4535553
11
57.9976181
21
118.4228553
0
LINE
8
DEFAULT_255_2_778
10
57.9976181
20
118.4228553
11
57.9939181
21
118.3919553
0
LINE
8
DEFAULT_255_2_778
10
57.9939181
20
118.3919553
11
57.9910181
21
118.3609553
0
LINE
8
DEFAULT_255_2_778
10
57.9910181
20
118.3609553
11
57.9910181
21
118.1135553
0
LINE
8
DEFAULT_255_2_778
10
57.9910181
20
118.1135553
11
57.9939181
21
118.0828553
0
LINE
8
DEFAULT_255_2_778
10
57.9939181
20
118.0828553
11
57.9976181
21
118.0521553
0
LINE
8
DEFAULT_255_2_778
10
57.9976181
20
118.0521553
11
58.0061181
21
117.9982553
0
LINE
8
DEFAULT_255_2_778
10
58.0061181
20
117.9982553
11
58.0156181
21
117.9516553
0
LINE
8
DEFAULT_255_2_778
10
58.0156181
20
117.9516553
11
58.0341181
21
117.8831553
0
LINE
8
DEFAULT_255_2_778
10
58.0341181
20
117.8831553
11
58.0574181
21
117.8182553
0
LINE
8
DEFAULT_255_2_778
10
58.0574181
20
117.8182553
11
58.0945181
21
117.7412553
0
LINE
8
DEFAULT_255_2_778
10
58.0945181
20
117.7412553
11
58.1606181
21
117.6457553
0
LINE
8
DEFAULT_255_2_778
10
58.1606181
20
117.6457553
11
58.2495181
21
117.5629553
0
LINE
8
DEFAULT_255_2_778
10
58.2495181
20
117.5629553
11
58.3868181
21
117.4936553
0
LINE
8
DEFAULT_255_2_778
10
58.3868181
20
117.4936553
11
58.5686181
21
117.4640553
0
LINE
8
DEFAULT_255_2_778
10
58.5686181
20
117.4640553
11
58.7575181
21
117.4830553
0
LINE
8
DEFAULT_255_2_778
10
58.7575181
20
117.4830553
11
58.8853181
21
117.5322553
0
LINE
8
DEFAULT_255_2_778
10
58.8853181
20
117.5322553
11
58.9840181
21
117.6031553
0
LINE
8
DEFAULT_255_2_778
10
58.9840181
20
117.6031553
11
59.0443181
21
117.6762553
0
LINE
8
DEFAULT_255_2_778
10
59.0443181
20
117.6762553
11
59.0729181
21
117.7312553
0
LINE
8
DEFAULT_255_2_778
10
59.0729181
20
117.7312553
11
59.0888181
21
117.7762553
0
LINE
8
DEFAULT_255_2_778
10
59.0888181
20
117.7762553
11
59.0967181
21
117.8087553
0
LINE
8
DEFAULT_255_2_778
10
59.0967181
20
117.8087553
11
59.1020181
21
117.8415553
0
LINE
8
DEFAULT_255_2_778
10
59.1020181
20
117.8415553
11
59.1038181
21
117.8582553
0
LINE
8
DEFAULT_255_2_778
10
59.1038181
20
117.8582553
11
59.1054181
21
117.8913553
0
LINE
8
DEFAULT_255_2_778
10
59.1054181
20
117.8913553
11
58.9160181
21
117.8913553
0
LINE
8
DEFAULT_255_2_778
10
58.9160181
20
117.8913553
11
58.9128181
21
117.8682553
0
LINE
8
DEFAULT_255_2_778
10
58.9128181
20
117.8682553
11
58.9049181
21
117.8341553
0
LINE
8
DEFAULT_255_2_778
10
58.9049181
20
117.8341553
11
58.8842181
21
117.7825553
0
LINE
8
DEFAULT_255_2_778
10
58.8842181
20
117.7825553
11
58.8398181
21
117.7225553
0
LINE
8
DEFAULT_255_2_778
10
58.8398181
20
117.7225553
11
58.7469181
21
117.6619553
0
LINE
8
DEFAULT_255_2_778
10
58.7469181
20
117.6619553
11
58.5863181
21
117.6357553
0
LINE
8
DEFAULT_255_2_778
10
58.5863181
20
117.6357553
11
58.4387181
21
117.6672553
0
LINE
8
DEFAULT_255_2_778
10
58.4387181
20
117.6672553
11
58.3411181
21
117.7328553
0
LINE
8
DEFAULT_255_2_778
10
58.3411181
20
117.7328553
11
58.2725181
21
117.8209553
0
LINE
8
DEFAULT_255_2_778
10
58.2725181
20
117.8209553
11
58.2315181
21
117.9066553
0
LINE
8
DEFAULT_255_2_778
10
58.2315181
20
117.9066553
11
58.2098181
21
117.9725553
0
LINE
8
DEFAULT_255_2_778
10
58.2098181
20
117.9725553
11
58.1955181
21
118.0333553
0
LINE
8
DEFAULT_255_2_778
10
58.1955181
20
118.0333553
11
58.1884181
21
118.0746553
0
LINE
8
DEFAULT_255_2_778
10
58.1884181
20
118.0746553
11
58.1826181
21
118.1188553
0
LINE
8
DEFAULT_255_2_778
10
58.1826181
20
118.1188553
11
58.1828181
21
118.3958553
0
LINE
8
DEFAULT_255_2_778
10
58.1828181
20
118.3958553
11
58.1889181
21
118.4400553
0
LINE
8
DEFAULT_255_2_778
10
58.1889181
20
118.4400553
11
58.1992181
21
118.4921553
0
LINE
8
DEFAULT_255_2_778
10
58.1992181
20
118.4921553
11
58.2236181
21
118.5734553
0
LINE
8
DEFAULT_255_2_778
10
58.2236181
20
118.5734553
11
58.2656181
21
118.6620553
0
LINE
8
DEFAULT_255_2_778
10
58.2656181
20
118.6620553
11
58.3419181
21
118.7565553
0
LINE
8
DEFAULT_255_2_778
10
58.3419181
20
118.7565553
11
58.4720181
21
118.8308553
0
LINE
8
DEFAULT_255_2_778
10
58.4720181
20
118.8308553
11
58.6739181
21
118.8461553
0
LINE
8
DEFAULT_255_2_778
10
58.6739181
20
118.8461553
11
58.8062181
21
118.7993553
0
LINE
8
DEFAULT_255_2_778
10
58.8062181
20
118.7993553
11
58.8768181
21
118.7334553
0
LINE
8
DEFAULT_255_2_778
10
58.8768181
20
118.7334553
11
58.9049181
21
118.6752553
0
LINE
8
DEFAULT_255_2_778
10
58.9049181
20
118.6752553
11
58.9120181
21
118.6459553
0
LINE
8
DEFAULT_255_2_778
10
58.9120181
20
118.6459553
11
58.9149181
21
118.6260553
0
LINE
8
DEFAULT_255_2_778
10
58.9149181
20
118.6260553
11
58.9160181
21
118.5961553
0
LINE
8
DEFAULT_255_2_778
10
62.8218181
20
118.9938553
11
63.0218181
21
118.9938553
0
LINE
8
DEFAULT_255_2_778
10
63.0218181
20
118.9938553
11
62.4860181
21
117.4939553
0
LINE
8
DEFAULT_255_2_778
10
62.4860181
20
117.4939553
11
62.2794181
21
117.4939553
0
LINE
8
DEFAULT_255_2_778
10
62.2794181
20
117.4939553
11
61.7436181
21
118.9938553
0
LINE
8
DEFAULT_255_2_778
10
61.7436181
20
118.9938553
11
61.9436181
21
118.9938553
0
LINE
8
DEFAULT_255_2_778
10
61.9436181
20
118.9938553
11
62.3857181
21
117.6904553
0
LINE
8
DEFAULT_255_2_778
10
62.3857181
20
117.6904553
11
62.8220181
21
118.9938553
0
LINE
8
DEFAULT_255_2_778
10
64.1325181
20
118.5887553
11
63.9574181
21
118.5887553
0
LINE
8
DEFAULT_255_2_778
10
63.9574181
20
118.5887553
11
63.9595181
21
118.6429553
0
LINE
8
DEFAULT_255_2_778
10
63.9595181
20
118.6429553
11
63.9653181
21
118.6882553
0
LINE
8
DEFAULT_255_2_778
10
63.9653181
20
118.6882553
11
63.9862181
21
118.7662553
0
LINE
8
DEFAULT_255_2_778
10
63.9862181
20
118.7662553
11
64.0592181
21
118.8869553
0
LINE
8
DEFAULT_255_2_778
10
64.0592181
20
118.8869553
11
64.1357181
21
118.9515553
0
LINE
8
DEFAULT_255_2_778
10
64.1357181
20
118.9515553
11
64.2476181
21
119.0001553
0
LINE
8
DEFAULT_255_2_778
10
64.2476181
20
119.0001553
11
64.4196181
21
119.0155553
0
LINE
8
DEFAULT_255_2_778
10
64.4196181
20
119.0155553
11
64.5617181
21
118.9872553
0
LINE
8
DEFAULT_255_2_778
10
64.5617181
20
118.9872553
11
64.6641181
21
118.9311553
0
LINE
8
DEFAULT_255_2_778
10
64.6641181
20
118.9311553
11
64.7305181
21
118.8652553
0
LINE
8
DEFAULT_255_2_778
10
64.7305181
20
118.8652553
11
64.7636181
21
118.8125553
0
LINE
8
DEFAULT_255_2_778
10
64.7636181
20
118.8125553
11
64.7818181
21
118.7692553
0
LINE
8
DEFAULT_255_2_778
10
64.7818181
20
118.7692553
11
64.7950181
21
118.7223553
0
LINE
8
DEFAULT_255_2_778
10
64.7950181
20
118.7223553
11
64.8011181
21
118.6882553
0
LINE
8
DEFAULT_255_2_778
10
64.8011181
20
118.6882553
11
64.8006181
21
118.5556553
0
LINE
8
DEFAULT_255_2_778
10
64.8006181
20
118.5556553
11
64.7934181
21
118.5138553
0
LINE
8
DEFAULT_255_2_778
10
64.7934181
20
118.5138553
11
64.7834181
21
118.4723553
0
LINE
8
DEFAULT_255_2_778
10
64.7834181
20
118.4723553
11
64.7636181
21
118.4112553
0
LINE
8
DEFAULT_255_2_778
10
64.7636181
20
118.4112553
11
64.7297181
21
118.3326553
0
LINE
8
DEFAULT_255_2_778
10
64.7297181
20
118.3326553
11
64.6704181
21
118.2265553
0
LINE
8
DEFAULT_255_2_778
10
64.6704181
20
118.2265553
11
64.5818181
21
118.1037553
0
LINE
8
DEFAULT_255_2_778
10
64.5818181
20
118.1037553
11
64.4413181
21
117.9495553
0
LINE
8
DEFAULT_255_2_778
10
64.4413181
20
117.9495553
11
64.1225181
21
117.6579553
0
LINE
8
DEFAULT_255_2_778
10
64.1225181
20
117.6579553
11
64.8334181
21
117.6579553
0
LINE
8
DEFAULT_255_2_778
10
64.8334181
20
117.6579553
11
64.8334181
21
117.4941553
0
LINE
8
DEFAULT_255_2_778
10
64.8334181
20
117.4941553
11
63.9026181
21
117.4941553
0
LINE
8
DEFAULT_255_2_778
10
63.9026181
20
117.4941553
11
63.9026181
21
117.6738553
0
LINE
8
DEFAULT_255_2_778
10
63.9026181
20
117.6738553
11
64.1664181
21
117.9145553
0
LINE
8
DEFAULT_255_2_778
10
64.1664181
20
117.9145553
11
64.3849181
21
118.1506553
0
LINE
8
DEFAULT_255_2_778
10
64.3849181
20
118.1506553
11
64.5363181
21
118.3540553
0
LINE
8
DEFAULT_255_2_778
10
64.5363181
20
118.3540553
11
64.5889181
21
118.4509553
0
LINE
8
DEFAULT_255_2_778
10
64.5889181
20
118.4509553
11
64.6170181
21
118.5257553
0
LINE
8
DEFAULT_255_2_778
10
64.6170181
20
118.5257553
11
64.6265181
21
118.5678553
0
LINE
8
DEFAULT_255_2_778
10
64.6265181
20
118.5678553
11
64.6244181
21
118.6758553
0
LINE
8
DEFAULT_255_2_778
10
64.6244181
20
118.6758553
11
64.6053181
21
118.7321553
0
LINE
8
DEFAULT_255_2_778
10
64.6053181
20
118.7321553
11
64.5344181
21
118.8128553
0
LINE
8
DEFAULT_255_2_778
10
64.5344181
20
118.8128553
11
64.3556181
21
118.8538553
0
LINE
8
DEFAULT_255_2_778
10
64.3556181
20
118.8538553
11
64.2119181
21
118.7938553
0
LINE
8
DEFAULT_255_2_778
10
64.2119181
20
118.7938553
11
64.1598181
21
118.7229553
0
LINE
8
DEFAULT_255_2_778
10
64.1598181
20
118.7229553
11
64.1407181
21
118.6657553
0
LINE
8
DEFAULT_255_2_778
10
64.1407181
20
118.6657553
11
64.1360181
21
118.6371553
0
LINE
8
DEFAULT_255_2_778
10
64.1360181
20
118.6371553
11
64.1336181
21
118.6083553
0
LINE
8
DEFAULT_255_2_778
10
64.1336181
20
118.6083553
11
64.1333181
21
118.5892553
0
LINE
8
DEFAULT_255_2_778
10
59.4407181
20
118.5887553
11
59.6158181
21
118.5887553
0
LINE
8
DEFAULT_255_2_778
10
59.6158181
20
118.5887553
11
59.6177181
21
118.6271553
0
LINE
8
DEFAULT_255_2_778
10
59.6177181
20
118.6271553
11
59.6216181
21
118.6556553
0
LINE
8
DEFAULT_255_2_778
10
59.6216181
20
118.6556553
11
59.6357181
21
118.7064553
0
LINE
8
DEFAULT_255_2_778
10
59.6357181
20
118.7064553
11
59.6894181
21
118.7885553
0
LINE
8
DEFAULT_255_2_778
10
59.6894181
20
118.7885553
11
59.8034181
21
118.8485553
0
LINE
8
DEFAULT_255_2_778
10
59.8034181
20
118.8485553
11
59.9979181
21
118.8242553
0
LINE
8
DEFAULT_255_2_778
10
59.9979181
20
118.8242553
11
60.0810181
21
118.7448553
0
LINE
8
DEFAULT_255_2_778
10
60.0810181
20
118.7448553
11
60.1053181
21
118.6834553
0
LINE
8
DEFAULT_255_2_778
10
60.1053181
20
118.6834553
11
60.1114181
21
118.6511553
0
LINE
8
DEFAULT_255_2_778
10
60.1114181
20
118.6511553
11
60.1093181
21
118.5675553
0
LINE
8
DEFAULT_255_2_778
10
60.1093181
20
118.5675553
11
60.0997181
21
118.5255553
0
LINE
8
DEFAULT_255_2_778
10
60.0997181
20
118.5255553
11
60.0807181
21
118.4710553
0
LINE
8
DEFAULT_255_2_778
10
60.0807181
20
118.4710553
11
60.0418181
21
118.3916553
0
LINE
8
DEFAULT_255_2_778
10
60.0418181
20
118.3916553
11
59.9825181
21
118.2987553
0
LINE
8
DEFAULT_255_2_778
10
59.9825181
20
118.2987553
11
59.8436181
21
118.1217553
0
LINE
8
DEFAULT_255_2_778
10
59.8436181
20
118.1217553
11
59.6494181
21
117.9143553
0
LINE
8
DEFAULT_255_2_778
10
59.6494181
20
117.9143553
11
59.3856181
21
117.6735553
0
LINE
8
DEFAULT_255_2_778
10
59.3856181
20
117.6735553
11
59.3856181
21
117.4939553
0
LINE
8
DEFAULT_255_2_778
10
59.3856181
20
117.4939553
11
60.3164181
21
117.4939553
0
LINE
8
DEFAULT_255_2_778
10
60.3164181
20
117.4939553
11
60.3164181
21
117.6576553
0
LINE
8
DEFAULT_255_2_778
10
60.3164181
20
117.6576553
11
59.6055181
21
117.6576553
0
LINE
8
DEFAULT_255_2_778
10
59.6055181
20
117.6576553
11
59.9243181
21
117.9492553
0
LINE
8
DEFAULT_255_2_778
10
59.9243181
20
117.9492553
11
60.0648181
21
118.1035553
0
LINE
8
DEFAULT_255_2_778
10
60.0648181
20
118.1035553
11
60.1534181
21
118.2262553
0
LINE
8
DEFAULT_255_2_778
10
60.1534181
20
118.2262553
11
60.1990181
21
118.3051553
0
LINE
8
DEFAULT_255_2_778
10
60.1990181
20
118.3051553
11
60.2389181
21
118.3911553
0
LINE
8
DEFAULT_255_2_778
10
60.2389181
20
118.3911553
11
60.2606181
21
118.4517553
0
LINE
8
DEFAULT_255_2_778
10
60.2606181
20
118.4517553
11
60.2720181
21
118.4929553
0
LINE
8
DEFAULT_255_2_778
10
60.2720181
20
118.4929553
11
60.2807181
21
118.5345553
0
LINE
8
DEFAULT_255_2_778
10
60.2807181
20
118.5345553
11
60.2786181
21
118.7223553
0
LINE
8
DEFAULT_255_2_778
10
60.2786181
20
118.7223553
11
60.2654181
21
118.7692553
0
LINE
8
DEFAULT_255_2_778
10
60.2654181
20
118.7692553
11
60.2397181
21
118.8263553
0
LINE
8
DEFAULT_255_2_778
10
60.2397181
20
118.8263553
11
60.1942181
21
118.8887553
0
LINE
8
DEFAULT_255_2_778
10
60.1942181
20
118.8887553
11
60.1206181
21
118.9499553
0
LINE
8
DEFAULT_255_2_778
10
60.1206181
20
118.9499553
11
59.9955181
21
119.0020553
0
LINE
8
DEFAULT_255_2_778
10
59.9955181
20
119.0020553
11
59.8259181
21
119.0150553
0
LINE
8
DEFAULT_255_2_778
10
59.8259181
20
119.0150553
11
59.6970181
21
118.9893553
0
LINE
8
DEFAULT_255_2_778
10
59.6970181
20
118.9893553
11
59.5920181
21
118.9321553
0
LINE
8
DEFAULT_255_2_778
10
59.5920181
20
118.9321553
11
59.4883181
21
118.8080553
0
LINE
8
DEFAULT_255_2_778
10
59.4883181
20
118.8080553
11
59.4547181
21
118.7152553
0
LINE
8
DEFAULT_255_2_778
10
59.4547181
20
118.7152553
11
59.4452181
21
118.6612553
0
LINE
8
DEFAULT_255_2_778
10
59.4452181
20
118.6612553
11
59.4420181
21
118.6250553
0
LINE
8
DEFAULT_255_2_778
10
59.4420181
20
118.6250553
11
59.4412181
21
118.5890553
0
LINE
8
DEFAULT_255_2_778
10
69.5210181
20
118.9938553
11
69.8205181
21
118.9938553
0
LINE
8
DEFAULT_255_2_778
10
69.8205181
20
118.9938553
11
69.8205181
21
117.4939553
0
LINE
8
DEFAULT_255_2_778
10
69.8205181
20
117.4939553
11
69.6358181
21
117.4939553
0
LINE
8
DEFAULT_255_2_778
10
69.6358181
20
117.4939553
11
69.6358181
21
118.8387553
0
LINE
8
DEFAULT_255_2_778
10
69.6358181
20
118.8387553
11
69.2025181
21
117.4939553
0
LINE
8
DEFAULT_255_2_778
10
69.2025181
20
117.4939553
11
69.0167181
21
117.4939553
0
LINE
8
DEFAULT_255_2_778
10
69.0167181
20
117.4939553
11
68.5717181
21
118.8366553
0
LINE
8
DEFAULT_255_2_778
10
68.5717181
20
118.8366553
11
68.5717181
21
117.4939553
0
LINE
8
DEFAULT_255_2_778
10
68.5717181
20
117.4939553
11
68.3870181
21
117.4939553
0
LINE
8
DEFAULT_255_2_778
10
68.3870181
20
117.4939553
11
68.3870181
21
118.9938553
0
LINE
8
DEFAULT_255_2_778
10
68.3870181
20
118.9938553
11
68.6865181
21
118.9938553
0
LINE
8
DEFAULT_255_2_778
10
68.6865181
20
118.9938553
11
69.1104181
21
117.7383553
0
LINE
8
DEFAULT_255_2_778
10
69.1104181
20
117.7383553
11
69.5208181
21
118.9938553
0
LINE
8
DEFAULT_255_2_778
10
50.766499
20
118.9937937
11
51.346199
21
118.9831937
0
LINE
8
DEFAULT_255_2_778
10
51.346199
20
118.9831937
11
51.493799
21
118.9453937
0
LINE
8
DEFAULT_255_2_778
10
51.493799
20
118.9453937
11
51.603599
21
118.8871937
0
LINE
8
DEFAULT_255_2_778
10
51.603599
20
118.8871937
11
51.690399
21
118.8109937
0
LINE
8
DEFAULT_255_2_778
10
51.690399
20
118.8109937
11
51.761099
21
118.7183937
0
LINE
8
DEFAULT_255_2_778
10
51.761099
20
118.7183937
11
51.797799
21
118.6505937
0
LINE
8
DEFAULT_255_2_778
10
51.797799
20
118.6505937
11
51.826399
21
118.5791937
0
LINE
8
DEFAULT_255_2_778
10
51.826399
20
118.5791937
11
51.840999
21
118.5302937
0
LINE
8
DEFAULT_255_2_778
10
51.840999
20
118.5302937
11
51.852299
21
118.4801937
0
LINE
8
DEFAULT_255_2_778
10
51.852299
20
118.4801937
11
51.860799
21
118.4293937
0
LINE
8
DEFAULT_255_2_778
10
51.860799
20
118.4293937
11
51.866899
21
118.3780937
0
LINE
8
DEFAULT_255_2_778
10
51.866899
20
118.3780937
11
51.866099
21
118.0653937
0
LINE
8
DEFAULT_255_2_778
10
51.866099
20
118.0653937
11
51.859499
21
118.0139937
0
LINE
8
DEFAULT_255_2_778
10
51.859499
20
118.0139937
11
51.850199
21
117.9634937
0
LINE
8
DEFAULT_255_2_778
10
51.850199
20
117.9634937
11
51.837799
21
117.9137937
0
LINE
8
DEFAULT_255_2_778
10
51.837799
20
117.9137937
11
51.821899
21
117.8650937
0
LINE
8
DEFAULT_255_2_778
10
51.821899
20
117.8650937
11
51.793599
21
117.8002937
0
LINE
8
DEFAULT_255_2_778
10
51.793599
20
117.8002937
11
51.742799
21
117.7176937
0
LINE
8
DEFAULT_255_2_778
10
51.742799
20
117.7176937
11
51.664999
21
117.6314937
0
LINE
8
DEFAULT_255_2_778
10
51.664999
20
117.6314937
11
51.587799
21
117.5745937
0
LINE
8
DEFAULT_255_2_778
10
51.587799
20
117.5745937
11
51.468399
21
117.5237937
0
LINE
8
DEFAULT_255_2_778
10
51.468399
20
117.5237937
11
51.230599
21
117.4935937
0
LINE
8
DEFAULT_255_2_778
10
51.230599
20
117.4935937
11
50.766499
21
117.4935937
0
LINE
8
DEFAULT_255_2_778
10
50.766499
20
117.4935937
11
50.766499
21
118.9937937
0
LINE
8
DEFAULT_255_2_778
10
51.231399
20
117.6639937
11
51.410999
21
117.6901937
0
LINE
8
DEFAULT_255_2_778
10
51.410999
20
117.6901937
11
51.514499
21
117.7430937
0
LINE
8
DEFAULT_255_2_778
10
51.514499
20
117.7430937
11
51.583799
21
117.8121937
0
LINE
8
DEFAULT_255_2_778
10
51.583799
20
117.8121937
11
51.622699
21
117.8764937
0
LINE
8
DEFAULT_255_2_778
10
51.622699
20
117.8764937
11
51.645699
21
117.9333937
0
LINE
8
DEFAULT_255_2_778
10
51.645699
20
117.9333937
11
51.662899
21
117.9936937
0
LINE
8
DEFAULT_255_2_778
10
51.662899
20
117.9936937
11
51.671399
21
118.0346937
0
LINE
8
DEFAULT_255_2_778
10
51.671399
20
118.0346937
11
51.677999
21
118.0759937
0
LINE
8
DEFAULT_255_2_778
10
51.677999
20
118.0759937
11
51.681399
21
118.1050937
0
LINE
8
DEFAULT_255_2_778
10
51.681399
20
118.1050937
11
51.680899
21
118.3936937
0
LINE
8
DEFAULT_255_2_778
10
51.680899
20
118.3936937
11
51.674799
21
118.4338937
0
LINE
8
DEFAULT_255_2_778
10
51.674799
20
118.4338937
11
51.666299
21
118.4735937
0
LINE
8
DEFAULT_255_2_778
10
51.666299
20
118.4735937
11
51.648899
21
118.5317937
0
LINE
8
DEFAULT_255_2_778
10
51.648899
20
118.5317937
11
51.612899
21
118.6095937
0
LINE
8
DEFAULT_255_2_778
10
51.612899
20
118.6095937
11
51.549899
21
118.6945937
0
LINE
8
DEFAULT_255_2_778
10
51.549899
20
118.6945937
11
51.468699
21
118.7603937
0
LINE
8
DEFAULT_255_2_778
10
51.468699
20
118.7603937
11
51.320499
21
118.8135937
0
LINE
8
DEFAULT_255_2_778
10
51.320499
20
118.8135937
11
51.193799
21
118.8241937
0
LINE
8
DEFAULT_255_2_778
10
51.193799
20
118.8241937
11
50.950899
21
118.8241937
0
LINE
8
DEFAULT_255_2_778
10
50.950899
20
118.8241937
11
50.950899
21
117.6642937
0
LINE
8
DEFAULT_255_2_778
10
50.950899
20
117.6642937
11
51.231399
21
117.6639937
0
LINE
8
DEFAULT_255_2_778
10
52.2659625
20
118.7935271
11
52.2188625
21
118.7133271
0
LINE
8
DEFAULT_255_2_778
10
52.2188625
20
118.7133271
11
52.1908625
21
118.6496271
0
LINE
8
DEFAULT_255_2_778
10
52.1908625
20
118.6496271
11
52.1730625
21
118.5985271
0
LINE
8
DEFAULT_255_2_778
10
52.1730625
20
118.5985271
11
52.1588625
21
118.5464271
0
LINE
8
DEFAULT_255_2_778
10
52.1588625
20
118.5464271
11
52.1474625
21
118.4935271
0
LINE
8
DEFAULT_255_2_778
10
52.1474625
20
118.4935271
11
52.1384625
21
118.4363271
0
LINE
8
DEFAULT_255_2_778
10
52.1384625
20
118.4363271
11
52.1347625
21
118.4059271
0
LINE
8
DEFAULT_255_2_778
10
52.1347625
20
118.4059271
11
52.1318625
21
118.3752271
0
LINE
8
DEFAULT_255_2_778
10
52.1318625
20
118.3752271
11
52.1315625
21
118.1276271
0
LINE
8
DEFAULT_255_2_778
10
52.1315625
20
118.1276271
11
52.1344625
21
118.0963271
0
LINE
8
DEFAULT_255_2_778
10
52.1344625
20
118.0963271
11
52.1381625
21
118.0654271
0
LINE
8
DEFAULT_255_2_778
10
52.1381625
20
118.0654271
11
52.1471625
21
118.0074271
0
LINE
8
DEFAULT_255_2_778
10
52.1471625
20
118.0074271
11
52.1582625
21
117.9537271
0
LINE
8
DEFAULT_255_2_778
10
52.1582625
20
117.9537271
11
52.1722625
21
117.9005271
0
LINE
8
DEFAULT_255_2_778
10
52.1722625
20
117.9005271
11
52.1984625
21
117.8254271
0
LINE
8
DEFAULT_255_2_778
10
52.1984625
20
117.8254271
11
52.2294625
21
117.7579271
0
LINE
8
DEFAULT_255_2_778
10
52.2294625
20
117.7579271
11
52.2789625
21
117.6783271
0
LINE
8
DEFAULT_255_2_778
10
52.2789625
20
117.6783271
11
52.3437625
21
117.6042271
0
LINE
8
DEFAULT_255_2_778
10
52.3437625
20
117.6042271
11
52.4374625
21
117.5346271
0
LINE
8
DEFAULT_255_2_778
10
52.4374625
20
117.5346271
11
52.5641625
21
117.4836271
0
LINE
8
DEFAULT_255_2_778
10
52.5641625
20
117.4836271
11
52.7530625
21
117.4640271
0
LINE
8
DEFAULT_255_2_778
10
52.7530625
20
117.4640271
11
52.9194625
21
117.4894271
0
LINE
8
DEFAULT_255_2_778
10
52.9194625
20
117.4894271
11
53.0422625
21
117.5449271
0
LINE
8
DEFAULT_255_2_778
10
53.0422625
20
117.5449271
11
53.1332625
21
117.6188271
0
LINE
8
DEFAULT_255_2_778
10
53.1332625
20
117.6188271
11
53.1957625
21
117.6955271
0
LINE
8
DEFAULT_255_2_778
10
53.1957625
20
117.6955271
11
53.2340625
21
117.7590271
0
LINE
8
DEFAULT_255_2_778
10
53.2340625
20
117.7590271
11
53.2652625
21
117.8262271
0
LINE
8
DEFAULT_255_2_778
10
53.2652625
20
117.8262271
11
53.2917625
21
117.9011271
0
LINE
8
DEFAULT_255_2_778
10
53.2917625
20
117.9011271
11
53.3057625
21
117.9540271
0
LINE
8
DEFAULT_255_2_778
10
53.3057625
20
117.9540271
11
53.3168625
21
118.0077271
0
LINE
8
DEFAULT_255_2_778
10
53.3168625
20
118.0077271
11
53.3258625
21
118.0656271
0
LINE
8
DEFAULT_255_2_778
10
53.3258625
20
118.0656271
11
53.3295625
21
118.0966271
0
LINE
8
DEFAULT_255_2_778
10
53.3295625
20
118.0966271
11
53.3324625
21
118.1276271
0
LINE
8
DEFAULT_255_2_778
10
53.3324625
20
118.1276271
11
53.3324625
21
118.3747271
0
LINE
8
DEFAULT_255_2_778
10
53.3324625
20
118.3747271
11
53.3295625
21
118.4051271
0
LINE
8
DEFAULT_255_2_778
10
53.3295625
20
118.4051271
11
53.3258625
21
118.4355271
0
LINE
8
DEFAULT_255_2_778
10
53.3258625
20
118.4355271
11
53.3166625
21
118.4924271
0
LINE
8
DEFAULT_255_2_778
10
53.3166625
20
118.4924271
11
53.3052625
21
118.5451271
0
LINE
8
DEFAULT_255_2_778
10
53.3052625
20
118.5451271
11
53.2906625
21
118.5969271
0
LINE
8
DEFAULT_255_2_778
10
53.2906625
20
118.5969271
11
53.2637625
21
118.6705271
0
LINE
8
DEFAULT_255_2_778
10
53.2637625
20
118.6705271
11
53.2314625
21
118.7366271
0
LINE
8
DEFAULT_255_2_778
10
53.2314625
20
118.7366271
11
53.1684625
21
118.8298271
0
LINE
8
DEFAULT_255_2_778
10
53.1684625
20
118.8298271
11
53.0859625
21
118.9118271
0
LINE
8
DEFAULT_255_2_778
10
53.0859625
20
118.9118271
11
52.9708625
21
118.9790271
0
LINE
8
DEFAULT_255_2_778
10
52.9708625
20
118.9790271
11
52.8485625
21
119.0139271
0
LINE
8
DEFAULT_255_2_778
10
52.8485625
20
119.0139271
11
52.6612625
21
119.0200271
0
LINE
8
DEFAULT_255_2_778
10
52.6612625
20
119.0200271
11
52.5096625
21
118.9864271
0
LINE
8
DEFAULT_255_2_778
10
52.5096625
20
118.9864271
11
52.3921625
21
118.9240271
0
LINE
8
DEFAULT_255_2_778
10
52.3921625
20
118.9240271
11
52.3067625
21
118.8456271
0
LINE
8
DEFAULT_255_2_778
10
52.3067625
20
118.8456271
11
52.2659625
21
118.7935271
0
LINE
8
DEFAULT_255_2_778
10
52.4006625
20
117.8273271
11
52.3694625
21
117.8934271
0
LINE
8
DEFAULT_255_2_778
10
52.3694625
20
117.8934271
11
52.3514625
21
117.9453271
0
LINE
8
DEFAULT_255_2_778
10
52.3514625
20
117.9453271
11
52.3389625
21
117.9916271
0
LINE
8
DEFAULT_255_2_778
10
52.3389625
20
117.9916271
11
52.3291625
21
118.0387271
0
LINE
8
DEFAULT_255_2_778
10
52.3291625
20
118.0387271
11
52.3217625
21
118.0863271
0
LINE
8
DEFAULT_255_2_778
10
52.3217625
20
118.0863271
11
52.3186625
21
118.1135271
0
LINE
8
DEFAULT_255_2_778
10
52.3186625
20
118.1135271
11
52.3188625
21
118.3853271
0
LINE
8
DEFAULT_255_2_778
10
52.3188625
20
118.3853271
11
52.3254625
21
118.4355271
0
LINE
8
DEFAULT_255_2_778
10
52.3254625
20
118.4355271
11
52.3342625
21
118.4821271
0
LINE
8
DEFAULT_255_2_778
10
52.3342625
20
118.4821271
11
52.3455625
21
118.5281271
0
LINE
8
DEFAULT_255_2_778
10
52.3455625
20
118.5281271
11
52.3709625
21
118.6017271
0
LINE
8
DEFAULT_255_2_778
10
52.3709625
20
118.6017271
11
52.4106625
21
118.6792271
0
LINE
8
DEFAULT_255_2_778
10
52.4106625
20
118.6792271
11
52.4657625
21
118.7499271
0
LINE
8
DEFAULT_255_2_778
10
52.4657625
20
118.7499271
11
52.5583625
21
118.8165271
0
LINE
8
DEFAULT_255_2_778
10
52.5583625
20
118.8165271
11
52.7017625
21
118.8525271
0
LINE
8
DEFAULT_255_2_778
10
52.7017625
20
118.8525271
11
52.8530625
21
118.8372271
0
LINE
8
DEFAULT_255_2_778
10
52.8530625
20
118.8372271
11
52.9554625
21
118.7874271
0
LINE
8
DEFAULT_255_2_778
10
52.9554625
20
118.7874271
11
53.0290625
21
118.7160271
0
LINE
8
DEFAULT_255_2_778
10
53.0290625
20
118.7160271
11
53.0734625
21
118.6461271
0
LINE
8
DEFAULT_255_2_778
10
53.0734625
20
118.6461271
11
53.1073625
21
118.5670271
0
LINE
8
DEFAULT_255_2_778
10
53.1073625
20
118.5670271
11
53.1255625
21
118.5051271
0
LINE
8
DEFAULT_255_2_778
10
53.1255625
20
118.5051271
11
53.1356625
21
118.4588271
0
LINE
8
DEFAULT_255_2_778
10
53.1356625
20
118.4588271
11
53.1430625
21
118.4120271
0
LINE
8
DEFAULT_255_2_778
10
53.1430625
20
118.4120271
11
53.1462625
21
118.3853271
0
LINE
8
DEFAULT_255_2_778
10
53.1462625
20
118.3853271
11
53.1462625
21
118.1133271
0
LINE
8
DEFAULT_255_2_778
10
53.1462625
20
118.1133271
11
53.1396625
21
118.0622271
0
LINE
8
DEFAULT_255_2_778
10
53.1396625
20
118.0622271
11
53.1311625
21
118.0148271
0
LINE
8
DEFAULT_255_2_778
10
53.1311625
20
118.0148271
11
53.1200625
21
117.9680271
0
LINE
8
DEFAULT_255_2_778
10
53.1200625
20
117.9680271
11
53.0951625
21
117.8934271
0
LINE
8
DEFAULT_255_2_778
10
53.0951625
20
117.8934271
11
53.0562625
21
117.8143271
0
LINE
8
DEFAULT_255_2_778
10
53.0562625
20
117.8143271
11
53.0009625
21
117.7413271
0
LINE
8
DEFAULT_255_2_778
10
53.0009625
20
117.7413271
11
52.9205625
21
117.6791271
0
LINE
8
DEFAULT_255_2_778
10
52.9205625
20
117.6791271
11
52.7935625
21
117.6381271
0
LINE
8
DEFAULT_255_2_778
10
52.7935625
20
117.6381271
11
52.6400625
21
117.6434271
0
LINE
8
DEFAULT_255_2_778
10
52.6400625
20
117.6434271
11
52.5313625
21
117.6865271
0
LINE
8
DEFAULT_255_2_778
10
52.5313625
20
117.6865271
11
52.4532625
21
117.7526271
0
LINE
8
DEFAULT_255_2_778
10
52.4532625
20
117.7526271
11
52.4006625
21
117.8273271
0
LINE
8
DEFAULT_255_2_778
10
54.5403625
20
118.2784271
11
54.4061625
21
118.2032271
0
LINE
8
DEFAULT_255_2_778
10
54.4061625
20
118.2032271
11
54.3297625
21
118.1204271
0
LINE
8
DEFAULT_255_2_778
10
54.3297625
20
118.1204271
11
54.2958625
21
118.0593271
0
LINE
8
DEFAULT_255_2_778
10
54.2958625
20
118.0593271
11
54.2775625
21
118.0069271
0
LINE
8
DEFAULT_255_2_778
10
54.2775625
20
118.0069271
11
54.2683625
21
117.9635271
0
LINE
8
DEFAULT_255_2_778
10
54.2683625
20
117.9635271
11
54.2699625
21
117.8027271
0
LINE
8
DEFAULT_255_2_778
10
54.2699625
20
117.8027271
11
54.2797625
21
117.7601271
0
LINE
8
DEFAULT_255_2_778
10
54.2797625
20
117.7601271
11
54.3035625
21
117.6976271
0
LINE
8
DEFAULT_255_2_778
10
54.3035625
20
117.6976271
11
54.3463625
21
117.6296271
0
LINE
8
DEFAULT_255_2_778
10
54.3463625
20
117.6296271
11
54.4270625
21
117.5537271
0
LINE
8
DEFAULT_255_2_778
10
54.4270625
20
117.5537271
11
54.5561625
21
117.4883271
0
LINE
8
DEFAULT_255_2_778
10
54.5561625
20
117.4883271
11
54.7623625
21
117.4605271
0
LINE
8
DEFAULT_255_2_778
10
54.7623625
20
117.4605271
11
54.9464625
21
117.4926271
0
LINE
8
DEFAULT_255_2_778
10
54.9464625
20
117.4926271
11
55.0935625
21
117.5778271
0
LINE
8
DEFAULT_255_2_778
10
55.0935625
20
117.5778271
11
55.1657625
21
117.6606271
0
LINE
8
DEFAULT_255_2_778
10
55.1657625
20
117.6606271
11
55.1983625
21
117.7254271
0
LINE
8
DEFAULT_255_2_778
10
55.1983625
20
117.7254271
11
55.2131625
21
117.7725271
0
LINE
8
DEFAULT_255_2_778
10
55.2131625
20
117.7725271
11
55.2208625
21
117.8111271
0
LINE
8
DEFAULT_255_2_778
10
55.2208625
20
117.8111271
11
55.2200625
21
117.9685271
0
LINE
8
DEFAULT_255_2_778
10
55.2200625
20
117.9685271
11
55.2086625
21
118.0178271
0
LINE
8
DEFAULT_255_2_778
10
55.2086625
20
118.0178271
11
55.1787625
21
118.0892271
0
LINE
8
DEFAULT_255_2_778
10
55.1787625
20
118.0892271
11
55.1120625
21
118.1765271
0
LINE
8
DEFAULT_255_2_778
10
55.1120625
20
118.1765271
11
55.0001625
21
118.2559271
0
LINE
8
DEFAULT_255_2_778
10
55.0001625
20
118.2559271
11
54.9483625
21
118.2776271
0
LINE
8
DEFAULT_255_2_778
10
54.9483625
20
118.2776271
11
55.0567625
21
118.3398271
0
LINE
8
DEFAULT_255_2_778
10
55.0567625
20
118.3398271
11
55.1300625
21
118.4186271
0
LINE
8
DEFAULT_255_2_778
10
55.1300625
20
118.4186271
11
55.1663625
21
118.4874271
0
LINE
8
DEFAULT_255_2_778
10
55.1663625
20
118.4874271
11
55.1816625
21
118.5377271
0
LINE
8
DEFAULT_255_2_778
10
55.1816625
20
118.5377271
11
55.1869625
21
118.5649271
0
LINE
8
DEFAULT_255_2_778
10
55.1869625
20
118.5649271
11
55.1853625
21
118.7123271
0
LINE
8
DEFAULT_255_2_778
10
55.1853625
20
118.7123271
11
55.1761625
21
118.7507271
0
LINE
8
DEFAULT_255_2_778
10
55.1761625
20
118.7507271
11
55.1533625
21
118.8070271
0
LINE
8
DEFAULT_255_2_778
10
55.1533625
20
118.8070271
11
55.1041625
21
118.8774271
0
LINE
8
DEFAULT_255_2_778
10
55.1041625
20
118.8774271
11
54.9985625
21
118.9581271
0
LINE
8
DEFAULT_255_2_778
10
54.9985625
20
118.9581271
11
54.8419625
21
119.0094271
0
LINE
8
DEFAULT_255_2_778
10
54.8419625
20
119.0094271
11
54.6159625
21
119.0036271
0
LINE
8
DEFAULT_255_2_778
10
54.6159625
20
119.0036271
11
54.4514625
21
118.9345271
0
LINE
8
DEFAULT_255_2_778
10
54.4514625
20
118.9345271
11
54.3551625
21
118.8401271
0
LINE
8
DEFAULT_255_2_778
10
54.3551625
20
118.8401271
11
54.3188625
21
118.7692271
0
LINE
8
DEFAULT_255_2_778
10
54.3188625
20
118.7692271
11
54.3064625
21
118.7274271
0
LINE
8
DEFAULT_255_2_778
10
54.3064625
20
118.7274271
11
54.3000625
21
118.6924271
0
LINE
8
DEFAULT_255_2_778
10
54.3000625
20
118.6924271
11
54.3021625
21
118.5604271
0
LINE
8
DEFAULT_255_2_778
10
54.3021625
20
118.5604271
11
54.3127625
21
118.5146271
0
LINE
8
DEFAULT_255_2_778
10
54.3127625
20
118.5146271
11
54.3405625
21
118.4480271
0
LINE
8
DEFAULT_255_2_778
10
54.3405625
20
118.4480271
11
54.4196625
21
118.3506271
0
LINE
8
DEFAULT_255_2_778
10
54.4196625
20
118.3506271
11
54.5403625
21
118.2784271
0
LINE
8
DEFAULT_255_2_778
10
54.9554625
20
118.1252271
11
55.0165625
21
118.0543271
0
LINE
8
DEFAULT_255_2_778
10
55.0165625
20
118.0543271
11
55.0387625
21
117.9984271
0
LINE
8
DEFAULT_255_2_778
10
55.0387625
20
117.9984271
11
55.0454625
21
117.9670271
0
LINE
8
DEFAULT_255_2_778
10
55.0454625
20
117.9670271
11
55.0435625
21
117.8484271
0
LINE
8
DEFAULT_255_2_778
10
55.0435625
20
117.8484271
11
55.0311625
21
117.8021271
0
LINE
8
DEFAULT_255_2_778
10
55.0311625
20
117.8021271
11
54.9930625
21
117.7344271
0
LINE
8
DEFAULT_255_2_778
10
54.9930625
20
117.7344271
11
54.8964625
21
117.6600271
0
LINE
8
DEFAULT_255_2_778
10
54.8964625
20
117.6600271
11
54.7091625
21
117.6312271
0
LINE
8
DEFAULT_255_2_778
10
54.7091625
20
117.6312271
11
54.5575625
21
117.6791271
0
LINE
8
DEFAULT_255_2_778
10
54.5575625
20
117.6791271
11
54.4807625
21
117.7556271
0
LINE
8
DEFAULT_255_2_778
10
54.4807625
20
117.7556271
11
54.4524625
21
117.8191271
0
LINE
8
DEFAULT_255_2_778
10
54.4524625
20
117.8191271
11
54.4437625
21
117.8595271
0
LINE
8
DEFAULT_255_2_778
10
54.4437625
20
117.8595271
11
54.4455625
21
117.9775271
0
LINE
8
DEFAULT_255_2_778
10
54.4455625
20
117.9775271
11
54.4582625
21
118.0228271
0
LINE
8
DEFAULT_255_2_778
10
54.4582625
20
118.0228271
11
54.4969625
21
118.0895271
0
LINE
8
DEFAULT_255_2_778
10
54.4969625
20
118.0895271
11
54.5937625
21
118.1620271
0
LINE
8
DEFAULT_255_2_778
10
54.5937625
20
118.1620271
11
54.7906625
21
118.1889271
0
LINE
8
DEFAULT_255_2_778
10
54.7906625
20
118.1889271
11
54.9393625
21
118.1374271
0
LINE
8
DEFAULT_255_2_778
10
54.9393625
20
118.1374271
11
54.9554625
21
118.1252271
0
LINE
8
DEFAULT_255_2_778
10
54.5564625
20
118.4186271
11
54.4987625
21
118.4879271
0
LINE
8
DEFAULT_255_2_778
10
54.4987625
20
118.4879271
11
54.4823625
21
118.5305271
0
LINE
8
DEFAULT_255_2_778
10
54.4823625
20
118.5305271
11
54.4765625
21
118.5583271
0
LINE
8
DEFAULT_255_2_778
10
54.4765625
20
118.5583271
11
54.4781625
21
118.6618271
0
LINE
8
DEFAULT_255_2_778
10
54.4781625
20
118.6618271
11
54.4924625
21
118.7086271
0
LINE
8
DEFAULT_255_2_778
10
54.4924625
20
118.7086271
11
54.5456625
21
118.7811271
0
LINE
8
DEFAULT_255_2_778
10
54.5456625
20
118.7811271
11
54.6726625
21
118.8398271
0
LINE
8
DEFAULT_255_2_778
10
54.6726625
20
118.8398271
11
54.8689625
21
118.8250271
0
LINE
8
DEFAULT_255_2_778
10
54.8689625
20
118.8250271
11
54.9731625
21
118.7480271
0
LINE
8
DEFAULT_255_2_778
10
54.9731625
20
118.7480271
11
55.0033625
21
118.6877271
0
LINE
8
DEFAULT_255_2_778
10
55.0033625
20
118.6877271
11
55.0112625
21
118.6528271
0
LINE
8
DEFAULT_255_2_778
10
55.0112625
20
118.6528271
11
55.0096625
21
118.5493271
0
LINE
8
DEFAULT_255_2_778
10
55.0096625
20
118.5493271
11
54.9956625
21
118.5019271
0
LINE
8
DEFAULT_255_2_778
10
54.9956625
20
118.5019271
11
54.9430625
21
118.4287271
0
LINE
8
DEFAULT_255_2_778
10
54.9430625
20
118.4287271
11
54.8157625
21
118.3678271
0
LINE
8
DEFAULT_255_2_778
10
54.8157625
20
118.3678271
11
54.6181625
21
118.3834271
0
LINE
8
DEFAULT_255_2_778
10
54.6181625
20
118.3834271
11
54.5564625
21
118.4186271
0
LINE
8
DEFAULT_255_2_778
10
56.620199
20
118.9937937
11
57.199899
21
118.9831937
0
LINE
8
DEFAULT_255_2_778
10
57.199899
20
118.9831937
11
57.347499
21
118.9453937
0
LINE
8
DEFAULT_255_2_778
10
57.347499
20
118.9453937
11
57.457299
21
118.8871937
0
LINE
8
DEFAULT_255_2_778
10
57.457299
20
118.8871937
11
57.544099
21
118.8109937
0
LINE
8
DEFAULT_255_2_778
10
57.544099
20
118.8109937
11
57.614799
21
118.7183937
0
LINE
8
DEFAULT_255_2_778
10
57.614799
20
118.7183937
11
57.651499
21
118.6505937
0
LINE
8
DEFAULT_255_2_778
10
57.651499
20
118.6505937
11
57.680099
21
118.5791937
0
LINE
8
DEFAULT_255_2_778
10
57.680099
20
118.5791937
11
57.694699
21
118.5302937
0
LINE
8
DEFAULT_255_2_778
10
57.694699
20
118.5302937
11
57.705999
21
118.4801937
0
LINE
8
DEFAULT_255_2_778
10
57.705999
20
118.4801937
11
57.714499
21
118.4293937
0
LINE
8
DEFAULT_255_2_778
10
57.714499
20
118.4293937
11
57.720599
21
118.3780937
0
LINE
8
DEFAULT_255_2_778
10
57.720599
20
118.3780937
11
57.719799
21
118.0653937
0
LINE
8
DEFAULT_255_2_778
10
57.719799
20
118.0653937
11
57.713199
21
118.0139937
0
LINE
8
DEFAULT_255_2_778
10
57.713199
20
118.0139937
11
57.703899
21
117.9634937
0
LINE
8
DEFAULT_255_2_778
10
57.703899
20
117.9634937
11
57.691499
21
117.9137937
0
LINE
8
DEFAULT_255_2_778
10
57.691499
20
117.9137937
11
57.675599
21
117.8650937
0
LINE
8
DEFAULT_255_2_778
10
57.675599
20
117.8650937
11
57.647299
21
117.8002937
0
LINE
8
DEFAULT_255_2_778
10
57.647299
20
117.8002937
11
57.596499
21
117.7176937
0
LINE
8
DEFAULT_255_2_778
10
57.596499
20
117.7176937
11
57.518699
21
117.6314937
0
LINE
8
DEFAULT_255_2_778
10
57.518699
20
117.6314937
11
57.441499
21
117.5745937
0
LINE
8
DEFAULT_255_2_778
10
57.441499
20
117.5745937
11
57.322099
21
117.5237937
0
LINE
8
DEFAULT_255_2_778
10
57.322099
20
117.5237937
11
57.084299
21
117.4935937
0
LINE
8
DEFAULT_255_2_778
10
57.084299
20
117.4935937
11
56.620199
21
117.4935937
0
LINE
8
DEFAULT_255_2_778
10
56.620199
20
117.4935937
11
56.620199
21
118.9937937
0
LINE
8
DEFAULT_255_2_778
10
57.085099
20
117.6639937
11
57.264699
21
117.6901937
0
LINE
8
DEFAULT_255_2_778
10
57.264699
20
117.6901937
11
57.368199
21
117.7430937
0
LINE
8
DEFAULT_255_2_778
10
57.368199
20
117.7430937
11
57.437499
21
117.8121937
0
LINE
8
DEFAULT_255_2_778
10
57.437499
20
117.8121937
11
57.476399
21
117.8764937
0
LINE
8
DEFAULT_255_2_778
10
57.476399
20
117.8764937
11
57.499399
21
117.9333937
0
LINE
8
DEFAULT_255_2_778
10
57.499399
20
117.9333937
11
57.516599
21
117.9936937
0
LINE
8
DEFAULT_255_2_778
10
57.516599
20
117.9936937
11
57.525099
21
118.0346937
0
LINE
8
DEFAULT_255_2_778
10
57.525099
20
118.0346937
11
57.531699
21
118.0759937
0
LINE
8
DEFAULT_255_2_778
10
57.531699
20
118.0759937
11
57.535099
21
118.1050937
0
LINE
8
DEFAULT_255_2_778
10
57.535099
20
118.1050937
11
57.534599
21
118.3936937
0
LINE
8
DEFAULT_255_2_778
10
57.534599
20
118.3936937
11
57.528499
21
118.4338937
0
LINE
8
DEFAULT_255_2_778
10
57.528499
20
118.4338937
11
57.519999
21
118.4735937
0
LINE
8
DEFAULT_255_2_778
10
57.519999
20
118.4735937
11
57.502599
21
118.5317937
0
LINE
8
DEFAULT_255_2_778
10
57.502599
20
118.5317937
11
57.466599
21
118.6095937
0
LINE
8
DEFAULT_255_2_778
10
57.466599
20
118.6095937
11
57.403599
21
118.6945937
0
LINE
8
DEFAULT_255_2_778
10
57.403599
20
118.6945937
11
57.322399
21
118.7603937
0
LINE
8
DEFAULT_255_2_778
10
57.322399
20
118.7603937
11
57.174199
21
118.8135937
0
LINE
8
DEFAULT_255_2_778
10
57.174199
20
118.8135937
11
57.047499
21
118.8241937
0
LINE
8
DEFAULT_255_2_778
10
57.047499
20
118.8241937
11
56.804599
21
118.8241937
0
LINE
8
DEFAULT_255_2_778
10
56.804599
20
118.8241937
11
56.804599
21
117.6642937
0
LINE
8
DEFAULT_255_2_778
10
56.804599
20
117.6642937
11
57.085099
21
117.6639937
0
LINE
8
DEFAULT_255_2_778
10
61.1387314
20
118.9938624
11
61.3519314
21
118.9938624
0
LINE
8
DEFAULT_255_2_778
10
61.3519314
20
118.9938624
11
61.3519314
21
118.0328624
0
LINE
8
DEFAULT_255_2_778
10
61.3519314
20
118.0328624
11
61.6075314
21
118.0328624
0
LINE
8
DEFAULT_255_2_778
10
61.6075314
20
118.0328624
11
61.6075314
21
117.8690624
0
LINE
8
DEFAULT_255_2_778
10
61.6075314
20
117.8690624
11
61.3519314
21
117.8690624
0
LINE
8
DEFAULT_255_2_778
10
61.3519314
20
117.8690624
11
61.3519314
21
117.4938624
0
LINE
8
DEFAULT_255_2_778
10
61.3519314
20
117.4938624
11
61.1712314
21
117.4938624
0
LINE
8
DEFAULT_255_2_778
10
61.1712314
20
117.4938624
11
61.1712314
21
117.8690624
0
LINE
8
DEFAULT_255_2_778
10
61.1712314
20
117.8690624
11
60.5436314
21
117.8690624
0
LINE
8
DEFAULT_255_2_778
10
60.5436314
20
117.8690624
11
60.5436314
21
118.0497624
0
LINE
8
DEFAULT_255_2_778
10
60.5436314
20
118.0497624
11
61.1387314
21
118.9938624
0
LINE
8
DEFAULT_255_2_778
10
60.7013314
20
118.0328624
11
61.1712314
21
118.0328624
0
LINE
8
DEFAULT_255_2_778
10
61.1712314
20
118.0328624
11
61.1712314
21
118.7802624
0
LINE
8
DEFAULT_255_2_778
10
61.1712314
20
118.7802624
11
60.7013314
21
118.0328624
0
LINE
8
DEFAULT_255_2_778
10
65.5879314
20
118.9938624
11
65.7909314
21
118.9938624
0
LINE
8
DEFAULT_255_2_778
10
65.7909314
20
118.9938624
11
66.3449314
21
117.4938624
0
LINE
8
DEFAULT_255_2_778
10
66.3449314
20
117.4938624
11
66.1441314
21
117.4938624
0
LINE
8
DEFAULT_255_2_778
10
66.1441314
20
117.4938624
11
66.0084314
21
117.8852624
0
LINE
8
DEFAULT_255_2_778
10
66.0084314
20
117.8852624
11
65.3731314
21
117.8852624
0
LINE
8
DEFAULT_255_2_778
10
65.3731314
20
117.8852624
11
65.2392314
21
117.4938624
0
LINE
8
DEFAULT_255_2_778
10
65.2392314
20
117.4938624
11
65.0344314
21
117.4938624
0
LINE
8
DEFAULT_255_2_778
10
65.0344314
20
117.4938624
11
65.5879314
21
118.9938624
0
LINE
8
DEFAULT_255_2_778
10
65.4321314
20
118.0550624
11
65.9496314
21
118.0550624
0
LINE
8
DEFAULT_255_2_778
10
65.9496314
20
118.0550624
11
65.6903314
21
118.8004624
0
LINE
8
DEFAULT_255_2_778
10
65.6903314
20
118.8004624
11
65.4321314
21
118.0550624
0
LINE
8
DEFAULT_255_2_778
10
67.7234314
20
118.3006624
11
67.8914314
21
118.3439624
0
LINE
8
DEFAULT_255_2_778
10
67.8914314
20
118.3439624
11
67.9602314
21
118.4162624
0
LINE
8
DEFAULT_255_2_778
10
67.9602314
20
118.4162624
11
67.9843314
21
118.4754624
0
LINE
8
DEFAULT_255_2_778
10
67.9843314
20
118.4754624
11
67.9917314
21
118.5133624
0
LINE
8
DEFAULT_255_2_778
10
67.9917314
20
118.5133624
11
67.9898314
21
118.6268624
0
LINE
8
DEFAULT_255_2_778
10
67.9898314
20
118.6268624
11
67.9769314
21
118.6747624
0
LINE
8
DEFAULT_255_2_778
10
67.9769314
20
118.6747624
11
67.9372314
21
118.7414624
0
LINE
8
DEFAULT_255_2_778
10
67.9372314
20
118.7414624
11
67.8149314
21
118.8131624
0
LINE
8
DEFAULT_255_2_778
10
67.8149314
20
118.8131624
11
67.7231314
21
118.8234624
0
LINE
8
DEFAULT_255_2_778
10
67.7231314
20
118.8234624
11
67.4170314
21
118.8234624
0
LINE
8
DEFAULT_255_2_778
10
67.4170314
20
118.8234624
11
67.4170314
21
118.3003624
0
LINE
8
DEFAULT_255_2_778
10
67.4170314
20
118.3003624
11
67.7234314
21
118.3006624
0
LINE
8
DEFAULT_255_2_778
10
67.2326314
20
118.9938624
11
67.8303314
21
118.9858624
0
LINE
8
DEFAULT_255_2_778
10
67.8303314
20
118.9858624
11
67.9898314
21
118.9313624
0
LINE
8
DEFAULT_255_2_778
10
67.9898314
20
118.9313624
11
68.0893314
21
118.8490624
0
LINE
8
DEFAULT_255_2_778
10
68.0893314
20
118.8490624
11
68.1324314
21
118.7850624
0
LINE
8
DEFAULT_255_2_778
10
68.1324314
20
118.7850624
11
68.1576314
21
118.7242624
0
LINE
8
DEFAULT_255_2_778
10
68.1576314
20
118.7242624
11
68.1681314
21
118.6845624
0
LINE
8
DEFAULT_255_2_778
10
68.1681314
20
118.6845624
11
68.1734314
21
118.6554624
0
LINE
8
DEFAULT_255_2_778
10
68.1734314
20
118.6554624
11
68.1711314
21
118.4617624
0
LINE
8
DEFAULT_255_2_778
10
68.1711314
20
118.4617624
11
68.1615314
21
118.4194624
0
LINE
8
DEFAULT_255_2_778
10
68.1615314
20
118.4194624
11
68.1388314
21
118.3566624
0
LINE
8
DEFAULT_255_2_778
10
68.1388314
20
118.3566624
11
68.0986314
21
118.2894624
0
LINE
8
DEFAULT_255_2_778
10
68.0986314
20
118.2894624
11
68.0142314
21
118.2093624
0
LINE
8
DEFAULT_255_2_778
10
68.0142314
20
118.2093624
11
67.8631314
21
118.1447624
0
LINE
8
DEFAULT_255_2_778
10
67.8631314
20
118.1447624
11
67.7234314
21
118.1304624
0
LINE
8
DEFAULT_255_2_778
10
67.7234314
20
118.1304624
11
67.4173314
21
118.1304624
0
LINE
8
DEFAULT_255_2_778
10
67.4173314
20
118.1304624
11
67.4173314
21
117.4936624
0
LINE
8
DEFAULT_255_2_778
10
67.4173314
20
117.4936624
11
67.2326314
21
117.4936624
0
LINE
8
DEFAULT_255_2_778
10
67.2326314
20
117.4936624
11
67.2326314
21
118.9938624
0
LINE
8
DEFAULT_255_2_778
10
64.5645314
20
122.0878624
11
64.6241314
21
122.1473624
0
LINE
8
DEFAULT_255_2_778
10
59.2501314
20
123.1165624
11
58.3865314
21
123.1165624
0
LINE
8
DEFAULT_255_2_778
10
58.3865314
20
123.1165624
11
58.3865314
21
120.7173624
0
LINE
8
DEFAULT_255_2_778
10
58.3865314
20
120.7173624
11
58.8665314
21
120.7173624
0
LINE
8
DEFAULT_255_2_778
10
58.8665314
20
120.7173624
11
58.8665314
21
122.2529624
0
LINE
8
DEFAULT_255_2_778
10
58.8665314
20
122.2529624
11
59.5382314
21
120.6934624
0
LINE
8
DEFAULT_255_2_778
10
59.5382314
20
120.6934624
11
59.9700314
21
120.6934624
0
LINE
8
DEFAULT_255_2_778
10
59.9700314
20
120.6934624
11
60.6418314
21
122.2770624
0
LINE
8
DEFAULT_255_2_778
10
60.6418314
20
122.2770624
11
60.6418314
21
120.7175624
0
LINE
8
DEFAULT_255_2_778
10
60.6418314
20
120.7175624
11
61.3377314
21
120.7175624
0
LINE
8
DEFAULT_255_2_778
10
61.3377314
20
120.7175624
11
61.3377314
21
123.1165624
0
LINE
8
DEFAULT_255_2_778
10
61.3377314
20
123.1165624
11
60.4741314
21
123.1165624
0
LINE
8
DEFAULT_255_2_778
10
60.4741314
20
123.1165624
11
59.8743314
21
121.6531624
0
LINE
8
DEFAULT_255_2_778
10
59.8743314
20
121.6531624
11
59.2504314
21
123.1165624
0
ARC
8
DEFAULT_255_2_778
10
53.394746
20
123.0542769
40
2.3986685
50
271.0932301
51
280.9903969
0
ARC
8
DEFAULT_255_2_778
10
53.3946317
20
123.0575882
40
2.4019815
50
270.0003253
51
271.094449
0
ARC
8
DEFAULT_255_2_778
10
53.3947809
20
123.0597495
40
2.4041427
50
252.6173498
51
269.9967697
0
ARC
8
DEFAULT_255_2_778
10
53.3051725
20
122.7634384
40
1.6430504
50
247.5050814
51
270.0014959
0
ARC
8
DEFAULT_255_2_778
10
53.3052155
20
122.7638026
40
1.6434146
50
269.9999939
51
271.9292983
0
ARC
8
DEFAULT_255_2_778
10
53.3052079
20
122.7639183
40
1.6435305
50
271.9294297
51
280.7632391
0
ARC
8
DEFAULT_255_2_778
10
53.5363125
20
121.7082658
40
0.5640835
50
277.7253185
51
295.6105845
0
ARC
8
DEFAULT_255_2_778
10
53.6800067
20
121.3391617
40
0.1717654
50
305.6589239
51
359.98432
0
ARC
8
DEFAULT_255_2_778
10
53.6798741
20
121.339104
40
0.1718981
50
0.0035521
51
8.5495839
0
ARC
8
DEFAULT_255_2_778
10
53.6721455
20
121.3379299
40
0.1797152
50
8.5534361
51
9.0188554
0
ARC
8
DEFAULT_255_2_778
10
53.6798862
20
121.3394371
40
0.1718342
50
8.9271109
51
72.2617004
0
ARC
8
DEFAULT_255_2_778
10
53.585466
20
122.7675621
40
1.0922064
50
227.2831052
51
242.7007608
0
ARC
8
DEFAULT_255_2_778
10
53.2816673
20
122.413205
40
0.6260013
50
194.8372739
51
225.710287
0
ARC
8
DEFAULT_255_2_778
10
53.3135164
20
122.4330165
40
0.6619528
50
180.3439195
51
195.7890107
0
ARC
8
DEFAULT_255_2_778
10
53.3143516
20
122.4329983
40
0.6627879
50
180.0029238
51
180.3419141
0
ARC
8
DEFAULT_255_2_778
10
53.311081
20
122.4330267
40
0.6595171
50
164.1817793
51
180.0054045
0
ARC
8
DEFAULT_255_2_778
10
53.2281484
20
122.4867456
40
0.5658297
50
142.8182823
51
167.1275445
0
ARC
8
DEFAULT_255_2_778
10
53.4004866
20
122.3342564
40
0.7954807
50
121.1972413
51
141.5692487
0
ARC
8
DEFAULT_255_2_778
10
53.5939914
20
121.9825475
40
1.1966774
50
90.036169
51
120.3996289
0
ARC
8
DEFAULT_255_2_778
10
53.5932422
20
121.9910808
40
1.1881437
50
86.1925672
51
90.0003012
0
ARC
8
DEFAULT_255_2_778
10
53.4574946
20
118.5997872
40
4.5818452
50
78.6929939
51
87.3148994
0
ARC
8
DEFAULT_255_2_778
10
53.5646293
20
120.4047205
40
2.3455568
50
70.286156
51
82.961651
0
ARC
8
DEFAULT_255_2_778
10
53.7366489
20
121.6284843
40
1.110131
50
84.0337442
51
89.0479125
0
ARC
8
DEFAULT_255_2_778
10
53.7366736
20
121.6295318
40
1.1090831
50
89.0482887
51
90.0005676
0
ARC
8
DEFAULT_255_2_778
10
53.7365973
20
121.6306379
40
1.1079771
50
89.9966237
51
103.3886779
0
ARC
8
DEFAULT_255_2_778
10
53.5264338
20
122.505959
40
0.2077887
50
102.9017069
51
149.1530399
0
ARC
8
DEFAULT_255_2_778
10
53.486558
20
122.5466473
40
0.1533766
50
154.572672
51
177.549449
0
ARC
8
DEFAULT_255_2_778
10
53.4865947
20
122.546648
40
0.1534131
50
177.5503042
51
180.0008838
0
ARC
8
DEFAULT_255_2_778
10
53.4863731
20
122.5465717
40
0.1531915
50
179.9723464
51
221.7812088
0
ARC
8
DEFAULT_255_2_778
10
53.6934361
20
122.7413871
40
0.4374616
50
222.738562
51
239.0018664
0
ARC
8
DEFAULT_255_2_778
10
54.1511796
20
123.552805
40
1.3689765
50
240.0699309
51
251.3384767
0
ARC
8
DEFAULT_255_2_778
10
52.4319365
20
119.0507127
40
3.4516774
50
59.8856259
51
68.2114333
0
ARC
8
DEFAULT_255_2_778
10
53.7781071
20
121.3824162
40
0.7593024
50
25.9353318
51
59.4775174
0
ARC
8
DEFAULT_255_2_778
10
53.8153232
20
121.4215605
40
0.7089671
50
0.0082345
51
24.4056861
0
LINE
8
DEFAULT_255_2_778
10
54.5242903
20
121.4216624
11
54.5242903
21
121.4214541
0
ARC
8
DEFAULT_255_2_778
10
53.8140531
20
121.4214328
40
0.7102373
50
335.4024261
51
0.0017211
0
ARC
8
DEFAULT_255_2_778
10
53.8105804
20
121.4494748
40
0.7254659
50
315.9206977
51
333.5025129
0
ARC
8
DEFAULT_255_2_778
10
53.623916
20
121.7353773
40
1.0611421
50
282.4032196
51
311.8389259
0
LINE
8
DEFAULT_255_2_778
10
52.6765389
20
120.765402
11
52.6765389
21
121.245402
0
LINE
8
DEFAULT_255_2_778
10
53.7322389
20
121.503102
11
53.4443389
21
121.629002
0
LINE
8
DEFAULT_255_2_778
10
53.4443389
20
121.629002
11
53.0845389
21
121.797002
0
LINE
8
DEFAULT_255_2_778
10
54.3558389
20
123.092702
11
54.3558389
21
122.612802
0
ARC
8
DEFAULT_255_2_778
10
67.322146
20
123.0542769
40
2.3986685
50
271.0932301
51
280.9903969
0
ARC
8
DEFAULT_255_2_778
10
67.3220317
20
123.0575882
40
2.4019815
50
270.0003253
51
271.094449
0
ARC
8
DEFAULT_255_2_778
10
67.3221809
20
123.0597495
40
2.4041427
50
252.6173498
51
269.9967697
0
ARC
8
DEFAULT_255_2_778
10
67.2325725
20
122.7634384
40
1.6430504
50
247.5050814
51
270.0014959
0
ARC
8
DEFAULT_255_2_778
10
67.2326155
20
122.7638026
40
1.6434146
50
269.9999939
51
271.9292983
0
ARC
8
DEFAULT_255_2_778
10
67.2326079
20
122.7639183
40
1.6435305
50
271.9294297
51
280.7632391
0
ARC
8
DEFAULT_255_2_778
10
67.4637125
20
121.7082658
40
0.5640835
50
277.7253185
51
295.6105845
0
ARC
8
DEFAULT_255_2_778
10
67.6072898
20
121.3391835
40
0.1718513
50
305.6863595
51
0.0218871
0
ARC
8
DEFAULT_255_2_778
10
67.6064294
20
121.3392361
40
0.1727117
50
0.0043342
51
8.4647219
0
ARC
8
DEFAULT_255_2_778
10
67.6107213
20
121.3399112
40
0.1683672
50
8.4524591
51
8.9491337
0
ARC
8
DEFAULT_255_2_778
10
67.6072862
20
121.3394371
40
0.1718342
50
8.9271109
51
72.2617004
0
ARC
8
DEFAULT_255_2_778
10
67.512866
20
122.7675621
40
1.0922064
50
227.2831052
51
242.7007608
0
ARC
8
DEFAULT_255_2_778
10
67.2090673
20
122.413205
40
0.6260013
50
194.8372739
51
225.710287
0
ARC
8
DEFAULT_255_2_778
10
67.2409164
20
122.4330165
40
0.6619528
50
180.3439195
51
195.7890107
0
ARC
8
DEFAULT_255_2_778
10
67.2417516
20
122.4329983
40
0.6627879
50
180.0029238
51
180.3419141
0
ARC
8
DEFAULT_255_2_778
10
67.238481
20
122.4330267
40
0.6595171
50
164.1817793
51
180.0054045
0
ARC
8
DEFAULT_255_2_778
10
67.1555484
20
122.4867456
40
0.5658297
50
142.8182823
51
167.1275445
0
ARC
8
DEFAULT_255_2_778
10
67.3278866
20
122.3342564
40
0.7954807
50
121.1972413
51
141.5692487
0
ARC
8
DEFAULT_255_2_778
10
67.5213914
20
121.9825475
40
1.1966774
50
90.036169
51
120.3996289
0
ARC
8
DEFAULT_255_2_778
10
67.5206422
20
121.9910808
40
1.1881437
50
86.1925672
51
90.0003012
0
ARC
8
DEFAULT_255_2_778
10
67.3846979
20
118.5981843
40
4.5834556
50
78.6945114
51
87.3133818
0
ARC
8
DEFAULT_255_2_778
10
67.4920293
20
120.4047205
40
2.3455568
50
70.286156
51
82.961651
0
ARC
8
DEFAULT_255_2_778
10
67.6640489
20
121.6284843
40
1.110131
50
84.0337442
51
89.0479125
0
ARC
8
DEFAULT_255_2_778
10
67.6640736
20
121.6295318
40
1.1090831
50
89.0482887
51
90.0005676
0
ARC
8
DEFAULT_255_2_778
10
67.6639973
20
121.6306379
40
1.1079771
50
89.9966237
51
103.3886779
0
ARC
8
DEFAULT_255_2_778
10
67.4538338
20
122.505959
40
0.2077887
50
102.9017069
51
149.1530399
0
ARC
8
DEFAULT_255_2_778
10
67.413958
20
122.5466473
40
0.1533766
50
154.572672
51
177.549449
0
ARC
8
DEFAULT_255_2_778
10
67.4139947
20
122.546648
40
0.1534131
50
177.5503042
51
180.0008838
0
ARC
8
DEFAULT_255_2_778
10
67.4137731
20
122.5465717
40
0.1531915
50
179.9723464
51
221.7812088
0
ARC
8
DEFAULT_255_2_778
10
67.6208361
20
122.7413871
40
0.4374616
50
222.738562
51
239.0018664
0
ARC
8
DEFAULT_255_2_778
10
68.0785796
20
123.552805
40
1.3689765
50
240.0699309
51
251.3384767
0
ARC
8
DEFAULT_255_2_778
10
66.3593365
20
119.0507127
40
3.4516774
50
59.8856259
51
68.2114333
0
ARC
8
DEFAULT_255_2_778
10
67.7055071
20
121.3824162
40
0.7593024
50
25.9353318
51
59.4775174
0
ARC
8
DEFAULT_255_2_778
10
67.7427232
20
121.4215605
40
0.7089671
50
0.0082345
51
24.4056861
0
LINE
8
DEFAULT_255_2_778
10
68.4516903
20
121.4216624
11
68.4516903
21
121.4214541
0
ARC
8
DEFAULT_255_2_778
10
67.7414531
20
121.4214328
40
0.7102373
50
335.4024261
51
0.0017211
0
ARC
8
DEFAULT_255_2_778
10
67.7379804
20
121.4494748
40
0.7254659
50
315.9206977
51
333.5025129
0
ARC
8
DEFAULT_255_2_778
10
67.551316
20
121.7353773
40
1.0611421
50
282.4032196
51
311.8389259
0
LINE
8
DEFAULT_255_2_778
10
66.6039389
20
120.765402
11
66.6039389
21
121.245402
0
LINE
8
DEFAULT_255_2_778
10
67.6596389
20
121.503102
11
67.3717389
21
121.629002
0
LINE
8
DEFAULT_255_2_778
10
67.3717389
20
121.629002
11
67.0119389
21
121.797002
0
LINE
8
DEFAULT_255_2_778
10
68.2832389
20
123.092702
11
68.2832389
21
122.612802
0
LINE
8
DEFAULT_255_2_778
10
56.1791844
20
123.1165208
11
57.9544844
21
123.1165208
0
LINE
8
DEFAULT_255_2_778
10
57.9544844
20
123.1165208
11
57.9544844
21
122.6725208
0
LINE
8
DEFAULT_255_2_778
10
57.9544844
20
122.6725208
11
56.8747844
21
122.6725208
0
LINE
8
DEFAULT_255_2_778
10
56.8747844
20
122.6725208
11
56.8747844
21
122.1328208
0
LINE
8
DEFAULT_255_2_778
10
56.8747844
20
122.1328208
11
57.8102844
21
122.1328208
0
LINE
8
DEFAULT_255_2_778
10
57.8102844
20
122.1328208
11
57.8102844
21
121.7370208
0
LINE
8
DEFAULT_255_2_778
10
57.8102844
20
121.7370208
11
56.8747844
21
121.7370208
0
LINE
8
DEFAULT_255_2_778
10
56.8747844
20
121.7370208
11
56.8747844
21
121.1731208
0
LINE
8
DEFAULT_255_2_778
10
56.8747844
20
121.1731208
11
57.9782844
21
121.1731208
0
LINE
8
DEFAULT_255_2_778
10
57.9782844
20
121.1731208
11
57.9782844
21
120.7173208
0
LINE
8
DEFAULT_255_2_778
10
57.9782844
20
120.7173208
11
56.1788844
21
120.7173208
0
LINE
8
DEFAULT_255_2_778
10
56.1788844
20
120.7173208
11
56.1788844
21
123.1165208
0
LINE
8
DEFAULT_255_2_778
10
54.9074762
20
123.1165208
11
55.6271762
21
123.1165208
0
LINE
8
DEFAULT_255_2_778
10
55.6271762
20
123.1165208
11
55.6271762
21
120.7173208
0
LINE
8
DEFAULT_255_2_778
10
55.6271762
20
120.7173208
11
54.9074762
21
120.7173208
0
LINE
8
DEFAULT_255_2_778
10
54.9074762
20
120.7173208
11
54.9074762
21
123.1165208
0
LINE
8
DEFAULT_255_2_778
10
64.8642762
20
123.1165208
11
64.0845762
21
123.1165208
0
LINE
8
DEFAULT_255_2_778
10
64.0845762
20
123.1165208
11
64.0845762
21
120.7173208
0
LINE
8
DEFAULT_255_2_778
10
64.0845762
20
120.7173208
11
64.5644762
21
120.7173208
0
LINE
8
DEFAULT_255_2_778
10
64.5644762
20
120.7173208
11
64.5644762
21
122.2529208
0
LINE
8
DEFAULT_255_2_778
10
64.5644762
20
122.2529208
11
65.4280762
21
120.7175208
0
LINE
8
DEFAULT_255_2_778
10
65.4280762
20
120.7175208
11
66.1958762
21
120.7175208
0
LINE
8
DEFAULT_255_2_778
10
66.1958762
20
120.7175208
11
66.1958762
21
123.1165208
0
LINE
8
DEFAULT_255_2_778
10
66.1958762
20
123.1165208
11
65.7159762
21
123.1165208
0
LINE
8
DEFAULT_255_2_778
10
65.7159762
20
123.1165208
11
65.7159762
21
121.6290208
0
LINE
8
DEFAULT_255_2_778
10
65.7159762
20
121.6290208
11
64.8642762
21
123.1165208
0
LINE
8
DEFAULT_255_2_778
10
61.8893844
20
123.1165208
11
63.6646844
21
123.1165208
0
LINE
8
DEFAULT_255_2_778
10
63.6646844
20
123.1165208
11
63.6646844
21
122.6725208
0
LINE
8
DEFAULT_255_2_778
10
63.6646844
20
122.6725208
11
62.5849844
21
122.6725208
0
LINE
8
DEFAULT_255_2_778
10
62.5849844
20
122.6725208
11
62.5849844
21
122.1328208
0
LINE
8
DEFAULT_255_2_778
10
62.5849844
20
122.1328208
11
63.5204844
21
122.1328208
0
LINE
8
DEFAULT_255_2_778
10
63.5204844
20
122.1328208
11
63.5204844
21
121.7370208
0
LINE
8
DEFAULT_255_2_778
10
63.5204844
20
121.7370208
11
62.5849844
21
121.7370208
0
LINE
8
DEFAULT_255_2_778
10
62.5849844
20
121.7370208
11
62.5849844
21
121.1731208
0
LINE
8
DEFAULT_255_2_778
10
62.5849844
20
121.1731208
11
63.6884844
21
121.1731208
0
LINE
8
DEFAULT_255_2_778
10
63.6884844
20
121.1731208
11
63.6884844
21
120.7173208
0
LINE
8
DEFAULT_255_2_778
10
63.6884844
20
120.7173208
11
61.8890844
21
120.7173208
0
LINE
8
DEFAULT_255_2_778
10
61.8890844
20
120.7173208
11
61.8890844
21
123.1165208
0
LINE
8
DEFAULT_255_2_778
10
14.8426636
20
116.0206957
11
14.6500636
21
116.1201957
0
LINE
8
DEFAULT_255_2_778
10
14.6500636
20
116.1201957
11
14.5545636
21
116.2415957
0
LINE
8
DEFAULT_255_2_778
10
14.5545636
20
116.2415957
11
14.5257636
21
116.3201957
0
LINE
8
DEFAULT_255_2_778
10
14.5257636
20
116.3201957
11
14.5185636
21
116.3619957
0
LINE
8
DEFAULT_255_2_778
10
14.5185636
20
116.3619957
11
14.5185636
21
116.4315957
0
LINE
8
DEFAULT_255_2_778
10
14.5185636
20
116.4315957
11
14.2161636
21
116.4315957
0
LINE
8
DEFAULT_255_2_778
10
14.2161636
20
116.4315957
11
14.2174636
21
116.3664957
0
LINE
8
DEFAULT_255_2_778
10
14.2174636
20
116.3664957
11
14.2195636
21
116.3450957
0
LINE
8
DEFAULT_255_2_778
10
14.2195636
20
116.3450957
11
14.2262636
21
116.3026957
0
LINE
8
DEFAULT_255_2_778
10
14.2262636
20
116.3026957
11
14.2357636
21
116.2611957
0
LINE
8
DEFAULT_255_2_778
10
14.2357636
20
116.2611957
11
14.2555636
21
116.2008957
0
LINE
8
DEFAULT_255_2_778
10
14.2555636
20
116.2008957
11
14.2912636
21
116.1243957
0
LINE
8
DEFAULT_255_2_778
10
14.2912636
20
116.1243957
11
14.3505636
21
116.0349957
0
LINE
8
DEFAULT_255_2_778
10
14.3505636
20
116.0349957
11
14.4278636
21
115.9510957
0
LINE
8
DEFAULT_255_2_778
10
14.4278636
20
115.9510957
11
14.5362636
21
115.8685957
0
LINE
8
DEFAULT_255_2_778
10
14.5362636
20
115.8685957
11
14.6675636
21
115.8050957
0
LINE
8
DEFAULT_255_2_778
10
14.6675636
20
115.8050957
11
14.8572636
21
115.7608957
0
LINE
8
DEFAULT_255_2_778
10
14.8572636
20
115.7608957
11
15.1514636
21
115.7534957
0
LINE
8
DEFAULT_255_2_778
10
15.1514636
20
115.7534957
11
15.3654636
21
115.7854957
0
LINE
8
DEFAULT_255_2_778
10
15.3654636
20
115.7854957
11
15.5390636
21
115.8491957
0
LINE
8
DEFAULT_255_2_778
10
15.5390636
20
115.8491957
11
15.6557636
21
115.9224957
0
LINE
8
DEFAULT_255_2_778
10
15.6557636
20
115.9224957
11
15.7364636
21
115.9973957
0
LINE
8
DEFAULT_255_2_778
10
15.7364636
20
115.9973957
11
15.7898636
21
116.0672957
0
LINE
8
DEFAULT_255_2_778
10
15.7898636
20
116.0672957
11
15.8314636
21
116.1444957
0
LINE
8
DEFAULT_255_2_778
10
15.8314636
20
116.1444957
11
15.8549636
21
116.2058957
0
LINE
8
DEFAULT_255_2_778
10
15.8549636
20
116.2058957
11
15.8674636
21
116.2495957
0
LINE
8
DEFAULT_255_2_778
10
15.8674636
20
116.2495957
11
15.8772636
21
116.2952957
0
LINE
8
DEFAULT_255_2_778
10
15.8772636
20
116.2952957
11
15.8840636
21
116.3415957
0
LINE
8
DEFAULT_255_2_778
10
15.8840636
20
116.3415957
11
15.8827636
21
116.5379957
0
LINE
8
DEFAULT_255_2_778
10
15.8827636
20
116.5379957
11
15.8742636
21
116.5847957
0
LINE
8
DEFAULT_255_2_778
10
15.8742636
20
116.5847957
11
15.8544636
21
116.6503957
0
LINE
8
DEFAULT_255_2_778
10
15.8544636
20
116.6503957
11
15.8134636
21
116.7331957
0
LINE
8
DEFAULT_255_2_778
10
15.8134636
20
116.7331957
11
15.7282636
21
116.8334957
0
LINE
8
DEFAULT_255_2_778
10
15.7282636
20
116.8334957
11
15.5798636
21
116.9294957
0
LINE
8
DEFAULT_255_2_778
10
15.5798636
20
116.9294957
11
15.3080636
21
117.0213957
0
LINE
8
DEFAULT_255_2_778
10
15.3080636
20
117.0213957
11
14.7453636
21
117.1657957
0
LINE
8
DEFAULT_255_2_778
10
14.7453636
20
117.1657957
11
14.6140636
21
117.2525957
0
LINE
8
DEFAULT_255_2_778
10
14.6140636
20
117.2525957
11
14.5728636
21
117.3120957
0
LINE
8
DEFAULT_255_2_778
10
14.5728636
20
117.3120957
11
14.5553636
21
117.3618957
0
LINE
8
DEFAULT_255_2_778
10
14.5553636
20
117.3618957
11
14.5495636
21
117.3933957
0
LINE
8
DEFAULT_255_2_778
10
14.5495636
20
117.3933957
11
14.5519636
21
117.4909957
0
LINE
8
DEFAULT_255_2_778
10
14.5519636
20
117.4909957
11
14.5627636
21
117.5332957
0
LINE
8
DEFAULT_255_2_778
10
14.5627636
20
117.5332957
11
14.5907636
21
117.5938957
0
LINE
8
DEFAULT_255_2_778
10
14.5907636
20
117.5938957
11
14.6500636
21
117.6637957
0
LINE
8
DEFAULT_255_2_778
10
14.6500636
20
117.6637957
11
14.7900636
21
117.7409957
0
LINE
8
DEFAULT_255_2_778
10
14.7900636
20
117.7409957
11
15.0011636
21
117.7806957
0
LINE
8
DEFAULT_255_2_778
10
15.0011636
20
117.7806957
11
15.2009636
21
117.7698957
0
LINE
8
DEFAULT_255_2_778
10
15.2009636
20
117.7698957
11
15.4292636
21
117.6570957
0
LINE
8
DEFAULT_255_2_778
10
15.4292636
20
117.6570957
11
15.5009636
21
117.5539957
0
LINE
8
DEFAULT_255_2_778
10
15.5009636
20
117.5539957
11
15.5210636
21
117.4888957
0
LINE
8
DEFAULT_255_2_778
10
15.5210636
20
117.4888957
11
15.5253636
21
117.4589957
0
LINE
8
DEFAULT_255_2_778
10
15.5253636
20
117.4589957
11
15.5263636
21
117.4438957
0
LINE
8
DEFAULT_255_2_778
10
15.5263636
20
117.4438957
11
15.8319636
21
117.4438957
0
LINE
8
DEFAULT_255_2_778
10
15.8319636
20
117.4438957
11
15.8309636
21
117.5205957
0
LINE
8
DEFAULT_255_2_778
10
15.8309636
20
117.5205957
11
15.8287636
21
117.5393957
0
LINE
8
DEFAULT_255_2_778
10
15.8287636
20
117.5393957
11
15.8221636
21
117.5761957
0
LINE
8
DEFAULT_255_2_778
10
15.8221636
20
117.5761957
11
15.8073636
21
117.6293957
0
LINE
8
DEFAULT_255_2_778
10
15.8073636
20
117.6293957
11
15.7785636
21
117.6965957
0
LINE
8
DEFAULT_255_2_778
10
15.7785636
20
117.6965957
11
15.7298636
21
117.7737957
0
LINE
8
DEFAULT_255_2_778
10
15.7298636
20
117.7737957
11
15.6467636
21
117.8632957
0
LINE
8
DEFAULT_255_2_778
10
15.6467636
20
117.8632957
11
15.5298636
21
117.9449957
0
LINE
8
DEFAULT_255_2_778
10
15.5298636
20
117.9449957
11
15.4022636
21
117.9981957
0
LINE
8
DEFAULT_255_2_778
10
15.4022636
20
117.9981957
11
15.1720636
21
118.0354957
0
LINE
8
DEFAULT_255_2_778
10
15.1720636
20
118.0354957
11
14.9228636
21
118.0309957
0
LINE
8
DEFAULT_255_2_778
10
14.9228636
20
118.0309957
11
14.7154636
21
117.9925957
0
LINE
8
DEFAULT_255_2_778
10
14.7154636
20
117.9925957
11
14.5685636
21
117.9354957
0
LINE
8
DEFAULT_255_2_778
10
14.5685636
20
117.9354957
11
14.4489636
21
117.8597957
0
LINE
8
DEFAULT_255_2_778
10
14.4489636
20
117.8597957
11
14.3709636
21
117.7851957
0
LINE
8
DEFAULT_255_2_778
10
14.3709636
20
117.7851957
11
14.3217636
21
117.7171957
0
LINE
8
DEFAULT_255_2_778
10
14.3217636
20
117.7171957
11
14.2926636
21
117.6618957
0
LINE
8
DEFAULT_255_2_778
10
14.2926636
20
117.6618957
11
14.2701636
21
117.6036957
0
LINE
8
DEFAULT_255_2_778
10
14.2701636
20
117.6036957
11
14.2584636
21
117.5615957
0
LINE
8
DEFAULT_255_2_778
10
14.2584636
20
117.5615957
11
14.2500636
21
117.5189957
0
LINE
8
DEFAULT_255_2_778
10
14.2500636
20
117.5189957
11
14.2523636
21
117.2798957
0
LINE
8
DEFAULT_255_2_778
10
14.2523636
20
117.2798957
11
14.2661636
21
117.2250957
0
LINE
8
DEFAULT_255_2_778
10
14.2661636
20
117.2250957
11
14.2947636
21
117.1535957
0
LINE
8
DEFAULT_255_2_778
10
14.2947636
20
117.1535957
11
14.3584636
21
117.0583957
0
LINE
8
DEFAULT_255_2_778
10
14.3584636
20
117.0583957
11
14.5056636
21
116.9440957
0
LINE
8
DEFAULT_255_2_778
10
14.5056636
20
116.9440957
11
14.7760636
21
116.8429957
0
LINE
8
DEFAULT_255_2_778
10
14.7760636
20
116.8429957
11
15.3668636
21
116.6924957
0
LINE
8
DEFAULT_255_2_778
10
15.3668636
20
116.6924957
11
15.5038636
21
116.6098957
0
LINE
8
DEFAULT_255_2_778
10
15.5038636
20
116.6098957
11
15.5499636
21
116.5551957
0
LINE
8
DEFAULT_255_2_778
10
15.5499636
20
116.5551957
11
15.5726636
21
116.5056957
0
LINE
8
DEFAULT_255_2_778
10
15.5726636
20
116.5056957
11
15.5832636
21
116.4625957
0
LINE
8
DEFAULT_255_2_778
10
15.5832636
20
116.4625957
11
15.5813636
21
116.3146957
0
LINE
8
DEFAULT_255_2_778
10
15.5813636
20
116.3146957
11
15.5681636
21
116.2651957
0
LINE
8
DEFAULT_255_2_778
10
15.5681636
20
116.2651957
11
15.5422636
21
116.2071957
0
LINE
8
DEFAULT_255_2_778
10
15.5422636
20
116.2071957
11
15.4885636
21
116.1370957
0
LINE
8
DEFAULT_255_2_778
10
15.4885636
20
116.1370957
11
15.3506636
21
116.0463957
0
LINE
8
DEFAULT_255_2_778
10
15.3506636
20
116.0463957
11
15.1255636
21
116.0013957
0
LINE
8
DEFAULT_255_2_778
10
15.1255636
20
116.0013957
11
14.8612636
21
116.0166957
0
LINE
8
DEFAULT_255_2_778
10
14.8612636
20
116.0166957
11
14.8426636
21
116.0209957
0
LINE
8
DEFAULT_255_2_778
10
16.3463636
20
117.9936957
11
17.7012636
21
117.9936957
0
LINE
8
DEFAULT_255_2_778
10
17.7012636
20
117.9936957
11
17.7012636
21
117.7441957
0
LINE
8
DEFAULT_255_2_778
10
17.7012636
20
117.7441957
11
16.6471636
21
117.7441957
0
LINE
8
DEFAULT_255_2_778
10
16.6471636
20
117.7441957
11
16.6471636
21
117.0504957
0
LINE
8
DEFAULT_255_2_778
10
16.6471636
20
117.0504957
11
17.6464636
21
117.0504957
0
LINE
8
DEFAULT_255_2_778
10
17.6464636
20
117.0504957
11
17.6464636
21
116.8009957
0
LINE
8
DEFAULT_255_2_778
10
17.6464636
20
116.8009957
11
16.6471636
21
116.8009957
0
LINE
8
DEFAULT_255_2_778
10
16.6471636
20
116.8009957
11
16.6471636
21
115.7936957
0
LINE
8
DEFAULT_255_2_778
10
16.6471636
20
115.7936957
11
16.3463636
21
115.7936957
0
LINE
8
DEFAULT_255_2_778
10
16.3463636
20
115.7936957
11
16.3463636
21
117.9936957
0
LINE
8
DEFAULT_255_2_778
10
17.0728636
20
107.5936957
11
17.4033636
21
107.5936957
0
LINE
8
DEFAULT_255_2_778
10
17.4033636
20
107.5936957
11
18.3060636
21
105.3936957
0
LINE
8
DEFAULT_255_2_778
10
18.3060636
20
105.3936957
11
17.9785636
21
105.3936957
0
LINE
8
DEFAULT_255_2_778
10
17.9785636
20
105.3936957
11
17.7570636
21
105.9675957
0
LINE
8
DEFAULT_255_2_778
10
17.7570636
20
105.9675957
11
16.7217636
21
105.9675957
0
LINE
8
DEFAULT_255_2_778
10
16.7217636
20
105.9675957
11
16.5034636
21
105.3936957
0
LINE
8
DEFAULT_255_2_778
10
16.5034636
20
105.3936957
11
16.1698636
21
105.3936957
0
LINE
8
DEFAULT_255_2_778
10
16.1698636
20
105.3936957
11
17.0725636
21
107.5936957
0
LINE
8
DEFAULT_255_2_778
10
20.4748636
20
107.5936957
11
21.8157636
21
107.5936957
0
LINE
8
DEFAULT_255_2_778
10
21.8157636
20
107.5936957
11
21.8157636
21
107.3441957
0
LINE
8
DEFAULT_255_2_778
10
21.8157636
20
107.3441957
11
20.7756636
21
107.3441957
0
LINE
8
DEFAULT_255_2_778
10
20.7756636
20
107.3441957
11
20.7756636
21
106.6504957
0
LINE
8
DEFAULT_255_2_778
10
20.7756636
20
106.6504957
11
21.7750636
21
106.6504957
0
LINE
8
DEFAULT_255_2_778
10
21.7750636
20
106.6504957
11
21.7750636
21
106.4009957
0
LINE
8
DEFAULT_255_2_778
10
21.7750636
20
106.4009957
11
20.7756636
21
106.4009957
0
LINE
8
DEFAULT_255_2_778
10
20.7756636
20
106.4009957
11
20.7756636
21
105.6431957
0
LINE
8
DEFAULT_255_2_778
10
20.7756636
20
105.6431957
11
21.8438636
21
105.6431957
0
LINE
8
DEFAULT_255_2_778
10
21.8438636
20
105.6431957
11
21.8438636
21
105.3936957
0
LINE
8
DEFAULT_255_2_778
10
21.8438636
20
105.3936957
11
20.4748636
21
105.3936957
0
LINE
8
DEFAULT_255_2_778
10
20.4748636
20
105.3936957
11
20.4748636
21
107.5936957
0
LINE
8
DEFAULT_255_2_778
10
16.8186627
20
106.2171093
11
17.6621627
21
106.2171093
0
LINE
8
DEFAULT_255_2_778
10
17.6621627
20
106.2171093
11
17.2395627
21
107.3101093
0
LINE
8
DEFAULT_255_2_778
10
17.2395627
20
107.3101093
11
16.8186627
21
106.2171093
0
LINE
8
DEFAULT_255_2_778
10
18.7021627
20
107.5937093
11
20.0571627
21
107.5937093
0
LINE
8
DEFAULT_255_2_778
10
20.0571627
20
107.5937093
11
20.0571627
21
107.3442093
0
LINE
8
DEFAULT_255_2_778
10
20.0571627
20
107.3442093
11
19.0030627
21
107.3442093
0
LINE
8
DEFAULT_255_2_778
10
19.0030627
20
107.3442093
11
19.0030627
21
106.6505093
0
LINE
8
DEFAULT_255_2_778
10
19.0030627
20
106.6505093
11
20.0023627
21
106.6505093
0
LINE
8
DEFAULT_255_2_778
10
20.0023627
20
106.6505093
11
20.0023627
21
106.4010093
0
LINE
8
DEFAULT_255_2_778
10
20.0023627
20
106.4010093
11
19.0030627
21
106.4010093
0
LINE
8
DEFAULT_255_2_778
10
19.0030627
20
106.4010093
11
19.0030627
21
105.3937093
0
LINE
8
DEFAULT_255_2_778
10
19.0030627
20
105.3937093
11
18.7021627
21
105.3937093
0
LINE
8
DEFAULT_255_2_778
10
18.7021627
20
105.3937093
11
18.7021627
21
107.5937093
0
LINE
8
DEFAULT_255_2_778
10
15.5261627
20
107.0434093
11
15.8317627
21
107.0434093
0
LINE
8
DEFAULT_255_2_778
10
15.8317627
20
107.0434093
11
15.8306627
21
107.1201093
0
LINE
8
DEFAULT_255_2_778
10
15.8306627
20
107.1201093
11
15.8285627
21
107.1389093
0
LINE
8
DEFAULT_255_2_778
10
15.8285627
20
107.1389093
11
15.8219627
21
107.1757093
0
LINE
8
DEFAULT_255_2_778
10
15.8219627
20
107.1757093
11
15.8071627
21
107.2289093
0
LINE
8
DEFAULT_255_2_778
10
15.8071627
20
107.2289093
11
15.7782627
21
107.2961093
0
LINE
8
DEFAULT_255_2_778
10
15.7782627
20
107.2961093
11
15.7295627
21
107.3733093
0
LINE
8
DEFAULT_255_2_778
10
15.7295627
20
107.3733093
11
15.6465627
21
107.4628093
0
LINE
8
DEFAULT_255_2_778
10
15.6465627
20
107.4628093
11
15.5295627
21
107.5445093
0
LINE
8
DEFAULT_255_2_778
10
15.5295627
20
107.5445093
11
15.4020627
21
107.5977093
0
LINE
8
DEFAULT_255_2_778
10
15.4020627
20
107.5977093
11
15.1718627
21
107.6350093
0
LINE
8
DEFAULT_255_2_778
10
15.1718627
20
107.6350093
11
14.9226627
21
107.6305093
0
LINE
8
DEFAULT_255_2_778
10
14.9226627
20
107.6305093
11
14.7151627
21
107.5921093
0
LINE
8
DEFAULT_255_2_778
10
14.7151627
20
107.5921093
11
14.5683627
21
107.5350093
0
LINE
8
DEFAULT_255_2_778
10
14.5683627
20
107.5350093
11
14.4487627
21
107.4593093
0
LINE
8
DEFAULT_255_2_778
10
14.4487627
20
107.4593093
11
14.3706627
21
107.3847093
0
LINE
8
DEFAULT_255_2_778
10
14.3706627
20
107.3847093
11
14.3214627
21
107.3167093
0
LINE
8
DEFAULT_255_2_778
10
14.3214627
20
107.3167093
11
14.2923627
21
107.2614093
0
LINE
8
DEFAULT_255_2_778
10
14.2923627
20
107.2614093
11
14.2698627
21
107.2032093
0
LINE
8
DEFAULT_255_2_778
10
14.2698627
20
107.2032093
11
14.2582627
21
107.1611093
0
LINE
8
DEFAULT_255_2_778
10
14.2582627
20
107.1611093
11
14.2497627
21
107.1185093
0
LINE
8
DEFAULT_255_2_778
10
14.2497627
20
107.1185093
11
14.2521627
21
106.8794093
0
LINE
8
DEFAULT_255_2_778
10
14.2521627
20
106.8794093
11
14.2659627
21
106.8246093
0
LINE
8
DEFAULT_255_2_778
10
14.2659627
20
106.8246093
11
14.2944627
21
106.7531093
0
LINE
8
DEFAULT_255_2_778
10
14.2944627
20
106.7531093
11
14.3582627
21
106.6579093
0
LINE
8
DEFAULT_255_2_778
10
14.3582627
20
106.6579093
11
14.5053627
21
106.5436093
0
LINE
8
DEFAULT_255_2_778
10
14.5053627
20
106.5436093
11
14.7757627
21
106.4425093
0
LINE
8
DEFAULT_255_2_778
10
14.7757627
20
106.4425093
11
15.3665627
21
106.2920093
0
LINE
8
DEFAULT_255_2_778
10
15.3665627
20
106.2920093
11
15.5036627
21
106.2094093
0
LINE
8
DEFAULT_255_2_778
10
15.5036627
20
106.2094093
11
15.5496627
21
106.1547093
0
LINE
8
DEFAULT_255_2_778
10
15.5496627
20
106.1547093
11
15.5724627
21
106.1052093
0
LINE
8
DEFAULT_255_2_778
10
15.5724627
20
106.1052093
11
15.5830627
21
106.0621093
0
LINE
8
DEFAULT_255_2_778
10
15.5830627
20
106.0621093
11
15.5811627
21
105.9142093
0
LINE
8
DEFAULT_255_2_778
10
15.5811627
20
105.9142093
11
15.5679627
21
105.8647093
0
LINE
8
DEFAULT_255_2_778
10
15.5679627
20
105.8647093
11
15.5420627
21
105.8067093
0
LINE
8
DEFAULT_255_2_778
10
15.5420627
20
105.8067093
11
15.4882627
21
105.7366093
0
LINE
8
DEFAULT_255_2_778
10
15.4882627
20
105.7366093
11
15.3504627
21
105.6459093
0
LINE
8
DEFAULT_255_2_778
10
15.3504627
20
105.6459093
11
15.1252627
21
105.6009093
0
LINE
8
DEFAULT_255_2_778
10
15.1252627
20
105.6009093
11
14.8609627
21
105.6162093
0
LINE
8
DEFAULT_255_2_778
10
14.8609627
20
105.6162093
11
14.6572627
21
105.7136093
0
LINE
8
DEFAULT_255_2_778
10
14.6572627
20
105.7136093
11
14.5545627
21
105.8414093
0
LINE
8
DEFAULT_255_2_778
10
14.5545627
20
105.8414093
11
14.5257627
21
105.9200093
0
LINE
8
DEFAULT_255_2_778
10
14.5257627
20
105.9200093
11
14.5186627
21
105.9618093
0
LINE
8
DEFAULT_255_2_778
10
14.5186627
20
105.9618093
11
14.5186627
21
106.0314093
0
LINE
8
DEFAULT_255_2_778
10
14.5186627
20
106.0314093
11
14.2161627
21
106.0314093
0
LINE
8
DEFAULT_255_2_778
10
14.2161627
20
106.0314093
11
14.2175627
21
105.9663093
0
LINE
8
DEFAULT_255_2_778
10
14.2175627
20
105.9663093
11
14.2196627
21
105.9448093
0
LINE
8
DEFAULT_255_2_778
10
14.2196627
20
105.9448093
11
14.2262627
21
105.9025093
0
LINE
8
DEFAULT_255_2_778
10
14.2262627
20
105.9025093
11
14.2357627
21
105.8610093
0
LINE
8
DEFAULT_255_2_778
10
14.2357627
20
105.8610093
11
14.2556627
21
105.8006093
0
LINE
8
DEFAULT_255_2_778
10
14.2556627
20
105.8006093
11
14.2913627
21
105.7242093
0
LINE
8
DEFAULT_255_2_778
10
14.2913627
20
105.7242093
11
14.3505627
21
105.6348093
0
LINE
8
DEFAULT_255_2_778
10
14.3505627
20
105.6348093
11
14.4278627
21
105.5509093
0
LINE
8
DEFAULT_255_2_778
10
14.4278627
20
105.5509093
11
14.5363627
21
105.4683093
0
LINE
8
DEFAULT_255_2_778
10
14.5363627
20
105.4683093
11
14.6675627
21
105.4048093
0
LINE
8
DEFAULT_255_2_778
10
14.6675627
20
105.4048093
11
14.8572627
21
105.3606093
0
LINE
8
DEFAULT_255_2_778
10
14.8572627
20
105.3606093
11
15.1514627
21
105.3532093
0
LINE
8
DEFAULT_255_2_778
10
15.1514627
20
105.3532093
11
15.3655627
21
105.3852093
0
LINE
8
DEFAULT_255_2_778
10
15.3655627
20
105.3852093
11
15.5390627
21
105.4490093
0
LINE
8
DEFAULT_255_2_778
10
15.5390627
20
105.4490093
11
15.6557627
21
105.5223093
0
LINE
8
DEFAULT_255_2_778
10
15.6557627
20
105.5223093
11
15.7364627
21
105.5972093
0
LINE
8
DEFAULT_255_2_778
10
15.7364627
20
105.5972093
11
15.7899627
21
105.6670093
0
LINE
8
DEFAULT_255_2_778
10
15.7899627
20
105.6670093
11
15.8314627
21
105.7443093
0
LINE
8
DEFAULT_255_2_778
10
15.8314627
20
105.7443093
11
15.8550627
21
105.8057093
0
LINE
8
DEFAULT_255_2_778
10
15.8550627
20
105.8057093
11
15.8674627
21
105.8493093
0
LINE
8
DEFAULT_255_2_778
10
15.8674627
20
105.8493093
11
15.8772627
21
105.8951093
0
LINE
8
DEFAULT_255_2_778
10
15.8772627
20
105.8951093
11
15.8841627
21
105.9414093
0
LINE
8
DEFAULT_255_2_778
10
15.8841627
20
105.9414093
11
15.8827627
21
106.1377093
0
LINE
8
DEFAULT_255_2_778
10
15.8827627
20
106.1377093
11
15.8743627
21
106.1846093
0
LINE
8
DEFAULT_255_2_778
10
15.8743627
20
106.1846093
11
15.8544627
21
106.2502093
0
LINE
8
DEFAULT_255_2_778
10
15.8544627
20
106.2502093
11
15.8134627
21
106.3330093
0
LINE
8
DEFAULT_255_2_778
10
15.8134627
20
106.3330093
11
15.7282627
21
106.4333093
0
LINE
8
DEFAULT_255_2_778
10
15.7282627
20
106.4333093
11
15.5798627
21
106.5293093
0
LINE
8
DEFAULT_255_2_778
10
15.5798627
20
106.5293093
11
15.3081627
21
106.6211093
0
LINE
8
DEFAULT_255_2_778
10
15.3081627
20
106.6211093
11
14.7453627
21
106.7656093
0
LINE
8
DEFAULT_255_2_778
10
14.7453627
20
106.7656093
11
14.6141627
21
106.8524093
0
LINE
8
DEFAULT_255_2_778
10
14.6141627
20
106.8524093
11
14.5728627
21
106.9119093
0
LINE
8
DEFAULT_255_2_778
10
14.5728627
20
106.9119093
11
14.5553627
21
106.9616093
0
LINE
8
DEFAULT_255_2_778
10
14.5553627
20
106.9616093
11
14.5495627
21
106.9931093
0
LINE
8
DEFAULT_255_2_778
10
14.5495627
20
106.9931093
11
14.5519627
21
107.0908093
0
LINE
8
DEFAULT_255_2_778
10
14.5519627
20
107.0908093
11
14.5627627
21
107.1331093
0
LINE
8
DEFAULT_255_2_778
10
14.5627627
20
107.1331093
11
14.5908627
21
107.1937093
0
LINE
8
DEFAULT_255_2_778
10
14.5908627
20
107.1937093
11
14.6500627
21
107.2635093
0
LINE
8
DEFAULT_255_2_778
10
14.6500627
20
107.2635093
11
14.7900627
21
107.3408093
0
LINE
8
DEFAULT_255_2_778
10
14.7900627
20
107.3408093
11
15.0012627
21
107.3805093
0
LINE
8
DEFAULT_255_2_778
10
15.0012627
20
107.3805093
11
15.2009627
21
107.3696093
0
LINE
8
DEFAULT_255_2_778
10
15.2009627
20
107.3696093
11
15.4292627
21
107.2569093
0
LINE
8
DEFAULT_255_2_778
10
15.4292627
20
107.2569093
11
15.5009627
21
107.1537093
0
LINE
8
DEFAULT_255_2_778
10
15.5009627
20
107.1537093
11
15.5211627
21
107.0886093
0
LINE
8
DEFAULT_255_2_778
10
15.5211627
20
107.0886093
11
15.5253627
21
107.0587093
0
LINE
8
DEFAULT_255_2_778
10
15.5253627
20
107.0587093
11
15.5263627
21
107.0437093
0
LINE
8
DEFAULT_255_2_778
10
9.1769627
20
26.3799093
11
9.0864627
21
26.3910093
0
LINE
8
DEFAULT_255_2_778
10
9.0864627
20
26.3910093
11
9.0197627
21
26.3582093
0
LINE
8
DEFAULT_255_2_778
10
9.0197627
20
26.3582093
11
8.9700627
21
26.3084093
0
LINE
8
DEFAULT_255_2_778
10
8.9700627
20
26.3084093
11
8.9472627
21
26.2518093
0
LINE
8
DEFAULT_255_2_778
10
8.9472627
20
26.2518093
11
8.9414627
21
26.1783093
0
LINE
8
DEFAULT_255_2_778
10
8.9414627
20
26.1783093
11
8.9694627
21
26.0708093
0
LINE
8
DEFAULT_255_2_778
10
8.9694627
20
26.0708093
11
9.0271627
21
25.9933093
0
LINE
8
DEFAULT_255_2_778
10
9.0271627
20
25.9933093
11
9.0949627
21
25.9256093
0
LINE
8
DEFAULT_255_2_778
10
9.0949627
20
25.9256093
11
9.1724627
21
25.8679093
0
LINE
8
DEFAULT_255_2_778
10
9.1724627
20
25.8679093
11
9.2798627
21
25.8399093
0
LINE
8
DEFAULT_255_2_778
10
9.2798627
20
25.8399093
11
9.3534627
21
25.8457093
0
LINE
8
DEFAULT_255_2_778
10
9.3534627
20
25.8457093
11
9.4100627
21
25.8684093
0
LINE
8
DEFAULT_255_2_778
10
9.4100627
20
25.8684093
11
9.4695627
21
25.9280093
0
LINE
8
DEFAULT_255_2_778
10
9.4695627
20
25.9280093
11
9.5261627
21
25.9507093
0
LINE
8
DEFAULT_255_2_778
10
9.5261627
20
25.9507093
11
9.5899627
21
25.9468093
0
LINE
8
DEFAULT_255_2_778
10
9.5899627
20
25.9468093
11
9.6605627
21
25.9158093
0
LINE
8
DEFAULT_255_2_778
10
9.6605627
20
25.9158093
11
9.7113627
21
25.8650093
0
LINE
8
DEFAULT_255_2_778
10
9.7113627
20
25.8650093
11
9.7423627
21
25.7944093
0
LINE
8
DEFAULT_255_2_778
10
9.7423627
20
25.7944093
11
9.7463627
21
25.7306093
0
LINE
8
DEFAULT_255_2_778
10
9.7463627
20
25.7306093
11
9.7235627
21
25.6740093
0
LINE
8
DEFAULT_255_2_778
10
9.7235627
20
25.6740093
11
9.6439627
21
25.5943093
0
LINE
8
DEFAULT_255_2_778
10
9.6439627
20
25.5943093
11
9.5872627
21
25.5716093
0
LINE
8
DEFAULT_255_2_778
10
9.5872627
20
25.5716093
11
9.5065627
21
25.5925093
0
LINE
8
DEFAULT_255_2_778
10
9.5065627
20
25.5925093
11
9.4460627
21
25.6332093
0
LINE
8
DEFAULT_255_2_778
10
9.4460627
20
25.6332093
11
9.3864627
21
25.5737093
0
LINE
8
DEFAULT_255_2_778
10
9.3864627
20
25.5737093
11
9.4640627
21
25.5160093
0
LINE
8
DEFAULT_255_2_778
10
9.4640627
20
25.5160093
11
9.5785627
21
25.4612093
0
LINE
8
DEFAULT_255_2_778
10
9.5785627
20
25.4612093
11
9.6791627
21
25.4602093
0
LINE
8
DEFAULT_255_2_778
10
9.6791627
20
25.4602093
11
9.7457627
21
25.4930093
0
LINE
8
DEFAULT_255_2_778
10
9.7457627
20
25.4930093
11
9.8254627
21
25.5726093
0
LINE
8
DEFAULT_255_2_778
10
9.8254627
20
25.5726093
11
9.8582627
21
25.6393093
0
LINE
8
DEFAULT_255_2_778
10
9.8582627
20
25.6393093
11
9.8640627
21
25.7129093
0
LINE
8
DEFAULT_255_2_778
10
9.8640627
20
25.7129093
11
9.8360627
21
25.8203093
0
LINE
8
DEFAULT_255_2_778
10
9.8360627
20
25.8203093
11
9.7881627
21
25.9079093
0
LINE
8
DEFAULT_255_2_778
10
9.7881627
20
25.9079093
11
9.7034627
21
25.9925093
0
LINE
8
DEFAULT_255_2_778
10
9.7034627
20
25.9925093
11
9.6158627
21
26.0404093
0
LINE
8
DEFAULT_255_2_778
10
9.6158627
20
26.0404093
11
9.5084627
21
26.0685093
0
LINE
8
DEFAULT_255_2_778
10
9.5084627
20
26.0685093
11
9.4348627
21
26.0626093
0
LINE
8
DEFAULT_255_2_778
10
9.4348627
20
26.0626093
11
9.3682627
21
26.0298093
0
LINE
8
DEFAULT_255_2_778
10
9.3682627
20
26.0298093
11
9.3086627
21
25.9703093
0
LINE
8
DEFAULT_255_2_778
10
9.3086627
20
25.9703093
11
9.2618627
21
25.9573093
0
LINE
8
DEFAULT_255_2_778
10
9.2618627
20
25.9573093
11
9.1980627
21
25.9613093
0
LINE
8
DEFAULT_255_2_778
10
9.1980627
20
25.9613093
11
9.1375627
21
26.0020093
0
LINE
8
DEFAULT_255_2_778
10
9.1375627
20
26.0020093
11
9.1036627
21
26.0359093
0
LINE
8
DEFAULT_255_2_778
10
9.1036627
20
26.0359093
11
9.0628627
21
26.0965093
0
LINE
8
DEFAULT_255_2_778
10
9.0628627
20
26.0965093
11
9.0589627
21
26.1603093
0
LINE
8
DEFAULT_255_2_778
10
9.0589627
20
26.1603093
11
9.0718627
21
26.2071093
0
LINE
8
DEFAULT_255_2_778
10
9.0718627
20
26.2071093
11
9.1314627
21
26.2666093
0
LINE
8
DEFAULT_255_2_778
10
9.1314627
20
26.2666093
11
9.1782627
21
26.2796093
0
LINE
8
DEFAULT_255_2_778
10
9.1782627
20
26.2796093
11
9.2319627
21
26.2656093
0
LINE
8
DEFAULT_255_2_778
10
9.2319627
20
26.2656093
11
9.2758627
21
26.2418093
0
LINE
8
DEFAULT_255_2_778
10
9.2758627
20
26.2418093
11
9.3354627
21
26.3013093
0
LINE
8
DEFAULT_255_2_778
10
9.3354627
20
26.3013093
11
9.2748627
21
26.3420093
0
LINE
8
DEFAULT_255_2_778
10
9.2748627
20
26.3420093
11
9.1771627
21
26.3799093
0
LINE
8
DEFAULT_255_2_778
10
10.771649
20
26.6545135
11
10.835349
21
26.6506135
0
LINE
8
DEFAULT_255_2_778
10
10.835349
20
26.6506135
11
10.882249
21
26.6635135
0
LINE
8
DEFAULT_255_2_778
10
10.882249
20
26.6635135
11
10.958649
21
26.7064135
0
LINE
8
DEFAULT_255_2_778
10
10.958649
20
26.7064135
11
11.011349
21
26.7929135
0
LINE
8
DEFAULT_255_2_778
10
11.011349
20
26.7929135
11
11.017149
21
26.8665135
0
LINE
8
DEFAULT_255_2_778
10
11.017149
20
26.8665135
11
10.996249
21
26.9472135
0
LINE
8
DEFAULT_255_2_778
10
10.996249
20
26.9472135
11
10.938549
21
27.0247135
0
LINE
8
DEFAULT_255_2_778
10
10.938549
20
27.0247135
11
10.888849
21
26.9750135
0
LINE
8
DEFAULT_255_2_778
10
10.888849
20
26.9750135
11
10.929549
21
26.9144135
0
LINE
8
DEFAULT_255_2_778
10
10.929549
20
26.9144135
11
10.933549
21
26.8506135
0
LINE
8
DEFAULT_255_2_778
10
10.933549
20
26.8506135
11
10.880849
21
26.7641135
0
LINE
8
DEFAULT_255_2_778
10
10.880849
20
26.7641135
11
10.824249
21
26.7413135
0
LINE
8
DEFAULT_255_2_778
10
10.824249
20
26.7413135
11
10.787449
21
26.7384135
0
LINE
8
DEFAULT_255_2_778
10
10.787449
20
26.7384135
11
10.706749
21
26.7593135
0
LINE
8
DEFAULT_255_2_778
10
10.706749
20
26.7593135
11
10.662849
21
26.7831135
0
LINE
8
DEFAULT_255_2_778
10
10.662849
20
26.7831135
11
10.602249
21
26.8239135
0
LINE
8
DEFAULT_255_2_778
10
10.602249
20
26.8239135
11
10.568449
21
26.8577135
0
LINE
8
DEFAULT_255_2_778
10
10.568449
20
26.8577135
11
10.836949
21
27.1263135
0
LINE
8
DEFAULT_255_2_778
10
10.836949
20
27.1263135
11
10.769249
21
27.1940135
0
LINE
8
DEFAULT_255_2_778
10
10.769249
20
27.1940135
11
10.691749
21
27.2517135
0
LINE
8
DEFAULT_255_2_778
10
10.691749
20
27.2517135
11
10.594049
21
27.2895135
0
LINE
8
DEFAULT_255_2_778
10
10.594049
20
27.2895135
11
10.493549
21
27.2906135
0
LINE
8
DEFAULT_255_2_778
10
10.493549
20
27.2906135
11
10.417049
21
27.2477135
0
LINE
8
DEFAULT_255_2_778
10
10.417049
20
27.2477135
11
10.374249
21
27.1713135
0
LINE
8
DEFAULT_255_2_778
10
10.374249
20
27.1713135
11
10.361249
21
27.1244135
0
LINE
8
DEFAULT_255_2_778
10
10.361249
20
27.1244135
11
10.365249
21
27.0607135
0
LINE
8
DEFAULT_255_2_778
10
10.365249
20
27.0607135
11
10.379249
21
27.0070135
0
LINE
8
DEFAULT_255_2_778
10
10.379249
20
27.0070135
11
10.427149
21
26.9194135
0
LINE
8
DEFAULT_255_2_778
10
10.427149
20
26.9194135
11
10.518649
21
26.8080135
0
LINE
8
DEFAULT_255_2_778
10
10.518649
20
26.8080135
11
10.630049
21
26.7165135
0
LINE
8
DEFAULT_255_2_778
10
10.630049
20
26.7165135
11
10.717649
21
26.6686135
0
LINE
8
DEFAULT_255_2_778
10
10.717649
20
26.6686135
11
10.771349
21
26.6545135
0
LINE
8
DEFAULT_255_2_778
10
12.085249
20
25.7779135
11
12.148949
21
25.7740135
0
LINE
8
DEFAULT_255_2_778
10
12.148949
20
25.7740135
11
12.195849
21
25.7869135
0
LINE
8
DEFAULT_255_2_778
10
12.195849
20
25.7869135
11
12.272249
21
25.8298135
0
LINE
8
DEFAULT_255_2_778
10
12.272249
20
25.8298135
11
12.324949
21
25.9163135
0
LINE
8
DEFAULT_255_2_778
10
12.324949
20
25.9163135
11
12.330749
21
25.9899135
0
LINE
8
DEFAULT_255_2_778
10
12.330749
20
25.9899135
11
12.309849
21
26.0706135
0
LINE
8
DEFAULT_255_2_778
10
12.309849
20
26.0706135
11
12.252149
21
26.1481135
0
LINE
8
DEFAULT_255_2_778
10
12.252149
20
26.1481135
11
12.202449
21
26.0984135
0
LINE
8
DEFAULT_255_2_778
10
12.202449
20
26.0984135
11
12.243149
21
26.0378135
0
LINE
8
DEFAULT_255_2_778
10
12.243149
20
26.0378135
11
12.247149
21
25.9740135
0
LINE
8
DEFAULT_255_2_778
10
12.247149
20
25.9740135
11
12.194449
21
25.8875135
0
LINE
8
DEFAULT_255_2_778
10
12.194449
20
25.8875135
11
12.137849
21
25.8647135
0
LINE
8
DEFAULT_255_2_778
10
12.137849
20
25.8647135
11
12.101049
21
25.8618135
0
LINE
8
DEFAULT_255_2_778
10
12.101049
20
25.8618135
11
12.020349
21
25.8827135
0
LINE
8
DEFAULT_255_2_778
10
12.020349
20
25.8827135
11
11.976449
21
25.9065135
0
LINE
8
DEFAULT_255_2_778
10
11.976449
20
25.9065135
11
11.915849
21
25.9473135
0
LINE
8
DEFAULT_255_2_778
10
11.915849
20
25.9473135
11
11.882049
21
25.9811135
0
LINE
8
DEFAULT_255_2_778
10
11.882049
20
25.9811135
11
12.150549
21
26.2497135
0
LINE
8
DEFAULT_255_2_778
10
12.150549
20
26.2497135
11
12.082849
21
26.3174135
0
LINE
8
DEFAULT_255_2_778
10
12.082849
20
26.3174135
11
12.005349
21
26.3751135
0
LINE
8
DEFAULT_255_2_778
10
12.005349
20
26.3751135
11
11.907649
21
26.4129135
0
LINE
8
DEFAULT_255_2_778
10
11.907649
20
26.4129135
11
11.807149
21
26.4140135
0
LINE
8
DEFAULT_255_2_778
10
11.807149
20
26.4140135
11
11.730649
21
26.3711135
0
LINE
8
DEFAULT_255_2_778
10
11.730649
20
26.3711135
11
11.687849
21
26.2947135
0
LINE
8
DEFAULT_255_2_778
10
11.687849
20
26.2947135
11
11.674849
21
26.2478135
0
LINE
8
DEFAULT_255_2_778
10
11.674849
20
26.2478135
11
11.678849
21
26.1841135
0
LINE
8
DEFAULT_255_2_778
10
11.678849
20
26.1841135
11
11.692849
21
26.1304135
0
LINE
8
DEFAULT_255_2_778
10
11.692849
20
26.1304135
11
11.740749
21
26.0428135
0
LINE
8
DEFAULT_255_2_778
10
11.740749
20
26.0428135
11
11.832249
21
25.9314135
0
LINE
8
DEFAULT_255_2_778
10
11.832249
20
25.9314135
11
11.943649
21
25.8399135
0
LINE
8
DEFAULT_255_2_778
10
11.943649
20
25.8399135
11
12.031249
21
25.7920135
0
LINE
8
DEFAULT_255_2_778
10
12.031249
20
25.7920135
11
12.084949
21
25.7779135
0
LINE
8
DEFAULT_255_2_778
10
10.971649
20
24.6643135
11
11.035349
21
24.6604135
0
LINE
8
DEFAULT_255_2_778
10
11.035349
20
24.6604135
11
11.082249
21
24.6733135
0
LINE
8
DEFAULT_255_2_778
10
11.082249
20
24.6733135
11
11.158649
21
24.7162135
0
LINE
8
DEFAULT_255_2_778
10
11.158649
20
24.7162135
11
11.211349
21
24.8027135
0
LINE
8
DEFAULT_255_2_778
10
11.211349
20
24.8027135
11
11.217149
21
24.8763135
0
LINE
8
DEFAULT_255_2_778
10
11.217149
20
24.8763135
11
11.196249
21
24.9570135
0
LINE
8
DEFAULT_255_2_778
10
11.196249
20
24.9570135
11
11.138549
21
25.0345135
0
LINE
8
DEFAULT_255_2_778
10
11.138549
20
25.0345135
11
11.088849
21
24.9848135
0
LINE
8
DEFAULT_255_2_778
10
11.088849
20
24.9848135
11
11.129549
21
24.9242135
0
LINE
8
DEFAULT_255_2_778
10
11.129549
20
24.9242135
11
11.133549
21
24.8604135
0
LINE
8
DEFAULT_255_2_778
10
11.133549
20
24.8604135
11
11.080849
21
24.7739135
0
LINE
8
DEFAULT_255_2_778
10
11.080849
20
24.7739135
11
11.024249
21
24.7511135
0
LINE
8
DEFAULT_255_2_778
10
11.024249
20
24.7511135
11
10.987449
21
24.7482135
0
LINE
8
DEFAULT_255_2_778
10
10.987449
20
24.7482135
11
10.906749
21
24.7691135
0
LINE
8
DEFAULT_255_2_778
10
10.906749
20
24.7691135
11
10.862849
21
24.7929135
0
LINE
8
DEFAULT_255_2_778
10
10.862849
20
24.7929135
11
10.802249
21
24.8337135
0
LINE
8
DEFAULT_255_2_778
10
10.802249
20
24.8337135
11
10.768449
21
24.8675135
0
LINE
8
DEFAULT_255_2_778
10
10.768449
20
24.8675135
11
11.036949
21
25.1361135
0
LINE
8
DEFAULT_255_2_778
10
11.036949
20
25.1361135
11
10.969249
21
25.2038135
0
LINE
8
DEFAULT_255_2_778
10
10.969249
20
25.2038135
11
10.891749
21
25.2615135
0
LINE
8
DEFAULT_255_2_778
10
10.891749
20
25.2615135
11
10.794049
21
25.2993135
0
LINE
8
DEFAULT_255_2_778
10
10.794049
20
25.2993135
11
10.693549
21
25.3004135
0
LINE
8
DEFAULT_255_2_778
10
10.693549
20
25.3004135
11
10.617049
21
25.2575135
0
LINE
8
DEFAULT_255_2_778
10
10.617049
20
25.2575135
11
10.574249
21
25.1811135
0
LINE
8
DEFAULT_255_2_778
10
10.574249
20
25.1811135
11
10.561249
21
25.1342135
0
LINE
8
DEFAULT_255_2_778
10
10.561249
20
25.1342135
11
10.565249
21
25.0705135
0
LINE
8
DEFAULT_255_2_778
10
10.565249
20
25.0705135
11
10.579249
21
25.0168135
0
LINE
8
DEFAULT_255_2_778
10
10.579249
20
25.0168135
11
10.627149
21
24.9292135
0
LINE
8
DEFAULT_255_2_778
10
10.627149
20
24.9292135
11
10.718649
21
24.8178135
0
LINE
8
DEFAULT_255_2_778
10
10.718649
20
24.8178135
11
10.830049
21
24.7263135
0
LINE
8
DEFAULT_255_2_778
10
10.830049
20
24.7263135
11
10.917649
21
24.6784135
0
LINE
8
DEFAULT_255_2_778
10
10.917649
20
24.6784135
11
10.971349
21
24.6643135
0
LINE
8
DEFAULT_255_2_778
10
11.2084802
20
27.192701
11
11.2721802
21
27.188801
0
LINE
8
DEFAULT_255_2_778
10
11.2721802
20
27.188801
11
11.3388802
21
27.221601
0
LINE
8
DEFAULT_255_2_778
10
11.3388802
20
27.221601
11
11.4065802
21
27.153801
0
LINE
8
DEFAULT_255_2_778
10
11.4065802
20
27.153801
11
11.3301802
21
27.111001
0
LINE
8
DEFAULT_255_2_778
10
11.3301802
20
27.111001
11
11.2832802
21
27.098001
0
LINE
8
DEFAULT_255_2_778
10
11.2832802
20
27.098001
11
11.2195802
21
27.102001
0
LINE
8
DEFAULT_255_2_778
10
11.2195802
20
27.102001
11
11.1319802
21
27.149901
0
LINE
8
DEFAULT_255_2_778
10
11.1319802
20
27.149901
11
10.7935802
21
27.488301
0
LINE
8
DEFAULT_255_2_778
10
10.7935802
20
27.488301
11
10.7139802
21
27.408601
0
LINE
8
DEFAULT_255_2_778
10
10.7139802
20
27.408601
11
10.6461802
21
27.476401
0
LINE
8
DEFAULT_255_2_778
10
10.6461802
20
27.476401
11
10.7258802
21
27.556001
0
LINE
8
DEFAULT_255_2_778
10
10.7258802
20
27.556001
11
10.5903802
21
27.691501
0
LINE
8
DEFAULT_255_2_778
10
10.5903802
20
27.691501
11
10.6400802
21
27.741201
0
LINE
8
DEFAULT_255_2_778
10
10.6400802
20
27.741201
11
10.7755802
21
27.605701
0
LINE
8
DEFAULT_255_2_778
10
10.7755802
20
27.605701
11
10.8848802
21
27.715001
0
LINE
8
DEFAULT_255_2_778
10
10.8848802
20
27.715001
11
10.9525802
21
27.647301
0
LINE
8
DEFAULT_255_2_778
10
10.9525802
20
27.647301
11
10.8432802
21
27.538001
0
LINE
8
DEFAULT_255_2_778
10
10.8432802
20
27.538001
11
11.1478802
21
27.233501
0
LINE
8
DEFAULT_255_2_778
10
11.1478802
20
27.233501
11
11.2084802
21
27.192701
0
LINE
8
DEFAULT_255_2_778
10
11.8061802
20
25.600401
11
11.8698802
21
25.596501
0
LINE
8
DEFAULT_255_2_778
10
11.8698802
20
25.596501
11
11.9365802
21
25.629301
0
LINE
8
DEFAULT_255_2_778
10
11.9365802
20
25.629301
11
12.0042802
21
25.561501
0
LINE
8
DEFAULT_255_2_778
10
12.0042802
20
25.561501
11
11.9278802
21
25.518701
0
LINE
8
DEFAULT_255_2_778
10
11.9278802
20
25.518701
11
11.8809802
21
25.505701
0
LINE
8
DEFAULT_255_2_778
10
11.8809802
20
25.505701
11
11.8172802
21
25.509701
0
LINE
8
DEFAULT_255_2_778
10
11.8172802
20
25.509701
11
11.7296802
21
25.557601
0
LINE
8
DEFAULT_255_2_778
10
11.7296802
20
25.557601
11
11.3912802
21
25.896001
0
LINE
8
DEFAULT_255_2_778
10
11.3912802
20
25.896001
11
11.3116802
21
25.816301
0
LINE
8
DEFAULT_255_2_778
10
11.3116802
20
25.816301
11
11.2438802
21
25.884101
0
LINE
8
DEFAULT_255_2_778
10
11.2438802
20
25.884101
11
11.3235802
21
25.963701
0
LINE
8
DEFAULT_255_2_778
10
11.3235802
20
25.963701
11
11.1880802
21
26.099201
0
LINE
8
DEFAULT_255_2_778
10
11.1880802
20
26.099201
11
11.2377802
21
26.148901
0
LINE
8
DEFAULT_255_2_778
10
11.2377802
20
26.148901
11
11.3732802
21
26.013401
0
LINE
8
DEFAULT_255_2_778
10
11.3732802
20
26.013401
11
11.4825802
21
26.122701
0
LINE
8
DEFAULT_255_2_778
10
11.4825802
20
26.122701
11
11.5502802
21
26.055001
0
LINE
8
DEFAULT_255_2_778
10
11.5502802
20
26.055001
11
11.4409802
21
25.945701
0
LINE
8
DEFAULT_255_2_778
10
11.4409802
20
25.945701
11
11.7455802
21
25.641201
0
LINE
8
DEFAULT_255_2_778
10
11.7455802
20
25.641201
11
11.8061802
21
25.600401
0
LINE
8
DEFAULT_255_2_778
10
10.6922802
20
24.486501
11
10.7559802
21
24.482601
0
LINE
8
DEFAULT_255_2_778
10
10.7559802
20
24.482601
11
10.8226802
21
24.515401
0
LINE
8
DEFAULT_255_2_778
10
10.8226802
20
24.515401
11
10.8903802
21
24.447601
0
LINE
8
DEFAULT_255_2_778
10
10.8903802
20
24.447601
11
10.8139802
21
24.404801
0
LINE
8
DEFAULT_255_2_778
10
10.8139802
20
24.404801
11
10.7670802
21
24.391801
0
LINE
8
DEFAULT_255_2_778
10
10.7670802
20
24.391801
11
10.7033802
21
24.395801
0
LINE
8
DEFAULT_255_2_778
10
10.7033802
20
24.395801
11
10.6157802
21
24.443701
0
LINE
8
DEFAULT_255_2_778
10
10.6157802
20
24.443701
11
10.2773802
21
24.782101
0
LINE
8
DEFAULT_255_2_778
10
10.2773802
20
24.782101
11
10.1977802
21
24.702401
0
LINE
8
DEFAULT_255_2_778
10
10.1977802
20
24.702401
11
10.1299802
21
24.770201
0
LINE
8
DEFAULT_255_2_778
10
10.1299802
20
24.770201
11
10.2096802
21
24.849801
0
LINE
8
DEFAULT_255_2_778
10
10.2096802
20
24.849801
11
10.0741802
21
24.985301
0
LINE
8
DEFAULT_255_2_778
10
10.0741802
20
24.985301
11
10.1238802
21
25.035001
0
LINE
8
DEFAULT_255_2_778
10
10.1238802
20
25.035001
11
10.2593802
21
24.899501
0
LINE
8
DEFAULT_255_2_778
10
10.2593802
20
24.899501
11
10.3686802
21
25.008801
0
LINE
8
DEFAULT_255_2_778
10
10.3686802
20
25.008801
11
10.4363802
21
24.941101
0
LINE
8
DEFAULT_255_2_778
10
10.4363802
20
24.941101
11
10.3270802
21
24.831801
0
LINE
8
DEFAULT_255_2_778
10
10.3270802
20
24.831801
11
10.6316802
21
24.527301
0
LINE
8
DEFAULT_255_2_778
10
10.6316802
20
24.527301
11
10.6922802
21
24.486501
0
LINE
8
DEFAULT_255_2_778
10
19.6105262
20
26.5024217
11
19.5738262
21
26.5053217
0
LINE
8
DEFAULT_255_2_778
10
19.5738262
20
26.5053217
11
19.5171262
21
26.5280217
0
LINE
8
DEFAULT_255_2_778
10
19.5171262
20
26.5280217
11
19.4775262
21
26.5677217
0
LINE
8
DEFAULT_255_2_778
10
19.4775262
20
26.5677217
11
19.4547262
21
26.6244217
0
LINE
8
DEFAULT_255_2_778
10
19.4547262
20
26.6244217
11
19.4587262
21
26.6881217
0
LINE
8
DEFAULT_255_2_778
10
19.4587262
20
26.6881217
11
19.4796262
21
26.7688217
0
LINE
8
DEFAULT_255_2_778
10
19.4796262
20
26.7688217
11
19.5034262
21
26.8127217
0
LINE
8
DEFAULT_255_2_778
10
19.5034262
20
26.8127217
11
19.5611262
21
26.8903217
0
LINE
8
DEFAULT_255_2_778
10
19.5611262
20
26.8903217
11
19.8995262
21
27.2287217
0
LINE
8
DEFAULT_255_2_778
10
19.8995262
20
27.2287217
11
19.9492262
21
27.1789217
0
LINE
8
DEFAULT_255_2_778
10
19.9492262
20
27.1789217
11
19.6108262
21
26.8405217
0
LINE
8
DEFAULT_255_2_778
10
19.6108262
20
26.8405217
11
19.5701262
21
26.7799217
0
LINE
8
DEFAULT_255_2_778
10
19.5701262
20
26.7799217
11
19.5391262
21
26.7093217
0
LINE
8
DEFAULT_255_2_778
10
19.5391262
20
26.7093217
11
19.5449262
21
26.6357217
0
LINE
8
DEFAULT_255_2_778
10
19.5449262
20
26.6357217
11
19.5846262
21
26.5960217
0
LINE
8
DEFAULT_255_2_778
10
19.5846262
20
26.5960217
11
19.6412262
21
26.5733217
0
LINE
8
DEFAULT_255_2_778
10
19.6412262
20
26.5733217
11
19.7050262
21
26.5773217
0
LINE
8
DEFAULT_255_2_778
10
19.7050262
20
26.5773217
11
19.7756262
21
26.6082217
0
LINE
8
DEFAULT_255_2_778
10
19.7756262
20
26.6082217
11
20.1479262
21
26.9805217
0
LINE
8
DEFAULT_255_2_778
10
20.1479262
20
26.9805217
11
20.1976262
21
26.9307217
0
LINE
8
DEFAULT_255_2_778
10
20.1976262
20
26.9307217
11
19.7576262
21
26.4907217
0
LINE
8
DEFAULT_255_2_778
10
19.7576262
20
26.4907217
11
19.7000262
21
26.4132217
0
LINE
8
DEFAULT_255_2_778
10
19.7000262
20
26.4132217
11
19.6762262
21
26.3693217
0
LINE
8
DEFAULT_255_2_778
10
19.6762262
20
26.3693217
11
19.6264262
21
26.4190217
0
LINE
8
DEFAULT_255_2_778
10
19.6264262
20
26.4190217
11
19.6912262
21
26.5235217
0
LINE
8
DEFAULT_255_2_778
10
19.6912262
20
26.5235217
11
19.6105262
21
26.5026217
0
LINE
8
DEFAULT_255_2_778
10
9.9149262
20
27.2530217
11
9.9657262
21
27.2022217
0
LINE
8
DEFAULT_255_2_778
10
9.9657262
20
27.2022217
11
9.9228262
21
27.1257217
0
LINE
8
DEFAULT_255_2_778
10
9.9228262
20
27.1257217
11
9.9199262
21
27.0890217
0
LINE
8
DEFAULT_255_2_778
10
9.9199262
20
27.0890217
11
9.9339262
21
27.0352217
0
LINE
8
DEFAULT_255_2_778
10
9.9339262
20
27.0352217
11
9.9747262
21
26.9747217
0
LINE
8
DEFAULT_255_2_778
10
9.9747262
20
26.9747217
11
10.0593262
21
26.8900217
0
LINE
8
DEFAULT_255_2_778
10
10.0593262
20
26.8900217
11
10.1488262
21
26.9794217
0
LINE
8
DEFAULT_255_2_778
10
10.1488262
20
26.9794217
11
10.2165262
21
26.9117217
0
LINE
8
DEFAULT_255_2_778
10
10.2165262
20
26.9117217
11
10.1271262
21
26.8223217
0
LINE
8
DEFAULT_255_2_778
10
10.1271262
20
26.8223217
11
10.6009262
21
26.3484217
0
LINE
8
DEFAULT_255_2_778
10
10.6009262
20
26.3484217
11
10.5512262
21
26.2986217
0
LINE
8
DEFAULT_255_2_778
10
10.5512262
20
26.2986217
11
10.0773262
21
26.7725217
0
LINE
8
DEFAULT_255_2_778
10
10.0773262
20
26.7725217
11
9.9779262
21
26.6730217
0
LINE
8
DEFAULT_255_2_778
10
9.9779262
20
26.6730217
11
9.9101262
21
26.7408217
0
LINE
8
DEFAULT_255_2_778
10
9.9101262
20
26.7408217
11
10.0096262
21
26.8403217
0
LINE
8
DEFAULT_255_2_778
10
10.0096262
20
26.8403217
11
9.9080262
21
26.9419217
0
LINE
8
DEFAULT_255_2_778
10
9.9080262
20
26.9419217
11
9.8673262
21
27.0024217
0
LINE
8
DEFAULT_255_2_778
10
9.8673262
20
27.0024217
11
9.8363262
21
27.0731217
0
LINE
8
DEFAULT_255_2_778
10
9.8363262
20
27.0731217
11
9.8421262
21
27.1466217
0
LINE
8
DEFAULT_255_2_778
10
9.8421262
20
27.1466217
11
9.8749262
21
27.2133217
0
LINE
8
DEFAULT_255_2_778
10
9.8749262
20
27.2133217
11
9.9146262
21
27.2530217
0
LINE
8
DEFAULT_255_2_778
10
11.3920262
20
25.4573217
11
11.4825262
21
25.4462217
0
LINE
8
DEFAULT_255_2_778
10
11.4825262
20
25.4462217
11
11.5701262
21
25.3983217
0
LINE
8
DEFAULT_255_2_778
10
11.5701262
20
25.3983217
11
11.6040262
21
25.3644217
0
LINE
8
DEFAULT_255_2_778
10
11.6040262
20
25.3644217
11
11.6349262
21
25.2938217
0
LINE
8
DEFAULT_255_2_778
10
11.6349262
20
25.2938217
11
11.6291262
21
25.2202217
0
LINE
8
DEFAULT_255_2_778
10
11.6291262
20
25.2202217
11
11.5863262
21
25.1437217
0
LINE
8
DEFAULT_255_2_778
10
11.5863262
20
25.1437217
11
11.5267262
21
25.0842217
0
LINE
8
DEFAULT_255_2_778
10
11.5267262
20
25.0842217
11
11.4503262
21
25.0413217
0
LINE
8
DEFAULT_255_2_778
10
11.4503262
20
25.0413217
11
11.4034262
21
25.0284217
0
LINE
8
DEFAULT_255_2_778
10
11.4034262
20
25.0284217
11
11.3397262
21
25.0324217
0
LINE
8
DEFAULT_255_2_778
10
11.3397262
20
25.0324217
11
11.2521262
21
25.0802217
0
LINE
8
DEFAULT_255_2_778
10
11.2521262
20
25.0802217
11
11.3018262
21
25.1300217
0
LINE
8
DEFAULT_255_2_778
10
11.3018262
20
25.1300217
11
11.3457262
21
25.1062217
0
LINE
8
DEFAULT_255_2_778
10
11.3457262
20
25.1062217
11
11.3825262
21
25.1091217
0
LINE
8
DEFAULT_255_2_778
10
11.3825262
20
25.1091217
11
11.4590262
21
25.1519217
0
LINE
8
DEFAULT_255_2_778
10
11.4590262
20
25.1519217
11
11.5185262
21
25.2115217
0
LINE
8
DEFAULT_255_2_778
10
11.5185262
20
25.2115217
11
11.5413262
21
25.2681217
0
LINE
8
DEFAULT_255_2_778
10
11.5413262
20
25.2681217
11
11.5442262
21
25.3049217
0
LINE
8
DEFAULT_255_2_778
10
11.5442262
20
25.3049217
11
11.5204262
21
25.3488217
0
LINE
8
DEFAULT_255_2_778
10
11.5204262
20
25.3488217
11
11.4765262
21
25.3726217
0
LINE
8
DEFAULT_255_2_778
10
11.4765262
20
25.3726217
11
11.4127262
21
25.3766217
0
LINE
8
DEFAULT_255_2_778
10
11.4127262
20
25.3766217
11
11.1590262
21
25.2922217
0
LINE
8
DEFAULT_255_2_778
10
11.1590262
20
25.2922217
11
11.0685262
21
25.3033217
0
LINE
8
DEFAULT_255_2_778
10
11.0685262
20
25.3033217
11
10.9809262
21
25.3512217
0
LINE
8
DEFAULT_255_2_778
10
10.9809262
20
25.3512217
11
10.9470262
21
25.3850217
0
LINE
8
DEFAULT_255_2_778
10
10.9470262
20
25.3850217
11
10.9161262
21
25.4557217
0
LINE
8
DEFAULT_255_2_778
10
10.9161262
20
25.4557217
11
10.9219262
21
25.5292217
0
LINE
8
DEFAULT_255_2_778
10
10.9219262
20
25.5292217
11
10.9647262
21
25.6057217
0
LINE
8
DEFAULT_255_2_778
10
10.9647262
20
25.6057217
11
11.0243262
21
25.6652217
0
LINE
8
DEFAULT_255_2_778
10
11.0243262
20
25.6652217
11
11.1007262
21
25.7081217
0
LINE
8
DEFAULT_255_2_778
10
11.1007262
20
25.7081217
11
11.1476262
21
25.7211217
0
LINE
8
DEFAULT_255_2_778
10
11.1476262
20
25.7211217
11
11.2113262
21
25.7171217
0
LINE
8
DEFAULT_255_2_778
10
11.2113262
20
25.7171217
11
11.2989262
21
25.6692217
0
LINE
8
DEFAULT_255_2_778
10
11.2989262
20
25.6692217
11
11.2492262
21
25.6195217
0
LINE
8
DEFAULT_255_2_778
10
11.2492262
20
25.6195217
11
11.2053262
21
25.6433217
0
LINE
8
DEFAULT_255_2_778
10
11.2053262
20
25.6433217
11
11.1685262
21
25.6404217
0
LINE
8
DEFAULT_255_2_778
10
11.1685262
20
25.6404217
11
11.0920262
21
25.5975217
0
LINE
8
DEFAULT_255_2_778
10
11.0920262
20
25.5975217
11
11.0325262
21
25.5380217
0
LINE
8
DEFAULT_255_2_778
10
11.0325262
20
25.5380217
11
11.0097262
21
25.4814217
0
LINE
8
DEFAULT_255_2_778
10
11.0097262
20
25.4814217
11
11.0068262
21
25.4446217
0
LINE
8
DEFAULT_255_2_778
10
11.0068262
20
25.4446217
11
11.0306262
21
25.4007217
0
LINE
8
DEFAULT_255_2_778
10
11.0306262
20
25.4007217
11
11.0745262
21
25.3768217
0
LINE
8
DEFAULT_255_2_778
10
11.0745262
20
25.3768217
11
11.1383262
21
25.3729217
0
LINE
8
DEFAULT_255_2_778
10
11.1383262
20
25.3729217
11
11.3920262
21
25.4573217
0
LINE
8
DEFAULT_255_2_778
10
13.7886262
20
16.3450217
11
13.7183262
21
16.3688217
0
LINE
8
DEFAULT_255_2_778
10
13.7183262
20
16.3688217
11
13.6479262
21
16.3688217
0
LINE
8
DEFAULT_255_2_778
10
13.6479262
20
16.3688217
11
13.5915262
21
16.3450217
0
LINE
8
DEFAULT_255_2_778
10
13.5915262
20
16.3450217
11
13.5352262
21
16.2971217
0
LINE
8
DEFAULT_255_2_778
10
13.5352262
20
16.2971217
11
13.4788262
21
16.2014217
0
LINE
8
DEFAULT_255_2_778
10
13.4788262
20
16.2014217
11
13.4648262
21
16.1056217
0
LINE
8
DEFAULT_255_2_778
10
13.4648262
20
16.1056217
11
13.4648262
21
16.0098217
0
LINE
8
DEFAULT_255_2_778
10
13.4648262
20
16.0098217
11
13.4788262
21
15.9140217
0
LINE
8
DEFAULT_255_2_778
10
13.4788262
20
15.9140217
11
13.5352262
21
15.8182217
0
LINE
8
DEFAULT_255_2_778
10
13.5352262
20
15.8182217
11
13.5915262
21
15.7703217
0
LINE
8
DEFAULT_255_2_778
10
13.5915262
20
15.7703217
11
13.6479262
21
15.7465217
0
LINE
8
DEFAULT_255_2_778
10
13.6479262
20
15.7465217
11
13.7323262
21
15.7465217
0
LINE
8
DEFAULT_255_2_778
10
13.7323262
20
15.7465217
11
13.7886262
21
15.7227217
0
LINE
8
DEFAULT_255_2_778
10
13.7886262
20
15.7227217
11
13.8307262
21
15.6748217
0
LINE
8
DEFAULT_255_2_778
10
13.8307262
20
15.6748217
11
13.8588262
21
15.6031217
0
LINE
8
DEFAULT_255_2_778
10
13.8588262
20
15.6031217
11
13.8588262
21
15.5314217
0
LINE
8
DEFAULT_255_2_778
10
13.8588262
20
15.5314217
11
13.8307262
21
15.4597217
0
LINE
8
DEFAULT_255_2_778
10
13.8307262
20
15.4597217
11
13.7886262
21
15.4118217
0
LINE
8
DEFAULT_255_2_778
10
13.7886262
20
15.4118217
11
13.7323262
21
15.3880217
0
LINE
8
DEFAULT_255_2_778
10
13.7323262
20
15.3880217
11
13.6198262
21
15.3880217
0
LINE
8
DEFAULT_255_2_778
10
13.6198262
20
15.3880217
11
13.5635262
21
15.4118217
0
LINE
8
DEFAULT_255_2_778
10
13.5635262
20
15.4118217
11
13.5214262
21
15.4835217
0
LINE
8
DEFAULT_255_2_778
10
13.5214262
20
15.4835217
11
13.5074262
21
15.5552217
0
LINE
8
DEFAULT_255_2_778
10
13.5074262
20
15.5552217
11
13.4230262
21
15.5552217
0
LINE
8
DEFAULT_255_2_778
10
13.4230262
20
15.5552217
11
13.4370262
21
15.4595217
0
LINE
8
DEFAULT_255_2_778
10
13.4370262
20
15.4595217
11
13.4791262
21
15.3399217
0
LINE
8
DEFAULT_255_2_778
10
13.4791262
20
15.3399217
11
13.5495262
21
15.2682217
0
LINE
8
DEFAULT_255_2_778
10
13.5495262
20
15.2682217
11
13.6198262
21
15.2444217
0
LINE
8
DEFAULT_255_2_778
10
13.6198262
20
15.2444217
11
13.7323262
21
15.2444217
0
LINE
8
DEFAULT_255_2_778
10
13.7323262
20
15.2444217
11
13.8027262
21
15.2682217
0
LINE
8
DEFAULT_255_2_778
10
13.8027262
20
15.2682217
11
13.8590262
21
15.3161217
0
LINE
8
DEFAULT_255_2_778
10
13.8590262
20
15.3161217
11
13.9154262
21
15.4118217
0
LINE
8
DEFAULT_255_2_778
10
13.9154262
20
15.4118217
11
13.9434262
21
15.5076217
0
LINE
8
DEFAULT_255_2_778
10
13.9434262
20
15.5076217
11
13.9434262
21
15.6272217
0
LINE
8
DEFAULT_255_2_778
10
13.9434262
20
15.6272217
11
13.9154262
21
15.7230217
0
LINE
8
DEFAULT_255_2_778
10
13.9154262
20
15.7230217
11
13.8590262
21
15.8188217
0
LINE
8
DEFAULT_255_2_778
10
13.8590262
20
15.8188217
11
13.8027262
21
15.8667217
0
LINE
8
DEFAULT_255_2_778
10
13.8027262
20
15.8667217
11
13.7323262
21
15.8905217
0
LINE
8
DEFAULT_255_2_778
10
13.7323262
20
15.8905217
11
13.6479262
21
15.8905217
0
LINE
8
DEFAULT_255_2_778
10
13.6479262
20
15.8905217
11
13.6058262
21
15.9143217
0
LINE
8
DEFAULT_255_2_778
10
13.6058262
20
15.9143217
11
13.5637262
21
15.9622217
0
LINE
8
DEFAULT_255_2_778
10
13.5637262
20
15.9622217
11
13.5497262
21
16.0339217
0
LINE
8
DEFAULT_255_2_778
10
13.5497262
20
16.0339217
11
13.5497262
21
16.0818217
0
LINE
8
DEFAULT_255_2_778
10
13.5497262
20
16.0818217
11
13.5637262
21
16.1535217
0
LINE
8
DEFAULT_255_2_778
10
13.5637262
20
16.1535217
11
13.6058262
21
16.2014217
0
LINE
8
DEFAULT_255_2_778
10
13.6058262
20
16.2014217
11
13.6479262
21
16.2252217
0
LINE
8
DEFAULT_255_2_778
10
13.6479262
20
16.2252217
11
13.7323262
21
16.2252217
0
LINE
8
DEFAULT_255_2_778
10
13.7323262
20
16.2252217
11
13.7744262
21
16.2014217
0
LINE
8
DEFAULT_255_2_778
10
13.7744262
20
16.2014217
11
13.8024262
21
16.1535217
0
LINE
8
DEFAULT_255_2_778
10
13.8024262
20
16.1535217
11
13.8164262
21
16.1056217
0
LINE
8
DEFAULT_255_2_778
10
13.8164262
20
16.1056217
11
13.9008262
21
16.1056217
0
LINE
8
DEFAULT_255_2_778
10
13.9008262
20
16.1056217
11
13.8868262
21
16.1773217
0
LINE
8
DEFAULT_255_2_778
10
13.8868262
20
16.1773217
11
13.8447262
21
16.2731217
0
LINE
8
DEFAULT_255_2_778
10
13.8447262
20
16.2731217
11
13.7884262
21
16.3448217
0
LINE
8
DEFAULT_255_2_778
10
14.252474
20
15.650775
11
14.407274
21
15.650775
0
LINE
8
DEFAULT_255_2_778
10
14.407274
20
15.650775
11
14.407274
21
15.507075
0
LINE
8
DEFAULT_255_2_778
10
14.407274
20
15.507075
11
14.393174
21
15.459175
0
LINE
8
DEFAULT_255_2_778
10
14.393174
20
15.459175
11
14.351174
21
15.387475
0
LINE
8
DEFAULT_255_2_778
10
14.351174
20
15.387475
11
14.280774
21
15.339675
0
LINE
8
DEFAULT_255_2_778
10
14.280774
20
15.339675
11
14.196374
21
15.339675
0
LINE
8
DEFAULT_255_2_778
10
14.196374
20
15.339675
11
14.139974
21
15.387475
0
LINE
8
DEFAULT_255_2_778
10
14.139974
20
15.387475
11
14.125974
21
15.435375
0
LINE
8
DEFAULT_255_2_778
10
14.125974
20
15.435375
11
14.125974
21
15.483275
0
LINE
8
DEFAULT_255_2_778
10
14.125974
20
15.483275
11
14.139974
21
15.554975
0
LINE
8
DEFAULT_255_2_778
10
14.139974
20
15.554975
11
14.168074
21
15.602875
0
LINE
8
DEFAULT_255_2_778
10
14.168074
20
15.602875
11
14.196074
21
15.626675
0
LINE
8
DEFAULT_255_2_778
10
14.196074
20
15.626675
11
14.252474
21
15.650475
0
LINE
8
DEFAULT_255_2_778
10
16.987174
20
17.000675
11
17.141974
21
17.000675
0
LINE
8
DEFAULT_255_2_778
10
17.141974
20
17.000675
11
17.141974
21
16.856975
0
LINE
8
DEFAULT_255_2_778
10
17.141974
20
16.856975
11
17.127874
21
16.809075
0
LINE
8
DEFAULT_255_2_778
10
17.127874
20
16.809075
11
17.085874
21
16.737375
0
LINE
8
DEFAULT_255_2_778
10
17.085874
20
16.737375
11
17.015474
21
16.689575
0
LINE
8
DEFAULT_255_2_778
10
17.015474
20
16.689575
11
16.931074
21
16.689575
0
LINE
8
DEFAULT_255_2_778
10
16.931074
20
16.689575
11
16.874674
21
16.737375
0
LINE
8
DEFAULT_255_2_778
10
16.874674
20
16.737375
11
16.860674
21
16.785275
0
LINE
8
DEFAULT_255_2_778
10
16.860674
20
16.785275
11
16.860674
21
16.833175
0
LINE
8
DEFAULT_255_2_778
10
16.860674
20
16.833175
11
16.874674
21
16.904875
0
LINE
8
DEFAULT_255_2_778
10
16.874674
20
16.904875
11
16.902774
21
16.952775
0
LINE
8
DEFAULT_255_2_778
10
16.902774
20
16.952775
11
16.930774
21
16.976575
0
LINE
8
DEFAULT_255_2_778
10
16.930774
20
16.976575
11
16.987174
21
17.000375
0
LINE
8
DEFAULT_255_2_778
10
18.5270198
20
26.6547396
11
18.5908198
21
26.6587396
0
LINE
8
DEFAULT_255_2_778
10
18.5908198
20
26.6587396
11
18.6474198
21
26.6359396
0
LINE
8
DEFAULT_255_2_778
10
18.6474198
20
26.6359396
11
18.6871198
21
26.5962396
0
LINE
8
DEFAULT_255_2_778
10
18.6871198
20
26.5962396
11
18.7001198
21
26.5494396
0
LINE
8
DEFAULT_255_2_778
10
18.7001198
20
26.5494396
11
18.6961198
21
26.4856396
0
LINE
8
DEFAULT_255_2_778
10
18.6961198
20
26.4856396
11
18.6821198
21
26.4319396
0
LINE
8
DEFAULT_255_2_778
10
18.6821198
20
26.4319396
11
18.6413198
21
26.3713396
0
LINE
8
DEFAULT_255_2_778
10
18.6413198
20
26.3713396
11
18.5667198
21
26.2769396
0
LINE
8
DEFAULT_255_2_778
10
18.5667198
20
26.2769396
11
18.2452198
21
25.9554396
0
LINE
8
DEFAULT_255_2_778
10
18.2452198
20
25.9554396
11
18.1955198
21
26.0052396
0
LINE
8
DEFAULT_255_2_778
10
18.1955198
20
26.0052396
11
18.5170198
21
26.3266396
0
LINE
8
DEFAULT_255_2_778
10
18.5170198
20
26.3266396
11
18.5916198
21
26.4211396
0
LINE
8
DEFAULT_255_2_778
10
18.5916198
20
26.4211396
11
18.6056198
21
26.4748396
0
LINE
8
DEFAULT_255_2_778
10
18.6056198
20
26.4748396
11
18.6027198
21
26.5116396
0
LINE
8
DEFAULT_255_2_778
10
18.6027198
20
26.5116396
11
18.5799198
21
26.5682396
0
LINE
8
DEFAULT_255_2_778
10
18.5799198
20
26.5682396
11
18.5233198
21
26.5910396
0
LINE
8
DEFAULT_255_2_778
10
18.5233198
20
26.5910396
11
18.4596198
21
26.5870396
0
LINE
8
DEFAULT_255_2_778
10
18.4596198
20
26.5870396
11
18.4058198
21
26.5730396
0
LINE
8
DEFAULT_255_2_778
10
18.4058198
20
26.5730396
11
18.0166198
21
26.1838396
0
LINE
8
DEFAULT_255_2_778
10
18.0166198
20
26.1838396
11
17.9669198
21
26.2335396
0
LINE
8
DEFAULT_255_2_778
10
17.9669198
20
26.2335396
11
18.5085198
21
26.7751396
0
LINE
8
DEFAULT_255_2_778
10
18.5085198
20
26.7751396
11
18.5582198
21
26.7254396
0
LINE
8
DEFAULT_255_2_778
10
18.5582198
20
26.7254396
11
18.4736198
21
26.6407396
0
LINE
8
DEFAULT_255_2_778
10
18.4736198
20
26.6407396
11
18.5273198
21
26.6547396
0
LINE
8
DEFAULT_255_2_778
10
20.2949813
20
26.6302187
11
20.3317813
21
26.6272187
0
LINE
8
DEFAULT_255_2_778
10
20.3317813
20
26.6272187
11
20.3883813
21
26.6045187
0
LINE
8
DEFAULT_255_2_778
10
20.3883813
20
26.6045187
11
20.4409813
21
26.5180187
0
LINE
8
DEFAULT_255_2_778
10
20.4409813
20
26.5180187
11
20.4370813
21
26.4542187
0
LINE
8
DEFAULT_255_2_778
10
20.4370813
20
26.4542187
11
20.3962813
21
26.3936187
0
LINE
8
DEFAULT_255_2_778
10
20.3962813
20
26.3936187
11
20.4460813
21
26.3439187
0
LINE
8
DEFAULT_255_2_778
10
20.4460813
20
26.3439187
11
20.5036813
21
26.4214187
0
LINE
8
DEFAULT_255_2_778
10
20.5036813
20
26.4214187
11
20.5245813
21
26.5021187
0
LINE
8
DEFAULT_255_2_778
10
20.5245813
20
26.5021187
11
20.5187813
21
26.5757187
0
LINE
8
DEFAULT_255_2_778
10
20.5187813
20
26.5757187
11
20.4661813
21
26.6622187
0
LINE
8
DEFAULT_255_2_778
10
20.4661813
20
26.6622187
11
20.3896813
21
26.7050187
0
LINE
8
DEFAULT_255_2_778
10
20.3896813
20
26.7050187
11
20.3428813
21
26.7180187
0
LINE
8
DEFAULT_255_2_778
10
20.3428813
20
26.7180187
11
20.2790813
21
26.7140187
0
LINE
8
DEFAULT_255_2_778
10
20.2790813
20
26.7140187
11
20.2253813
21
26.7000187
0
LINE
8
DEFAULT_255_2_778
10
20.2253813
20
26.7000187
11
20.1377813
21
26.6521187
0
LINE
8
DEFAULT_255_2_778
10
20.1377813
20
26.6521187
11
20.0263813
21
26.5606187
0
LINE
8
DEFAULT_255_2_778
10
20.0263813
20
26.5606187
11
19.9348813
21
26.4492187
0
LINE
8
DEFAULT_255_2_778
10
19.9348813
20
26.4492187
11
19.8869813
21
26.3616187
0
LINE
8
DEFAULT_255_2_778
10
19.8869813
20
26.3616187
11
19.8729813
21
26.3079187
0
LINE
8
DEFAULT_255_2_778
10
19.8729813
20
26.3079187
11
19.8689813
21
26.2441187
0
LINE
8
DEFAULT_255_2_778
10
19.8689813
20
26.2441187
11
19.8819813
21
26.1973187
0
LINE
8
DEFAULT_255_2_778
10
19.8819813
20
26.1973187
11
19.9247813
21
26.1208187
0
LINE
8
DEFAULT_255_2_778
10
19.9247813
20
26.1208187
11
20.0112813
21
26.0682187
0
LINE
8
DEFAULT_255_2_778
10
20.0112813
20
26.0682187
11
20.0848813
21
26.0624187
0
LINE
8
DEFAULT_255_2_778
10
20.0848813
20
26.0624187
11
20.1655813
21
26.0833187
0
LINE
8
DEFAULT_255_2_778
10
20.1655813
20
26.0833187
11
20.2430813
21
26.1409187
0
LINE
8
DEFAULT_255_2_778
10
20.2430813
20
26.1409187
11
20.1933813
21
26.1907187
0
LINE
8
DEFAULT_255_2_778
10
20.1933813
20
26.1907187
11
20.1327813
21
26.1499187
0
LINE
8
DEFAULT_255_2_778
10
20.1327813
20
26.1499187
11
20.0689813
21
26.1460187
0
LINE
8
DEFAULT_255_2_778
10
20.0689813
20
26.1460187
11
19.9824813
21
26.1986187
0
LINE
8
DEFAULT_255_2_778
10
19.9824813
20
26.1986187
11
19.9565813
21
26.2920187
0
LINE
8
DEFAULT_255_2_778
10
19.9565813
20
26.2920187
11
19.9774813
21
26.3727187
0
LINE
8
DEFAULT_255_2_778
10
19.9774813
20
26.3727187
11
20.0422813
21
26.4772187
0
LINE
8
DEFAULT_255_2_778
10
20.0422813
20
26.4772187
11
20.0930813
21
26.5280187
0
LINE
8
DEFAULT_255_2_778
10
20.0930813
20
26.5280187
11
20.1705813
21
26.5857187
0
LINE
8
DEFAULT_255_2_778
10
20.1705813
20
26.5857187
11
20.2144813
21
26.6095187
0
LINE
8
DEFAULT_255_2_778
10
20.2144813
20
26.6095187
11
20.2951813
21
26.6304187
0
LINE
8
DEFAULT_255_2_778
10
21.5591198
20
25.4678396
11
21.6229198
21
25.4718396
0
LINE
8
DEFAULT_255_2_778
10
21.6229198
20
25.4718396
11
21.6795198
21
25.4490396
0
LINE
8
DEFAULT_255_2_778
10
21.6795198
20
25.4490396
11
21.7192198
21
25.4093396
0
LINE
8
DEFAULT_255_2_778
10
21.7192198
20
25.4093396
11
21.7322198
21
25.3625396
0
LINE
8
DEFAULT_255_2_778
10
21.7322198
20
25.3625396
11
21.7282198
21
25.2987396
0
LINE
8
DEFAULT_255_2_778
10
21.7282198
20
25.2987396
11
21.7142198
21
25.2450396
0
LINE
8
DEFAULT_255_2_778
10
21.7142198
20
25.2450396
11
21.6734198
21
25.1844396
0
LINE
8
DEFAULT_255_2_778
10
21.6734198
20
25.1844396
11
21.5988198
21
25.0900396
0
LINE
8
DEFAULT_255_2_778
10
21.5988198
20
25.0900396
11
21.2773198
21
24.7685396
0
LINE
8
DEFAULT_255_2_778
10
21.2773198
20
24.7685396
11
21.2276198
21
24.8183396
0
LINE
8
DEFAULT_255_2_778
10
21.2276198
20
24.8183396
11
21.5491198
21
25.1397396
0
LINE
8
DEFAULT_255_2_778
10
21.5491198
20
25.1397396
11
21.6237198
21
25.2342396
0
LINE
8
DEFAULT_255_2_778
10
21.6237198
20
25.2342396
11
21.6377198
21
25.2879396
0
LINE
8
DEFAULT_255_2_778
10
21.6377198
20
25.2879396
11
21.6348198
21
25.3247396
0
LINE
8
DEFAULT_255_2_778
10
21.6348198
20
25.3247396
11
21.6120198
21
25.3813396
0
LINE
8
DEFAULT_255_2_778
10
21.6120198
20
25.3813396
11
21.5554198
21
25.4041396
0
LINE
8
DEFAULT_255_2_778
10
21.5554198
20
25.4041396
11
21.4917198
21
25.4001396
0
LINE
8
DEFAULT_255_2_778
10
21.4917198
20
25.4001396
11
21.4379198
21
25.3861396
0
LINE
8
DEFAULT_255_2_778
10
21.4379198
20
25.3861396
11
21.0487198
21
24.9969396
0
LINE
8
DEFAULT_255_2_778
10
21.0487198
20
24.9969396
11
20.9990198
21
25.0466396
0
LINE
8
DEFAULT_255_2_778
10
20.9990198
20
25.0466396
11
21.5406198
21
25.5882396
0
LINE
8
DEFAULT_255_2_778
10
21.5406198
20
25.5882396
11
21.5903198
21
25.5385396
0
LINE
8
DEFAULT_255_2_778
10
21.5903198
20
25.5385396
11
21.5057198
21
25.4538396
0
LINE
8
DEFAULT_255_2_778
10
21.5057198
20
25.4538396
11
21.5594198
21
25.4678396
0
LINE
8
DEFAULT_255_2_778
10
11.5772011
20
27.4598844
11
10.9642011
21
27.7945844
0
LINE
8
DEFAULT_255_2_778
10
10.9642011
20
27.7945844
11
11.0237011
21
27.8540844
0
LINE
8
DEFAULT_255_2_778
10
11.0237011
20
27.8540844
11
11.4886011
21
27.6079844
0
LINE
8
DEFAULT_255_2_778
10
11.4886011
20
27.6079844
11
11.2227011
21
28.0530844
0
LINE
8
DEFAULT_255_2_778
10
11.2227011
20
28.0530844
11
11.2822011
21
28.1125844
0
LINE
8
DEFAULT_255_2_778
10
11.2822011
20
28.1125844
11
11.8958011
21
27.1013844
0
LINE
8
DEFAULT_255_2_778
10
11.8958011
20
27.1013844
11
11.8363011
21
27.0417844
0
LINE
8
DEFAULT_255_2_778
10
11.8363011
20
27.0417844
11
11.5772011
21
27.4598844
0
LINE
8
DEFAULT_255_2_778
10
10.5513979
20
27.2127062
11
10.6151979
21
27.2088062
0
LINE
8
DEFAULT_255_2_778
10
10.6151979
20
27.2088062
11
10.6857979
21
27.1778062
0
LINE
8
DEFAULT_255_2_778
10
10.6857979
20
27.1778062
11
10.7196979
21
27.1439062
0
LINE
8
DEFAULT_255_2_778
10
10.7196979
20
27.1439062
11
10.5108979
21
26.9352062
0
LINE
8
DEFAULT_255_2_778
10
10.5108979
20
26.9352062
11
10.4939979
21
26.9521062
0
LINE
8
DEFAULT_255_2_778
10
10.4939979
20
26.9521062
11
10.4701979
21
26.9960062
0
LINE
8
DEFAULT_255_2_778
10
10.4701979
20
26.9960062
11
10.4492979
21
27.0767062
0
LINE
8
DEFAULT_255_2_778
10
10.4492979
20
27.0767062
11
10.4521979
21
27.1135062
0
LINE
8
DEFAULT_255_2_778
10
10.4521979
20
27.1135062
11
10.4749979
21
27.1701062
0
LINE
8
DEFAULT_255_2_778
10
10.4749979
20
27.1701062
11
10.5513979
21
27.2130062
0
LINE
8
DEFAULT_255_2_778
10
11.8650979
20
26.3364062
11
11.9288979
21
26.3325062
0
LINE
8
DEFAULT_255_2_778
10
11.9288979
20
26.3325062
11
11.9994979
21
26.3015062
0
LINE
8
DEFAULT_255_2_778
10
11.9994979
20
26.3015062
11
12.0333979
21
26.2676062
0
LINE
8
DEFAULT_255_2_778
10
12.0333979
20
26.2676062
11
11.8245979
21
26.0589062
0
LINE
8
DEFAULT_255_2_778
10
11.8245979
20
26.0589062
11
11.8076979
21
26.0758062
0
LINE
8
DEFAULT_255_2_778
10
11.8076979
20
26.0758062
11
11.7838979
21
26.1197062
0
LINE
8
DEFAULT_255_2_778
10
11.7838979
20
26.1197062
11
11.7629979
21
26.2004062
0
LINE
8
DEFAULT_255_2_778
10
11.7629979
20
26.2004062
11
11.7658979
21
26.2372062
0
LINE
8
DEFAULT_255_2_778
10
11.7658979
20
26.2372062
11
11.7886979
21
26.2938062
0
LINE
8
DEFAULT_255_2_778
10
11.7886979
20
26.2938062
11
11.8650979
21
26.3367062
0
LINE
8
DEFAULT_255_2_778
10
10.7513979
20
25.2228062
11
10.8151979
21
25.2189062
0
LINE
8
DEFAULT_255_2_778
10
10.8151979
20
25.2189062
11
10.8857979
21
25.1879062
0
LINE
8
DEFAULT_255_2_778
10
10.8857979
20
25.1879062
11
10.9196979
21
25.1540062
0
LINE
8
DEFAULT_255_2_778
10
10.9196979
20
25.1540062
11
10.7108979
21
24.9453062
0
LINE
8
DEFAULT_255_2_778
10
10.7108979
20
24.9453062
11
10.6939979
21
24.9622062
0
LINE
8
DEFAULT_255_2_778
10
10.6939979
20
24.9622062
11
10.6701979
21
25.0061062
0
LINE
8
DEFAULT_255_2_778
10
10.6701979
20
25.0061062
11
10.6492979
21
25.0868062
0
LINE
8
DEFAULT_255_2_778
10
10.6492979
20
25.0868062
11
10.6521979
21
25.1236062
0
LINE
8
DEFAULT_255_2_778
10
10.6521979
20
25.1236062
11
10.6749979
21
25.1802062
0
LINE
8
DEFAULT_255_2_778
10
10.6749979
20
25.1802062
11
10.7513979
21
25.2231062
0
LINE
8
DEFAULT_255_2_778
10
17.8441657
20
27.3042989
11
17.8074657
21
27.3071989
0
LINE
8
DEFAULT_255_2_778
10
17.8074657
20
27.3071989
11
17.7804657
21
27.3002989
0
LINE
8
DEFAULT_255_2_778
10
17.7804657
20
27.3002989
11
17.7365657
21
27.2764989
0
LINE
8
DEFAULT_255_2_778
10
17.7365657
20
27.2764989
11
17.3303657
21
26.8703989
0
LINE
8
DEFAULT_255_2_778
10
17.3303657
20
26.8703989
11
17.2806657
21
26.9200989
0
LINE
8
DEFAULT_255_2_778
10
17.2806657
20
26.9200989
11
17.6867657
21
27.3262989
0
LINE
8
DEFAULT_255_2_778
10
17.6867657
20
27.3262989
11
17.7105657
21
27.3701989
0
LINE
8
DEFAULT_255_2_778
10
17.7105657
20
27.3701989
11
17.7174657
21
27.3971989
0
LINE
8
DEFAULT_255_2_778
10
17.7174657
20
27.3971989
11
17.7145657
21
27.4338989
0
LINE
8
DEFAULT_255_2_778
10
17.7145657
20
27.4338989
11
17.6947657
21
27.4537989
0
LINE
8
DEFAULT_255_2_778
10
17.6947657
20
27.4537989
11
17.6478657
21
27.4666989
0
LINE
8
DEFAULT_255_2_778
10
17.6478657
20
27.4666989
11
17.5941657
21
27.4526989
0
LINE
8
DEFAULT_255_2_778
10
17.5941657
20
27.4526989
11
17.1710657
21
27.0296989
0
LINE
8
DEFAULT_255_2_778
10
17.1710657
20
27.0296989
11
17.1213657
21
27.0793989
0
LINE
8
DEFAULT_255_2_778
10
17.1213657
20
27.0793989
11
17.6629657
21
27.6209989
0
LINE
8
DEFAULT_255_2_778
10
17.6629657
20
27.6209989
11
17.7126657
21
27.5712989
0
LINE
8
DEFAULT_255_2_778
10
17.7126657
20
27.5712989
11
17.6618657
21
27.5204989
0
LINE
8
DEFAULT_255_2_778
10
17.6618657
20
27.5204989
11
17.7156657
21
27.5344989
0
LINE
8
DEFAULT_255_2_778
10
17.7156657
20
27.5344989
11
17.7624657
21
27.5214989
0
LINE
8
DEFAULT_255_2_778
10
17.7624657
20
27.5214989
11
17.8021657
21
27.4817989
0
LINE
8
DEFAULT_255_2_778
10
17.8021657
20
27.4817989
11
17.8150657
21
27.4349989
0
LINE
8
DEFAULT_255_2_778
10
17.8150657
20
27.4349989
11
17.7941657
21
27.3542989
0
LINE
8
DEFAULT_255_2_778
10
17.7941657
20
27.3542989
11
17.8748657
21
27.3751989
0
LINE
8
DEFAULT_255_2_778
10
17.8748657
20
27.3751989
11
17.9217657
21
27.3621989
0
LINE
8
DEFAULT_255_2_778
10
17.9217657
20
27.3621989
11
17.9614657
21
27.3225989
0
LINE
8
DEFAULT_255_2_778
10
17.9614657
20
27.3225989
11
17.9743657
21
27.2756989
0
LINE
8
DEFAULT_255_2_778
10
17.9743657
20
27.2756989
11
17.9603657
21
27.2219989
0
LINE
8
DEFAULT_255_2_778
10
17.9603657
20
27.2219989
11
17.8955657
21
27.1174989
0
LINE
8
DEFAULT_255_2_778
10
17.8955657
20
27.1174989
11
17.4893657
21
26.7113989
0
LINE
8
DEFAULT_255_2_778
10
17.4893657
20
26.7113989
11
17.4396657
21
26.7610989
0
LINE
8
DEFAULT_255_2_778
10
17.4396657
20
26.7610989
11
17.8457657
21
27.1671989
0
LINE
8
DEFAULT_255_2_778
10
17.8457657
20
27.1671989
11
17.8695657
21
27.2111989
0
LINE
8
DEFAULT_255_2_778
10
17.8695657
20
27.2111989
11
17.8764657
21
27.2380989
0
LINE
8
DEFAULT_255_2_778
10
17.8764657
20
27.2380989
11
17.8735657
21
27.2748989
0
LINE
8
DEFAULT_255_2_778
10
17.8735657
20
27.2748989
11
17.8436657
21
27.3047989
0
LINE
8
DEFAULT_255_2_778
10
19.1202657
20
26.6710989
11
19.1700657
21
26.6213989
0
LINE
8
DEFAULT_255_2_778
10
19.1700657
20
26.6213989
11
19.0853657
21
26.5366989
0
LINE
8
DEFAULT_255_2_778
10
19.0853657
20
26.5366989
11
19.0356657
21
26.5864989
0
LINE
8
DEFAULT_255_2_778
10
19.0356657
20
26.5864989
11
19.1202657
21
26.6710989
0
LINE
8
DEFAULT_255_2_778
10
18.8662657
20
26.4170989
11
18.9160657
21
26.3673989
0
LINE
8
DEFAULT_255_2_778
10
18.9160657
20
26.3673989
11
18.3744657
21
25.8257989
0
LINE
8
DEFAULT_255_2_778
10
18.3744657
20
25.8257989
11
18.3246657
21
25.8754989
0
LINE
8
DEFAULT_255_2_778
10
18.3246657
20
25.8754989
11
18.8662657
21
26.4170989
0
LINE
8
DEFAULT_255_2_778
10
19.210499
20
26.3439198
11
19.260199
21
26.2942198
0
LINE
8
DEFAULT_255_2_778
10
19.260199
20
26.2942198
11
19.124699
21
26.1587198
0
LINE
8
DEFAULT_255_2_778
10
19.124699
20
26.1587198
11
19.233999
21
26.0494198
0
LINE
8
DEFAULT_255_2_778
10
19.233999
20
26.0494198
11
19.166299
21
25.9817198
0
LINE
8
DEFAULT_255_2_778
10
19.166299
20
25.9817198
11
19.056999
21
26.0910198
0
LINE
8
DEFAULT_255_2_778
10
19.056999
20
26.0910198
11
18.752499
21
25.7864198
0
LINE
8
DEFAULT_255_2_778
10
18.752499
20
25.7864198
11
18.711699
21
25.7258198
0
LINE
8
DEFAULT_255_2_778
10
18.711699
20
25.7258198
11
18.707799
21
25.6621198
0
LINE
8
DEFAULT_255_2_778
10
18.707799
20
25.6621198
11
18.740599
21
25.5954198
0
LINE
8
DEFAULT_255_2_778
10
18.740599
20
25.5954198
11
18.672799
21
25.5277198
0
LINE
8
DEFAULT_255_2_778
10
18.672799
20
25.5277198
11
18.629999
21
25.6041198
0
LINE
8
DEFAULT_255_2_778
10
18.629999
20
25.6041198
11
18.616999
21
25.6510198
0
LINE
8
DEFAULT_255_2_778
10
18.616999
20
25.6510198
11
18.620999
21
25.7147198
0
LINE
8
DEFAULT_255_2_778
10
18.620999
20
25.7147198
11
18.668899
21
25.8023198
0
LINE
8
DEFAULT_255_2_778
10
18.668899
20
25.8023198
11
19.007299
21
26.1407198
0
LINE
8
DEFAULT_255_2_778
10
19.007299
20
26.1407198
11
18.927599
21
26.2203198
0
LINE
8
DEFAULT_255_2_778
10
18.927599
20
26.2203198
11
18.995399
21
26.2881198
0
LINE
8
DEFAULT_255_2_778
10
18.995399
20
26.2881198
11
19.074999
21
26.2084198
0
LINE
8
DEFAULT_255_2_778
10
19.074999
20
26.2084198
11
19.210499
21
26.3439198
0
LINE
8
DEFAULT_255_2_778
10
20.910199
20
26.4891198
11
20.959899
21
26.4394198
0
LINE
8
DEFAULT_255_2_778
10
20.959899
20
26.4394198
11
20.824399
21
26.3039198
0
LINE
8
DEFAULT_255_2_778
10
20.824399
20
26.3039198
11
20.933699
21
26.1946198
0
LINE
8
DEFAULT_255_2_778
10
20.933699
20
26.1946198
11
20.865999
21
26.1269198
0
LINE
8
DEFAULT_255_2_778
10
20.865999
20
26.1269198
11
20.756699
21
26.2362198
0
LINE
8
DEFAULT_255_2_778
10
20.756699
20
26.2362198
11
20.452199
21
25.9316198
0
LINE
8
DEFAULT_255_2_778
10
20.452199
20
25.9316198
11
20.411399
21
25.8710198
0
LINE
8
DEFAULT_255_2_778
10
20.411399
20
25.8710198
11
20.407499
21
25.8073198
0
LINE
8
DEFAULT_255_2_778
10
20.407499
20
25.8073198
11
20.440299
21
25.7406198
0
LINE
8
DEFAULT_255_2_778
10
20.440299
20
25.7406198
11
20.372499
21
25.6729198
0
LINE
8
DEFAULT_255_2_778
10
20.372499
20
25.6729198
11
20.329699
21
25.7493198
0
LINE
8
DEFAULT_255_2_778
10
20.329699
20
25.7493198
11
20.316699
21
25.7962198
0
LINE
8
DEFAULT_255_2_778
10
20.316699
20
25.7962198
11
20.320699
21
25.8599198
0
LINE
8
DEFAULT_255_2_778
10
20.320699
20
25.8599198
11
20.368599
21
25.9475198
0
LINE
8
DEFAULT_255_2_778
10
20.368599
20
25.9475198
11
20.706999
21
26.2859198
0
LINE
8
DEFAULT_255_2_778
10
20.706999
20
26.2859198
11
20.627299
21
26.3655198
0
LINE
8
DEFAULT_255_2_778
10
20.627299
20
26.3655198
11
20.695099
21
26.4333198
0
LINE
8
DEFAULT_255_2_778
10
20.695099
20
26.4333198
11
20.774699
21
26.3536198
0
LINE
8
DEFAULT_255_2_778
10
20.774699
20
26.3536198
11
20.910199
21
26.4891198
0
ARC
8
DEFAULT_255_2_778
10
15.0619605
20
22.1724257
40
1.1355415
50
179.927561
51
216.8272938
0
ARC
8
DEFAULT_255_2_778
10
15.0659309
20
22.1725706
40
1.1388087
50
216.713394
51
265.6580868
0
ARC
8
DEFAULT_255_2_778
10
15.0665947
20
22.1899226
40
1.1561612
50
265.6903886
51
269.9962946
0
ARC
8
DEFAULT_255_2_778
10
15.0681242
20
22.1689658
40
1.1352056
50
269.9190272
51
306.8293501
0
ARC
8
DEFAULT_255_2_778
10
15.0677191
20
22.1732752
40
1.1389002
50
306.7157101
51
355.6582627
0
ARC
8
DEFAULT_255_2_778
10
15.0504372
20
22.1739364
40
1.1561828
50
355.6904272
51
359.9962833
0
ARC
8
DEFAULT_255_2_778
10
15.0667513
20
22.17383
40
0.6749686
50
270.0058265
51
0.0026641
0
ARC
8
DEFAULT_255_2_778
10
15.0668099
20
22.1738514
40
0.67499
50
179.999153
51
270.000847
0
LINE
8
DEFAULT_255_2_778
10
21.2670199
20
26.3690614
11
21.3168199
21
26.3193614
0
LINE
8
DEFAULT_255_2_778
10
21.3168199
20
26.3193614
11
21.2321199
21
26.2346614
0
LINE
8
DEFAULT_255_2_778
10
21.2321199
20
26.2346614
11
21.1824199
21
26.2843614
0
LINE
8
DEFAULT_255_2_778
10
21.1824199
20
26.2843614
11
21.2670199
21
26.3690614
0
LINE
8
DEFAULT_255_2_778
10
21.0133199
20
26.1153614
11
21.0630199
21
26.0655614
0
LINE
8
DEFAULT_255_2_778
10
21.0630199
20
26.0655614
11
20.5214199
21
25.5239614
0
LINE
8
DEFAULT_255_2_778
10
20.5214199
20
25.5239614
11
20.4717199
21
25.5737614
0
LINE
8
DEFAULT_255_2_778
10
20.4717199
20
25.5737614
11
21.0133199
21
26.1153614
0
LINE
8
DEFAULT_255_2_778
10
19.9679199
20
25.1125614
11
20.0047199
21
25.1096614
0
LINE
8
DEFAULT_255_2_778
10
20.0047199
20
25.1096614
11
20.0613199
21
25.0868614
0
LINE
8
DEFAULT_255_2_778
10
20.0613199
20
25.0868614
11
20.1042199
21
25.0104614
0
LINE
8
DEFAULT_255_2_778
10
20.1042199
20
25.0104614
11
20.1002199
21
24.9466614
0
LINE
8
DEFAULT_255_2_778
10
20.1002199
20
24.9466614
11
20.0692199
21
24.8760614
0
LINE
8
DEFAULT_255_2_778
10
20.0692199
20
24.8760614
11
20.0354199
21
24.8421614
0
LINE
8
DEFAULT_255_2_778
10
20.0354199
20
24.8421614
11
19.8266199
21
25.0508614
0
LINE
8
DEFAULT_255_2_778
10
19.8266199
20
25.0508614
11
19.8436199
21
25.0678614
0
LINE
8
DEFAULT_255_2_778
10
19.8436199
20
25.0678614
11
19.8875199
21
25.0916614
0
LINE
8
DEFAULT_255_2_778
10
19.8875199
20
25.0916614
11
19.9682199
21
25.1125614
0
LINE
8
DEFAULT_255_2_778
10
19.6838199
20
24.5503614
11
19.7573199
21
24.5444614
0
LINE
8
DEFAULT_255_2_778
10
19.7573199
20
24.5444614
11
19.8380199
21
24.5653614
0
LINE
8
DEFAULT_255_2_778
10
19.8380199
20
24.5653614
11
19.9155199
21
24.6230614
0
LINE
8
DEFAULT_255_2_778
10
19.9155199
20
24.6230614
11
19.8658199
21
24.6728614
0
LINE
8
DEFAULT_255_2_778
10
19.8658199
20
24.6728614
11
19.8052199
21
24.6320614
0
LINE
8
DEFAULT_255_2_778
10
19.8052199
20
24.6320614
11
19.7414199
21
24.6280614
0
LINE
8
DEFAULT_255_2_778
10
19.7414199
20
24.6280614
11
19.6549199
21
24.6807614
0
LINE
8
DEFAULT_255_2_778
10
19.6549199
20
24.6807614
11
19.6322199
21
24.7373614
0
LINE
8
DEFAULT_255_2_778
10
19.6322199
20
24.7373614
11
19.6292199
21
24.7741614
0
LINE
8
DEFAULT_255_2_778
10
19.6292199
20
24.7741614
11
19.6501199
21
24.8548614
0
LINE
8
DEFAULT_255_2_778
10
19.6501199
20
24.8548614
11
19.6740199
21
24.8987614
0
LINE
8
DEFAULT_255_2_778
10
19.6740199
20
24.8987614
11
19.7147199
21
24.9593614
0
LINE
8
DEFAULT_255_2_778
10
19.7147199
20
24.9593614
11
19.7486199
21
24.9932614
0
LINE
8
DEFAULT_255_2_778
10
19.7486199
20
24.9932614
11
20.0171199
21
24.7246614
0
LINE
8
DEFAULT_255_2_778
10
20.0171199
20
24.7246614
11
20.0849199
21
24.7923614
0
LINE
8
DEFAULT_255_2_778
10
20.0849199
20
24.7923614
11
20.1425199
21
24.8699614
0
LINE
8
DEFAULT_255_2_778
10
20.1425199
20
24.8699614
11
20.1804199
21
24.9675614
0
LINE
8
DEFAULT_255_2_778
10
20.1804199
20
24.9675614
11
20.1814199
21
25.0680614
0
LINE
8
DEFAULT_255_2_778
10
20.1814199
20
25.0680614
11
20.1386199
21
25.1445614
0
LINE
8
DEFAULT_255_2_778
10
20.1386199
20
25.1445614
11
20.0621199
21
25.1874614
0
LINE
8
DEFAULT_255_2_778
10
20.0621199
20
25.1874614
11
20.0153199
21
25.2003614
0
LINE
8
DEFAULT_255_2_778
10
20.0153199
20
25.2003614
11
19.9515199
21
25.1964614
0
LINE
8
DEFAULT_255_2_778
10
19.9515199
20
25.1964614
11
19.8978199
21
25.1823614
0
LINE
8
DEFAULT_255_2_778
10
19.8978199
20
25.1823614
11
19.8102199
21
25.1345614
0
LINE
8
DEFAULT_255_2_778
10
19.8102199
20
25.1345614
11
19.6988199
21
25.0429614
0
LINE
8
DEFAULT_255_2_778
10
19.6988199
20
25.0429614
11
19.6073199
21
24.9315614
0
LINE
8
DEFAULT_255_2_778
10
19.6073199
20
24.9315614
11
19.5594199
21
24.8439614
0
LINE
8
DEFAULT_255_2_778
10
19.5594199
20
24.8439614
11
19.5454199
21
24.7902614
0
LINE
8
DEFAULT_255_2_778
10
19.5454199
20
24.7902614
11
19.5414199
21
24.7265614
0
LINE
8
DEFAULT_255_2_778
10
19.5414199
20
24.7265614
11
19.5544199
21
24.6796614
0
LINE
8
DEFAULT_255_2_778
10
19.5544199
20
24.6796614
11
19.5972199
21
24.6032614
0
LINE
8
DEFAULT_255_2_778
10
19.5972199
20
24.6032614
11
19.6838199
21
24.5505614
0
LINE
8
DEFAULT_255_2_778
10
16.2066199
20
22.1738614
11
16.2066199
21
23.1638614
0
LINE
8
DEFAULT_255_2_778
10
16.2066199
20
23.1638614
11
17.1533199
21
21.0339614
0
LINE
8
DEFAULT_255_2_778
10
17.1533199
20
21.0339614
11
17.6332199
21
21.0339614
0
LINE
8
DEFAULT_255_2_778
10
17.6332199
20
21.0339614
11
18.5783199
21
23.5538614
0
LINE
8
DEFAULT_255_2_778
10
18.5783199
20
23.5538614
11
18.0682199
21
23.5538614
0
LINE
8
DEFAULT_255_2_778
10
18.0682199
20
23.5538614
11
17.3742199
21
21.7031614
0
LINE
8
DEFAULT_255_2_778
10
17.3742199
20
21.7031614
11
16.5516199
21
23.5538614
0
LINE
8
DEFAULT_255_2_778
10
16.5516199
20
23.5538614
11
15.7417199
21
23.5538614
0
LINE
8
DEFAULT_255_2_778
10
15.7417199
20
23.5538614
11
15.7417199
21
22.1738614
0
LINE
8
DEFAULT_255_2_778
10
14.3918199
20
22.1738614
11
14.3918199
21
23.5538614
0
LINE
8
DEFAULT_255_2_778
10
14.3918199
20
23.5538614
11
11.8714199
21
23.5538614
0
LINE
8
DEFAULT_255_2_778
10
11.8714199
20
23.5538614
11
11.8714199
21
23.1638614
0
LINE
8
DEFAULT_255_2_778
10
11.8714199
20
23.1638614
11
12.6588199
21
23.1638614
0
LINE
8
DEFAULT_255_2_778
10
12.6588199
20
23.1638614
11
12.6588199
21
21.0339614
0
LINE
8
DEFAULT_255_2_778
10
12.6588199
20
21.0339614
11
13.1388199
21
21.0339614
0
LINE
8
DEFAULT_255_2_778
10
13.1388199
20
21.0339614
11
13.1388199
21
23.1638614
0
LINE
8
DEFAULT_255_2_778
10
13.1388199
20
23.1638614
11
13.9262199
21
23.1638614
0
LINE
8
DEFAULT_255_2_778
10
13.9262199
20
23.1638614
11
13.9262199
21
22.1738614
0
LINE
8
DEFAULT_255_2_778
10
15.3282958
20
16.7135312
11
15.3985958
21
16.6897312
0
LINE
8
DEFAULT_255_2_778
10
15.3985958
20
16.6897312
11
15.3985958
21
16.5939312
0
LINE
8
DEFAULT_255_2_778
10
15.3985958
20
16.5939312
11
15.3141958
21
16.6178312
0
LINE
8
DEFAULT_255_2_778
10
15.3141958
20
16.6178312
11
15.2721958
21
16.6416312
0
LINE
8
DEFAULT_255_2_778
10
15.2721958
20
16.6416312
11
15.2300958
21
16.6895312
0
LINE
8
DEFAULT_255_2_778
10
15.2300958
20
16.6895312
11
15.2019958
21
16.7852312
0
LINE
8
DEFAULT_255_2_778
10
15.2019958
20
16.7852312
11
15.2019958
21
17.2639312
0
LINE
8
DEFAULT_255_2_778
10
15.2019958
20
17.2639312
11
15.0895958
21
17.2639312
0
LINE
8
DEFAULT_255_2_778
10
15.0895958
20
17.2639312
11
15.0895958
21
17.3596312
0
LINE
8
DEFAULT_255_2_778
10
15.0895958
20
17.3596312
11
15.2019958
21
17.3596312
0
LINE
8
DEFAULT_255_2_778
10
15.2019958
20
17.3596312
11
15.2019958
21
17.5512312
0
LINE
8
DEFAULT_255_2_778
10
15.2019958
20
17.5512312
11
15.2723958
21
17.5512312
0
LINE
8
DEFAULT_255_2_778
10
15.2723958
20
17.5512312
11
15.2723958
21
17.3596312
0
LINE
8
DEFAULT_255_2_778
10
15.2723958
20
17.3596312
11
15.4271958
21
17.3596312
0
LINE
8
DEFAULT_255_2_778
10
15.4271958
20
17.3596312
11
15.4271958
21
17.2639312
0
LINE
8
DEFAULT_255_2_778
10
15.4271958
20
17.2639312
11
15.2723958
21
17.2639312
0
LINE
8
DEFAULT_255_2_778
10
15.2723958
20
17.2639312
11
15.2723958
21
16.8331312
0
LINE
8
DEFAULT_255_2_778
10
15.2723958
20
16.8331312
11
15.2863958
21
16.7614312
0
LINE
8
DEFAULT_255_2_778
10
15.2863958
20
16.7614312
11
15.3284958
21
16.7135312
0
LINE
8
DEFAULT_255_2_778
10
15.3211625
20
15.9140469
11
15.4055625
21
15.8902469
0
LINE
8
DEFAULT_255_2_778
10
15.4055625
20
15.8902469
11
15.4475625
21
15.8423469
0
LINE
8
DEFAULT_255_2_778
10
15.4475625
20
15.8423469
11
15.4756625
21
15.7706469
0
LINE
8
DEFAULT_255_2_778
10
15.4756625
20
15.7706469
11
15.4756625
21
15.7227469
0
LINE
8
DEFAULT_255_2_778
10
15.4756625
20
15.7227469
11
15.1803625
21
15.7227469
0
LINE
8
DEFAULT_255_2_778
10
15.1803625
20
15.7227469
11
15.1803625
21
15.7465469
0
LINE
8
DEFAULT_255_2_778
10
15.1803625
20
15.7465469
11
15.1943625
21
15.7944469
0
LINE
8
DEFAULT_255_2_778
10
15.1943625
20
15.7944469
11
15.2364625
21
15.8661469
0
LINE
8
DEFAULT_255_2_778
10
15.2364625
20
15.8661469
11
15.2644625
21
15.8899469
0
LINE
8
DEFAULT_255_2_778
10
15.2644625
20
15.8899469
11
15.3208625
21
15.9137469
0
LINE
8
DEFAULT_255_2_778
10
15.8981958
20
15.3636312
11
15.9684958
21
15.3398312
0
LINE
8
DEFAULT_255_2_778
10
15.9684958
20
15.3398312
11
15.9684958
21
15.2440312
0
LINE
8
DEFAULT_255_2_778
10
15.9684958
20
15.2440312
11
15.8840958
21
15.2679312
0
LINE
8
DEFAULT_255_2_778
10
15.8840958
20
15.2679312
11
15.8420958
21
15.2917312
0
LINE
8
DEFAULT_255_2_778
10
15.8420958
20
15.2917312
11
15.7999958
21
15.3396312
0
LINE
8
DEFAULT_255_2_778
10
15.7999958
20
15.3396312
11
15.7718958
21
15.4353312
0
LINE
8
DEFAULT_255_2_778
10
15.7718958
20
15.4353312
11
15.7718958
21
15.9140312
0
LINE
8
DEFAULT_255_2_778
10
15.7718958
20
15.9140312
11
15.6594958
21
15.9140312
0
LINE
8
DEFAULT_255_2_778
10
15.6594958
20
15.9140312
11
15.6594958
21
16.0097312
0
LINE
8
DEFAULT_255_2_778
10
15.6594958
20
16.0097312
11
15.7718958
21
16.0097312
0
LINE
8
DEFAULT_255_2_778
10
15.7718958
20
16.0097312
11
15.7718958
21
16.2013312
0
LINE
8
DEFAULT_255_2_778
10
15.7718958
20
16.2013312
11
15.8422958
21
16.2013312
0
LINE
8
DEFAULT_255_2_778
10
15.8422958
20
16.2013312
11
15.8422958
21
16.0097312
0
LINE
8
DEFAULT_255_2_778
10
15.8422958
20
16.0097312
11
15.9970958
21
16.0097312
0
LINE
8
DEFAULT_255_2_778
10
15.9970958
20
16.0097312
11
15.9970958
21
15.9140312
0
LINE
8
DEFAULT_255_2_778
10
15.9970958
20
15.9140312
11
15.8422958
21
15.9140312
0
LINE
8
DEFAULT_255_2_778
10
15.8422958
20
15.9140312
11
15.8422958
21
15.4832312
0
LINE
8
DEFAULT_255_2_778
10
15.8422958
20
15.4832312
11
15.8562958
21
15.4115312
0
LINE
8
DEFAULT_255_2_778
10
15.8562958
20
15.4115312
11
15.8983958
21
15.3636312
0
LINE
8
DEFAULT_255_2_778
10
9.7678042
20
26.5644614
11
9.8316042
21
26.5605614
0
LINE
8
DEFAULT_255_2_778
10
9.8316042
20
26.5605614
11
9.8853042
21
26.5465614
0
LINE
8
DEFAULT_255_2_778
10
9.8853042
20
26.5465614
11
9.9459042
21
26.5057614
0
LINE
8
DEFAULT_255_2_778
10
9.9459042
20
26.5057614
11
10.2168042
21
26.2348614
0
LINE
8
DEFAULT_255_2_778
10
10.2168042
20
26.2348614
11
10.3112042
21
26.1602614
0
LINE
8
DEFAULT_255_2_778
10
10.3112042
20
26.1602614
11
10.3718042
21
26.1194614
0
LINE
8
DEFAULT_255_2_778
10
10.3718042
20
26.1194614
11
10.3221042
21
26.0697614
0
LINE
8
DEFAULT_255_2_778
10
10.3221042
20
26.0697614
11
10.2782042
21
26.0935614
0
LINE
8
DEFAULT_255_2_778
10
10.2782042
20
26.0935614
11
10.2176042
21
26.1342614
0
LINE
8
DEFAULT_255_2_778
10
10.2176042
20
26.1342614
11
10.2414042
21
26.0903614
0
LINE
8
DEFAULT_255_2_778
10
10.2414042
20
26.0903614
11
10.2454042
21
26.0265614
0
LINE
8
DEFAULT_255_2_778
10
10.2454042
20
26.0265614
11
10.2126042
21
25.9599614
0
LINE
8
DEFAULT_255_2_778
10
10.2126042
20
25.9599614
11
10.1530042
21
25.9003614
0
LINE
8
DEFAULT_255_2_778
10
10.1530042
20
25.9003614
11
10.0964042
21
25.8776614
0
LINE
8
DEFAULT_255_2_778
10
10.0964042
20
25.8776614
11
10.0596042
21
25.8747614
0
LINE
8
DEFAULT_255_2_778
10
10.0596042
20
25.8747614
11
9.9789042
21
25.8956614
0
LINE
8
DEFAULT_255_2_778
10
9.9789042
20
25.8956614
11
9.9014042
21
25.9533614
0
LINE
8
DEFAULT_255_2_778
10
9.9014042
20
25.9533614
11
9.8506042
21
26.0041614
0
LINE
8
DEFAULT_255_2_778
10
9.8506042
20
26.0041614
11
9.8027042
21
26.0916614
0
LINE
8
DEFAULT_255_2_778
10
9.8027042
20
26.0916614
11
9.7887042
21
26.1453614
0
LINE
8
DEFAULT_255_2_778
10
9.7887042
20
26.1453614
11
9.7945042
21
26.2189614
0
LINE
8
DEFAULT_255_2_778
10
9.7945042
20
26.2189614
11
9.8374042
21
26.2954614
0
LINE
8
DEFAULT_255_2_778
10
9.8374042
20
26.2954614
11
9.9466042
21
26.4046614
0
LINE
8
DEFAULT_255_2_778
10
9.9466042
20
26.4046614
11
9.8958042
21
26.4554614
0
LINE
8
DEFAULT_255_2_778
10
9.8958042
20
26.4554614
11
9.8519042
21
26.4793614
0
LINE
8
DEFAULT_255_2_778
10
9.8519042
20
26.4793614
11
9.8151042
21
26.4763614
0
LINE
8
DEFAULT_255_2_778
10
9.8151042
20
26.4763614
11
9.7585042
21
26.4536614
0
LINE
8
DEFAULT_255_2_778
10
9.7585042
20
26.4536614
11
9.6990042
21
26.3941614
0
LINE
8
DEFAULT_255_2_778
10
9.6990042
20
26.3941614
11
9.6762042
21
26.3374614
0
LINE
8
DEFAULT_255_2_778
10
9.6762042
20
26.3374614
11
9.6733042
21
26.3007614
0
LINE
8
DEFAULT_255_2_778
10
9.6733042
20
26.3007614
11
9.6971042
21
26.2567614
0
LINE
8
DEFAULT_255_2_778
10
9.6971042
20
26.2567614
11
9.6474042
21
26.2070614
0
LINE
8
DEFAULT_255_2_778
10
9.6474042
20
26.2070614
11
9.6135042
21
26.2409614
0
LINE
8
DEFAULT_255_2_778
10
9.6135042
20
26.2409614
11
9.5897042
21
26.2848614
0
LINE
8
DEFAULT_255_2_778
10
9.5897042
20
26.2848614
11
9.5757042
21
26.3385614
0
LINE
8
DEFAULT_255_2_778
10
9.5757042
20
26.3385614
11
9.5786042
21
26.3753614
0
LINE
8
DEFAULT_255_2_778
10
9.5786042
20
26.3753614
11
9.6313042
21
26.4618614
0
LINE
8
DEFAULT_255_2_778
10
9.6313042
20
26.4618614
11
9.6908042
21
26.5213614
0
LINE
8
DEFAULT_255_2_778
10
9.6908042
20
26.5213614
11
9.7673042
21
26.5642614
0
LINE
8
DEFAULT_255_2_778
10
12.5639042
20
26.1546614
11
12.5001042
21
26.1586614
0
LINE
8
DEFAULT_255_2_778
10
12.5001042
20
26.1586614
11
12.4194042
21
26.1795614
0
LINE
8
DEFAULT_255_2_778
10
12.4194042
20
26.1795614
11
12.3755042
21
26.2033614
0
LINE
8
DEFAULT_255_2_778
10
12.3755042
20
26.2033614
11
12.2980042
21
26.2610614
0
LINE
8
DEFAULT_255_2_778
10
12.2980042
20
26.2610614
11
12.1625042
21
26.3964614
0
LINE
8
DEFAULT_255_2_778
10
12.1625042
20
26.3964614
11
12.1049042
21
26.4740614
0
LINE
8
DEFAULT_255_2_778
10
12.1049042
20
26.4740614
11
12.0810042
21
26.5179614
0
LINE
8
DEFAULT_255_2_778
10
12.0810042
20
26.5179614
11
12.0601042
21
26.5986614
0
LINE
8
DEFAULT_255_2_778
10
12.0601042
20
26.5986614
11
12.0562042
21
26.6623614
0
LINE
8
DEFAULT_255_2_778
10
12.0562042
20
26.6623614
11
12.0789042
21
26.7190614
0
LINE
8
DEFAULT_255_2_778
10
12.0789042
20
26.7190614
11
12.1385042
21
26.7785614
0
LINE
8
DEFAULT_255_2_778
10
12.1385042
20
26.7785614
11
12.1951042
21
26.8012614
0
LINE
8
DEFAULT_255_2_778
10
12.1951042
20
26.8012614
11
12.2319042
21
26.8042614
0
LINE
8
DEFAULT_255_2_778
10
12.2319042
20
26.8042614
11
12.2856042
21
26.7901614
0
LINE
8
DEFAULT_255_2_778
10
12.2856042
20
26.7901614
11
12.3295042
21
26.7663614
0
LINE
8
DEFAULT_255_2_778
10
12.3295042
20
26.7663614
11
11.9741042
21
27.1217614
0
LINE
8
DEFAULT_255_2_778
10
11.9741042
20
27.1217614
11
12.0239042
21
27.1714614
0
LINE
8
DEFAULT_255_2_778
10
12.0239042
20
27.1714614
11
12.8195042
21
26.3758614
0
LINE
8
DEFAULT_255_2_778
10
12.8195042
20
26.3758614
11
12.7697042
21
26.3261614
0
LINE
8
DEFAULT_255_2_778
10
12.7697042
20
26.3261614
11
12.6681042
21
26.4277614
0
LINE
8
DEFAULT_255_2_778
10
12.6681042
20
26.4277614
11
12.6920042
21
26.3837614
0
LINE
8
DEFAULT_255_2_778
10
12.6920042
20
26.3837614
11
12.7060042
21
26.3300614
0
LINE
8
DEFAULT_255_2_778
10
12.7060042
20
26.3300614
11
12.7031042
21
26.2932614
0
LINE
8
DEFAULT_255_2_778
10
12.7031042
20
26.2932614
11
12.6803042
21
26.2366614
0
LINE
8
DEFAULT_255_2_778
10
12.6803042
20
26.2366614
11
12.6208042
21
26.1771614
0
LINE
8
DEFAULT_255_2_778
10
12.6208042
20
26.1771614
11
12.5642042
21
26.1543614
0
LINE
8
DEFAULT_255_2_778
10
18.318321
20
29.7938405
11
12.108221
21
29.7938405
0
LINE
8
DEFAULT_255_2_778
10
12.108221
20
29.7938405
11
7.716421
21
25.3988405
0
LINE
8
DEFAULT_255_2_778
10
7.716421
20
25.3988405
11
7.716421
21
22.4889405
0
LINE
8
DEFAULT_255_2_778
10
7.716421
20
22.4889405
11
10.881321
21
22.4889405
0
LINE
8
DEFAULT_255_2_778
10
10.881321
20
22.4889405
11
10.881321
21
24.0939405
0
LINE
8
DEFAULT_255_2_778
10
10.881321
20
24.0939405
11
13.414521
21
26.6289405
0
LINE
8
DEFAULT_255_2_778
10
13.414521
20
26.6289405
11
17.014421
21
26.6289405
0
LINE
8
DEFAULT_255_2_778
10
17.014421
20
26.6289405
11
19.551221
21
24.0939405
0
LINE
8
DEFAULT_255_2_778
10
19.551221
20
24.0939405
11
19.551221
21
22.4889405
0
LINE
8
DEFAULT_255_2_778
10
19.551221
20
22.4889405
11
22.716221
21
22.4889405
0
LINE
8
DEFAULT_255_2_778
10
22.716221
20
22.4889405
11
22.716221
21
25.3988405
0
LINE
8
DEFAULT_255_2_778
10
22.716221
20
25.3988405
11
18.318021
21
29.7938405
0
LINE
8
DEFAULT_255_2_778
10
12.279649
20
26.7171958
11
12.343449
21
26.7131958
0
LINE
8
DEFAULT_255_2_778
10
12.343449
20
26.7131958
11
12.414049
21
26.6822958
0
LINE
8
DEFAULT_255_2_778
10
12.414049
20
26.6822958
11
12.583449
21
26.5128958
0
LINE
8
DEFAULT_255_2_778
10
12.583449
20
26.5128958
11
12.614349
21
26.4422958
0
LINE
8
DEFAULT_255_2_778
10
12.614349
20
26.4422958
11
12.618349
21
26.3784958
0
LINE
8
DEFAULT_255_2_778
10
12.618349
20
26.3784958
11
12.595549
21
26.3218958
0
LINE
8
DEFAULT_255_2_778
10
12.595549
20
26.3218958
11
12.555949
21
26.2821958
0
LINE
8
DEFAULT_255_2_778
10
12.555949
20
26.2821958
11
12.499249
21
26.2594958
0
LINE
8
DEFAULT_255_2_778
10
12.499249
20
26.2594958
11
12.435549
21
26.2633958
0
LINE
8
DEFAULT_255_2_778
10
12.435549
20
26.2633958
11
12.331049
21
26.3282958
0
LINE
8
DEFAULT_255_2_778
10
12.331049
20
26.3282958
11
12.229449
21
26.4298958
0
LINE
8
DEFAULT_255_2_778
10
12.229449
20
26.4298958
11
12.188649
21
26.4904958
0
LINE
8
DEFAULT_255_2_778
10
12.188649
20
26.4904958
11
12.157749
21
26.5610958
0
LINE
8
DEFAULT_255_2_778
10
12.157749
20
26.5610958
11
12.163549
21
26.6346958
0
LINE
8
DEFAULT_255_2_778
10
12.163549
20
26.6346958
11
12.223049
21
26.6941958
0
LINE
8
DEFAULT_255_2_778
10
12.223049
20
26.6941958
11
12.279649
21
26.7168958
0
LINE
8
DEFAULT_255_2_778
10
10.085749
20
25.9683958
11
10.012249
21
25.9625958
0
LINE
8
DEFAULT_255_2_778
10
10.012249
20
25.9625958
11
9.968249
21
25.9863958
0
LINE
8
DEFAULT_255_2_778
10
9.968249
20
25.9863958
11
9.934449
21
26.0202958
0
LINE
8
DEFAULT_255_2_778
10
9.934449
20
26.0202958
11
9.893649
21
26.0808958
0
LINE
8
DEFAULT_255_2_778
10
9.893649
20
26.0808958
11
9.879649
21
26.1345958
0
LINE
8
DEFAULT_255_2_778
10
9.879649
20
26.1345958
11
9.882549
21
26.1713958
0
LINE
8
DEFAULT_255_2_778
10
9.882549
20
26.1713958
11
9.905349
21
26.2279958
0
LINE
8
DEFAULT_255_2_778
10
9.905349
20
26.2279958
11
10.014549
21
26.3372958
0
LINE
8
DEFAULT_255_2_778
10
10.014549
20
26.3372958
11
10.116149
21
26.2356958
0
LINE
8
DEFAULT_255_2_778
10
10.116149
20
26.2356958
11
10.139949
21
26.1916958
0
LINE
8
DEFAULT_255_2_778
10
10.139949
20
26.1916958
11
10.160949
21
26.1109958
0
LINE
8
DEFAULT_255_2_778
10
10.160949
20
26.1109958
11
10.145049
21
26.0273958
0
LINE
8
DEFAULT_255_2_778
10
10.145049
20
26.0273958
11
10.085449
21
25.9678958
0
LINE
8
DEFAULT_255_2_778
10
19.1187344
20
27.8403656
11
19.0650344
21
27.8263656
0
LINE
8
DEFAULT_255_2_778
10
19.0650344
20
27.8263656
11
18.9943344
21
27.7953656
0
LINE
8
DEFAULT_255_2_778
10
18.9943344
20
27.7953656
11
18.9168344
21
27.7376656
0
LINE
8
DEFAULT_255_2_778
10
18.9168344
20
27.7376656
11
18.8491344
21
27.6699656
0
LINE
8
DEFAULT_255_2_778
10
18.8491344
20
27.6699656
11
18.7914344
21
27.5924656
0
LINE
8
DEFAULT_255_2_778
10
18.7914344
20
27.5924656
11
18.7604344
21
27.5217656
0
LINE
8
DEFAULT_255_2_778
10
18.7604344
20
27.5217656
11
18.7464344
21
27.4680656
0
LINE
8
DEFAULT_255_2_778
10
18.7464344
20
27.4680656
11
18.7692344
21
27.4114656
0
LINE
8
DEFAULT_255_2_778
10
18.7692344
20
27.4114656
11
18.8088344
21
27.3717656
0
LINE
8
DEFAULT_255_2_778
10
18.8088344
20
27.3717656
11
18.8655344
21
27.3490656
0
LINE
8
DEFAULT_255_2_778
10
18.8655344
20
27.3490656
11
18.9192344
21
27.3630656
0
LINE
8
DEFAULT_255_2_778
10
18.9192344
20
27.3630656
11
18.9898344
21
27.3939656
0
LINE
8
DEFAULT_255_2_778
10
18.9898344
20
27.3939656
11
19.0673344
21
27.4516656
0
LINE
8
DEFAULT_255_2_778
10
19.0673344
20
27.4516656
11
19.1351344
21
27.5194656
0
LINE
8
DEFAULT_255_2_778
10
19.1351344
20
27.5194656
11
19.1928344
21
27.5969656
0
LINE
8
DEFAULT_255_2_778
10
19.1928344
20
27.5969656
11
19.2237344
21
27.6675656
0
LINE
8
DEFAULT_255_2_778
10
19.2237344
20
27.6675656
11
19.2377344
21
27.7212656
0
LINE
8
DEFAULT_255_2_778
10
19.2377344
20
27.7212656
11
19.2150344
21
27.7779656
0
LINE
8
DEFAULT_255_2_778
10
19.2150344
20
27.7779656
11
19.1753344
21
27.8175656
0
LINE
8
DEFAULT_255_2_778
10
19.1753344
20
27.8175656
11
19.1187344
21
27.8403656
0
LINE
8
DEFAULT_255_2_778
10
19.1665146
20
27.9279177
11
19.1297146
21
27.9308177
0
LINE
8
DEFAULT_255_2_778
10
19.1297146
20
27.9308177
11
19.0760146
21
27.9168177
0
LINE
8
DEFAULT_255_2_778
10
19.0760146
20
27.9168177
11
19.0054146
21
27.8858177
0
LINE
8
DEFAULT_255_2_778
10
19.0054146
20
27.8858177
11
18.8670146
21
27.7871177
0
LINE
8
DEFAULT_255_2_778
10
18.8670146
20
27.7871177
11
18.7993146
21
27.7194177
0
LINE
8
DEFAULT_255_2_778
10
18.7993146
20
27.7194177
11
18.7006146
21
27.5810177
0
LINE
8
DEFAULT_255_2_778
10
18.7006146
20
27.5810177
11
18.6696146
21
27.5104177
0
LINE
8
DEFAULT_255_2_778
10
18.6696146
20
27.5104177
11
18.6556146
21
27.4567177
0
LINE
8
DEFAULT_255_2_778
10
18.6556146
20
27.4567177
11
18.6585146
21
27.4199177
0
LINE
8
DEFAULT_255_2_778
10
18.6585146
20
27.4199177
11
18.6813146
21
27.3633177
0
LINE
8
DEFAULT_255_2_778
10
18.6813146
20
27.3633177
11
18.7609146
21
27.2836177
0
LINE
8
DEFAULT_255_2_778
10
18.7609146
20
27.2836177
11
18.8175146
21
27.2609177
0
LINE
8
DEFAULT_255_2_778
10
18.8175146
20
27.2609177
11
18.8543146
21
27.2580177
0
LINE
8
DEFAULT_255_2_778
10
18.8543146
20
27.2580177
11
18.9080146
21
27.2720177
0
LINE
8
DEFAULT_255_2_778
10
18.9080146
20
27.2720177
11
18.9787146
21
27.3029177
0
LINE
8
DEFAULT_255_2_778
10
18.9787146
20
27.3029177
11
19.1170146
21
27.4016177
0
LINE
8
DEFAULT_255_2_778
10
19.1170146
20
27.4016177
11
19.1848146
21
27.4694177
0
LINE
8
DEFAULT_255_2_778
10
19.1848146
20
27.4694177
11
19.2424146
21
27.5469177
0
LINE
8
DEFAULT_255_2_778
10
19.2424146
20
27.5469177
11
19.2832146
21
27.6075177
0
LINE
8
DEFAULT_255_2_778
10
19.2832146
20
27.6075177
11
19.3141146
21
27.6781177
0
LINE
8
DEFAULT_255_2_778
10
19.3141146
20
27.6781177
11
19.3282146
21
27.7318177
0
LINE
8
DEFAULT_255_2_778
10
19.3282146
20
27.7318177
11
19.3253146
21
27.7686177
0
LINE
8
DEFAULT_255_2_778
10
19.3253146
20
27.7686177
11
19.3025146
21
27.8252177
0
LINE
8
DEFAULT_255_2_778
10
19.3025146
20
27.8252177
11
19.2229146
21
27.9049177
0
LINE
8
DEFAULT_255_2_778
10
19.2229146
20
27.9049177
11
19.1662146
21
27.9276177
0
LINE
8
DEFAULT_255_2_778
10
18.1251344
20
26.9889656
11
18.0714344
21
26.9749656
0
LINE
8
DEFAULT_255_2_778
10
18.0714344
20
26.9749656
11
18.0007344
21
26.9439656
0
LINE
8
DEFAULT_255_2_778
10
18.0007344
20
26.9439656
11
17.9232344
21
26.8862656
0
LINE
8
DEFAULT_255_2_778
10
17.9232344
20
26.8862656
11
17.8555344
21
26.8185656
0
LINE
8
DEFAULT_255_2_778
10
17.8555344
20
26.8185656
11
17.7978344
21
26.7410656
0
LINE
8
DEFAULT_255_2_778
10
17.7978344
20
26.7410656
11
17.7668344
21
26.6703656
0
LINE
8
DEFAULT_255_2_778
10
17.7668344
20
26.6703656
11
17.7528344
21
26.6166656
0
LINE
8
DEFAULT_255_2_778
10
17.7528344
20
26.6166656
11
17.7756344
21
26.5600656
0
LINE
8
DEFAULT_255_2_778
10
17.7756344
20
26.5600656
11
17.8152344
21
26.5203656
0
LINE
8
DEFAULT_255_2_778
10
17.8152344
20
26.5203656
11
17.8719344
21
26.4976656
0
LINE
8
DEFAULT_255_2_778
10
17.8719344
20
26.4976656
11
17.9256344
21
26.5116656
0
LINE
8
DEFAULT_255_2_778
10
17.9256344
20
26.5116656
11
17.9962344
21
26.5425656
0
LINE
8
DEFAULT_255_2_778
10
17.9962344
20
26.5425656
11
18.0737344
21
26.6002656
0
LINE
8
DEFAULT_255_2_778
10
18.0737344
20
26.6002656
11
18.1415344
21
26.6680656
0
LINE
8
DEFAULT_255_2_778
10
18.1415344
20
26.6680656
11
18.1992344
21
26.7455656
0
LINE
8
DEFAULT_255_2_778
10
18.1992344
20
26.7455656
11
18.2301344
21
26.8161656
0
LINE
8
DEFAULT_255_2_778
10
18.2301344
20
26.8161656
11
18.2441344
21
26.8698656
0
LINE
8
DEFAULT_255_2_778
10
18.2441344
20
26.8698656
11
18.2214344
21
26.9265656
0
LINE
8
DEFAULT_255_2_778
10
18.2214344
20
26.9265656
11
18.1817344
21
26.9661656
0
LINE
8
DEFAULT_255_2_778
10
18.1817344
20
26.9661656
11
18.1251344
21
26.9889656
0
LINE
8
DEFAULT_255_2_778
10
18.1730146
20
27.0765177
11
18.1362146
21
27.0794177
0
LINE
8
DEFAULT_255_2_778
10
18.1362146
20
27.0794177
11
18.0825146
21
27.0654177
0
LINE
8
DEFAULT_255_2_778
10
18.0825146
20
27.0654177
11
18.0119146
21
27.0344177
0
LINE
8
DEFAULT_255_2_778
10
18.0119146
20
27.0344177
11
17.8735146
21
26.9357177
0
LINE
8
DEFAULT_255_2_778
10
17.8735146
20
26.9357177
11
17.8058146
21
26.8680177
0
LINE
8
DEFAULT_255_2_778
10
17.8058146
20
26.8680177
11
17.7071146
21
26.7296177
0
LINE
8
DEFAULT_255_2_778
10
17.7071146
20
26.7296177
11
17.6761146
21
26.6590177
0
LINE
8
DEFAULT_255_2_778
10
17.6761146
20
26.6590177
11
17.6621146
21
26.6053177
0
LINE
8
DEFAULT_255_2_778
10
17.6621146
20
26.6053177
11
17.6650146
21
26.5685177
0
LINE
8
DEFAULT_255_2_778
10
17.6650146
20
26.5685177
11
17.6878146
21
26.5119177
0
LINE
8
DEFAULT_255_2_778
10
17.6878146
20
26.5119177
11
17.7674146
21
26.4322177
0
LINE
8
DEFAULT_255_2_778
10
17.7674146
20
26.4322177
11
17.8240146
21
26.4095177
0
LINE
8
DEFAULT_255_2_778
10
17.8240146
20
26.4095177
11
17.8608146
21
26.4066177
0
LINE
8
DEFAULT_255_2_778
10
17.8608146
20
26.4066177
11
17.9145146
21
26.4206177
0
LINE
8
DEFAULT_255_2_778
10
17.9145146
20
26.4206177
11
17.9852146
21
26.4515177
0
LINE
8
DEFAULT_255_2_778
10
17.9852146
20
26.4515177
11
18.1235146
21
26.5502177
0
LINE
8
DEFAULT_255_2_778
10
18.1235146
20
26.5502177
11
18.1913146
21
26.6180177
0
LINE
8
DEFAULT_255_2_778
10
18.1913146
20
26.6180177
11
18.2489146
21
26.6955177
0
LINE
8
DEFAULT_255_2_778
10
18.2489146
20
26.6955177
11
18.2897146
21
26.7561177
0
LINE
8
DEFAULT_255_2_778
10
18.2897146
20
26.7561177
11
18.3206146
21
26.8267177
0
LINE
8
DEFAULT_255_2_778
10
18.3206146
20
26.8267177
11
18.3347146
21
26.8804177
0
LINE
8
DEFAULT_255_2_778
10
18.3347146
20
26.8804177
11
18.3318146
21
26.9172177
0
LINE
8
DEFAULT_255_2_778
10
18.3318146
20
26.9172177
11
18.3090146
21
26.9738177
0
LINE
8
DEFAULT_255_2_778
10
18.3090146
20
26.9738177
11
18.2294146
21
27.0535177
0
LINE
8
DEFAULT_255_2_778
10
18.2294146
20
27.0535177
11
18.1727146
21
27.0762177
0
LINE
8
DEFAULT_255_2_778
10
19.3285344
20
25.7856656
11
19.2748344
21
25.7716656
0
LINE
8
DEFAULT_255_2_778
10
19.2748344
20
25.7716656
11
19.2041344
21
25.7406656
0
LINE
8
DEFAULT_255_2_778
10
19.2041344
20
25.7406656
11
19.1266344
21
25.6829656
0
LINE
8
DEFAULT_255_2_778
10
19.1266344
20
25.6829656
11
19.0589344
21
25.6152656
0
LINE
8
DEFAULT_255_2_778
10
19.0589344
20
25.6152656
11
19.0012344
21
25.5377656
0
LINE
8
DEFAULT_255_2_778
10
19.0012344
20
25.5377656
11
18.9702344
21
25.4670656
0
LINE
8
DEFAULT_255_2_778
10
18.9702344
20
25.4670656
11
18.9562344
21
25.4133656
0
LINE
8
DEFAULT_255_2_778
10
18.9562344
20
25.4133656
11
18.9790344
21
25.3567656
0
LINE
8
DEFAULT_255_2_778
10
18.9790344
20
25.3567656
11
19.0186344
21
25.3170656
0
LINE
8
DEFAULT_255_2_778
10
19.0186344
20
25.3170656
11
19.0753344
21
25.2943656
0
LINE
8
DEFAULT_255_2_778
10
19.0753344
20
25.2943656
11
19.1290344
21
25.3083656
0
LINE
8
DEFAULT_255_2_778
10
19.1290344
20
25.3083656
11
19.1996344
21
25.3392656
0
LINE
8
DEFAULT_255_2_778
10
19.1996344
20
25.3392656
11
19.2771344
21
25.3969656
0
LINE
8
DEFAULT_255_2_778
10
19.2771344
20
25.3969656
11
19.3449344
21
25.4647656
0
LINE
8
DEFAULT_255_2_778
10
19.3449344
20
25.4647656
11
19.4026344
21
25.5422656
0
LINE
8
DEFAULT_255_2_778
10
19.4026344
20
25.5422656
11
19.4335344
21
25.6128656
0
LINE
8
DEFAULT_255_2_778
10
19.4335344
20
25.6128656
11
19.4475344
21
25.6665656
0
LINE
8
DEFAULT_255_2_778
10
19.4475344
20
25.6665656
11
19.4248344
21
25.7232656
0
LINE
8
DEFAULT_255_2_778
10
19.4248344
20
25.7232656
11
19.3851344
21
25.7628656
0
LINE
8
DEFAULT_255_2_778
10
19.3851344
20
25.7628656
11
19.3285344
21
25.7856656
0
LINE
8
DEFAULT_255_2_778
10
19.3763146
20
25.8732177
11
19.3395146
21
25.8761177
0
LINE
8
DEFAULT_255_2_778
10
19.3395146
20
25.8761177
11
19.2858146
21
25.8621177
0
LINE
8
DEFAULT_255_2_778
10
19.2858146
20
25.8621177
11
19.2152146
21
25.8311177
0
LINE
8
DEFAULT_255_2_778
10
19.2152146
20
25.8311177
11
19.0768146
21
25.7324177
0
LINE
8
DEFAULT_255_2_778
10
19.0768146
20
25.7324177
11
19.0091146
21
25.6647177
0
LINE
8
DEFAULT_255_2_778
10
19.0091146
20
25.6647177
11
18.9104146
21
25.5263177
0
LINE
8
DEFAULT_255_2_778
10
18.9104146
20
25.5263177
11
18.8794146
21
25.4557177
0
LINE
8
DEFAULT_255_2_778
10
18.8794146
20
25.4557177
11
18.8654146
21
25.4020177
0
LINE
8
DEFAULT_255_2_778
10
18.8654146
20
25.4020177
11
18.8683146
21
25.3652177
0
LINE
8
DEFAULT_255_2_778
10
18.8683146
20
25.3652177
11
18.8911146
21
25.3086177
0
LINE
8
DEFAULT_255_2_778
10
18.8911146
20
25.3086177
11
18.9707146
21
25.2289177
0
LINE
8
DEFAULT_255_2_778
10
18.9707146
20
25.2289177
11
19.0273146
21
25.2062177
0
LINE
8
DEFAULT_255_2_778
10
19.0273146
20
25.2062177
11
19.0641146
21
25.2033177
0
LINE
8
DEFAULT_255_2_778
10
19.0641146
20
25.2033177
11
19.1178146
21
25.2173177
0
LINE
8
DEFAULT_255_2_778
10
19.1178146
20
25.2173177
11
19.1885146
21
25.2482177
0
LINE
8
DEFAULT_255_2_778
10
19.1885146
20
25.2482177
11
19.3268146
21
25.3469177
0
LINE
8
DEFAULT_255_2_778
10
19.3268146
20
25.3469177
11
19.3946146
21
25.4147177
0
LINE
8
DEFAULT_255_2_778
10
19.3946146
20
25.4147177
11
19.4522146
21
25.4922177
0
LINE
8
DEFAULT_255_2_778
10
19.4522146
20
25.4922177
11
19.4930146
21
25.5528177
0
LINE
8
DEFAULT_255_2_778
10
19.4930146
20
25.5528177
11
19.5239146
21
25.6234177
0
LINE
8
DEFAULT_255_2_778
10
19.5239146
20
25.6234177
11
19.5380146
21
25.6771177
0
LINE
8
DEFAULT_255_2_778
10
19.5380146
20
25.6771177
11
19.5351146
21
25.7139177
0
LINE
8
DEFAULT_255_2_778
10
19.5351146
20
25.7139177
11
19.5123146
21
25.7705177
0
LINE
8
DEFAULT_255_2_778
10
19.5123146
20
25.7705177
11
19.4327146
21
25.8502177
0
LINE
8
DEFAULT_255_2_778
10
19.4327146
20
25.8502177
11
19.3760146
21
25.8729177
0
LINE
8
DEFAULT_255_2_778
10
21.1573344
20
25.8017656
11
21.1036344
21
25.7877656
0
LINE
8
DEFAULT_255_2_778
10
21.1036344
20
25.7877656
11
21.0329344
21
25.7567656
0
LINE
8
DEFAULT_255_2_778
10
21.0329344
20
25.7567656
11
20.9554344
21
25.6990656
0
LINE
8
DEFAULT_255_2_778
10
20.9554344
20
25.6990656
11
20.8877344
21
25.6313656
0
LINE
8
DEFAULT_255_2_778
10
20.8877344
20
25.6313656
11
20.8300344
21
25.5538656
0
LINE
8
DEFAULT_255_2_778
10
20.8300344
20
25.5538656
11
20.7990344
21
25.4831656
0
LINE
8
DEFAULT_255_2_778
10
20.7990344
20
25.4831656
11
20.7850344
21
25.4294656
0
LINE
8
DEFAULT_255_2_778
10
20.7850344
20
25.4294656
11
20.8078344
21
25.3728656
0
LINE
8
DEFAULT_255_2_778
10
20.8078344
20
25.3728656
11
20.8474344
21
25.3331656
0
LINE
8
DEFAULT_255_2_778
10
20.8474344
20
25.3331656
11
20.9041344
21
25.3104656
0
LINE
8
DEFAULT_255_2_778
10
20.9041344
20
25.3104656
11
20.9578344
21
25.3244656
0
LINE
8
DEFAULT_255_2_778
10
20.9578344
20
25.3244656
11
21.0284344
21
25.3553656
0
LINE
8
DEFAULT_255_2_778
10
21.0284344
20
25.3553656
11
21.1059344
21
25.4130656
0
LINE
8
DEFAULT_255_2_778
10
21.1059344
20
25.4130656
11
21.1737344
21
25.4808656
0
LINE
8
DEFAULT_255_2_778
10
21.1737344
20
25.4808656
11
21.2314344
21
25.5583656
0
LINE
8
DEFAULT_255_2_778
10
21.2314344
20
25.5583656
11
21.2623344
21
25.6289656
0
LINE
8
DEFAULT_255_2_778
10
21.2623344
20
25.6289656
11
21.2763344
21
25.6826656
0
LINE
8
DEFAULT_255_2_778
10
21.2763344
20
25.6826656
11
21.2536344
21
25.7393656
0
LINE
8
DEFAULT_255_2_778
10
21.2536344
20
25.7393656
11
21.2139344
21
25.7789656
0
LINE
8
DEFAULT_255_2_778
10
21.2139344
20
25.7789656
11
21.1573344
21
25.8017656
0
LINE
8
DEFAULT_255_2_778
10
21.2051146
20
25.8896177
11
21.1683146
21
25.8925177
0
LINE
8
DEFAULT_255_2_778
10
21.1683146
20
25.8925177
11
21.1146146
21
25.8785177
0
LINE
8
DEFAULT_255_2_778
10
21.1146146
20
25.8785177
11
21.0440146
21
25.8475177
0
LINE
8
DEFAULT_255_2_778
10
21.0440146
20
25.8475177
11
20.9056146
21
25.7488177
0
LINE
8
DEFAULT_255_2_778
10
20.9056146
20
25.7488177
11
20.8379146
21
25.6811177
0
LINE
8
DEFAULT_255_2_778
10
20.8379146
20
25.6811177
11
20.7392146
21
25.5427177
0
LINE
8
DEFAULT_255_2_778
10
20.7392146
20
25.5427177
11
20.7082146
21
25.4721177
0
LINE
8
DEFAULT_255_2_778
10
20.7082146
20
25.4721177
11
20.6942146
21
25.4184177
0
LINE
8
DEFAULT_255_2_778
10
20.6942146
20
25.4184177
11
20.6971146
21
25.3816177
0
LINE
8
DEFAULT_255_2_778
10
20.6971146
20
25.3816177
11
20.7199146
21
25.3250177
0
LINE
8
DEFAULT_255_2_778
10
20.7199146
20
25.3250177
11
20.7995146
21
25.2453177
0
LINE
8
DEFAULT_255_2_778
10
20.7995146
20
25.2453177
11
20.8561146
21
25.2226177
0
LINE
8
DEFAULT_255_2_778
10
20.8561146
20
25.2226177
11
20.8929146
21
25.2197177
0
LINE
8
DEFAULT_255_2_778
10
20.8929146
20
25.2197177
11
20.9466146
21
25.2337177
0
LINE
8
DEFAULT_255_2_778
10
20.9466146
20
25.2337177
11
21.0173146
21
25.2646177
0
LINE
8
DEFAULT_255_2_778
10
21.0173146
20
25.2646177
11
21.1556146
21
25.3633177
0
LINE
8
DEFAULT_255_2_778
10
21.1556146
20
25.3633177
11
21.2234146
21
25.4311177
0
LINE
8
DEFAULT_255_2_778
10
21.2234146
20
25.4311177
11
21.2810146
21
25.5086177
0
LINE
8
DEFAULT_255_2_778
10
21.2810146
20
25.5086177
11
21.3218146
21
25.5692177
0
LINE
8
DEFAULT_255_2_778
10
21.3218146
20
25.5692177
11
21.3527146
21
25.6398177
0
LINE
8
DEFAULT_255_2_778
10
21.3527146
20
25.6398177
11
21.3668146
21
25.6935177
0
LINE
8
DEFAULT_255_2_778
10
21.3668146
20
25.6935177
11
21.3639146
21
25.7303177
0
LINE
8
DEFAULT_255_2_778
10
21.3639146
20
25.7303177
11
21.3411146
21
25.7869177
0
LINE
8
DEFAULT_255_2_778
10
21.3411146
20
25.7869177
11
21.2615146
21
25.8666177
0
LINE
8
DEFAULT_255_2_778
10
21.2615146
20
25.8666177
11
21.2048146
21
25.8893177
0
LINE
8
DEFAULT_255_2_778
10
19.4629354
20
27.4287198
11
19.5364354
21
27.4229198
0
LINE
8
DEFAULT_255_2_778
10
19.5364354
20
27.4229198
11
19.5960354
21
27.3633198
0
LINE
8
DEFAULT_255_2_778
10
19.5960354
20
27.3633198
11
19.6187354
21
27.3067198
0
LINE
8
DEFAULT_255_2_778
10
19.6187354
20
27.3067198
11
19.6148354
21
27.2430198
0
LINE
8
DEFAULT_255_2_778
10
19.6148354
20
27.2430198
11
19.5838354
21
27.1723198
0
LINE
8
DEFAULT_255_2_778
10
19.5838354
20
27.1723198
11
19.4145354
21
27.0030198
0
LINE
8
DEFAULT_255_2_778
10
19.4145354
20
27.0030198
11
19.3438354
21
26.9720198
0
LINE
8
DEFAULT_255_2_778
10
19.3438354
20
26.9720198
11
19.2801354
21
26.9681198
0
LINE
8
DEFAULT_255_2_778
10
19.2801354
20
26.9681198
11
19.2234354
21
26.9908198
0
LINE
8
DEFAULT_255_2_778
10
19.2234354
20
26.9908198
11
19.1838354
21
27.0305198
0
LINE
8
DEFAULT_255_2_778
10
19.1838354
20
27.0305198
11
19.1610354
21
27.0871198
0
LINE
8
DEFAULT_255_2_778
10
19.1610354
20
27.0871198
11
19.1650354
21
27.1509198
0
LINE
8
DEFAULT_255_2_778
10
19.1650354
20
27.1509198
11
19.2298354
21
27.2554198
0
LINE
8
DEFAULT_255_2_778
10
19.2298354
20
27.2554198
11
19.3314354
21
27.3570198
0
LINE
8
DEFAULT_255_2_778
10
19.3314354
20
27.3570198
11
19.3920354
21
27.3977198
0
LINE
8
DEFAULT_255_2_778
10
19.3920354
20
27.3977198
11
19.4626354
21
27.4287198
0
LINE
8
DEFAULT_255_2_778
10
19.2327031
20
26.8801719
11
19.1959031
21
26.8830719
0
LINE
8
DEFAULT_255_2_778
10
19.1959031
20
26.8830719
11
19.1393031
21
26.9058719
0
LINE
8
DEFAULT_255_2_778
10
19.1393031
20
26.9058719
11
19.0798031
21
26.9653719
0
LINE
8
DEFAULT_255_2_778
10
19.0798031
20
26.9653719
11
19.0570031
21
27.0219719
0
LINE
8
DEFAULT_255_2_778
10
19.0570031
20
27.0219719
11
19.0610031
21
27.0857719
0
LINE
8
DEFAULT_255_2_778
10
19.0610031
20
27.0857719
11
19.0819031
21
27.1664719
0
LINE
8
DEFAULT_255_2_778
10
19.0819031
20
27.1664719
11
19.1057031
21
27.2103719
0
LINE
8
DEFAULT_255_2_778
10
19.1057031
20
27.2103719
11
19.1634031
21
27.2879719
0
LINE
8
DEFAULT_255_2_778
10
19.1634031
20
27.2879719
11
19.2988031
21
27.4233719
0
LINE
8
DEFAULT_255_2_778
10
19.2988031
20
27.4233719
11
19.3764031
21
27.4810719
0
LINE
8
DEFAULT_255_2_778
10
19.3764031
20
27.4810719
11
19.4203031
21
27.5048719
0
LINE
8
DEFAULT_255_2_778
10
19.4203031
20
27.5048719
11
19.5010031
21
27.5257719
0
LINE
8
DEFAULT_255_2_778
10
19.5010031
20
27.5257719
11
19.5647031
21
27.5297719
0
LINE
8
DEFAULT_255_2_778
10
19.5647031
20
27.5297719
11
19.6214031
21
27.5069719
0
LINE
8
DEFAULT_255_2_778
10
19.6214031
20
27.5069719
11
19.6809031
21
27.4474719
0
LINE
8
DEFAULT_255_2_778
10
19.6809031
20
27.4474719
11
19.7036031
21
27.3908719
0
LINE
8
DEFAULT_255_2_778
10
19.7036031
20
27.3908719
11
19.7066031
21
27.3540719
0
LINE
8
DEFAULT_255_2_778
10
19.7066031
20
27.3540719
11
19.6925031
21
27.3003719
0
LINE
8
DEFAULT_255_2_778
10
19.6925031
20
27.3003719
11
19.6687031
21
27.2564719
0
LINE
8
DEFAULT_255_2_778
10
19.6687031
20
27.2564719
11
20.0241031
21
27.6117719
0
LINE
8
DEFAULT_255_2_778
10
20.0241031
20
27.6117719
11
20.0738031
21
27.5620719
0
LINE
8
DEFAULT_255_2_778
10
20.0738031
20
27.5620719
11
19.2782031
21
26.7664719
0
LINE
8
DEFAULT_255_2_778
10
19.2782031
20
26.7664719
11
19.2284031
21
26.8161719
0
LINE
8
DEFAULT_255_2_778
10
19.2284031
20
26.8161719
11
19.3300031
21
26.9177719
0
LINE
8
DEFAULT_255_2_778
10
19.3300031
20
26.9177719
11
19.2861031
21
26.8939719
0
LINE
8
DEFAULT_255_2_778
10
19.2861031
20
26.8939719
11
19.2324031
21
26.8799719
0
LINE
8
DEFAULT_255_2_778
10
18.8633375
20
28.0620719
11
18.7898375
21
28.0678719
0
LINE
8
DEFAULT_255_2_778
10
18.7898375
20
28.0678719
11
18.6921375
21
28.0300719
0
LINE
8
DEFAULT_255_2_778
10
18.6921375
20
28.0300719
11
18.3537375
21
27.6916719
0
LINE
8
DEFAULT_255_2_778
10
18.3537375
20
27.6916719
11
18.3040375
21
27.7413719
0
LINE
8
DEFAULT_255_2_778
10
18.3040375
20
27.7413719
11
18.8456375
21
28.2829719
0
LINE
8
DEFAULT_255_2_778
10
18.8456375
20
28.2829719
11
18.8953375
21
28.2332719
0
LINE
8
DEFAULT_255_2_778
10
18.8953375
20
28.2332719
11
18.7937375
21
28.1316719
0
LINE
8
DEFAULT_255_2_778
10
18.7937375
20
28.1316719
11
18.8475375
21
28.1456719
0
LINE
8
DEFAULT_255_2_778
10
18.8475375
20
28.1456719
11
18.9112375
21
28.1496719
0
LINE
8
DEFAULT_255_2_778
10
18.9112375
20
28.1496719
11
18.9580375
21
28.1366719
0
LINE
8
DEFAULT_255_2_778
10
18.9580375
20
28.1366719
11
19.0247375
21
28.1038719
0
LINE
8
DEFAULT_255_2_778
10
19.0247375
20
28.1038719
11
18.9401375
21
28.0191719
0
LINE
8
DEFAULT_255_2_778
10
18.9401375
20
28.0191719
11
18.8636375
21
28.0620719
0
LINE
8
DEFAULT_255_2_778
10
20.3288354
20
24.7177198
11
20.4023354
21
24.7119198
0
LINE
8
DEFAULT_255_2_778
10
20.4023354
20
24.7119198
11
20.4619354
21
24.6523198
0
LINE
8
DEFAULT_255_2_778
10
20.4619354
20
24.6523198
11
20.4846354
21
24.5957198
0
LINE
8
DEFAULT_255_2_778
10
20.4846354
20
24.5957198
11
20.4807354
21
24.5320198
0
LINE
8
DEFAULT_255_2_778
10
20.4807354
20
24.5320198
11
20.4497354
21
24.4613198
0
LINE
8
DEFAULT_255_2_778
10
20.4497354
20
24.4613198
11
20.2804354
21
24.2920198
0
LINE
8
DEFAULT_255_2_778
10
20.2804354
20
24.2920198
11
20.2097354
21
24.2610198
0
LINE
8
DEFAULT_255_2_778
10
20.2097354
20
24.2610198
11
20.1460354
21
24.2571198
0
LINE
8
DEFAULT_255_2_778
10
20.1460354
20
24.2571198
11
20.0893354
21
24.2798198
0
LINE
8
DEFAULT_255_2_778
10
20.0893354
20
24.2798198
11
20.0497354
21
24.3195198
0
LINE
8
DEFAULT_255_2_778
10
20.0497354
20
24.3195198
11
20.0269354
21
24.3761198
0
LINE
8
DEFAULT_255_2_778
10
20.0269354
20
24.3761198
11
20.0309354
21
24.4399198
0
LINE
8
DEFAULT_255_2_778
10
20.0309354
20
24.4399198
11
20.0957354
21
24.5444198
0
LINE
8
DEFAULT_255_2_778
10
20.0957354
20
24.5444198
11
20.1973354
21
24.6460198
0
LINE
8
DEFAULT_255_2_778
10
20.1973354
20
24.6460198
11
20.2579354
21
24.6867198
0
LINE
8
DEFAULT_255_2_778
10
20.2579354
20
24.6867198
11
20.3285354
21
24.7177198
0
LINE
8
DEFAULT_255_2_778
10
20.0987031
20
24.1692719
11
20.0619031
21
24.1721719
0
LINE
8
DEFAULT_255_2_778
10
20.0619031
20
24.1721719
11
20.0053031
21
24.1949719
0
LINE
8
DEFAULT_255_2_778
10
20.0053031
20
24.1949719
11
19.9458031
21
24.2544719
0
LINE
8
DEFAULT_255_2_778
10
19.9458031
20
24.2544719
11
19.9230031
21
24.3110719
0
LINE
8
DEFAULT_255_2_778
10
19.9230031
20
24.3110719
11
19.9270031
21
24.3748719
0
LINE
8
DEFAULT_255_2_778
10
19.9270031
20
24.3748719
11
19.9479031
21
24.4555719
0
LINE
8
DEFAULT_255_2_778
10
19.9479031
20
24.4555719
11
19.9717031
21
24.4994719
0
LINE
8
DEFAULT_255_2_778
10
19.9717031
20
24.4994719
11
20.0294031
21
24.5770719
0
LINE
8
DEFAULT_255_2_778
10
20.0294031
20
24.5770719
11
20.1648031
21
24.7124719
0
LINE
8
DEFAULT_255_2_778
10
20.1648031
20
24.7124719
11
20.2424031
21
24.7701719
0
LINE
8
DEFAULT_255_2_778
10
20.2424031
20
24.7701719
11
20.2863031
21
24.7939719
0
LINE
8
DEFAULT_255_2_778
10
20.2863031
20
24.7939719
11
20.3670031
21
24.8148719
0
LINE
8
DEFAULT_255_2_778
10
20.3670031
20
24.8148719
11
20.4307031
21
24.8188719
0
LINE
8
DEFAULT_255_2_778
10
20.4307031
20
24.8188719
11
20.4874031
21
24.7960719
0
LINE
8
DEFAULT_255_2_778
10
20.4874031
20
24.7960719
11
20.5469031
21
24.7365719
0
LINE
8
DEFAULT_255_2_778
10
20.5469031
20
24.7365719
11
20.5696031
21
24.6799719
0
LINE
8
DEFAULT_255_2_778
10
20.5696031
20
24.6799719
11
20.5726031
21
24.6431719
0
LINE
8
DEFAULT_255_2_778
10
20.5726031
20
24.6431719
11
20.5585031
21
24.5894719
0
LINE
8
DEFAULT_255_2_778
10
20.5585031
20
24.5894719
11
20.5347031
21
24.5455719
0
LINE
8
DEFAULT_255_2_778
10
20.5347031
20
24.5455719
11
20.8901031
21
24.9008719
0
LINE
8
DEFAULT_255_2_778
10
20.8901031
20
24.9008719
11
20.9398031
21
24.8511719
0
LINE
8
DEFAULT_255_2_778
10
20.9398031
20
24.8511719
11
20.1442031
21
24.0555719
0
LINE
8
DEFAULT_255_2_778
10
20.1442031
20
24.0555719
11
20.0944031
21
24.1052719
0
LINE
8
DEFAULT_255_2_778
10
20.0944031
20
24.1052719
11
20.1960031
21
24.2068719
0
LINE
8
DEFAULT_255_2_778
10
20.1960031
20
24.2068719
11
20.1521031
21
24.1830719
0
LINE
8
DEFAULT_255_2_778
10
20.1521031
20
24.1830719
11
20.0984031
21
24.1690719
0
ARC
8
DEFAULT_255_2_778
10
18.2591677
20
17.1402818
40
0.5658342
50
34.0162441
51
90.0577585
0
ARC
8
DEFAULT_255_2_778
10
18.258597
20
17.1402228
40
0.5658929
50
89.9999746
51
93.3035945
0
ARC
8
DEFAULT_255_2_778
10
18.258541
20
17.1421466
40
0.563969
50
93.3091724
51
120.6459007
0
ARC
8
DEFAULT_255_2_778
10
18.2605138
20
17.1374231
40
0.569039
50
120.5743723
51
120.7959806
0
ARC
8
DEFAULT_255_2_778
10
18.2586221
20
17.1398836
40
0.565957
50
120.7589976
51
180.0411192
0
ARC
8
DEFAULT_255_2_778
10
18.2566808
20
17.139466
40
0.5640157
50
179.998841
51
184.4189101
0
ARC
8
DEFAULT_255_2_778
10
18.2568963
20
17.1396694
40
0.5642461
50
184.4378155
51
207.6035772
0
ARC
8
DEFAULT_255_2_778
10
18.2661904
20
17.1257513
40
0.5662778
50
205.9196663
51
270.0089189
0
ARC
8
DEFAULT_255_2_778
10
18.2662898
20
17.1218854
40
0.5624119
50
269.9988553
51
276.4096839
0
ARC
8
DEFAULT_255_2_778
10
18.265668
20
17.125262
40
0.5658369
50
276.4340806
51
292.6394069
0
ARC
8
DEFAULT_255_2_778
10
18.2659583
20
17.1260494
40
0.5664522
50
292.58166
51
359.9796515
0
ARC
8
DEFAULT_255_2_778
10
18.2701022
20
17.1258467
40
0.5623081
50
0.0001519
51
8.1468849
0
ARC
8
DEFAULT_255_2_778
10
18.2642375
20
17.1248478
40
0.5682551
50
8.1627819
51
19.263783
0
ARC
8
DEFAULT_255_2_778
10
18.2569159
20
17.1308517
40
0.4814404
50
11.7692376
51
12.8623928
0
ARC
8
DEFAULT_255_2_778
10
18.2634362
20
17.1320146
40
0.4748201
50
0.0147085
51
11.7923498
0
ARC
8
DEFAULT_255_2_778
10
18.2627398
20
17.1327622
40
0.4755168
50
287.8851572
51
359.9245984
0
ARC
8
DEFAULT_255_2_778
10
18.2622921
20
17.1339237
40
0.4767596
50
278.583333
51
287.8934871
0
ARC
8
DEFAULT_255_2_778
10
18.2631301
20
17.1289523
40
0.4717188
50
270.0012483
51
278.5728121
0
ARC
8
DEFAULT_255_2_778
10
18.2633575
20
17.1322052
40
0.4749719
50
202.8551015
51
269.9738113
0
ARC
8
DEFAULT_255_2_778
10
18.263294
20
17.1323666
40
0.474976
50
185.9535771
51
202.876014
0
ARC
8
DEFAULT_255_2_778
10
18.2611959
20
17.1319728
40
0.4728485
50
179.9989632
51
185.9324833
0
ARC
8
DEFAULT_255_2_778
10
18.2633498
20
17.1322321
40
0.4750023
50
117.8735666
51
180.0302457
0
ARC
8
DEFAULT_255_2_778
10
18.2632659
20
17.1328483
40
0.4744184
50
94.1250159
51
117.8993978
0
ARC
8
DEFAULT_255_2_778
10
18.2630901
20
17.1331671
40
0.4740879
50
89.999216
51
94.1066056
0
ARC
8
DEFAULT_255_2_778
10
18.2634379
20
17.1323847
40
0.4748704
50
32.8717126
51
90.0411725
0
LINE
8
DEFAULT_255_2_778
10
19.7293758
20
25.3512253
11
19.6557758
21
25.3570253
0
LINE
8
DEFAULT_255_2_778
10
19.6557758
20
25.3570253
11
19.5581758
21
25.3192253
0
LINE
8
DEFAULT_255_2_778
10
19.5581758
20
25.3192253
11
19.2197758
21
24.9808253
0
LINE
8
DEFAULT_255_2_778
10
19.2197758
20
24.9808253
11
19.1699758
21
25.0305253
0
LINE
8
DEFAULT_255_2_778
10
19.1699758
20
25.0305253
11
19.7115758
21
25.5721253
0
LINE
8
DEFAULT_255_2_778
10
19.7115758
20
25.5721253
11
19.7613758
21
25.5224253
0
LINE
8
DEFAULT_255_2_778
10
19.7613758
20
25.5224253
11
19.6597758
21
25.4208253
0
LINE
8
DEFAULT_255_2_778
10
19.6597758
20
25.4208253
11
19.7134758
21
25.4348253
0
LINE
8
DEFAULT_255_2_778
10
19.7134758
20
25.4348253
11
19.7771758
21
25.4388253
0
LINE
8
DEFAULT_255_2_778
10
19.7771758
20
25.4388253
11
19.8240758
21
25.4258253
0
LINE
8
DEFAULT_255_2_778
10
19.8240758
20
25.4258253
11
19.8907758
21
25.3930253
0
LINE
8
DEFAULT_255_2_778
10
19.8907758
20
25.3930253
11
19.8060758
21
25.3083253
0
LINE
8
DEFAULT_255_2_778
10
19.8060758
20
25.3083253
11
19.7295758
21
25.3512253
0
LINE
8
DEFAULT_255_2_778
10
18.8006758
20
17.3123253
11
18.7262758
21
17.2380253
0
LINE
8
DEFAULT_255_2_778
10
18.6622758
20
17.3901253
11
18.7283758
21
17.4563253
0
ARC
8
DEFAULT_255_2_778
10
18.1516788
20
16.8943699
40
0.0432371
50
179.9878656
51
247.6563326
0
ARC
8
DEFAULT_255_2_778
10
18.1516273
20
16.8943913
40
0.0432373
50
247.7301869
51
267.4710077
0
ARC
8
DEFAULT_255_2_778
10
18.1516634
20
16.8947082
40
0.0435556
50
267.4420029
51
270.0048814
0
ARC
8
DEFAULT_255_2_778
10
18.1517943
20
16.8941763
40
0.043024
50
269.830599
51
315.2355955
0
ARC
8
DEFAULT_255_2_778
10
18.1529796
20
16.894863
40
0.1337891
50
270.0024973
51
308.6514637
0
ARC
8
DEFAULT_255_2_778
10
18.1529856
20
16.8940958
40
0.1330218
50
268.6376581
51
269.9999091
0
ARC
8
DEFAULT_255_2_778
10
18.1528735
20
16.8930556
40
0.1319794
50
244.2529117
51
268.675566
0
ARC
8
DEFAULT_255_2_778
10
18.1534426
20
16.8945814
40
0.133601
50
180.0867766
51
244.3173496
0
LINE
8
DEFAULT_255_2_778
10
18.1823418
20
16.8638791
11
19.0512418
21
17.7327791
0
LINE
8
DEFAULT_255_2_778
10
19.0512418
20
17.7327791
11
19.1149418
21
17.6690791
0
LINE
8
DEFAULT_255_2_778
10
19.1149418
20
17.6690791
11
18.2365418
21
16.7903791
0
LINE
8
DEFAULT_255_2_778
10
18.0198418
20
16.8943791
11
18.0198418
21
17.3642791
0
LINE
8
DEFAULT_255_2_778
10
18.0198418
20
17.3642791
11
18.1082418
21
17.3642791
0
LINE
8
DEFAULT_255_2_778
10
18.1082418
20
17.3642791
11
18.1082418
21
16.8943791
0
LINE
8
DEFAULT_255_2_778
10
16.4744418
20
16.0098791
11
16.5588418
21
16.0098791
0
LINE
8
DEFAULT_255_2_778
10
16.5588418
20
16.0098791
11
16.2775418
21
14.8609791
0
LINE
8
DEFAULT_255_2_778
10
16.2775418
20
14.8609791
11
16.1931418
21
14.8609791
0
LINE
8
DEFAULT_255_2_778
10
16.1931418
20
14.8609791
11
16.3056418
21
15.3396791
0
LINE
8
DEFAULT_255_2_778
10
16.3056418
20
15.3396791
11
16.1087418
21
16.0098791
0
LINE
8
DEFAULT_255_2_778
10
16.1087418
20
16.0098791
11
16.1931418
21
16.0098791
0
LINE
8
DEFAULT_255_2_778
10
16.1931418
20
16.0098791
11
16.3479418
21
15.5071791
0
LINE
8
DEFAULT_255_2_778
10
16.3479418
20
15.5071791
11
16.4744418
21
16.0098791
0
LINE
8
DEFAULT_255_2_778
10
17.3531418
20
17.7187791
11
17.4234418
21
17.7187791
0
LINE
8
DEFAULT_255_2_778
10
17.4234418
20
17.7187791
11
17.4234418
21
16.5937791
0
LINE
8
DEFAULT_255_2_778
10
17.4234418
20
16.5937791
11
17.3531418
21
16.5937791
0
LINE
8
DEFAULT_255_2_778
10
17.3531418
20
16.5937791
11
17.3531418
21
17.7187791
0
LINE
8
DEFAULT_255_2_778
10
15.5388418
20
17.3597791
11
15.6092418
21
17.3597791
0
LINE
8
DEFAULT_255_2_778
10
15.6092418
20
17.3597791
11
15.6092418
21
16.5937791
0
LINE
8
DEFAULT_255_2_778
10
15.6092418
20
16.5937791
11
15.5388418
21
16.5937791
0
LINE
8
DEFAULT_255_2_778
10
15.5388418
20
16.5937791
11
15.5388418
21
17.3597791
0
LINE
8
DEFAULT_255_2_778
10
15.5388418
20
17.7187791
11
15.6092418
21
17.7187791
0
LINE
8
DEFAULT_255_2_778
10
15.6092418
20
17.7187791
11
15.6092418
21
17.5991791
0
LINE
8
DEFAULT_255_2_778
10
15.6092418
20
17.5991791
11
15.5388418
21
17.5991791
0
LINE
8
DEFAULT_255_2_778
10
15.5388418
20
17.5991791
11
15.5388418
21
17.7187791
0
LINE
8
DEFAULT_255_2_778
10
14.9837418
20
16.2971791
11
14.8993418
21
16.2733791
0
LINE
8
DEFAULT_255_2_778
10
14.8993418
20
16.2733791
11
14.8713418
21
16.2495791
0
LINE
8
DEFAULT_255_2_778
10
14.8713418
20
16.2495791
11
14.8432418
21
16.2016791
0
LINE
8
DEFAULT_255_2_778
10
14.8432418
20
16.2016791
11
14.8292418
21
16.1299791
0
LINE
8
DEFAULT_255_2_778
10
14.8292418
20
16.1299791
11
14.8292418
21
16.0103791
0
LINE
8
DEFAULT_255_2_778
10
14.8292418
20
16.0103791
11
14.9557418
21
16.0103791
0
LINE
8
DEFAULT_255_2_778
10
14.9557418
20
16.0103791
11
14.9557418
21
15.9145791
0
LINE
8
DEFAULT_255_2_778
10
14.9557418
20
15.9145791
11
14.8292418
21
15.9145791
0
LINE
8
DEFAULT_255_2_778
10
14.8292418
20
15.9145791
11
14.8292418
21
15.2443791
0
LINE
8
DEFAULT_255_2_778
10
14.8292418
20
15.2443791
11
14.7588418
21
15.2443791
0
LINE
8
DEFAULT_255_2_778
10
14.7588418
20
15.2443791
11
14.7588418
21
15.9145791
0
LINE
8
DEFAULT_255_2_778
10
14.7588418
20
15.9145791
11
14.6183418
21
15.9145791
0
LINE
8
DEFAULT_255_2_778
10
14.6183418
20
15.9145791
11
14.6183418
21
16.0103791
0
LINE
8
DEFAULT_255_2_778
10
14.6183418
20
16.0103791
11
14.7588418
21
16.0103791
0
LINE
8
DEFAULT_255_2_778
10
14.7588418
20
16.0103791
11
14.7588418
21
16.1540791
0
LINE
8
DEFAULT_255_2_778
10
14.7588418
20
16.1540791
11
14.7728418
21
16.2257791
0
LINE
8
DEFAULT_255_2_778
10
14.7728418
20
16.2257791
11
14.8009418
21
16.2974791
0
LINE
8
DEFAULT_255_2_778
10
14.8009418
20
16.2974791
11
14.8572418
21
16.3453791
0
LINE
8
DEFAULT_255_2_778
10
14.8572418
20
16.3453791
11
14.9276418
21
16.3691791
0
LINE
8
DEFAULT_255_2_778
10
14.9276418
20
16.3691791
11
14.9840418
21
16.3691791
0
LINE
8
DEFAULT_255_2_778
10
14.9840418
20
16.3691791
11
14.9840418
21
16.2974791
0
LINE
8
DEFAULT_255_2_778
10
12.8390418
20
17.7187791
11
13.3451418
21
17.7187791
0
LINE
8
DEFAULT_255_2_778
10
13.3451418
20
17.7187791
11
13.3451418
21
17.5750791
0
LINE
8
DEFAULT_255_2_778
10
13.3451418
20
17.5750791
11
12.9234418
21
17.5750791
0
LINE
8
DEFAULT_255_2_778
10
12.9234418
20
17.5750791
11
12.9234418
21
17.2639791
0
LINE
8
DEFAULT_255_2_778
10
12.9234418
20
17.2639791
11
13.2891418
21
17.2639791
0
LINE
8
DEFAULT_255_2_778
10
13.2891418
20
17.2639791
11
13.2891418
21
17.1202791
0
LINE
8
DEFAULT_255_2_778
10
13.2891418
20
17.1202791
11
12.9234418
21
17.1202791
0
LINE
8
DEFAULT_255_2_778
10
12.9234418
20
17.1202791
11
12.9234418
21
16.5937791
0
LINE
8
DEFAULT_255_2_778
10
12.9234418
20
16.5937791
11
12.8390418
21
16.5937791
0
LINE
8
DEFAULT_255_2_778
10
12.8390418
20
16.5937791
11
12.8390418
21
17.7187791
0
LINE
8
DEFAULT_255_2_778
10
14.8924418
20
20.1071791
11
14.7249418
21
20.1071791
0
LINE
8
DEFAULT_255_2_778
10
14.7249418
20
20.1071791
11
14.7249418
21
19.1157791
0
LINE
8
DEFAULT_255_2_778
10
14.7249418
20
19.1157791
11
14.7527418
21
18.9559791
0
LINE
8
DEFAULT_255_2_778
10
14.7527418
20
18.9559791
11
14.8086418
21
18.8278791
0
LINE
8
DEFAULT_255_2_778
10
14.8086418
20
18.8278791
11
14.9202418
21
18.6998791
0
LINE
8
DEFAULT_255_2_778
10
14.9202418
20
18.6998791
11
15.0319418
21
18.6358791
0
LINE
8
DEFAULT_255_2_778
10
15.0319418
20
18.6358791
11
15.1713418
21
18.6037791
0
LINE
8
DEFAULT_255_2_778
10
15.1713418
20
18.6037791
11
15.2830418
21
18.6037791
0
LINE
8
DEFAULT_255_2_778
10
15.2830418
20
18.6037791
11
15.4224418
21
18.6358791
0
LINE
8
DEFAULT_255_2_778
10
15.4224418
20
18.6358791
11
15.5340418
21
18.6998791
0
LINE
8
DEFAULT_255_2_778
10
15.5340418
20
18.6998791
11
15.6457418
21
18.8278791
0
LINE
8
DEFAULT_255_2_778
10
15.6457418
20
18.8278791
11
15.7015418
21
18.9559791
0
LINE
8
DEFAULT_255_2_778
10
15.7015418
20
18.9559791
11
15.7293418
21
19.1157791
0
LINE
8
DEFAULT_255_2_778
10
15.7293418
20
19.1157791
11
15.7293418
21
20.1071791
0
LINE
8
DEFAULT_255_2_778
10
15.7293418
20
20.1071791
11
15.5624418
21
20.1071791
0
LINE
8
DEFAULT_255_2_778
10
15.5624418
20
20.1071791
11
15.5624418
21
19.1157791
0
LINE
8
DEFAULT_255_2_778
10
15.5624418
20
19.1157791
11
15.5346418
21
18.9876791
0
LINE
8
DEFAULT_255_2_778
10
15.5346418
20
18.9876791
11
15.4787418
21
18.8916791
0
LINE
8
DEFAULT_255_2_778
10
15.4787418
20
18.8916791
11
15.3951418
21
18.8276791
0
LINE
8
DEFAULT_255_2_778
10
15.3951418
20
18.8276791
11
15.2835418
21
18.7956791
0
LINE
8
DEFAULT_255_2_778
10
15.2835418
20
18.7956791
11
15.1718418
21
18.7956791
0
LINE
8
DEFAULT_255_2_778
10
15.1718418
20
18.7956791
11
15.0602418
21
18.8276791
0
LINE
8
DEFAULT_255_2_778
10
15.0602418
20
18.8276791
11
14.9766418
21
18.8916791
0
LINE
8
DEFAULT_255_2_778
10
14.9766418
20
18.8916791
11
14.9207418
21
18.9876791
0
LINE
8
DEFAULT_255_2_778
10
14.9207418
20
18.9876791
11
14.8930418
21
19.1157791
0
LINE
8
DEFAULT_255_2_778
10
14.8930418
20
19.1157791
11
14.8930418
21
20.1071791
0
LINE
8
DEFAULT_255_2_778
10
15.9531418
20
20.1071791
11
16.6231418
21
20.1071791
0
LINE
8
DEFAULT_255_2_778
10
16.6231418
20
20.1071791
11
16.7625418
21
20.0751791
0
LINE
8
DEFAULT_255_2_778
10
16.7625418
20
20.0751791
11
16.8742418
21
20.0111791
0
LINE
8
DEFAULT_255_2_778
10
16.8742418
20
20.0111791
11
16.9858418
21
19.8830791
0
LINE
8
DEFAULT_255_2_778
10
16.9858418
20
19.8830791
11
17.0416418
21
19.7549791
0
LINE
8
DEFAULT_255_2_778
10
17.0416418
20
19.7549791
11
17.0694418
21
19.5951791
0
LINE
8
DEFAULT_255_2_778
10
17.0694418
20
19.5951791
11
17.0694418
21
19.1154791
0
LINE
8
DEFAULT_255_2_778
10
17.0694418
20
19.1154791
11
17.0416418
21
18.9556791
0
LINE
8
DEFAULT_255_2_778
10
17.0416418
20
18.9556791
11
16.9858418
21
18.8276791
0
LINE
8
DEFAULT_255_2_778
10
16.9858418
20
18.8276791
11
16.8742418
21
18.6995791
0
LINE
8
DEFAULT_255_2_778
10
16.8742418
20
18.6995791
11
16.7625418
21
18.6355791
0
LINE
8
DEFAULT_255_2_778
10
16.7625418
20
18.6355791
11
16.6231418
21
18.6035791
0
LINE
8
DEFAULT_255_2_778
10
16.6231418
20
18.6035791
11
15.9531418
21
18.6035791
0
LINE
8
DEFAULT_255_2_778
10
15.9531418
20
18.6035791
11
15.9531418
21
20.1066791
0
LINE
8
DEFAULT_255_2_778
10
16.1203803
20
19.9150739
11
16.6228803
21
19.9150739
0
LINE
8
DEFAULT_255_2_778
10
16.6228803
20
19.9150739
11
16.7344803
21
19.8830739
0
LINE
8
DEFAULT_255_2_778
10
16.7344803
20
19.8830739
11
16.8180803
21
19.8189739
0
LINE
8
DEFAULT_255_2_778
10
16.8180803
20
19.8189739
11
16.8739803
21
19.7229739
0
LINE
8
DEFAULT_255_2_778
10
16.8739803
20
19.7229739
11
16.9016803
21
19.5948739
0
LINE
8
DEFAULT_255_2_778
10
16.9016803
20
19.5948739
11
16.9016803
21
19.1152739
0
LINE
8
DEFAULT_255_2_778
10
16.9016803
20
19.1152739
11
16.8739803
21
18.9871739
0
LINE
8
DEFAULT_255_2_778
10
16.8739803
20
18.9871739
11
16.8180803
21
18.8910739
0
LINE
8
DEFAULT_255_2_778
10
16.8180803
20
18.8910739
11
16.7344803
21
18.8270739
0
LINE
8
DEFAULT_255_2_778
10
16.7344803
20
18.8270739
11
16.6228803
21
18.7950739
0
LINE
8
DEFAULT_255_2_778
10
16.6228803
20
18.7950739
11
16.1203803
21
18.7950739
0
LINE
8
DEFAULT_255_2_778
10
16.1203803
20
18.7950739
11
16.1203803
21
19.9145739
0
LINE
8
DEFAULT_255_2_778
10
14.0550803
20
20.1071739
11
13.9156803
21
20.1071739
0
LINE
8
DEFAULT_255_2_778
10
13.9156803
20
20.1071739
11
13.8039803
21
20.0751739
0
LINE
8
DEFAULT_255_2_778
10
13.8039803
20
20.0751739
11
13.6922803
21
20.0110739
0
LINE
8
DEFAULT_255_2_778
10
13.6922803
20
20.0110739
11
13.5806803
21
19.8830739
0
LINE
8
DEFAULT_255_2_778
10
13.5806803
20
19.8830739
11
13.5528803
21
19.7549739
0
LINE
8
DEFAULT_255_2_778
10
13.5528803
20
19.7549739
11
13.5528803
21
19.6269739
0
LINE
8
DEFAULT_255_2_778
10
13.5528803
20
19.6269739
11
13.5806803
21
19.4988739
0
LINE
8
DEFAULT_255_2_778
10
13.5806803
20
19.4988739
11
13.6922803
21
19.3707739
0
LINE
8
DEFAULT_255_2_778
10
13.6922803
20
19.3707739
11
13.8039803
21
19.3067739
0
LINE
8
DEFAULT_255_2_778
10
13.8039803
20
19.3067739
11
13.9156803
21
19.2747739
0
LINE
8
DEFAULT_255_2_778
10
13.9156803
20
19.2747739
11
14.0830803
21
19.2747739
0
LINE
8
DEFAULT_255_2_778
10
14.0830803
20
19.2747739
11
14.1947803
21
19.2427739
0
LINE
8
DEFAULT_255_2_778
10
14.1947803
20
19.2427739
11
14.2783803
21
19.1787739
0
LINE
8
DEFAULT_255_2_778
10
14.2783803
20
19.1787739
11
14.3341803
21
19.0826739
0
LINE
8
DEFAULT_255_2_778
10
14.3341803
20
19.0826739
11
14.3341803
21
18.9866739
0
LINE
8
DEFAULT_255_2_778
10
14.3341803
20
18.9866739
11
14.2783803
21
18.8905739
0
LINE
8
DEFAULT_255_2_778
10
14.2783803
20
18.8905739
11
14.1947803
21
18.8265739
0
LINE
8
DEFAULT_255_2_778
10
14.1947803
20
18.8265739
11
14.0830803
21
18.7945739
0
LINE
8
DEFAULT_255_2_778
10
14.0830803
20
18.7945739
11
13.8597803
21
18.7945739
0
LINE
8
DEFAULT_255_2_778
10
13.8597803
20
18.7945739
11
13.7481803
21
18.8265739
0
LINE
8
DEFAULT_255_2_778
10
13.7481803
20
18.8265739
11
13.6645803
21
18.9225739
0
LINE
8
DEFAULT_255_2_778
10
13.6645803
20
18.9225739
11
13.6367803
21
19.0186739
0
LINE
8
DEFAULT_255_2_778
10
13.6367803
20
19.0186739
11
13.4692803
21
19.0186739
0
LINE
8
DEFAULT_255_2_778
10
13.4692803
20
19.0186739
11
13.4970803
21
18.8905739
0
LINE
8
DEFAULT_255_2_778
10
13.4970803
20
18.8905739
11
13.5806803
21
18.7307739
0
LINE
8
DEFAULT_255_2_778
10
13.5806803
20
18.7307739
11
13.7200803
21
18.6347739
0
LINE
8
DEFAULT_255_2_778
10
13.7200803
20
18.6347739
11
13.8595803
21
18.6027739
0
LINE
8
DEFAULT_255_2_778
10
13.8595803
20
18.6027739
11
14.0828803
21
18.6027739
0
LINE
8
DEFAULT_255_2_778
10
14.0828803
20
18.6027739
11
14.2222803
21
18.6347739
0
LINE
8
DEFAULT_255_2_778
10
14.2222803
20
18.6347739
11
14.3339803
21
18.6987739
0
LINE
8
DEFAULT_255_2_778
10
14.3339803
20
18.6987739
11
14.4455803
21
18.8268739
0
LINE
8
DEFAULT_255_2_778
10
14.4455803
20
18.8268739
11
14.5013803
21
18.9548739
0
LINE
8
DEFAULT_255_2_778
10
14.5013803
20
18.9548739
11
14.5013803
21
19.1146739
0
LINE
8
DEFAULT_255_2_778
10
14.5013803
20
19.1146739
11
14.4455803
21
19.2427739
0
LINE
8
DEFAULT_255_2_778
10
14.4455803
20
19.2427739
11
14.3339803
21
19.3707739
0
LINE
8
DEFAULT_255_2_778
10
14.3339803
20
19.3707739
11
14.2222803
21
19.4348739
0
LINE
8
DEFAULT_255_2_778
10
14.2222803
20
19.4348739
11
14.0828803
21
19.4668739
0
LINE
8
DEFAULT_255_2_778
10
14.0828803
20
19.4668739
11
13.9153803
21
19.4668739
0
LINE
8
DEFAULT_255_2_778
10
13.9153803
20
19.4668739
11
13.8317803
21
19.4988739
0
LINE
8
DEFAULT_255_2_778
10
13.8317803
20
19.4988739
11
13.7481803
21
19.5628739
0
LINE
8
DEFAULT_255_2_778
10
13.7481803
20
19.5628739
11
13.7203803
21
19.6589739
0
LINE
8
DEFAULT_255_2_778
10
13.7203803
20
19.6589739
11
13.7203803
21
19.7229739
0
LINE
8
DEFAULT_255_2_778
10
13.7203803
20
19.7229739
11
13.7481803
21
19.8189739
0
LINE
8
DEFAULT_255_2_778
10
13.7481803
20
19.8189739
11
13.8317803
21
19.8830739
0
LINE
8
DEFAULT_255_2_778
10
13.8317803
20
19.8830739
11
13.9153803
21
19.9150739
0
LINE
8
DEFAULT_255_2_778
10
13.9153803
20
19.9150739
11
14.0828803
21
19.9150739
0
LINE
8
DEFAULT_255_2_778
10
14.0828803
20
19.9150739
11
14.1664803
21
19.8830739
0
LINE
8
DEFAULT_255_2_778
10
14.1664803
20
19.8830739
11
14.2222803
21
19.8189739
0
LINE
8
DEFAULT_255_2_778
10
14.2222803
20
19.8189739
11
14.2500803
21
19.7549739
0
LINE
8
DEFAULT_255_2_778
10
14.2500803
20
19.7549739
11
14.4175803
21
19.7549739
0
LINE
8
DEFAULT_255_2_778
10
14.4175803
20
19.7549739
11
14.3897803
21
19.8510739
0
LINE
8
DEFAULT_255_2_778
10
14.3897803
20
19.8510739
11
14.3061803
21
19.9790739
0
LINE
8
DEFAULT_255_2_778
10
14.3061803
20
19.9790739
11
14.1944803
21
20.0751739
0
LINE
8
DEFAULT_255_2_778
10
14.1944803
20
20.0751739
11
14.0550803
21
20.1071739
0
LINE
8
DEFAULT_255_2_778
10
15.4263803
20
23.5538739
11
15.1863803
21
23.5538739
0
LINE
8
DEFAULT_255_2_778
10
15.1863803
20
23.5538739
11
15.1863803
21
23.1638739
0
LINE
8
DEFAULT_255_2_778
10
15.1863803
20
23.1638739
11
15.4263803
21
23.1638739
0
LINE
8
DEFAULT_255_2_778
10
15.4263803
20
23.1638739
11
15.4263803
21
23.5538739
0
LINE
8
DEFAULT_255_2_778
10
14.9464803
20
23.5538739
11
14.7064803
21
23.5538739
0
LINE
8
DEFAULT_255_2_778
10
14.7064803
20
23.5538739
11
14.7064803
21
23.1638739
0
LINE
8
DEFAULT_255_2_778
10
14.7064803
20
23.1638739
11
14.9464803
21
23.1638739
0
LINE
8
DEFAULT_255_2_778
10
14.9464803
20
23.1638739
11
14.9464803
21
23.5538739
0
LINE
8
DEFAULT_255_2_778
10
15.3038803
20
20.1036739
11
15.4152803
21
20.1036739
0
LINE
8
DEFAULT_255_2_778
10
15.4152803
20
20.1036739
11
15.4152803
21
19.9330739
0
LINE
8
DEFAULT_255_2_778
10
15.4152803
20
19.9330739
11
15.3038803
21
19.9330739
0
LINE
8
DEFAULT_255_2_778
10
15.3038803
20
19.9330739
11
15.3038803
21
20.1036739
0
LINE
8
DEFAULT_255_2_778
10
15.0342803
20
20.1036739
11
15.1456803
21
20.1036739
0
LINE
8
DEFAULT_255_2_778
10
15.1456803
20
20.1036739
11
15.1456803
21
19.9330739
0
LINE
8
DEFAULT_255_2_778
10
15.1456803
20
19.9330739
11
15.0342803
21
19.9330739
0
LINE
8
DEFAULT_255_2_778
10
15.0342803
20
19.9330739
11
15.0342803
21
20.1036739
0
LINE
8
DEFAULT_255_2_778
10
14.1260042
20
15.9860198
11
14.2244042
21
16.0098198
0
LINE
8
DEFAULT_255_2_778
10
14.2244042
20
16.0098198
11
14.3088042
21
16.0098198
0
LINE
8
DEFAULT_255_2_778
10
14.3088042
20
16.0098198
11
14.3932042
21
15.9860198
0
LINE
8
DEFAULT_255_2_778
10
14.3932042
20
15.9860198
11
14.4353042
21
15.9381198
0
LINE
8
DEFAULT_255_2_778
10
14.4353042
20
15.9381198
11
14.4633042
21
15.8902198
0
LINE
8
DEFAULT_255_2_778
10
14.4633042
20
15.8902198
11
14.4773042
21
15.8185198
0
LINE
8
DEFAULT_255_2_778
10
14.4773042
20
15.8185198
11
14.4773042
21
15.4357198
0
LINE
8
DEFAULT_255_2_778
10
14.4773042
20
15.4357198
11
14.4914042
21
15.3161198
0
LINE
8
DEFAULT_255_2_778
10
14.4914042
20
15.3161198
11
14.5054042
21
15.2444198
0
LINE
8
DEFAULT_255_2_778
10
14.5054042
20
15.2444198
11
14.4350042
21
15.2444198
0
LINE
8
DEFAULT_255_2_778
10
14.4350042
20
15.2444198
11
14.4210042
21
15.2923198
0
LINE
8
DEFAULT_255_2_778
10
14.4210042
20
15.2923198
11
14.4070042
21
15.3640198
0
LINE
8
DEFAULT_255_2_778
10
14.4070042
20
15.3640198
11
14.3929042
21
15.3161198
0
LINE
8
DEFAULT_255_2_778
10
14.3929042
20
15.3161198
11
14.3509042
21
15.2682198
0
LINE
8
DEFAULT_255_2_778
10
14.3509042
20
15.2682198
11
14.2805042
21
15.2444198
0
LINE
8
DEFAULT_255_2_778
10
14.2805042
20
15.2444198
11
14.1961042
21
15.2444198
0
LINE
8
DEFAULT_255_2_778
10
14.1961042
20
15.2444198
11
14.1397042
21
15.2682198
0
LINE
8
DEFAULT_255_2_778
10
14.1397042
20
15.2682198
11
14.1117042
21
15.2920198
0
LINE
8
DEFAULT_255_2_778
10
14.1117042
20
15.2920198
11
14.0696042
21
15.3637198
0
LINE
8
DEFAULT_255_2_778
10
14.0696042
20
15.3637198
11
14.0556042
21
15.4595198
0
LINE
8
DEFAULT_255_2_778
10
14.0556042
20
15.4595198
11
14.0556042
21
15.5312198
0
LINE
8
DEFAULT_255_2_778
10
14.0556042
20
15.5312198
11
14.0836042
21
15.6269198
0
LINE
8
DEFAULT_255_2_778
10
14.0836042
20
15.6269198
11
14.1117042
21
15.6748198
0
LINE
8
DEFAULT_255_2_778
10
14.1117042
20
15.6748198
11
14.1680042
21
15.7227198
0
LINE
8
DEFAULT_255_2_778
10
14.1680042
20
15.7227198
11
14.2524042
21
15.7465198
0
LINE
8
DEFAULT_255_2_778
10
14.2524042
20
15.7465198
11
14.4072042
21
15.7465198
0
LINE
8
DEFAULT_255_2_778
10
14.4072042
20
15.7465198
11
14.4072042
21
15.8182198
0
LINE
8
DEFAULT_255_2_778
10
14.4072042
20
15.8182198
11
14.3932042
21
15.8661198
0
LINE
8
DEFAULT_255_2_778
10
14.3932042
20
15.8661198
11
14.3652042
21
15.8899198
0
LINE
8
DEFAULT_255_2_778
10
14.3652042
20
15.8899198
11
14.3088042
21
15.9138198
0
LINE
8
DEFAULT_255_2_778
10
14.3088042
20
15.9138198
11
14.2244042
21
15.9138198
0
LINE
8
DEFAULT_255_2_778
10
14.2244042
20
15.9138198
11
14.1680042
21
15.8899198
0
LINE
8
DEFAULT_255_2_778
10
14.1680042
20
15.8899198
11
14.1400042
21
15.8661198
0
LINE
8
DEFAULT_255_2_778
10
14.1400042
20
15.8661198
11
14.1260042
21
15.8182198
0
LINE
8
DEFAULT_255_2_778
10
14.1260042
20
15.8182198
11
14.0556042
21
15.8182198
0
LINE
8
DEFAULT_255_2_778
10
14.0556042
20
15.8182198
11
14.0556042
21
15.8661198
0
LINE
8
DEFAULT_255_2_778
10
14.0556042
20
15.8661198
11
14.0696042
21
15.9140198
0
LINE
8
DEFAULT_255_2_778
10
14.0696042
20
15.9140198
11
14.0977042
21
15.9619198
0
LINE
8
DEFAULT_255_2_778
10
14.0977042
20
15.9619198
11
14.1257042
21
15.9857198
0
LINE
8
DEFAULT_255_2_778
10
15.4195365
20
15.3634521
11
15.3211365
21
15.3395521
0
LINE
8
DEFAULT_255_2_778
10
15.3211365
20
15.3395521
11
15.2647365
21
15.3634521
0
LINE
8
DEFAULT_255_2_778
10
15.2647365
20
15.3634521
11
15.2367365
21
15.3872521
0
LINE
8
DEFAULT_255_2_778
10
15.2367365
20
15.3872521
11
15.1946365
21
15.4589521
0
LINE
8
DEFAULT_255_2_778
10
15.1946365
20
15.4589521
11
15.1806365
21
15.5068521
0
LINE
8
DEFAULT_255_2_778
10
15.1806365
20
15.5068521
11
15.1665365
21
15.5785521
0
LINE
8
DEFAULT_255_2_778
10
15.1665365
20
15.5785521
11
15.1665365
21
15.6263521
0
LINE
8
DEFAULT_255_2_778
10
15.1665365
20
15.6263521
11
15.5462365
21
15.6263521
0
LINE
8
DEFAULT_255_2_778
10
15.5462365
20
15.6263521
11
15.5462365
21
15.7221521
0
LINE
8
DEFAULT_255_2_778
10
15.5462365
20
15.7221521
11
15.5322365
21
15.8179521
0
LINE
8
DEFAULT_255_2_778
10
15.5322365
20
15.8179521
11
15.4901365
21
15.9137521
0
LINE
8
DEFAULT_255_2_778
10
15.4901365
20
15.9137521
11
15.4198365
21
15.9854521
0
LINE
8
DEFAULT_255_2_778
10
15.4198365
20
15.9854521
11
15.3354365
21
16.0092521
0
LINE
8
DEFAULT_255_2_778
10
15.3354365
20
16.0092521
11
15.2510365
21
15.9854521
0
LINE
8
DEFAULT_255_2_778
10
15.2510365
20
15.9854521
11
15.2089365
21
15.9616521
0
LINE
8
DEFAULT_255_2_778
10
15.2089365
20
15.9616521
11
15.1668365
21
15.9137521
0
LINE
8
DEFAULT_255_2_778
10
15.1668365
20
15.9137521
11
15.1388365
21
15.8658521
0
LINE
8
DEFAULT_255_2_778
10
15.1388365
20
15.8658521
11
15.1107365
21
15.7700521
0
LINE
8
DEFAULT_255_2_778
10
15.1107365
20
15.7700521
11
15.0967365
21
15.6263521
0
LINE
8
DEFAULT_255_2_778
10
15.0967365
20
15.6263521
11
15.1107365
21
15.4827521
0
LINE
8
DEFAULT_255_2_778
10
15.1107365
20
15.4827521
11
15.1388365
21
15.3869521
0
LINE
8
DEFAULT_255_2_778
10
15.1388365
20
15.3869521
11
15.1668365
21
15.3390521
0
LINE
8
DEFAULT_255_2_778
10
15.1668365
20
15.3390521
11
15.2089365
21
15.2911521
0
LINE
8
DEFAULT_255_2_778
10
15.2089365
20
15.2911521
11
15.2510365
21
15.2673521
0
LINE
8
DEFAULT_255_2_778
10
15.2510365
20
15.2673521
11
15.3354365
21
15.2435521
0
LINE
8
DEFAULT_255_2_778
10
15.3354365
20
15.2435521
11
15.4338365
21
15.2673521
0
LINE
8
DEFAULT_255_2_778
10
15.4338365
20
15.2673521
11
15.4901365
21
15.3152521
0
LINE
8
DEFAULT_255_2_778
10
15.4901365
20
15.3152521
11
15.5322365
21
15.3869521
0
LINE
8
DEFAULT_255_2_778
10
15.5322365
20
15.3869521
11
15.5462365
21
15.4827521
0
LINE
8
DEFAULT_255_2_778
10
15.5462365
20
15.4827521
11
15.4758365
21
15.4827521
0
LINE
8
DEFAULT_255_2_778
10
15.4758365
20
15.4827521
11
15.4618365
21
15.4110521
0
LINE
8
DEFAULT_255_2_778
10
15.4618365
20
15.4110521
11
15.4198365
21
15.3631521
0
LINE
8
DEFAULT_255_2_778
10
16.8610042
20
17.3359198
11
16.9594042
21
17.3597198
0
LINE
8
DEFAULT_255_2_778
10
16.9594042
20
17.3597198
11
17.0438042
21
17.3597198
0
LINE
8
DEFAULT_255_2_778
10
17.0438042
20
17.3597198
11
17.1282042
21
17.3359198
0
LINE
8
DEFAULT_255_2_778
10
17.1282042
20
17.3359198
11
17.1703042
21
17.2880198
0
LINE
8
DEFAULT_255_2_778
10
17.1703042
20
17.2880198
11
17.1983042
21
17.2401198
0
LINE
8
DEFAULT_255_2_778
10
17.1983042
20
17.2401198
11
17.2123042
21
17.1684198
0
LINE
8
DEFAULT_255_2_778
10
17.2123042
20
17.1684198
11
17.2123042
21
16.7856198
0
LINE
8
DEFAULT_255_2_778
10
17.2123042
20
16.7856198
11
17.2264042
21
16.6660198
0
LINE
8
DEFAULT_255_2_778
10
17.2264042
20
16.6660198
11
17.2404042
21
16.5943198
0
LINE
8
DEFAULT_255_2_778
10
17.2404042
20
16.5943198
11
17.1700042
21
16.5943198
0
LINE
8
DEFAULT_255_2_778
10
17.1700042
20
16.5943198
11
17.1560042
21
16.6422198
0
LINE
8
DEFAULT_255_2_778
10
17.1560042
20
16.6422198
11
17.1420042
21
16.7139198
0
LINE
8
DEFAULT_255_2_778
10
17.1420042
20
16.7139198
11
17.1279042
21
16.6660198
0
LINE
8
DEFAULT_255_2_778
10
17.1279042
20
16.6660198
11
17.0859042
21
16.6181198
0
LINE
8
DEFAULT_255_2_778
10
17.0859042
20
16.6181198
11
17.0155042
21
16.5943198
0
LINE
8
DEFAULT_255_2_778
10
17.0155042
20
16.5943198
11
16.9311042
21
16.5943198
0
LINE
8
DEFAULT_255_2_778
10
16.9311042
20
16.5943198
11
16.8747042
21
16.6181198
0
LINE
8
DEFAULT_255_2_778
10
16.8747042
20
16.6181198
11
16.8467042
21
16.6419198
0
LINE
8
DEFAULT_255_2_778
10
16.8467042
20
16.6419198
11
16.8046042
21
16.7136198
0
LINE
8
DEFAULT_255_2_778
10
16.8046042
20
16.7136198
11
16.7906042
21
16.8094198
0
LINE
8
DEFAULT_255_2_778
10
16.7906042
20
16.8094198
11
16.7906042
21
16.8811198
0
LINE
8
DEFAULT_255_2_778
10
16.7906042
20
16.8811198
11
16.8186042
21
16.9768198
0
LINE
8
DEFAULT_255_2_778
10
16.8186042
20
16.9768198
11
16.8467042
21
17.0247198
0
LINE
8
DEFAULT_255_2_778
10
16.8467042
20
17.0247198
11
16.9030042
21
17.0726198
0
LINE
8
DEFAULT_255_2_778
10
16.9030042
20
17.0726198
11
16.9874042
21
17.0964198
0
LINE
8
DEFAULT_255_2_778
10
16.9874042
20
17.0964198
11
17.1422042
21
17.0964198
0
LINE
8
DEFAULT_255_2_778
10
17.1422042
20
17.0964198
11
17.1422042
21
17.1681198
0
LINE
8
DEFAULT_255_2_778
10
17.1422042
20
17.1681198
11
17.1282042
21
17.2160198
0
LINE
8
DEFAULT_255_2_778
10
17.1282042
20
17.2160198
11
17.1002042
21
17.2398198
0
LINE
8
DEFAULT_255_2_778
10
17.1002042
20
17.2398198
11
17.0438042
21
17.2637198
0
LINE
8
DEFAULT_255_2_778
10
17.0438042
20
17.2637198
11
16.9594042
21
17.2637198
0
LINE
8
DEFAULT_255_2_778
10
16.9594042
20
17.2637198
11
16.9030042
21
17.2398198
0
LINE
8
DEFAULT_255_2_778
10
16.9030042
20
17.2398198
11
16.8750042
21
17.2160198
0
LINE
8
DEFAULT_255_2_778
10
16.8750042
20
17.2160198
11
16.8610042
21
17.1681198
0
LINE
8
DEFAULT_255_2_778
10
16.8610042
20
17.1681198
11
16.7906042
21
17.1681198
0
LINE
8
DEFAULT_255_2_778
10
16.7906042
20
17.1681198
11
16.7906042
21
17.2160198
0
LINE
8
DEFAULT_255_2_778
10
16.7906042
20
17.2160198
11
16.8046042
21
17.2639198
0
LINE
8
DEFAULT_255_2_778
10
16.8046042
20
17.2639198
11
16.8327042
21
17.3118198
0
LINE
8
DEFAULT_255_2_778
10
16.8327042
20
17.3118198
11
16.8607042
21
17.3356198
0
LINE
8
DEFAULT_255_2_778
10
13.8092781
20
17.3597167
11
13.8795781
21
17.3597167
0
LINE
8
DEFAULT_255_2_778
10
13.8795781
20
17.3597167
11
13.8795781
21
16.7374167
0
LINE
8
DEFAULT_255_2_778
10
13.8795781
20
16.7374167
11
13.8936781
21
16.6416167
0
LINE
8
DEFAULT_255_2_778
10
13.8936781
20
16.6416167
11
13.9076781
21
16.5937167
0
LINE
8
DEFAULT_255_2_778
10
13.9076781
20
16.5937167
11
13.8372781
21
16.5937167
0
LINE
8
DEFAULT_255_2_778
10
13.8372781
20
16.5937167
11
13.8092781
21
16.7133167
0
LINE
8
DEFAULT_255_2_778
10
13.8092781
20
16.7133167
11
13.7671781
21
16.6416167
0
LINE
8
DEFAULT_255_2_778
10
13.7671781
20
16.6416167
11
13.7391781
21
16.6178167
0
LINE
8
DEFAULT_255_2_778
10
13.7391781
20
16.6178167
11
13.6827781
21
16.5940167
0
LINE
8
DEFAULT_255_2_778
10
13.6827781
20
16.5940167
11
13.6263781
21
16.5940167
0
LINE
8
DEFAULT_255_2_778
10
13.6263781
20
16.5940167
11
13.5700781
21
16.6178167
0
LINE
8
DEFAULT_255_2_778
10
13.5700781
20
16.6178167
11
13.5279781
21
16.6657167
0
LINE
8
DEFAULT_255_2_778
10
13.5279781
20
16.6657167
11
13.4858781
21
16.7374167
0
LINE
8
DEFAULT_255_2_778
10
13.4858781
20
16.7374167
11
13.4718781
21
16.7853167
0
LINE
8
DEFAULT_255_2_778
10
13.4718781
20
16.7853167
11
13.4578781
21
16.8811167
0
LINE
8
DEFAULT_255_2_778
10
13.4578781
20
16.8811167
11
13.4578781
21
17.3597167
0
LINE
8
DEFAULT_255_2_778
10
13.4578781
20
17.3597167
11
13.5282781
21
17.3597167
0
LINE
8
DEFAULT_255_2_778
10
13.5282781
20
17.3597167
11
13.5282781
21
16.8811167
0
LINE
8
DEFAULT_255_2_778
10
13.5282781
20
16.8811167
11
13.5422781
21
16.8094167
0
LINE
8
DEFAULT_255_2_778
10
13.5422781
20
16.8094167
11
13.5702781
21
16.7377167
0
LINE
8
DEFAULT_255_2_778
10
13.5702781
20
16.7377167
11
13.6266781
21
16.6898167
0
LINE
8
DEFAULT_255_2_778
10
13.6266781
20
16.6898167
11
13.6830781
21
16.6898167
0
LINE
8
DEFAULT_255_2_778
10
13.6830781
20
16.6898167
11
13.7393781
21
16.7136167
0
LINE
8
DEFAULT_255_2_778
10
13.7393781
20
16.7136167
11
13.7814781
21
16.7615167
0
LINE
8
DEFAULT_255_2_778
10
13.7814781
20
16.7615167
11
13.8094781
21
16.8332167
0
LINE
8
DEFAULT_255_2_778
10
13.8094781
20
16.8332167
11
13.8094781
21
17.3597167
0
LINE
8
DEFAULT_255_2_778
10
14.8498781
20
16.7133167
11
14.7513781
21
16.6895167
0
LINE
8
DEFAULT_255_2_778
10
14.7513781
20
16.6895167
11
14.6669781
21
16.7374167
0
LINE
8
DEFAULT_255_2_778
10
14.6669781
20
16.7374167
11
14.6249781
21
16.8091167
0
LINE
8
DEFAULT_255_2_778
10
14.6249781
20
16.8091167
11
14.5968781
21
16.9287167
0
LINE
8
DEFAULT_255_2_778
10
14.5968781
20
16.9287167
11
14.5968781
21
17.0004167
0
LINE
8
DEFAULT_255_2_778
10
14.5968781
20
17.0004167
11
14.6109781
21
17.0962167
0
LINE
8
DEFAULT_255_2_778
10
14.6109781
20
17.0962167
11
14.6249781
21
17.1441167
0
LINE
8
DEFAULT_255_2_778
10
14.6249781
20
17.1441167
11
14.6669781
21
17.2158167
0
LINE
8
DEFAULT_255_2_778
10
14.6669781
20
17.2158167
11
14.6950781
21
17.2396167
0
LINE
8
DEFAULT_255_2_778
10
14.6950781
20
17.2396167
11
14.7513781
21
17.2634167
0
LINE
8
DEFAULT_255_2_778
10
14.7513781
20
17.2634167
11
14.8498781
21
17.2396167
0
LINE
8
DEFAULT_255_2_778
10
14.8498781
20
17.2396167
11
14.8918781
21
17.1917167
0
LINE
8
DEFAULT_255_2_778
10
14.8918781
20
17.1917167
11
14.9059781
21
17.1200167
0
LINE
8
DEFAULT_255_2_778
10
14.9059781
20
17.1200167
11
14.9762781
21
17.1200167
0
LINE
8
DEFAULT_255_2_778
10
14.9762781
20
17.1200167
11
14.9622781
21
17.2158167
0
LINE
8
DEFAULT_255_2_778
10
14.9622781
20
17.2158167
11
14.9202781
21
17.2875167
0
LINE
8
DEFAULT_255_2_778
10
14.9202781
20
17.2875167
11
14.8638781
21
17.3354167
0
LINE
8
DEFAULT_255_2_778
10
14.8638781
20
17.3354167
11
14.7654781
21
17.3592167
0
LINE
8
DEFAULT_255_2_778
10
14.7654781
20
17.3592167
11
14.6810781
21
17.3354167
0
LINE
8
DEFAULT_255_2_778
10
14.6810781
20
17.3354167
11
14.6389781
21
17.3115167
0
LINE
8
DEFAULT_255_2_778
10
14.6389781
20
17.3115167
11
14.5968781
21
17.2637167
0
LINE
8
DEFAULT_255_2_778
10
14.5968781
20
17.2637167
11
14.5688781
21
17.2158167
0
LINE
8
DEFAULT_255_2_778
10
14.5688781
20
17.2158167
11
14.5407781
21
17.1200167
0
LINE
8
DEFAULT_255_2_778
10
14.5407781
20
17.1200167
11
14.5267781
21
16.9763167
0
LINE
8
DEFAULT_255_2_778
10
14.5267781
20
16.9763167
11
14.5407781
21
16.8327167
0
LINE
8
DEFAULT_255_2_778
10
14.5407781
20
16.8327167
11
14.5688781
21
16.7369167
0
LINE
8
DEFAULT_255_2_778
10
14.5688781
20
16.7369167
11
14.5968781
21
16.6890167
0
LINE
8
DEFAULT_255_2_778
10
14.5968781
20
16.6890167
11
14.6389781
21
16.6411167
0
LINE
8
DEFAULT_255_2_778
10
14.6389781
20
16.6411167
11
14.6810781
21
16.6173167
0
LINE
8
DEFAULT_255_2_778
10
14.6810781
20
16.6173167
11
14.7654781
21
16.5935167
0
LINE
8
DEFAULT_255_2_778
10
14.7654781
20
16.5935167
11
14.8638781
21
16.6173167
0
LINE
8
DEFAULT_255_2_778
10
14.8638781
20
16.6173167
11
14.9202781
21
16.6652167
0
LINE
8
DEFAULT_255_2_778
10
14.9202781
20
16.6652167
11
14.9622781
21
16.7369167
0
LINE
8
DEFAULT_255_2_778
10
14.9622781
20
16.7369167
11
14.9762781
21
16.8327167
0
LINE
8
DEFAULT_255_2_778
10
14.9762781
20
16.8327167
11
14.9059781
21
16.8327167
0
LINE
8
DEFAULT_255_2_778
10
14.9059781
20
16.8327167
11
14.8918781
21
16.7609167
0
LINE
8
DEFAULT_255_2_778
10
14.8918781
20
16.7609167
11
14.8498781
21
16.7131167
0
LINE
8
DEFAULT_255_2_778
10
16.5373823
20
17.2400844
11
16.4809823
21
17.2638844
0
LINE
8
DEFAULT_255_2_778
10
16.4809823
20
17.2638844
11
16.4246823
21
17.2400844
0
LINE
8
DEFAULT_255_2_778
10
16.4246823
20
17.2400844
11
16.3825823
21
17.1921844
0
LINE
8
DEFAULT_255_2_778
10
16.3825823
20
17.1921844
11
16.3545823
21
17.1442844
0
LINE
8
DEFAULT_255_2_778
10
16.3545823
20
17.1442844
11
16.3545823
21
16.5936844
0
LINE
8
DEFAULT_255_2_778
10
16.3545823
20
16.5936844
11
16.2841823
21
16.5936844
0
LINE
8
DEFAULT_255_2_778
10
16.2841823
20
16.5936844
11
16.2841823
21
17.3596844
0
LINE
8
DEFAULT_255_2_778
10
16.2841823
20
17.3596844
11
16.3545823
21
17.3596844
0
LINE
8
DEFAULT_255_2_778
10
16.3545823
20
17.3596844
11
16.3545823
21
17.2400844
0
LINE
8
DEFAULT_255_2_778
10
16.3545823
20
17.2400844
11
16.3825823
21
17.2879844
0
LINE
8
DEFAULT_255_2_778
10
16.3825823
20
17.2879844
11
16.4246823
21
17.3358844
0
LINE
8
DEFAULT_255_2_778
10
16.4246823
20
17.3358844
11
16.4809823
21
17.3596844
0
LINE
8
DEFAULT_255_2_778
10
16.4809823
20
17.3596844
11
16.5373823
21
17.3596844
0
LINE
8
DEFAULT_255_2_778
10
16.5373823
20
17.3596844
11
16.5794823
21
17.3358844
0
LINE
8
DEFAULT_255_2_778
10
16.5794823
20
17.3358844
11
16.6214823
21
17.2879844
0
LINE
8
DEFAULT_255_2_778
10
16.6214823
20
17.2879844
11
16.6495823
21
17.2400844
0
LINE
8
DEFAULT_255_2_778
10
16.6495823
20
17.2400844
11
16.6635823
21
17.1683844
0
LINE
8
DEFAULT_255_2_778
10
16.6635823
20
17.1683844
11
16.6775823
21
17.0487844
0
LINE
8
DEFAULT_255_2_778
10
16.6775823
20
17.0487844
11
16.6775823
21
16.5939844
0
LINE
8
DEFAULT_255_2_778
10
16.6775823
20
16.5939844
11
16.6072823
21
16.5939844
0
LINE
8
DEFAULT_255_2_778
10
16.6072823
20
16.5939844
11
16.6072823
21
17.0487844
0
LINE
8
DEFAULT_255_2_778
10
16.6072823
20
17.0487844
11
16.5931823
21
17.1683844
0
LINE
8
DEFAULT_255_2_778
10
16.5931823
20
17.1683844
11
16.5651823
21
17.2162844
0
LINE
8
DEFAULT_255_2_778
10
16.5651823
20
17.2162844
11
16.5370823
21
17.2400844
0
LINE
8
DEFAULT_255_2_778
10
16.031251
20
17.2400729
11
15.974851
21
17.2638729
0
LINE
8
DEFAULT_255_2_778
10
15.974851
20
17.2638729
11
15.918551
21
17.2638729
0
LINE
8
DEFAULT_255_2_778
10
15.918551
20
17.2638729
11
15.862151
21
17.2400729
0
LINE
8
DEFAULT_255_2_778
10
15.862151
20
17.2400729
11
15.834151
21
17.1921729
0
LINE
8
DEFAULT_255_2_778
10
15.834151
20
17.1921729
11
15.806051
21
17.1204729
0
LINE
8
DEFAULT_255_2_778
10
15.806051
20
17.1204729
11
15.792051
21
17.0246729
0
LINE
8
DEFAULT_255_2_778
10
15.792051
20
17.0246729
11
15.792051
21
16.9288729
0
LINE
8
DEFAULT_255_2_778
10
15.792051
20
16.9288729
11
15.806051
21
16.8331729
0
LINE
8
DEFAULT_255_2_778
10
15.806051
20
16.8331729
11
15.834151
21
16.7614729
0
LINE
8
DEFAULT_255_2_778
10
15.834151
20
16.7614729
11
15.862151
21
16.7135729
0
LINE
8
DEFAULT_255_2_778
10
15.862151
20
16.7135729
11
15.918551
21
16.6897729
0
LINE
8
DEFAULT_255_2_778
10
15.918551
20
16.6897729
11
15.974851
21
16.6897729
0
LINE
8
DEFAULT_255_2_778
10
15.974851
20
16.6897729
11
16.031251
21
16.7135729
0
LINE
8
DEFAULT_255_2_778
10
16.031251
20
16.7135729
11
16.059251
21
16.7614729
0
LINE
8
DEFAULT_255_2_778
10
16.059251
20
16.7614729
11
16.087351
21
16.8331729
0
LINE
8
DEFAULT_255_2_778
10
16.087351
20
16.8331729
11
16.101351
21
16.9288729
0
LINE
8
DEFAULT_255_2_778
10
16.101351
20
16.9288729
11
16.101351
21
17.0246729
0
LINE
8
DEFAULT_255_2_778
10
16.101351
20
17.0246729
11
16.087351
21
17.1204729
0
LINE
8
DEFAULT_255_2_778
10
16.087351
20
17.1204729
11
16.059251
21
17.1921729
0
LINE
8
DEFAULT_255_2_778
10
16.059251
20
17.1921729
11
16.031251
21
17.2400729
0
LINE
8
DEFAULT_255_2_778
10
16.0592365
20
17.3358875
11
16.0029365
21
17.3596875
0
LINE
8
DEFAULT_255_2_778
10
16.0029365
20
17.3596875
11
15.8904365
21
17.3596875
0
LINE
8
DEFAULT_255_2_778
10
15.8904365
20
17.3596875
11
15.8341365
21
17.3358875
0
LINE
8
DEFAULT_255_2_778
10
15.8341365
20
17.3358875
11
15.8060365
21
17.3120875
0
LINE
8
DEFAULT_255_2_778
10
15.8060365
20
17.3120875
11
15.7780365
21
17.2641875
0
LINE
8
DEFAULT_255_2_778
10
15.7780365
20
17.2641875
11
15.7499365
21
17.1924875
0
LINE
8
DEFAULT_255_2_778
10
15.7499365
20
17.1924875
11
15.7359365
21
17.1207875
0
LINE
8
DEFAULT_255_2_778
10
15.7359365
20
17.1207875
11
15.7219365
21
17.0249875
0
LINE
8
DEFAULT_255_2_778
10
15.7219365
20
17.0249875
11
15.7219365
21
16.9291875
0
LINE
8
DEFAULT_255_2_778
10
15.7219365
20
16.9291875
11
15.7499365
21
16.7616875
0
LINE
8
DEFAULT_255_2_778
10
15.7499365
20
16.7616875
11
15.7780365
21
16.6899875
0
LINE
8
DEFAULT_255_2_778
10
15.7780365
20
16.6899875
11
15.8060365
21
16.6421875
0
LINE
8
DEFAULT_255_2_778
10
15.8060365
20
16.6421875
11
15.8341365
21
16.6182875
0
LINE
8
DEFAULT_255_2_778
10
15.8341365
20
16.6182875
11
15.8904365
21
16.5944875
0
LINE
8
DEFAULT_255_2_778
10
15.8904365
20
16.5944875
11
16.0029365
21
16.5944875
0
LINE
8
DEFAULT_255_2_778
10
16.0029365
20
16.5944875
11
16.0592365
21
16.6182875
0
LINE
8
DEFAULT_255_2_778
10
16.0592365
20
16.6182875
11
16.0873365
21
16.6421875
0
LINE
8
DEFAULT_255_2_778
10
16.0873365
20
16.6421875
11
16.1153365
21
16.6899875
0
LINE
8
DEFAULT_255_2_778
10
16.1153365
20
16.6899875
11
16.1434365
21
16.7616875
0
LINE
8
DEFAULT_255_2_778
10
16.1434365
20
16.7616875
11
16.1714365
21
16.9291875
0
LINE
8
DEFAULT_255_2_778
10
16.1714365
20
16.9291875
11
16.1714365
21
17.0249875
0
LINE
8
DEFAULT_255_2_778
10
16.1714365
20
17.0249875
11
16.1574365
21
17.1207875
0
LINE
8
DEFAULT_255_2_778
10
16.1574365
20
17.1207875
11
16.1434365
21
17.1924875
0
LINE
8
DEFAULT_255_2_778
10
16.1434365
20
17.1924875
11
16.1153365
21
17.2641875
0
LINE
8
DEFAULT_255_2_778
10
16.1153365
20
17.2641875
11
16.0873365
21
17.3120875
0
LINE
8
DEFAULT_255_2_778
10
16.0873365
20
17.3120875
11
16.0592365
21
17.3358875
0
LINE
8
DEFAULT_255_2_778
10
14.2733823
20
17.2400844
11
14.2169823
21
17.2638844
0
LINE
8
DEFAULT_255_2_778
10
14.2169823
20
17.2638844
11
14.1606823
21
17.2400844
0
LINE
8
DEFAULT_255_2_778
10
14.1606823
20
17.2400844
11
14.1185823
21
17.1921844
0
LINE
8
DEFAULT_255_2_778
10
14.1185823
20
17.1921844
11
14.0905823
21
17.1442844
0
LINE
8
DEFAULT_255_2_778
10
14.0905823
20
17.1442844
11
14.0905823
21
16.5936844
0
LINE
8
DEFAULT_255_2_778
10
14.0905823
20
16.5936844
11
14.0201823
21
16.5936844
0
LINE
8
DEFAULT_255_2_778
10
14.0201823
20
16.5936844
11
14.0201823
21
17.3596844
0
LINE
8
DEFAULT_255_2_778
10
14.0201823
20
17.3596844
11
14.0905823
21
17.3596844
0
LINE
8
DEFAULT_255_2_778
10
14.0905823
20
17.3596844
11
14.0905823
21
17.2400844
0
LINE
8
DEFAULT_255_2_778
10
14.0905823
20
17.2400844
11
14.1185823
21
17.2879844
0
LINE
8
DEFAULT_255_2_778
10
14.1185823
20
17.2879844
11
14.1606823
21
17.3358844
0
LINE
8
DEFAULT_255_2_778
10
14.1606823
20
17.3358844
11
14.2169823
21
17.3596844
0
LINE
8
DEFAULT_255_2_778
10
14.2169823
20
17.3596844
11
14.2733823
21
17.3596844
0
LINE
8
DEFAULT_255_2_778
10
14.2733823
20
17.3596844
11
14.3154823
21
17.3358844
0
LINE
8
DEFAULT_255_2_778
10
14.3154823
20
17.3358844
11
14.3574823
21
17.2879844
0
LINE
8
DEFAULT_255_2_778
10
14.3574823
20
17.2879844
11
14.3855823
21
17.2400844
0
LINE
8
DEFAULT_255_2_778
10
14.3855823
20
17.2400844
11
14.3995823
21
17.1683844
0
LINE
8
DEFAULT_255_2_778
10
14.3995823
20
17.1683844
11
14.4135823
21
17.0487844
0
LINE
8
DEFAULT_255_2_778
10
14.4135823
20
17.0487844
11
14.4135823
21
16.5939844
0
LINE
8
DEFAULT_255_2_778
10
14.4135823
20
16.5939844
11
14.3432823
21
16.5939844
0
LINE
8
DEFAULT_255_2_778
10
14.3432823
20
16.5939844
11
14.3432823
21
17.0487844
0
LINE
8
DEFAULT_255_2_778
10
14.3432823
20
17.0487844
11
14.3291823
21
17.1683844
0
LINE
8
DEFAULT_255_2_778
10
14.3291823
20
17.1683844
11
14.3011823
21
17.2162844
0
LINE
8
DEFAULT_255_2_778
10
14.3011823
20
17.2162844
11
14.2730823
21
17.2400844
0
ARC
8
DEFAULT_255_2_778
10
15.1318203
20
28.5589898
40
0.1083158
50
103.4704776
51
162.9073073
0
ARC
8
DEFAULT_255_2_778
10
15.1320689
20
28.5587653
40
0.1086195
50
162.8326251
51
175.9415923
0
ARC
8
DEFAULT_255_2_778
10
15.1318416
20
28.5587927
40
0.1083909
50
175.9475647
51
180.0006925
0
ARC
8
DEFAULT_255_2_778
10
15.1318576
20
28.5587784
40
0.1084069
50
179.9931073
51
222.1524455
0
LINE
8
DEFAULT_255_2_778
10
11.8640888
20
20.7189258
11
18.5691888
21
20.7189258
0
LINE
8
DEFAULT_255_2_778
10
22.7164888
20
22.0989258
11
19.5515888
21
22.0989258
0
LINE
8
DEFAULT_255_2_778
10
19.5515888
20
22.0989258
11
19.5515888
21
20.4940258
0
LINE
8
DEFAULT_255_2_778
10
19.5515888
20
20.4940258
11
17.0184888
21
17.9590258
0
LINE
8
DEFAULT_255_2_778
10
17.0184888
20
17.9590258
11
13.4182888
21
17.9590258
0
LINE
8
DEFAULT_255_2_778
10
13.4182888
20
17.9590258
11
10.8813888
21
20.4940258
0
LINE
8
DEFAULT_255_2_778
10
10.8813888
20
20.4940258
11
10.8813888
21
22.0989258
0
LINE
8
DEFAULT_255_2_778
10
10.8813888
20
22.0989258
11
7.7164888
21
22.0989258
0
LINE
8
DEFAULT_255_2_778
10
7.7164888
20
22.0989258
11
7.7164888
21
19.1890258
0
LINE
8
DEFAULT_255_2_778
10
7.7164888
20
19.1890258
11
12.1146888
21
14.7940258
0
LINE
8
DEFAULT_255_2_778
10
12.1146888
20
14.7940258
11
18.3246888
21
14.7940258
0
LINE
8
DEFAULT_255_2_778
10
18.3246888
20
14.7940258
11
22.7164888
21
19.1890258
0
LINE
8
DEFAULT_255_2_778
10
22.7164888
20
19.1890258
11
22.7164888
21
22.0989258
0
ARC
8
DEFAULT_255_2_778
10
14.1386861
20
27.4173056
40
0.3969341
50
284.9885742
51
310.5891952
0
ARC
8
DEFAULT_255_2_778
10
15.1766378
20
28.1962593
40
1.3323478
50
234.1826599
51
269.9873025
0
ARC
8
DEFAULT_255_2_778
10
15.1763477
20
28.1918982
40
1.3279866
50
269.9997766
51
274.3048868
0
ARC
8
DEFAULT_255_2_778
10
15.1763565
20
28.1916655
40
1.3277537
50
274.3052628
51
279.1958214
0
ARC
8
DEFAULT_255_2_778
10
15.1758291
20
28.1966257
40
1.3327345
50
279.1841255
51
324.1545989
0
ARC
8
DEFAULT_255_2_778
10
15.1792316
20
28.1920835
40
1.2440833
50
300.0586504
51
324.23002
0
ARC
8
DEFAULT_255_2_778
10
15.1756656
20
28.2009107
40
1.2535105
50
269.9908148
51
299.9976291
0
ARC
8
DEFAULT_255_2_778
10
15.1754654
20
28.1993627
40
1.2519624
50
267.6917891
51
269.9999635
0
ARC
8
DEFAULT_255_2_778
10
15.1745333
20
28.1891758
40
1.2417463
50
244.2295928
51
267.7158354
0
ARC
8
DEFAULT_255_2_778
10
15.1815733
20
28.2028209
40
1.2570951
50
234.6828241
51
244.2110249
0
ARC
8
DEFAULT_255_2_778
10
14.1384593
20
27.4191142
40
0.3983485
50
322.5835584
51
344.9496827
0
ARC
8
DEFAULT_255_2_778
10
15.0400906
20
29.4823302
40
0.3981479
50
180.6189306
51
189.3600505
0
ARC
8
DEFAULT_255_2_778
10
15.037803
20
29.4823336
40
0.3958605
50
179.9973576
51
180.6229995
0
ARC
8
DEFAULT_255_2_778
10
15.0410999
20
29.4823389
40
0.3991575
50
165.0553259
51
179.9981528
0
ARC
8
DEFAULT_255_2_778
10
15.0407066
20
29.4821207
40
0.398955
50
201.473298
51
224.9473608
0
ARC
8
DEFAULT_255_2_778
10
15.1729944
20
28.1992063
40
1.2433971
50
113.8898586
51
141.3561346
0
ARC
8
DEFAULT_255_2_778
10
15.1815559
20
28.1933368
40
1.2537496
50
141.3909652
51
179.9529497
0
ARC
8
DEFAULT_255_2_778
10
15.1678846
20
28.1943346
40
1.240078
50
179.9985348
51
186.4757926
0
ARC
8
DEFAULT_255_2_778
10
15.1718935
20
28.1950547
40
1.2441426
50
186.4879184
51
199.4242676
0
ARC
8
DEFAULT_255_2_778
10
15.1929188
20
28.2020989
40
1.2663137
50
199.4084813
51
203.7608309
0
ARC
8
DEFAULT_255_2_778
10
15.1753035
20
28.1951475
40
1.33067
50
179.9985638
51
203.7946238
0
ARC
8
DEFAULT_255_2_778
10
15.1814986
20
28.1951488
40
1.3368651
50
179.6412851
51
179.998624
0
ARC
8
DEFAULT_255_2_778
10
15.1754022
20
28.1951983
40
1.3307686
50
158.5809789
51
179.6417762
0
ARC
8
DEFAULT_255_2_778
10
15.1764827
20
28.1951608
40
1.3317881
50
113.4150972
51
158.5964496
0
LINE
8
DEFAULT_255_2_778
10
16.2561437
20
27.4161762
11
16.1886437
21
27.4648762
0
LINE
8
DEFAULT_255_2_778
10
14.5231437
20
27.3156762
11
14.1384437
21
27.4188762
0
LINE
8
DEFAULT_255_2_778
10
14.1384437
20
27.4188762
11
14.2416437
21
27.0341762
0
LINE
8
DEFAULT_255_2_778
10
18.6077437
20
28.2835762
11
18.5172437
21
28.2723762
0
LINE
8
DEFAULT_255_2_778
10
18.5172437
20
28.2723762
11
18.4506437
21
28.3051762
0
LINE
8
DEFAULT_255_2_778
10
18.4506437
20
28.3051762
11
18.2717437
21
28.4840762
0
LINE
8
DEFAULT_255_2_778
10
18.2717437
20
28.4840762
11
17.9164437
21
28.1287762
0
LINE
8
DEFAULT_255_2_778
10
17.9164437
20
28.1287762
11
17.8568437
21
28.1882762
0
LINE
8
DEFAULT_255_2_778
10
17.8568437
20
28.1882762
11
18.6524437
21
28.9838762
0
LINE
8
DEFAULT_255_2_778
10
18.6524437
20
28.9838762
11
18.8911437
21
28.7451762
0
LINE
8
DEFAULT_255_2_778
10
18.8911437
20
28.7451762
11
18.9239437
21
28.6785762
0
LINE
8
DEFAULT_255_2_778
10
18.9239437
20
28.6785762
11
18.9128437
21
28.5880762
0
LINE
8
DEFAULT_255_2_778
10
18.9128437
20
28.5880762
11
18.8750437
21
28.4904762
0
LINE
8
DEFAULT_255_2_778
10
18.8750437
20
28.4904762
11
18.8342437
21
28.4298762
0
LINE
8
DEFAULT_255_2_778
10
18.8342437
20
28.4298762
11
18.7665437
21
28.3620762
0
LINE
8
DEFAULT_255_2_778
10
18.7665437
20
28.3620762
11
18.7059437
21
28.3213762
0
LINE
8
DEFAULT_255_2_778
10
18.7059437
20
28.3213762
11
18.6083437
21
28.2835762
0
LINE
8
DEFAULT_255_2_778
10
14.6554437
20
29.5852762
11
15.0401437
21
29.4820762
0
LINE
8
DEFAULT_255_2_778
10
15.0401437
20
29.4820762
11
14.7583437
21
29.2002762
0
LINE
8
DEFAULT_255_2_778
10
14.0339437
20
27.6918762
11
13.9577437
21
27.6582762
0
ARC
8
DEFAULT_255_2_778
10
16.3764173
20
27.6701154
40
0.397393
50
44.9234816
51
71.8979156
0
ARC
8
DEFAULT_255_2_778
10
16.3755011
20
27.6710973
40
0.3960903
50
89.9451582
51
105.0290075
0
ARC
8
DEFAULT_255_2_778
10
16.3758646
20
27.661952
40
0.4052353
50
89.2556132
51
89.9977803
0
ARC
8
DEFAULT_255_2_778
10
16.3758245
20
27.6601455
40
0.4070423
50
84.1104208
51
89.2532733
0
ARC
8
DEFAULT_255_2_778
10
14.152646
20
28.3015491
40
2.2772606
50
354.0386716
51
354.0725415
0
ARC
8
DEFAULT_255_2_778
10
15.1762743
20
28.1949788
40
1.2480998
50
354.0859091
51
359.9995229
0
ARC
8
DEFAULT_255_2_778
10
15.1749546
20
28.1947697
40
1.2494196
50
0.0091146
51
39.4311523
0
ARC
8
DEFAULT_255_2_778
10
15.1755232
20
28.1948196
40
1.2489487
50
39.4459492
51
84.856515
0
ARC
8
DEFAULT_255_2_778
10
15.1760364
20
28.1954799
40
1.331674
50
39.2556658
51
84.879389
0
ARC
8
DEFAULT_255_2_778
10
15.1769707
20
28.1956635
40
1.3308346
50
359.9938692
51
39.2750007
0
ARC
8
DEFAULT_255_2_778
10
15.1759198
20
28.1955293
40
1.3318854
50
354.3720122
51
359.9996443
0
ARC
8
DEFAULT_255_2_778
10
15.1758374
20
28.1955025
40
1.3319648
50
353.635034
51
354.3735085
0
ARC
8
DEFAULT_255_2_778
10
15.276315
20
28.6840783
40
0.2982241
50
221.0729696
51
239.5305193
0
ARC
8
DEFAULT_255_2_778
10
15.5586465
20
29.1619724
40
0.8532857
50
239.4626188
51
248.0862729
0
ARC
8
DEFAULT_255_2_778
10
14.4459965
20
26.3929789
40
2.1308918
50
57.5392726
51
68.1174262
0
ARC
8
DEFAULT_255_2_778
10
15.376238
20
27.8549578
40
0.3980528
50
3.3963001
51
57.5716254
0
ARC
8
DEFAULT_255_2_778
10
15.3747769
20
27.854812
40
0.39952
50
0.0009995
51
3.404763
0
ARC
8
DEFAULT_255_2_778
10
15.3753496
20
27.8549503
40
0.3989472
50
309.3476503
51
359.9811328
0
ARC
8
DEFAULT_255_2_778
10
15.2146517
20
28.0517226
40
0.6530003
50
282.9141855
51
309.3047757
0
ARC
8
DEFAULT_255_2_778
10
15.0314956
20
28.8499144
40
1.4719365
50
270.5719763
51
282.9194147
0
ARC
8
DEFAULT_255_2_778
10
15.0314734
20
28.8532501
40
1.4752724
50
270.0007923
51
270.5715436
0
ARC
8
DEFAULT_255_2_778
10
15.0314669
20
28.8494344
40
1.4714566
50
253.8789786
51
270.0010475
0
ARC
8
DEFAULT_255_2_778
10
15.0307089
20
28.6601159
40
1.0026605
50
246.0001032
51
270.0112718
0
ARC
8
DEFAULT_255_2_778
10
15.0309051
20
28.6626541
40
1.0051986
50
270.0000576
51
272.2392759
0
ARC
8
DEFAULT_255_2_778
10
15.0308843
20
28.6630951
40
1.0056401
50
272.2394786
51
279.6345612
0
ARC
8
DEFAULT_255_2_778
10
15.133154
20
28.0629192
40
0.3968136
50
279.5797345
51
299.6722401
0
ARC
8
DEFAULT_255_2_778
10
15.2755496
20
27.812484
40
0.1087267
50
299.8047272
51
359.8720682
0
ARC
8
DEFAULT_255_2_778
10
15.2764566
20
27.8122361
40
0.1078194
50
0.0027514
51
3.3514213
0
ARC
8
DEFAULT_255_2_778
10
15.2759933
20
27.8125659
40
0.1082633
50
3.1628118
51
66.8869347
0
ARC
8
DEFAULT_255_2_778
10
16.4638893
20
31.0366714
40
3.3250263
50
241.8282721
51
248.051642
0
ARC
8
DEFAULT_255_2_778
10
15.2009045
20
28.6783051
40
0.6497652
50
227.7103996
51
241.8234331
0
ARC
8
DEFAULT_255_2_778
10
15.0304554
20
28.4923603
40
0.3975215
50
179.991601
51
227.8505128
0
ARC
8
DEFAULT_255_2_778
10
15.0311114
20
28.49241
40
0.3981775
50
173.3762679
51
179.9987703
0
ARC
8
DEFAULT_255_2_778
10
15.0313301
20
28.4925163
40
0.3983824
50
119.0326775
51
173.3950811
0
ARC
8
DEFAULT_255_2_778
10
15.2024091
20
28.1829964
40
0.7520354
50
92.6307236
51
118.9846192
0
ARC
8
DEFAULT_255_2_778
10
15.2972011
20
26.1051253
40
2.8320675
50
90.2132036
51
92.6169775
0
ARC
8
DEFAULT_255_2_778
10
15.2973023
20
26.1071373
40
2.8300559
50
90.0000004
51
90.2154053
0
ARC
8
DEFAULT_255_2_778
10
15.2967721
20
26.0693719
40
2.8678212
50
82.6048985
51
89.989407
0
ARC
8
DEFAULT_255_2_778
10
15.1774844
20
27.2245724
40
1.4643191
50
70.5162876
51
83.8408594
0
ARC
8
DEFAULT_255_2_778
10
15.2642808
20
28.0348707
40
0.6493862
50
83.7842315
51
89.0407324
0
ARC
8
DEFAULT_255_2_778
10
15.2642163
20
28.0327899
40
0.6514678
50
89.0381229
51
89.9989057
0
ARC
8
DEFAULT_255_2_778
10
15.2643046
20
28.0307625
40
0.653495
50
90.0066563
51
104.1824348
0
LINE
8
DEFAULT_255_2_778
10
18.6087917
20
28.3844392
11
18.6625917
21
28.3984392
0
LINE
8
DEFAULT_255_2_778
10
18.6625917
20
28.3984392
11
18.7230917
21
28.4391392
0
LINE
8
DEFAULT_255_2_778
10
18.7230917
20
28.4391392
11
18.7738917
21
28.4899392
0
LINE
8
DEFAULT_255_2_778
10
18.7738917
20
28.4899392
11
18.8146917
21
28.5505392
0
LINE
8
DEFAULT_255_2_778
10
18.8146917
20
28.5505392
11
18.8286917
21
28.6042392
0
LINE
8
DEFAULT_255_2_778
10
18.8286917
20
28.6042392
11
18.8157917
21
28.6511392
0
LINE
8
DEFAULT_255_2_778
10
18.8157917
20
28.6511392
11
18.6267917
21
28.8400392
0
LINE
8
DEFAULT_255_2_778
10
18.6267917
20
28.8400392
11
18.3727917
21
28.5860392
0
LINE
8
DEFAULT_255_2_778
10
18.3727917
20
28.5860392
11
18.5617917
21
28.3971392
0
LINE
8
DEFAULT_255_2_778
10
18.5617917
20
28.3971392
11
18.6085917
21
28.3841392
0
LINE
8
DEFAULT_255_2_778
10
16.6577917
20
27.9507392
11
16.3759917
21
27.6689392
0
LINE
8
DEFAULT_255_2_778
10
16.3759917
20
27.6689392
11
16.2727917
21
28.0536392
0
LINE
8
DEFAULT_255_2_778
10
15.2874917
20
29.4387392
11
15.2948917
21
29.5218392
0
LINE
8
DEFAULT_255_2_778
10
14.6228917
20
27.4358392
11
14.6228917
21
27.7441392
0
LINE
8
DEFAULT_255_2_778
10
15.3184917
20
27.9121392
11
15.2210917
21
27.9526392
0
LINE
8
DEFAULT_255_2_778
10
15.6658917
20
28.9133392
11
15.6658917
21
28.6050392
0
ENDSEC
0
EOF