0
SECTION
2
HEADER
9
$MEASUREMENT
70
1
0
ENDSEC
0
SECTION
2
TABLES
0
TABLE
2
LTYPE
0
LTYPE
72
65
70
64
2
CONTINUOUS
3
______
73
0
40
0
0
ENDTAB
0
TABLE
2
LAYER
0
LAYER
2
DEFAULT_255_2_778
70
0
62
255
6
CONTINUOUS
0
ENDTAB
0
ENDSEC
0
SECTION
2
ENTITIES
0
ARC
8
DEFAULT_255_2_778
10
1.7184715
20
103.8992825
40
1.1943384
50
54.5479662
51
90.0918639
0
ARC
8
DEFAULT_255_2_778
10
1.7174436
20
103.8942358
40
1.1990475
50
5.3464965
51
54.6478285
0
ARC
8
DEFAULT_255_2_778
10
1.7018656
20
103.8938825
40
1.2145911
50
359.9923059
51
5.2946162
0
ARC
8
DEFAULT_255_2_778
10
1.7222252
20
103.8919011
40
1.1942328
50
324.5463566
51
0.0872367
0
ARC
8
DEFAULT_255_2_778
10
1.7168993
20
103.8929586
40
1.1991866
50
275.3542067
51
324.6527959
0
ARC
8
DEFAULT_255_2_778
10
1.716722
20
103.907755
40
1.2139355
50
269.9921948
51
275.2973763
0
ARC
8
DEFAULT_255_2_778
10
1.7184715
20
77.8994825
40
1.1943384
50
54.5479662
51
90.0918639
0
ARC
8
DEFAULT_255_2_778
10
1.7174436
20
77.8944358
40
1.1990475
50
5.3464965
51
54.6478285
0
ARC
8
DEFAULT_255_2_778
10
1.7018656
20
77.8940825
40
1.2145911
50
359.9923059
51
5.2946162
0
ARC
8
DEFAULT_255_2_778
10
1.7222252
20
77.8921011
40
1.1942328
50
324.5463566
51
0.0872367
0
ARC
8
DEFAULT_255_2_778
10
1.7168993
20
77.8931586
40
1.1991866
50
275.3542067
51
324.6527959
0
ARC
8
DEFAULT_255_2_778
10
1.716722
20
77.907955
40
1.2139355
50
269.9921948
51
275.2973763
0
ARC
8
DEFAULT_255_2_778
10
1.7184889
20
46.6997139
40
1.194407
50
54.5513289
51
90.0926922
0
ARC
8
DEFAULT_255_2_778
10
1.7175279
20
46.6948139
40
1.1989577
50
5.3438778
51
54.6497258
0
ARC
8
DEFAULT_255_2_778
10
1.7015614
20
46.6943836
40
1.2148953
50
359.9922565
51
5.293957
0
ARC
8
DEFAULT_255_2_778
10
1.7223736
20
46.6923876
40
1.1940844
50
324.5440759
51
0.0878931
0
ARC
8
DEFAULT_255_2_778
10
1.7169522
20
46.6935567
40
1.1991807
50
275.3516985
51
324.6488348
0
ARC
8
DEFAULT_255_2_778
10
1.7167219
20
46.7085422
40
1.2141228
50
269.9921976
51
275.2965582
0
ARC
8
DEFAULT_255_2_778
10
1.7184889
20
20.6999139
40
1.194407
50
54.5513289
51
90.0926922
0
ARC
8
DEFAULT_255_2_778
10
1.7175279
20
20.6950139
40
1.1989577
50
5.3438778
51
54.6497258
0
ARC
8
DEFAULT_255_2_778
10
1.7015614
20
20.6945836
40
1.2148953
50
359.9922565
51
5.293957
0
ARC
8
DEFAULT_255_2_778
10
1.7223736
20
20.6925876
40
1.1940844
50
324.5440759
51
0.0878931
0
ARC
8
DEFAULT_255_2_778
10
1.7169522
20
20.6937567
40
1.1991807
50
275.3516985
51
324.6488348
0
ARC
8
DEFAULT_255_2_778
10
1.7167219
20
20.7087422
40
1.2141228
50
269.9921976
51
275.2965582
0
ARC
8
DEFAULT_255_2_778
10
24.7146285
20
20.689063
40
1.1944452
50
234.5578036
51
270.0924899
0
ARC
8
DEFAULT_255_2_778
10
24.7155023
20
20.6938808
40
1.1988788
50
185.3466739
51
234.6572939
0
ARC
8
DEFAULT_255_2_778
10
24.7311746
20
20.6942535
40
1.214518
50
179.992175
51
185.2952861
0
ARC
8
DEFAULT_255_2_778
10
24.7109231
20
20.6962699
40
1.1942679
50
144.5468923
51
180.0887817
0
ARC
8
DEFAULT_255_2_778
10
24.7161563
20
20.6952217
40
1.1991408
50
95.3516494
51
144.6511289
0
ARC
8
DEFAULT_255_2_778
10
24.7163913
20
20.6801966
40
1.2141228
50
89.9921976
51
95.2965583
0
ARC
8
DEFAULT_255_2_778
10
24.7146285
20
46.688863
40
1.1944452
50
234.5578036
51
270.0924899
0
ARC
8
DEFAULT_255_2_778
10
24.7155023
20
46.6936808
40
1.1988788
50
185.3466739
51
234.6572939
0
ARC
8
DEFAULT_255_2_778
10
24.7311746
20
46.6940535
40
1.214518
50
179.992175
51
185.2952861
0
ARC
8
DEFAULT_255_2_778
10
24.7109231
20
46.6960699
40
1.1942679
50
144.5468923
51
180.0887817
0
ARC
8
DEFAULT_255_2_778
10
24.7161563
20
46.6950217
40
1.1991408
50
95.3516494
51
144.6511289
0
ARC
8
DEFAULT_255_2_778
10
24.7163913
20
46.6799966
40
1.2141228
50
89.9921976
51
95.2965583
0
ARC
8
DEFAULT_255_2_778
10
24.7146417
20
77.8883563
40
1.1943384
50
234.5479662
51
270.0918639
0
ARC
8
DEFAULT_255_2_778
10
24.7156696
20
77.893403
40
1.1990475
50
185.3464965
51
234.6478285
0
ARC
8
DEFAULT_255_2_778
10
24.7312476
20
77.8937563
40
1.2145911
50
179.9923059
51
185.2946162
0
ARC
8
DEFAULT_255_2_778
10
24.710888
20
77.8957377
40
1.1942328
50
144.5463566
51
180.0872367
0
ARC
8
DEFAULT_255_2_778
10
24.7162138
20
77.8946801
40
1.1991866
50
95.3542067
51
144.6527959
0
ARC
8
DEFAULT_255_2_778
10
24.7163912
20
77.8798838
40
1.2139355
50
89.9921948
51
95.2973763
0
ARC
8
DEFAULT_255_2_778
10
24.7146243
20
103.8880249
40
1.194407
50
234.5513289
51
270.0926922
0
ARC
8
DEFAULT_255_2_778
10
24.7155853
20
103.8929248
40
1.1989577
50
185.3438778
51
234.6497258
0
ARC
8
DEFAULT_255_2_778
10
24.7315518
20
103.8933552
40
1.2148953
50
179.9922565
51
185.293957
0
ARC
8
DEFAULT_255_2_778
10
24.7107396
20
103.8953511
40
1.1940844
50
144.5440759
51
180.0878931
0
ARC
8
DEFAULT_255_2_778
10
24.716161
20
103.8941821
40
1.1991807
50
95.3516985
51
144.6488348
0
ARC
8
DEFAULT_255_2_778
10
24.7163913
20
103.8791966
40
1.2141228
50
89.9921976
51
95.2965582
0
LINE
8
DEFAULT_255_2_778
10
0.2166566
20
84.9014194
11
0.2267566
21
85.0641194
0
LINE
8
DEFAULT_255_2_778
10
0.2267566
20
85.0641194
11
0.2560566
21
85.2226194
0
LINE
8
DEFAULT_255_2_778
10
0.2560566
20
85.2226194
11
0.3036566
21
85.3729194
0
LINE
8
DEFAULT_255_2_778
10
0.3036566
20
85.3729194
11
0.3166566
21
85.4009194
0
LINE
8
DEFAULT_255_2_778
10
0.2166566
20
39.6860194
11
0.2267566
21
39.5232194
0
LINE
8
DEFAULT_255_2_778
10
0.2267566
20
39.5232194
11
0.2560566
21
39.3648194
0
LINE
8
DEFAULT_255_2_778
10
0.2560566
20
39.3648194
11
0.3036566
21
39.2145194
0
LINE
8
DEFAULT_255_2_778
10
0.3036566
20
39.2145194
11
0.3166566
21
39.1864194
0
LINE
8
DEFAULT_255_2_778
10
10.2165566
20
114.2937194
11
1.7165566
21
114.2937194
0
LINE
8
DEFAULT_255_2_778
10
1.7165566
20
114.2937194
11
1.7165566
21
105.0936194
0
LINE
8
DEFAULT_255_2_778
10
1.7165566
20
102.6938194
11
1.7165566
21
79.0938194
0
LINE
8
DEFAULT_255_2_778
10
1.7165566
20
76.6940194
11
1.7165566
21
47.8941194
0
LINE
8
DEFAULT_255_2_778
10
1.7165566
20
45.4944194
11
1.7165566
21
21.8943194
0
LINE
8
DEFAULT_255_2_778
10
1.7165566
20
19.4946194
11
1.7165566
21
10.2945194
0
LINE
8
DEFAULT_255_2_778
10
1.7165566
20
10.2945194
11
24.7165566
21
10.2945194
0
LINE
8
DEFAULT_255_2_778
10
24.7165566
20
10.2945194
11
24.7165566
21
19.4946194
0
LINE
8
DEFAULT_255_2_778
10
24.7165566
20
21.8943194
11
24.7165566
21
45.4944194
0
LINE
8
DEFAULT_255_2_778
10
24.7165566
20
47.8941194
11
24.7165566
21
76.6940194
0
LINE
8
DEFAULT_255_2_778
10
24.7165566
20
79.0938194
11
24.7165566
21
102.6936194
0
LINE
8
DEFAULT_255_2_778
10
24.7165566
20
105.0933194
11
24.7165566
21
114.2937194
0
LINE
8
DEFAULT_255_2_778
10
24.7165566
20
114.2937194
11
16.2165566
21
114.2937194
0
ARC
8
DEFAULT_255_2_778
10
41.7185168
20
103.8993883
40
1.1943033
50
54.5474304
51
90.0903195
0
ARC
8
DEFAULT_255_2_778
10
41.7174795
20
103.8942489
40
1.1990933
50
5.3490539
51
54.6494957
0
ARC
8
DEFAULT_255_2_778
10
41.7021304
20
103.8939532
40
1.2144036
50
359.9923031
51
5.2954343
0
ARC
8
DEFAULT_255_2_778
10
41.7223027
20
103.8919718
40
1.1942328
50
324.5463566
51
0.0872367
0
ARC
8
DEFAULT_255_2_778
10
41.7169768
20
103.8930294
40
1.1991866
50
275.3542067
51
324.6527959
0
ARC
8
DEFAULT_255_2_778
10
41.7167995
20
103.9078257
40
1.2139355
50
269.9921948
51
275.2973763
0
ARC
8
DEFAULT_255_2_778
10
41.7185168
20
77.8995883
40
1.1943033
50
54.5474304
51
90.0903195
0
ARC
8
DEFAULT_255_2_778
10
41.7174795
20
77.8944489
40
1.1990933
50
5.3490539
51
54.6494957
0
ARC
8
DEFAULT_255_2_778
10
41.7021304
20
77.8941532
40
1.2144036
50
359.9923031
51
5.2954343
0
ARC
8
DEFAULT_255_2_778
10
41.7223027
20
77.8921718
40
1.1942328
50
324.5463566
51
0.0872367
0
ARC
8
DEFAULT_255_2_778
10
41.7169768
20
77.8932294
40
1.1991866
50
275.3542067
51
324.6527959
0
ARC
8
DEFAULT_255_2_778
10
41.7167995
20
77.9080257
40
1.2139355
50
269.9921948
51
275.2973763
0
ARC
8
DEFAULT_255_2_778
10
41.7185168
20
46.6998883
40
1.1943033
50
54.5474304
51
90.0903195
0
ARC
8
DEFAULT_255_2_778
10
41.7174795
20
46.6947489
40
1.1990933
50
5.3490539
51
54.6494957
0
ARC
8
DEFAULT_255_2_778
10
41.7021304
20
46.6944532
40
1.2144036
50
359.9923031
51
5.2954343
0
ARC
8
DEFAULT_255_2_778
10
41.7223027
20
46.6924718
40
1.1942328
50
324.5463566
51
0.0872367
0
ARC
8
DEFAULT_255_2_778
10
41.7169768
20
46.6935294
40
1.1991866
50
275.3542067
51
324.6527959
0
ARC
8
DEFAULT_255_2_778
10
41.7167995
20
46.7083257
40
1.2139355
50
269.9921948
51
275.2973763
0
ARC
8
DEFAULT_255_2_778
10
41.7185168
20
20.7000883
40
1.1943033
50
54.5474304
51
90.0903195
0
ARC
8
DEFAULT_255_2_778
10
41.7174795
20
20.6949489
40
1.1990933
50
5.3490539
51
54.6494957
0
ARC
8
DEFAULT_255_2_778
10
41.7021304
20
20.6946532
40
1.2144036
50
359.9923031
51
5.2954343
0
ARC
8
DEFAULT_255_2_778
10
41.7223027
20
20.6926718
40
1.1942328
50
324.5463566
51
0.0872367
0
ARC
8
DEFAULT_255_2_778
10
41.7169768
20
20.6937294
40
1.1991866
50
275.3542067
51
324.6527959
0
ARC
8
DEFAULT_255_2_778
10
41.7167995
20
20.7085257
40
1.2139355
50
269.9921948
51
275.2973763
0
ARC
8
DEFAULT_255_2_778
10
64.7146514
20
20.6888919
40
1.1943033
50
234.5474304
51
270.0903195
0
ARC
8
DEFAULT_255_2_778
10
64.7156887
20
20.6940313
40
1.1990933
50
185.3490539
51
234.6494957
0
ARC
8
DEFAULT_255_2_778
10
64.7310378
20
20.694327
40
1.2144036
50
179.9923031
51
185.2954343
0
ARC
8
DEFAULT_255_2_778
10
64.7108655
20
20.6963084
40
1.1942328
50
144.5463566
51
180.0872367
0
ARC
8
DEFAULT_255_2_778
10
64.7161913
20
20.6952508
40
1.1991866
50
95.3542067
51
144.6527959
0
ARC
8
DEFAULT_255_2_778
10
64.7163687
20
20.6804545
40
1.2139355
50
89.9921948
51
95.2973763
0
ARC
8
DEFAULT_255_2_778
10
64.7146514
20
46.6886919
40
1.1943033
50
234.5474304
51
270.0903195
0
ARC
8
DEFAULT_255_2_778
10
64.7156887
20
46.6938313
40
1.1990933
50
185.3490539
51
234.6494957
0
ARC
8
DEFAULT_255_2_778
10
64.7310378
20
46.694127
40
1.2144036
50
179.9923031
51
185.2954343
0
ARC
8
DEFAULT_255_2_778
10
64.7108655
20
46.6961084
40
1.1942328
50
144.5463566
51
180.0872367
0
ARC
8
DEFAULT_255_2_778
10
64.7161913
20
46.6950508
40
1.1991866
50
95.3542067
51
144.6527959
0
ARC
8
DEFAULT_255_2_778
10
64.7163687
20
46.6802545
40
1.2139355
50
89.9921948
51
95.2973763
0
ARC
8
DEFAULT_255_2_778
10
64.7146514
20
77.8883919
40
1.1943033
50
234.5474304
51
270.0903195
0
ARC
8
DEFAULT_255_2_778
10
64.7156887
20
77.8935313
40
1.1990933
50
185.3490539
51
234.6494957
0
ARC
8
DEFAULT_255_2_778
10
64.7310378
20
77.893827
40
1.2144036
50
179.9923031
51
185.2954343
0
ARC
8
DEFAULT_255_2_778
10
64.7108655
20
77.8958084
40
1.1942328
50
144.5463566
51
180.0872367
0
ARC
8
DEFAULT_255_2_778
10
64.7161913
20
77.8947508
40
1.1991866
50
95.3542067
51
144.6527959
0
ARC
8
DEFAULT_255_2_778
10
64.7163687
20
77.8799545
40
1.2139355
50
89.9921948
51
95.2973763
0
ARC
8
DEFAULT_255_2_778
10
64.7146514
20
103.8878919
40
1.1943033
50
234.5474304
51
270.0903195
0
ARC
8
DEFAULT_255_2_778
10
64.7156887
20
103.8930313
40
1.1990933
50
185.3490539
51
234.6494957
0
ARC
8
DEFAULT_255_2_778
10
64.7310378
20
103.893327
40
1.2144036
50
179.9923031
51
185.2954343
0
ARC
8
DEFAULT_255_2_778
10
64.7108655
20
103.8953084
40
1.1942328
50
144.5463566
51
180.0872367
0
ARC
8
DEFAULT_255_2_778
10
64.7161913
20
103.8942508
40
1.1991866
50
95.3542067
51
144.6527959
0
ARC
8
DEFAULT_255_2_778
10
64.7163687
20
103.8794545
40
1.2139355
50
89.9921948
51
95.2973763
0
LINE
8
DEFAULT_255_2_778
10
16.2166341
20
115.7936901
11
10.2166341
21
115.7936901
0
LINE
8
DEFAULT_255_2_778
10
10.2166341
20
115.7936901
11
10.2166341
21
112.7935901
0
LINE
8
DEFAULT_255_2_778
10
10.2166341
20
112.7935901
11
16.2166341
21
112.7935901
0
LINE
8
DEFAULT_255_2_778
10
16.2166341
20
112.7935901
11
16.2166341
21
115.7936901
0
LINE
8
DEFAULT_255_2_778
10
50.2166341
20
114.2937901
11
41.7166341
21
114.2937901
0
LINE
8
DEFAULT_255_2_778
10
41.7166341
20
114.2937901
11
41.7166341
21
105.0936901
0
LINE
8
DEFAULT_255_2_778
10
41.7166341
20
102.6938901
11
41.7166341
21
79.0938901
0
LINE
8
DEFAULT_255_2_778
10
41.7166341
20
76.6940901
11
41.7166341
21
47.8941901
0
LINE
8
DEFAULT_255_2_778
10
41.7166341
20
45.4943901
11
41.7166341
21
21.8943901
0
LINE
8
DEFAULT_255_2_778
10
41.7166341
20
19.4945901
11
41.7166341
21
10.2944901
0
LINE
8
DEFAULT_255_2_778
10
41.7166341
20
10.2944901
11
64.7165341
21
10.2944901
0
LINE
8
DEFAULT_255_2_778
10
64.7165341
20
10.2944901
11
64.7165341
21
19.4945901
0
LINE
8
DEFAULT_255_2_778
10
64.7165341
20
21.8943901
11
64.7165341
21
45.4943901
0
LINE
8
DEFAULT_255_2_778
10
64.7165341
20
47.8941901
11
64.7165341
21
76.6940901
0
LINE
8
DEFAULT_255_2_778
10
64.7165341
20
79.0938901
11
64.7165341
21
102.6935901
0
LINE
8
DEFAULT_255_2_778
10
64.7165341
20
105.0933901
11
64.7165341
21
114.2937901
0
LINE
8
DEFAULT_255_2_778
10
64.7165341
20
114.2937901
11
56.2165341
21
114.2937901
0
LINE
8
DEFAULT_255_2_778
10
61.7873341
20
122.9540901
11
45.4551341
21
122.9540901
0
LINE
8
DEFAULT_255_2_778
10
45.4551341
20
122.9540901
11
45.4551341
21
118.7540901
0
LINE
8
DEFAULT_255_2_778
10
45.4551341
20
118.7540901
11
61.7873341
21
118.7540901
0
LINE
8
DEFAULT_255_2_778
10
61.7873341
20
118.7540901
11
61.7873341
21
122.9540901
0
LINE
8
DEFAULT_255_2_778
10
56.2165558
20
115.7936902
11
50.2165558
21
115.7936902
0
LINE
8
DEFAULT_255_2_778
10
50.2165558
20
115.7936902
11
50.2165558
21
112.7935902
0
LINE
8
DEFAULT_255_2_778
10
50.2165558
20
112.7935902
11
56.2165558
21
112.7935902
0
LINE
8
DEFAULT_255_2_778
10
56.2165558
20
112.7935902
11
56.2165558
21
115.7936902
0
LINE
8
DEFAULT_255_2_778
10
26.7469558
20
84.1936902
11
29.7970558
21
84.1936902
0
LINE
8
DEFAULT_255_2_778
10
66.7469558
20
84.1936902
11
69.7970558
21
84.1936902
0
ARC
8
DEFAULT_255_2_778
10
68.2459696
20
85.6948304
40
0.5488398
50
89.8682888
51
180.1317112
0
ARC
8
DEFAULT_255_2_778
10
68.2484782
20
85.6949154
40
0.5487547
50
359.8593896
51
90.1301939
0
ARC
8
DEFAULT_255_2_778
10
68.2485632
20
85.6922368
40
0.5486696
50
269.8609058
51
0.1390942
0
ARC
8
DEFAULT_255_2_778
10
68.2458846
20
85.6923218
40
0.5487547
50
179.8698061
51
270.1406104
0
LINE
8
DEFAULT_255_2_778
10
67.6971313
20
85.6935687
11
67.6971313
21
85.6935687
0
ARC
8
DEFAULT_255_2_778
10
68.2459696
20
23.2950304
40
0.5488398
50
89.8682888
51
180.1317112
0
ARC
8
DEFAULT_255_2_778
10
68.2484782
20
23.2951154
40
0.5487547
50
359.8593896
51
90.1301939
0
ARC
8
DEFAULT_255_2_778
10
68.2485632
20
23.2924368
40
0.5486696
50
269.8609058
51
0.1390942
0
ARC
8
DEFAULT_255_2_778
10
68.2458846
20
23.2925218
40
0.5487547
50
179.8698061
51
270.1406104
0
LINE
8
DEFAULT_255_2_778
10
67.6971313
20
23.2937687
11
67.6971313
21
23.2937687
0
ARC
8
DEFAULT_255_2_778
10
28.2459696
20
85.6948304
40
0.5488398
50
89.8682888
51
180.1317112
0
ARC
8
DEFAULT_255_2_778
10
28.2484782
20
85.6949154
40
0.5487547
50
359.8593896
51
90.1301939
0
ARC
8
DEFAULT_255_2_778
10
28.2485632
20
85.6922368
40
0.5486696
50
269.8609058
51
0.1390942
0
ARC
8
DEFAULT_255_2_778
10
28.2458846
20
85.6923218
40
0.5487547
50
179.8698061
51
270.1406104
0
LINE
8
DEFAULT_255_2_778
10
27.6971313
20
85.6935687
11
27.6971313
21
85.6935687
0
ARC
8
DEFAULT_255_2_778
10
28.2459696
20
23.2950304
40
0.5488398
50
89.8682888
51
180.1317112
0
ARC
8
DEFAULT_255_2_778
10
28.2484782
20
23.2951154
40
0.5487547
50
359.8593896
51
90.1301939
0
ARC
8
DEFAULT_255_2_778
10
28.2485632
20
23.2924368
40
0.5486696
50
269.8609058
51
0.1390942
0
ARC
8
DEFAULT_255_2_778
10
28.2458846
20
23.2925218
40
0.5487547
50
179.8698061
51
270.1406104
0
LINE
8
DEFAULT_255_2_778
10
27.6971313
20
23.2937687
11
27.6971313
21
23.2937687
0
LINE
8
DEFAULT_255_2_778
10
32.3310375
20
-0.2061753
11
32.4527375
21
-0.1987753
0
LINE
8
DEFAULT_255_2_778
10
32.4527375
20
-0.1987753
11
32.5694375
21
-0.1773753
0
LINE
8
DEFAULT_255_2_778
10
32.5694375
20
-0.1773753
11
32.6797375
21
-0.1434753
0
LINE
8
DEFAULT_255_2_778
10
32.6797375
20
-0.1434753
11
32.7826375
21
-0.0984753
0
LINE
8
DEFAULT_255_2_778
10
32.7826375
20
-0.0984753
11
32.8779375
21
-0.0437753
0
LINE
8
DEFAULT_255_2_778
10
32.8779375
20
-0.0437753
11
32.9639375
21
0.0192247
0
LINE
8
DEFAULT_255_2_778
10
32.9639375
20
0.0192247
11
33.0401375
21
0.0883247
0
LINE
8
DEFAULT_255_2_778
10
33.0401375
20
0.0883247
11
33.1062375
21
0.1618247
0
LINE
8
DEFAULT_255_2_778
10
33.1062375
20
0.1618247
11
33.1626375
21
0.2383247
0
LINE
8
DEFAULT_255_2_778
10
33.1626375
20
0.2383247
11
33.2097375
21
0.3163247
0
LINE
8
DEFAULT_255_2_778
10
33.2097375
20
0.3163247
11
33.2483375
21
0.3954247
0
LINE
8
DEFAULT_255_2_778
10
33.2483375
20
0.3954247
11
33.2790375
21
0.4751247
0
LINE
8
DEFAULT_255_2_778
10
33.2790375
20
0.4751247
11
33.3023375
21
0.5550247
0
LINE
8
DEFAULT_255_2_778
10
33.3023375
20
0.5550247
11
33.3184375
21
0.6346247
0
LINE
8
DEFAULT_255_2_778
10
33.3184375
20
0.6346247
11
33.3279375
21
0.7142247
0
LINE
8
DEFAULT_255_2_778
10
33.3279375
20
0.7142247
11
33.3311375
21
0.7939247
0
LINE
8
DEFAULT_255_2_778
10
33.3311375
20
0.7939247
11
33.3311375
21
2.0938247
0
LINE
8
DEFAULT_255_2_778
10
29.7024375
20
2.0938247
11
29.7024375
21
0.7939247
0
LINE
8
DEFAULT_255_2_778
10
29.7024375
20
0.7939247
11
29.7056375
21
0.7148247
0
LINE
8
DEFAULT_255_2_778
10
29.7056375
20
0.7148247
11
29.7151375
21
0.6357247
0
LINE
8
DEFAULT_255_2_778
10
29.7151375
20
0.6357247
11
29.7310375
21
0.5566247
0
LINE
8
DEFAULT_255_2_778
10
29.7310375
20
0.5566247
11
29.7540375
21
0.4772247
0
LINE
8
DEFAULT_255_2_778
10
29.7540375
20
0.4772247
11
29.7842375
21
0.3981247
0
LINE
8
DEFAULT_255_2_778
10
29.7842375
20
0.3981247
11
29.8223375
21
0.3192247
0
LINE
8
DEFAULT_255_2_778
10
29.8223375
20
0.3192247
11
29.8688375
21
0.2415247
0
LINE
8
DEFAULT_255_2_778
10
29.8688375
20
0.2415247
11
29.9246375
21
0.1653247
0
LINE
8
DEFAULT_255_2_778
10
29.9246375
20
0.1653247
11
29.9903375
21
0.0917247
0
LINE
8
DEFAULT_255_2_778
10
29.9903375
20
0.0917247
11
30.0659375
21
0.0224247
0
LINE
8
DEFAULT_255_2_778
10
30.0659375
20
0.0224247
11
30.1519375
21
-0.0410753
0
LINE
8
DEFAULT_255_2_778
10
30.1519375
20
-0.0410753
11
30.2477375
21
-0.0968753
0
LINE
8
DEFAULT_255_2_778
10
30.2477375
20
-0.0968753
11
30.3525375
21
-0.1429753
0
LINE
8
DEFAULT_255_2_778
10
30.3525375
20
-0.1429753
11
30.4647375
21
-0.1775753
0
LINE
8
DEFAULT_255_2_778
10
30.4647375
20
-0.1775753
11
30.5821375
21
-0.1990753
0
LINE
8
DEFAULT_255_2_778
10
30.5821375
20
-0.1990753
11
30.7025375
21
-0.2061753
0
LINE
8
DEFAULT_255_2_778
10
69.7023375
20
2.0938247
11
69.7023375
21
0.7939247
0
LINE
8
DEFAULT_255_2_778
10
69.7023375
20
0.7939247
11
69.7055375
21
0.7148247
0
LINE
8
DEFAULT_255_2_778
10
69.7055375
20
0.7148247
11
69.7150375
21
0.6357247
0
LINE
8
DEFAULT_255_2_778
10
69.7150375
20
0.6357247
11
69.7309375
21
0.5566247
0
LINE
8
DEFAULT_255_2_778
10
69.7309375
20
0.5566247
11
69.7539375
21
0.4772247
0
LINE
8
DEFAULT_255_2_778
10
69.7539375
20
0.4772247
11
69.7841375
21
0.3981247
0
LINE
8
DEFAULT_255_2_778
10
69.7841375
20
0.3981247
11
69.8222375
21
0.3192247
0
LINE
8
DEFAULT_255_2_778
10
69.8222375
20
0.3192247
11
69.8687375
21
0.2415247
0
LINE
8
DEFAULT_255_2_778
10
69.8687375
20
0.2415247
11
69.9245375
21
0.1653247
0
LINE
8
DEFAULT_255_2_778
10
69.9245375
20
0.1653247
11
69.9902375
21
0.0917247
0
LINE
8
DEFAULT_255_2_778
10
69.9902375
20
0.0917247
11
70.0658375
21
0.0224247
0
LINE
8
DEFAULT_255_2_778
10
70.0658375
20
0.0224247
11
70.1518375
21
-0.0410753
0
LINE
8
DEFAULT_255_2_778
10
70.1518375
20
-0.0410753
11
70.2476375
21
-0.0968753
0
LINE
8
DEFAULT_255_2_778
10
70.2476375
20
-0.0968753
11
70.3524375
21
-0.1429753
0
LINE
8
DEFAULT_255_2_778
10
70.3524375
20
-0.1429753
11
70.4646375
21
-0.1775753
0
LINE
8
DEFAULT_255_2_778
10
70.4646375
20
-0.1775753
11
70.5820375
21
-0.1990753
0
LINE
8
DEFAULT_255_2_778
10
70.5820375
20
-0.1990753
11
70.7024375
21
-0.2061753
0
LINE
8
DEFAULT_255_2_778
10
73.3311375
20
2.0938247
11
73.3311375
21
0.7939247
0
LINE
8
DEFAULT_255_2_778
10
73.3311375
20
0.7939247
11
73.3279375
21
0.7142247
0
LINE
8
DEFAULT_255_2_778
10
73.3279375
20
0.7142247
11
73.3185375
21
0.6346247
0
LINE
8
DEFAULT_255_2_778
10
73.3185375
20
0.6346247
11
73.3023375
21
0.5550247
0
LINE
8
DEFAULT_255_2_778
10
73.3023375
20
0.5550247
11
73.2790375
21
0.4751247
0
LINE
8
DEFAULT_255_2_778
10
73.2790375
20
0.4751247
11
73.2483375
21
0.3954247
0
LINE
8
DEFAULT_255_2_778
10
73.2483375
20
0.3954247
11
73.2097375
21
0.3163247
0
LINE
8
DEFAULT_255_2_778
10
73.2097375
20
0.3163247
11
73.1626375
21
0.2383247
0
LINE
8
DEFAULT_255_2_778
10
73.1626375
20
0.2383247
11
73.1063375
21
0.1618247
0
LINE
8
DEFAULT_255_2_778
10
73.1063375
20
0.1618247
11
73.0401375
21
0.0883247
0
LINE
8
DEFAULT_255_2_778
10
73.0401375
20
0.0883247
11
72.9639375
21
0.0192247
0
LINE
8
DEFAULT_255_2_778
10
72.9639375
20
0.0192247
11
72.8779375
21
-0.0437753
0
LINE
8
DEFAULT_255_2_778
10
72.8779375
20
-0.0437753
11
72.7826375
21
-0.0984753
0
LINE
8
DEFAULT_255_2_778
10
72.7826375
20
-0.0984753
11
72.6797375
21
-0.1434753
0
LINE
8
DEFAULT_255_2_778
10
72.6797375
20
-0.1434753
11
72.5694375
21
-0.1773753
0
LINE
8
DEFAULT_255_2_778
10
72.5694375
20
-0.1773753
11
72.4527375
21
-0.1987753
0
LINE
8
DEFAULT_255_2_778
10
72.4527375
20
-0.1987753
11
72.3310375
21
-0.2061753
0
LINE
8
DEFAULT_255_2_778
10
80.2166282
20
124.7938056
11
0.2167282
21
124.7938056
0
LINE
8
DEFAULT_255_2_778
10
0.2167282
20
124.7938056
11
0.2167282
21
-0.2061944
0
LINE
8
DEFAULT_255_2_778
10
0.2167282
20
-0.2061944
11
80.2166282
21
-0.2061944
0
LINE
8
DEFAULT_255_2_778
10
80.2166282
20
-0.2061944
11
80.2166282
21
124.7938056
0
LINE
8
DEFAULT_255_2_778
10
40.2167
20
-0.2061944
11
40.2167
21
124.7938056
0
ARC
8
DEFAULT_255_2_778
10
26.7165211
20
121.9939676
40
0.4997474
50
89.9887792
51
135.0206486
0
ARC
8
DEFAULT_255_2_778
10
26.7162664
20
121.9937129
40
0.4997474
50
134.9793514
51
180.0112208
0
ARC
8
DEFAULT_255_2_778
10
26.7165947
20
2.5935907
40
0.5000758
50
180.008676
51
270.0027763
0
LINE
8
DEFAULT_255_2_778
10
40.2167189
20
122.493715
11
26.7166189
21
122.493715
0
LINE
8
DEFAULT_255_2_778
10
26.2165189
20
121.993615
11
26.2165189
21
2.593515
0
LINE
8
DEFAULT_255_2_778
10
26.7166189
20
2.093515
11
40.2167189
21
2.093515
0
LINE
8
DEFAULT_255_2_778
10
33.3311375
20
122.4937114
11
33.3311375
21
123.7936114
0
LINE
8
DEFAULT_255_2_778
10
33.3311375
20
123.7936114
11
33.3279375
21
123.8727114
0
LINE
8
DEFAULT_255_2_778
10
33.3279375
20
123.8727114
11
33.3184375
21
123.9518114
0
LINE
8
DEFAULT_255_2_778
10
33.3184375
20
123.9518114
11
33.3025375
21
124.0309114
0
LINE
8
DEFAULT_255_2_778
10
33.3025375
20
124.0309114
11
33.2795375
21
124.1103114
0
LINE
8
DEFAULT_255_2_778
10
33.2795375
20
124.1103114
11
33.2494375
21
124.1894114
0
LINE
8
DEFAULT_255_2_778
10
33.2494375
20
124.1894114
11
33.2113375
21
124.2682114
0
LINE
8
DEFAULT_255_2_778
10
33.2113375
20
124.2682114
11
33.1647375
21
124.3460114
0
LINE
8
DEFAULT_255_2_778
10
33.1647375
20
124.3460114
11
33.1089375
21
124.4222114
0
LINE
8
DEFAULT_255_2_778
10
33.1089375
20
124.4222114
11
33.0433375
21
124.4958114
0
LINE
8
DEFAULT_255_2_778
10
33.0433375
20
124.4958114
11
32.9676375
21
124.5651114
0
LINE
8
DEFAULT_255_2_778
10
32.9676375
20
124.5651114
11
32.8816375
21
124.6286114
0
LINE
8
DEFAULT_255_2_778
10
32.8816375
20
124.6286114
11
32.7858375
21
124.6844114
0
LINE
8
DEFAULT_255_2_778
10
32.7858375
20
124.6844114
11
32.6810375
21
124.7305114
0
LINE
8
DEFAULT_255_2_778
10
32.6810375
20
124.7305114
11
32.5689375
21
124.7651114
0
LINE
8
DEFAULT_255_2_778
10
32.5689375
20
124.7651114
11
32.4514375
21
124.7866114
0
LINE
8
DEFAULT_255_2_778
10
32.4514375
20
124.7866114
11
32.3310375
21
124.7937114
0
LINE
8
DEFAULT_255_2_778
10
30.7025375
20
124.7937114
11
30.5821375
21
124.7866114
0
LINE
8
DEFAULT_255_2_778
10
30.5821375
20
124.7866114
11
30.4647375
21
124.7651114
0
LINE
8
DEFAULT_255_2_778
10
30.4647375
20
124.7651114
11
30.3525375
21
124.7305114
0
LINE
8
DEFAULT_255_2_778
10
30.3525375
20
124.7305114
11
30.2477375
21
124.6844114
0
LINE
8
DEFAULT_255_2_778
10
30.2477375
20
124.6844114
11
30.1519375
21
124.6286114
0
LINE
8
DEFAULT_255_2_778
10
30.1519375
20
124.6286114
11
30.0659375
21
124.5651114
0
LINE
8
DEFAULT_255_2_778
10
30.0659375
20
124.5651114
11
29.9903375
21
124.4958114
0
LINE
8
DEFAULT_255_2_778
10
29.9903375
20
124.4958114
11
29.9246375
21
124.4222114
0
LINE
8
DEFAULT_255_2_778
10
29.9246375
20
124.4222114
11
29.8688375
21
124.3460114
0
LINE
8
DEFAULT_255_2_778
10
29.8688375
20
124.3460114
11
29.8223375
21
124.2682114
0
LINE
8
DEFAULT_255_2_778
10
29.8223375
20
124.2682114
11
29.7842375
21
124.1894114
0
LINE
8
DEFAULT_255_2_778
10
29.7842375
20
124.1894114
11
29.7540375
21
124.1103114
0
LINE
8
DEFAULT_255_2_778
10
29.7540375
20
124.1103114
11
29.7310375
21
124.0309114
0
LINE
8
DEFAULT_255_2_778
10
29.7310375
20
124.0309114
11
29.7151375
21
123.9518114
0
LINE
8
DEFAULT_255_2_778
10
29.7151375
20
123.9518114
11
29.7056375
21
123.8727114
0
LINE
8
DEFAULT_255_2_778
10
29.7056375
20
123.8727114
11
29.7024375
21
123.7936114
0
LINE
8
DEFAULT_255_2_778
10
29.7024375
20
123.7936114
11
29.7024375
21
122.4937114
0
ARC
8
DEFAULT_255_2_778
10
66.7165211
20
121.9939676
40
0.4997474
50
89.9887792
51
135.0206486
0
ARC
8
DEFAULT_255_2_778
10
66.7162664
20
121.9937129
40
0.4997474
50
134.9793514
51
180.0112208
0
ARC
8
DEFAULT_255_2_778
10
66.7165947
20
2.5935907
40
0.5000758
50
180.008676
51
270.0027763
0
LINE
8
DEFAULT_255_2_778
10
80.2167189
20
122.493715
11
66.7166189
21
122.493715
0
LINE
8
DEFAULT_255_2_778
10
66.2165189
20
121.993615
11
66.2165189
21
2.593515
0
LINE
8
DEFAULT_255_2_778
10
66.7166189
20
2.093515
11
80.2167189
21
2.093515
0
LINE
8
DEFAULT_255_2_778
10
73.3311375
20
122.4937114
11
73.3311375
21
123.7936114
0
LINE
8
DEFAULT_255_2_778
10
73.3311375
20
123.7936114
11
73.3279375
21
123.8727114
0
LINE
8
DEFAULT_255_2_778
10
73.3279375
20
123.8727114
11
73.3184375
21
123.9518114
0
LINE
8
DEFAULT_255_2_778
10
73.3184375
20
123.9518114
11
73.3025375
21
124.0309114
0
LINE
8
DEFAULT_255_2_778
10
73.3025375
20
124.0309114
11
73.2795375
21
124.1103114
0
LINE
8
DEFAULT_255_2_778
10
73.2795375
20
124.1103114
11
73.2494375
21
124.1894114
0
LINE
8
DEFAULT_255_2_778
10
73.2494375
20
124.1894114
11
73.2113375
21
124.2682114
0
LINE
8
DEFAULT_255_2_778
10
73.2113375
20
124.2682114
11
73.1647375
21
124.3460114
0
LINE
8
DEFAULT_255_2_778
10
73.1647375
20
124.3460114
11
73.1089375
21
124.4222114
0
LINE
8
DEFAULT_255_2_778
10
73.1089375
20
124.4222114
11
73.0433375
21
124.4958114
0
LINE
8
DEFAULT_255_2_778
10
73.0433375
20
124.4958114
11
72.9676375
21
124.5651114
0
LINE
8
DEFAULT_255_2_778
10
72.9676375
20
124.5651114
11
72.8816375
21
124.6286114
0
LINE
8
DEFAULT_255_2_778
10
72.8816375
20
124.6286114
11
72.7858375
21
124.6844114
0
LINE
8
DEFAULT_255_2_778
10
72.7858375
20
124.6844114
11
72.6810375
21
124.7305114
0
LINE
8
DEFAULT_255_2_778
10
72.6810375
20
124.7305114
11
72.5689375
21
124.7651114
0
LINE
8
DEFAULT_255_2_778
10
72.5689375
20
124.7651114
11
72.4514375
21
124.7866114
0
LINE
8
DEFAULT_255_2_778
10
72.4514375
20
124.7866114
11
72.3310375
21
124.7937114
0
LINE
8
DEFAULT_255_2_778
10
70.7024375
20
124.7937114
11
70.5820375
21
124.7866114
0
LINE
8
DEFAULT_255_2_778
10
70.5820375
20
124.7866114
11
70.4646375
21
124.7651114
0
LINE
8
DEFAULT_255_2_778
10
70.4646375
20
124.7651114
11
70.3524375
21
124.7305114
0
LINE
8
DEFAULT_255_2_778
10
70.3524375
20
124.7305114
11
70.2476375
21
124.6844114
0
LINE
8
DEFAULT_255_2_778
10
70.2476375
20
124.6844114
11
70.1518375
21
124.6286114
0
LINE
8
DEFAULT_255_2_778
10
70.1518375
20
124.6286114
11
70.0658375
21
124.5651114
0
LINE
8
DEFAULT_255_2_778
10
70.0658375
20
124.5651114
11
69.9902375
21
124.4958114
0
LINE
8
DEFAULT_255_2_778
10
69.9902375
20
124.4958114
11
69.9245375
21
124.4222114
0
LINE
8
DEFAULT_255_2_778
10
69.9245375
20
124.4222114
11
69.8687375
21
124.3460114
0
LINE
8
DEFAULT_255_2_778
10
69.8687375
20
124.3460114
11
69.8222375
21
124.2682114
0
LINE
8
DEFAULT_255_2_778
10
69.8222375
20
124.2682114
11
69.7841375
21
124.1894114
0
LINE
8
DEFAULT_255_2_778
10
69.7841375
20
124.1894114
11
69.7539375
21
124.1103114
0
LINE
8
DEFAULT_255_2_778
10
69.7539375
20
124.1103114
11
69.7309375
21
124.0309114
0
LINE
8
DEFAULT_255_2_778
10
69.7309375
20
124.0309114
11
69.7150375
21
123.9518114
0
LINE
8
DEFAULT_255_2_778
10
69.7150375
20
123.9518114
11
69.7055375
21
123.8727114
0
LINE
8
DEFAULT_255_2_778
10
69.7055375
20
123.8727114
11
69.7023375
21
123.7936114
0
LINE
8
DEFAULT_255_2_778
10
69.7023375
20
123.7936114
11
69.7023375
21
122.4937114
0
ARC
8
DEFAULT_255_2_778
10
68.2459696
20
70.0950304
40
0.5488398
50
89.8682888
51
180.1317112
0
ARC
8
DEFAULT_255_2_778
10
68.2484782
20
70.0951154
40
0.5487547
50
359.8593896
51
90.1301939
0
ARC
8
DEFAULT_255_2_778
10
68.2485632
20
70.0924368
40
0.5486696
50
269.8609058
51
0.1390942
0
ARC
8
DEFAULT_255_2_778
10
68.2458846
20
70.0925218
40
0.5487547
50
179.8698061
51
270.1406104
0
LINE
8
DEFAULT_255_2_778
10
67.6971313
20
70.0937687
11
67.6971313
21
70.0937687
0
LINE
8
DEFAULT_255_2_778
10
66.7469448
20
73.7937281
11
69.7470448
21
73.7937281
0
LINE
8
DEFAULT_255_2_778
10
66.7469448
20
71.5937281
11
69.7470448
21
71.5937281
0
LINE
8
DEFAULT_255_2_778
10
66.7469448
20
68.5938281
11
69.7470448
21
68.5938281
0
ARC
8
DEFAULT_255_2_778
10
68.2459696
20
80.4950304
40
0.5488398
50
89.8682888
51
180.1317112
0
ARC
8
DEFAULT_255_2_778
10
68.2484782
20
80.4951154
40
0.5487547
50
359.8593896
51
90.1301939
0
ARC
8
DEFAULT_255_2_778
10
68.2485632
20
80.4924368
40
0.5486696
50
269.8609058
51
0.1390942
0
ARC
8
DEFAULT_255_2_778
10
68.2458846
20
80.4925218
40
0.5487547
50
179.8698061
51
270.1406104
0
LINE
8
DEFAULT_255_2_778
10
67.6971313
20
80.4937687
11
67.6971313
21
80.4937687
0
ARC
8
DEFAULT_255_2_778
10
68.2459696
20
75.2949304
40
0.5488398
50
89.8682888
51
180.1317112
0
ARC
8
DEFAULT_255_2_778
10
68.2484782
20
75.2950154
40
0.5487547
50
359.8593896
51
90.1301939
0
ARC
8
DEFAULT_255_2_778
10
68.2485632
20
75.2923368
40
0.5486696
50
269.8609058
51
0.1390942
0
ARC
8
DEFAULT_255_2_778
10
68.2458846
20
75.2924218
40
0.5487547
50
179.8698061
51
270.1406104
0
LINE
8
DEFAULT_255_2_778
10
67.6971313
20
75.2936687
11
67.6971313
21
75.2936687
0
LINE
8
DEFAULT_255_2_778
10
66.7469448
20
81.9937281
11
69.7470448
21
81.9937281
0
LINE
8
DEFAULT_255_2_778
10
66.7469448
20
78.9939281
11
69.7470448
21
78.9939281
0
LINE
8
DEFAULT_255_2_778
10
66.7469448
20
76.7938281
11
69.7470448
21
76.7938281
0
ARC
8
DEFAULT_255_2_778
10
68.2459696
20
96.0948304
40
0.5488398
50
89.8682888
51
180.1317112
0
ARC
8
DEFAULT_255_2_778
10
68.2484782
20
96.0949154
40
0.5487547
50
359.8593896
51
90.1301939
0
ARC
8
DEFAULT_255_2_778
10
68.2485632
20
96.0922368
40
0.5486696
50
269.8609058
51
0.1390942
0
ARC
8
DEFAULT_255_2_778
10
68.2458846
20
96.0923218
40
0.5487547
50
179.8698061
51
270.1406104
0
LINE
8
DEFAULT_255_2_778
10
67.6971313
20
96.0935687
11
67.6971313
21
96.0935687
0
ARC
8
DEFAULT_255_2_778
10
68.2459696
20
90.8950304
40
0.5488398
50
89.8682888
51
180.1317112
0
ARC
8
DEFAULT_255_2_778
10
68.2484782
20
90.8951154
40
0.5487547
50
359.8593896
51
90.1301939
0
ARC
8
DEFAULT_255_2_778
10
68.2485632
20
90.8924368
40
0.5486696
50
269.8609058
51
0.1390942
0
ARC
8
DEFAULT_255_2_778
10
68.2458846
20
90.8925218
40
0.5487547
50
179.8698061
51
270.1406104
0
LINE
8
DEFAULT_255_2_778
10
67.6971313
20
90.8937687
11
67.6971313
21
90.8937687
0
LINE
8
DEFAULT_255_2_778
10
66.7469448
20
97.5937884
11
69.7470448
21
97.5937884
0
LINE
8
DEFAULT_255_2_778
10
66.7469448
20
94.5936884
11
69.7470448
21
94.5936884
0
LINE
8
DEFAULT_255_2_778
10
66.7469448
20
92.3936884
11
69.7470448
21
92.3936884
0
LINE
8
DEFAULT_255_2_778
10
66.7469448
20
87.1937884
11
69.7470448
21
87.1937884
0
LINE
8
DEFAULT_255_2_778
10
66.7469448
20
89.3938
11
69.7470448
21
89.3938
0
LINE
8
DEFAULT_255_2_778
10
69.7470448
20
118.8937993
11
66.7469448
21
118.8937993
0
LINE
8
DEFAULT_255_2_778
10
66.7469448
20
118.8937993
11
66.7469448
21
68.0937993
0
LINE
8
DEFAULT_255_2_778
10
66.7469448
20
68.0937993
11
69.7470448
21
68.0937993
0
LINE
8
DEFAULT_255_2_778
10
69.7470448
20
68.0937993
11
69.7470448
21
118.8937993
0
ARC
8
DEFAULT_255_2_778
10
68.2459696
20
101.2949304
40
0.5488398
50
89.8682888
51
180.1317112
0
ARC
8
DEFAULT_255_2_778
10
68.2484782
20
101.2950154
40
0.5487547
50
359.8593896
51
90.1301939
0
ARC
8
DEFAULT_255_2_778
10
68.2485632
20
101.2923368
40
0.5486696
50
269.8609058
51
0.1390942
0
ARC
8
DEFAULT_255_2_778
10
68.2458846
20
101.2924218
40
0.5487547
50
179.8698061
51
270.1406104
0
LINE
8
DEFAULT_255_2_778
10
67.6971313
20
101.2936687
11
67.6971313
21
101.2936687
0
LINE
8
DEFAULT_255_2_778
10
66.7469448
20
104.9937281
11
69.7470448
21
104.9937281
0
LINE
8
DEFAULT_255_2_778
10
66.7469448
20
102.7937281
11
69.7470448
21
102.7937281
0
LINE
8
DEFAULT_255_2_778
10
66.7469448
20
99.7938281
11
69.7470448
21
99.7938281
0
ARC
8
DEFAULT_255_2_778
10
68.2459696
20
111.6949304
40
0.5488398
50
89.8682888
51
180.1317112
0
ARC
8
DEFAULT_255_2_778
10
68.2484782
20
111.6950154
40
0.5487547
50
359.8593896
51
90.1301939
0
ARC
8
DEFAULT_255_2_778
10
68.2485632
20
111.6923368
40
0.5486696
50
269.8609058
51
0.1390942
0
ARC
8
DEFAULT_255_2_778
10
68.2458846
20
111.6924218
40
0.5487547
50
179.8698061
51
270.1406104
0
LINE
8
DEFAULT_255_2_778
10
67.6971313
20
111.6936687
11
67.6971313
21
111.6936687
0
ARC
8
DEFAULT_255_2_778
10
68.2459696
20
106.4948304
40
0.5488398
50
89.8682888
51
180.1317112
0
ARC
8
DEFAULT_255_2_778
10
68.2484782
20
106.4949154
40
0.5487547
50
359.8593896
51
90.1301939
0
ARC
8
DEFAULT_255_2_778
10
68.2485632
20
106.4922368
40
0.5486696
50
269.8609058
51
0.1390942
0
ARC
8
DEFAULT_255_2_778
10
68.2458846
20
106.4923218
40
0.5487547
50
179.8698061
51
270.1406104
0
LINE
8
DEFAULT_255_2_778
10
67.6971313
20
106.4935687
11
67.6971313
21
106.4935687
0
LINE
8
DEFAULT_255_2_778
10
66.7469448
20
115.3936332
11
69.7470448
21
115.3936332
0
LINE
8
DEFAULT_255_2_778
10
66.7469448
20
113.1936332
11
69.7470448
21
113.1936332
0
LINE
8
DEFAULT_255_2_778
10
66.7469448
20
110.1937332
11
69.7470448
21
110.1937332
0
LINE
8
DEFAULT_255_2_778
10
66.7469448
20
107.9937332
11
69.7470448
21
107.9937332
0
ARC
8
DEFAULT_255_2_778
10
68.2459696
20
116.8948304
40
0.5488398
50
89.8682888
51
180.1317112
0
ARC
8
DEFAULT_255_2_778
10
68.2484782
20
116.8949154
40
0.5487547
50
359.8593896
51
90.1301939
0
ARC
8
DEFAULT_255_2_778
10
68.2485632
20
116.8922368
40
0.5486696
50
269.8609058
51
0.1390942
0
ARC
8
DEFAULT_255_2_778
10
68.2458846
20
116.8923218
40
0.5487547
50
179.8698061
51
270.1406104
0
LINE
8
DEFAULT_255_2_778
10
67.6971313
20
116.8935687
11
67.6971313
21
116.8935687
0
LINE
8
DEFAULT_255_2_778
10
66.7469448
20
118.3938
11
69.7470448
21
118.3938
0
ARC
8
DEFAULT_255_2_778
10
68.2459696
20
7.6949304
40
0.5488398
50
89.8682888
51
180.1317112
0
ARC
8
DEFAULT_255_2_778
10
68.2484782
20
7.6950154
40
0.5487547
50
359.8593896
51
90.1301939
0
ARC
8
DEFAULT_255_2_778
10
68.2485632
20
7.6923368
40
0.5486696
50
269.8609058
51
0.1390942
0
ARC
8
DEFAULT_255_2_778
10
68.2458846
20
7.6924218
40
0.5487547
50
179.8698061
51
270.1406104
0
LINE
8
DEFAULT_255_2_778
10
67.6971313
20
7.6936687
11
67.6971313
21
7.6936687
0
LINE
8
DEFAULT_255_2_778
10
66.7469448
20
11.3938603
11
69.7470448
21
11.3938603
0
LINE
8
DEFAULT_255_2_778
10
66.7469448
20
9.1938603
11
69.7470448
21
9.1938603
0
LINE
8
DEFAULT_255_2_778
10
66.7469448
20
6.1937603
11
69.7470448
21
6.1937603
0
ARC
8
DEFAULT_255_2_778
10
68.2459696
20
18.0949304
40
0.5488398
50
89.8682888
51
180.1317112
0
ARC
8
DEFAULT_255_2_778
10
68.2484782
20
18.0950154
40
0.5487547
50
359.8593896
51
90.1301939
0
ARC
8
DEFAULT_255_2_778
10
68.2485632
20
18.0923368
40
0.5486696
50
269.8609058
51
0.1390942
0
ARC
8
DEFAULT_255_2_778
10
68.2458846
20
18.0924218
40
0.5487547
50
179.8698061
51
270.1406104
0
LINE
8
DEFAULT_255_2_778
10
67.6971313
20
18.0936687
11
67.6971313
21
18.0936687
0
ARC
8
DEFAULT_255_2_778
10
68.2459696
20
12.8950304
40
0.5488398
50
89.8682888
51
180.1317112
0
ARC
8
DEFAULT_255_2_778
10
68.2484782
20
12.8951154
40
0.5487547
50
359.8593896
51
90.1301939
0
ARC
8
DEFAULT_255_2_778
10
68.2485632
20
12.8924368
40
0.5486696
50
269.8609058
51
0.1390942
0
ARC
8
DEFAULT_255_2_778
10
68.2458846
20
12.8925218
40
0.5487547
50
179.8698061
51
270.1406104
0
LINE
8
DEFAULT_255_2_778
10
67.6971313
20
12.8937687
11
67.6971313
21
12.8937687
0
LINE
8
DEFAULT_255_2_778
10
66.7469448
20
21.7938655
11
69.7470448
21
21.7938655
0
LINE
8
DEFAULT_255_2_778
10
66.7469448
20
19.5938655
11
69.7470448
21
19.5938655
0
LINE
8
DEFAULT_255_2_778
10
66.7469448
20
16.5937655
11
69.7470448
21
16.5937655
0
LINE
8
DEFAULT_255_2_778
10
66.7469448
20
14.3937655
11
69.7470448
21
14.3937655
0
ARC
8
DEFAULT_255_2_778
10
68.2459696
20
33.6949304
40
0.5488398
50
89.8682888
51
180.1317112
0
ARC
8
DEFAULT_255_2_778
10
68.2484782
20
33.6950154
40
0.5487547
50
359.8593896
51
90.1301939
0
ARC
8
DEFAULT_255_2_778
10
68.2485632
20
33.6923368
40
0.5486696
50
269.8609058
51
0.1390942
0
ARC
8
DEFAULT_255_2_778
10
68.2458846
20
33.6924218
40
0.5487547
50
179.8698061
51
270.1406104
0
LINE
8
DEFAULT_255_2_778
10
67.6971313
20
33.6936687
11
67.6971313
21
33.6936687
0
ARC
8
DEFAULT_255_2_778
10
68.2459696
20
28.4948304
40
0.5488398
50
89.8682888
51
180.1317112
0
ARC
8
DEFAULT_255_2_778
10
68.2484782
20
28.4949154
40
0.5487547
50
359.8593896
51
90.1301939
0
ARC
8
DEFAULT_255_2_778
10
68.2485632
20
28.4922368
40
0.5486696
50
269.8609058
51
0.1390942
0
ARC
8
DEFAULT_255_2_778
10
68.2458846
20
28.4923218
40
0.5487547
50
179.8698061
51
270.1406104
0
LINE
8
DEFAULT_255_2_778
10
67.6971313
20
28.4935687
11
67.6971313
21
28.4935687
0
LINE
8
DEFAULT_255_2_778
10
66.7469448
20
35.1936884
11
69.7470448
21
35.1936884
0
LINE
8
DEFAULT_255_2_778
10
66.7469448
20
32.1938884
11
69.7470448
21
32.1938884
0
LINE
8
DEFAULT_255_2_778
10
66.7469448
20
29.9937884
11
69.7470448
21
29.9937884
0
LINE
8
DEFAULT_255_2_778
10
66.7469448
20
24.7936884
11
69.7470448
21
24.7936884
0
LINE
8
DEFAULT_255_2_778
10
66.7469448
20
26.9937
11
69.7470448
21
26.9937
0
LINE
8
DEFAULT_255_2_778
10
69.7470448
20
56.4936993
11
66.7469448
21
56.4936993
0
LINE
8
DEFAULT_255_2_778
10
66.7469448
20
56.4936993
11
66.7469448
21
5.6936993
0
LINE
8
DEFAULT_255_2_778
10
66.7469448
20
5.6936993
11
69.7470448
21
5.6936993
0
LINE
8
DEFAULT_255_2_778
10
69.7470448
20
5.6936993
11
69.7470448
21
56.4936993
0
ARC
8
DEFAULT_255_2_778
10
68.2459696
20
38.8948304
40
0.5488398
50
89.8682888
51
180.1317112
0
ARC
8
DEFAULT_255_2_778
10
68.2484782
20
38.8949154
40
0.5487547
50
359.8593896
51
90.1301939
0
ARC
8
DEFAULT_255_2_778
10
68.2485632
20
38.8922368
40
0.5486696
50
269.8609058
51
0.1390942
0
ARC
8
DEFAULT_255_2_778
10
68.2458846
20
38.8923218
40
0.5487547
50
179.8698061
51
270.1406104
0
LINE
8
DEFAULT_255_2_778
10
67.6971313
20
38.8935687
11
67.6971313
21
38.8935687
0
LINE
8
DEFAULT_255_2_778
10
66.7469448
20
42.5937603
11
69.7470448
21
42.5937603
0
LINE
8
DEFAULT_255_2_778
10
66.7469448
20
40.3937603
11
69.7470448
21
40.3937603
0
LINE
8
DEFAULT_255_2_778
10
66.7469448
20
37.3936603
11
69.7470448
21
37.3936603
0
ARC
8
DEFAULT_255_2_778
10
68.2459696
20
49.2948304
40
0.5488398
50
89.8682888
51
180.1317112
0
ARC
8
DEFAULT_255_2_778
10
68.2484782
20
49.2949154
40
0.5487547
50
359.8593896
51
90.1301939
0
ARC
8
DEFAULT_255_2_778
10
68.2485632
20
49.2922368
40
0.5486696
50
269.8609058
51
0.1390942
0
ARC
8
DEFAULT_255_2_778
10
68.2458846
20
49.2923218
40
0.5487547
50
179.8698061
51
270.1406104
0
LINE
8
DEFAULT_255_2_778
10
67.6971313
20
49.2935687
11
67.6971313
21
49.2935687
0
ARC
8
DEFAULT_255_2_778
10
68.2459696
20
44.0949304
40
0.5488398
50
89.8682888
51
180.1317112
0
ARC
8
DEFAULT_255_2_778
10
68.2484782
20
44.0950154
40
0.5487547
50
359.8593896
51
90.1301939
0
ARC
8
DEFAULT_255_2_778
10
68.2485632
20
44.0923368
40
0.5486696
50
269.8609058
51
0.1390942
0
ARC
8
DEFAULT_255_2_778
10
68.2458846
20
44.0924218
40
0.5487547
50
179.8698061
51
270.1406104
0
LINE
8
DEFAULT_255_2_778
10
67.6971313
20
44.0936687
11
67.6971313
21
44.0936687
0
LINE
8
DEFAULT_255_2_778
10
66.7469448
20
52.9937655
11
69.7470448
21
52.9937655
0
LINE
8
DEFAULT_255_2_778
10
66.7469448
20
50.7937655
11
69.7470448
21
50.7937655
0
LINE
8
DEFAULT_255_2_778
10
66.7469448
20
47.7936655
11
69.7470448
21
47.7936655
0
LINE
8
DEFAULT_255_2_778
10
66.7469448
20
45.5936655
11
69.7470448
21
45.5936655
0
ARC
8
DEFAULT_255_2_778
10
68.2459696
20
54.4949304
40
0.5488398
50
89.8682888
51
180.1317112
0
ARC
8
DEFAULT_255_2_778
10
68.2484782
20
54.4950154
40
0.5487547
50
359.8593896
51
90.1301939
0
ARC
8
DEFAULT_255_2_778
10
68.2485632
20
54.4923368
40
0.5486696
50
269.8609058
51
0.1390942
0
ARC
8
DEFAULT_255_2_778
10
68.2458846
20
54.4924218
40
0.5487547
50
179.8698061
51
270.1406104
0
LINE
8
DEFAULT_255_2_778
10
67.6971313
20
54.4936687
11
67.6971313
21
54.4936687
0
LINE
8
DEFAULT_255_2_778
10
66.7469448
20
55.9936
11
69.7470448
21
55.9936
0
ARC
8
DEFAULT_255_2_778
10
4.3137007
20
6.7960661
40
0.9471227
50
138.7691257
51
180.1488555
0
ARC
8
DEFAULT_255_2_778
10
4.3138954
20
6.7968968
40
0.946722
50
92.2525226
51
138.8147006
0
ARC
8
DEFAULT_255_2_778
10
4.3166471
20
6.7674276
40
0.9762778
50
89.9979919
51
92.3459109
0
ARC
8
DEFAULT_255_2_778
10
4.3192191
20
6.7965784
40
0.9471305
50
49.1137343
51
90.1535204
0
ARC
8
DEFAULT_255_2_778
10
4.3199647
20
6.796467
40
0.9467268
50
2.2652623
51
49.1522587
0
ARC
8
DEFAULT_255_2_778
10
4.2903888
20
6.7936463
40
0.9763924
50
359.9976072
51
2.3620595
0
ARC
8
DEFAULT_255_2_778
10
4.3196541
20
6.7910677
40
0.9471305
50
319.1137343
51
0.1535204
0
ARC
8
DEFAULT_255_2_778
10
4.3195428
20
6.7903221
40
0.9467268
50
272.2652623
51
319.1522587
0
ARC
8
DEFAULT_255_2_778
10
4.3167221
20
6.819898
40
0.9763924
50
269.9976072
51
272.3620595
0
ARC
8
DEFAULT_255_2_778
10
4.3141435
20
6.7906326
40
0.9471305
50
229.1137343
51
270.1535204
0
ARC
8
DEFAULT_255_2_778
10
4.3133979
20
6.790744
40
0.9467268
50
182.2652623
51
229.1522587
0
ARC
8
DEFAULT_255_2_778
10
4.3429738
20
6.7935647
40
0.9763924
50
179.9976072
51
182.3620595
0
LINE
8
DEFAULT_255_2_778
10
3.3665813
20
6.7936055
11
3.3665813
21
6.7936055
0
LINE
8
DEFAULT_255_2_778
10
6.9167459
20
9.3436541
11
1.8166459
21
9.3436541
0
LINE
8
DEFAULT_255_2_778
10
1.8166459
20
9.3436541
11
1.8166459
21
4.2435541
0
LINE
8
DEFAULT_255_2_778
10
1.8166459
20
4.2435541
11
6.9167459
21
4.2435541
0
LINE
8
DEFAULT_255_2_778
10
6.9167459
20
4.2435541
11
6.9167459
21
9.3436541
0
ARC
8
DEFAULT_255_2_778
10
44.313914
20
6.7960661
40
0.9471227
50
138.7691257
51
180.1488555
0
ARC
8
DEFAULT_255_2_778
10
44.3141086
20
6.7968968
40
0.946722
50
92.2525226
51
138.8147006
0
ARC
8
DEFAULT_255_2_778
10
44.3168603
20
6.7674276
40
0.9762778
50
89.9979919
51
92.3459109
0
ARC
8
DEFAULT_255_2_778
10
44.3194323
20
6.7965784
40
0.9471305
50
49.1137343
51
90.1535204
0
ARC
8
DEFAULT_255_2_778
10
44.3201779
20
6.796467
40
0.9467268
50
2.2652623
51
49.1522587
0
ARC
8
DEFAULT_255_2_778
10
44.290602
20
6.7936463
40
0.9763924
50
359.9976072
51
2.3620595
0
ARC
8
DEFAULT_255_2_778
10
44.3198674
20
6.7910677
40
0.9471305
50
319.1137343
51
0.1535204
0
ARC
8
DEFAULT_255_2_778
10
44.319756
20
6.7903221
40
0.9467268
50
272.2652623
51
319.1522587
0
ARC
8
DEFAULT_255_2_778
10
44.3169353
20
6.819898
40
0.9763924
50
269.9976072
51
272.3620595
0
ARC
8
DEFAULT_255_2_778
10
44.3143567
20
6.7906326
40
0.9471305
50
229.1137343
51
270.1535204
0
ARC
8
DEFAULT_255_2_778
10
44.3136111
20
6.790744
40
0.9467268
50
182.2652623
51
229.1522587
0
ARC
8
DEFAULT_255_2_778
10
44.343187
20
6.7935647
40
0.9763924
50
179.9976072
51
182.3620595
0
LINE
8
DEFAULT_255_2_778
10
43.3667945
20
6.7936055
11
43.3667945
21
6.7936055
0
LINE
8
DEFAULT_255_2_778
10
46.9167459
20
9.3436541
11
41.8166459
21
9.3436541
0
LINE
8
DEFAULT_255_2_778
10
41.8166459
20
9.3436541
11
41.8166459
21
4.2435541
0
LINE
8
DEFAULT_255_2_778
10
41.8166459
20
4.2435541
11
46.9167459
21
4.2435541
0
LINE
8
DEFAULT_255_2_778
10
46.9167459
20
4.2435541
11
46.9167459
21
9.3436541
0
ARC
8
DEFAULT_255_2_778
10
28.2459696
20
70.0950304
40
0.5488398
50
89.8682888
51
180.1317112
0
ARC
8
DEFAULT_255_2_778
10
28.2484782
20
70.0951154
40
0.5487547
50
359.8593896
51
90.1301939
0
ARC
8
DEFAULT_255_2_778
10
28.2485632
20
70.0924368
40
0.5486696
50
269.8609058
51
0.1390942
0
ARC
8
DEFAULT_255_2_778
10
28.2458846
20
70.0925218
40
0.5487547
50
179.8698061
51
270.1406104
0
LINE
8
DEFAULT_255_2_778
10
27.6971313
20
70.0937687
11
27.6971313
21
70.0937687
0
LINE
8
DEFAULT_255_2_778
10
26.7469448
20
73.7937281
11
29.7470448
21
73.7937281
0
LINE
8
DEFAULT_255_2_778
10
26.7469448
20
71.5937281
11
29.7470448
21
71.5937281
0
LINE
8
DEFAULT_255_2_778
10
26.7469448
20
68.5938281
11
29.7470448
21
68.5938281
0
ARC
8
DEFAULT_255_2_778
10
28.2459696
20
80.4950304
40
0.5488398
50
89.8682888
51
180.1317112
0
ARC
8
DEFAULT_255_2_778
10
28.2484782
20
80.4951154
40
0.5487547
50
359.8593896
51
90.1301939
0
ARC
8
DEFAULT_255_2_778
10
28.2485632
20
80.4924368
40
0.5486696
50
269.8609058
51
0.1390942
0
ARC
8
DEFAULT_255_2_778
10
28.2458846
20
80.4925218
40
0.5487547
50
179.8698061
51
270.1406104
0
LINE
8
DEFAULT_255_2_778
10
27.6971313
20
80.4937687
11
27.6971313
21
80.4937687
0
ARC
8
DEFAULT_255_2_778
10
28.2459696
20
75.2949304
40
0.5488398
50
89.8682888
51
180.1317112
0
ARC
8
DEFAULT_255_2_778
10
28.2484782
20
75.2950154
40
0.5487547
50
359.8593896
51
90.1301939
0
ARC
8
DEFAULT_255_2_778
10
28.2485632
20
75.2923368
40
0.5486696
50
269.8609058
51
0.1390942
0
ARC
8
DEFAULT_255_2_778
10
28.2458846
20
75.2924218
40
0.5487547
50
179.8698061
51
270.1406104
0
LINE
8
DEFAULT_255_2_778
10
27.6971313
20
75.2936687
11
27.6971313
21
75.2936687
0
LINE
8
DEFAULT_255_2_778
10
26.7469448
20
81.9937281
11
29.7470448
21
81.9937281
0
LINE
8
DEFAULT_255_2_778
10
26.7469448
20
78.9939281
11
29.7470448
21
78.9939281
0
LINE
8
DEFAULT_255_2_778
10
26.7469448
20
76.7938281
11
29.7470448
21
76.7938281
0
ARC
8
DEFAULT_255_2_778
10
28.2459696
20
96.0948304
40
0.5488398
50
89.8682888
51
180.1317112
0
ARC
8
DEFAULT_255_2_778
10
28.2484782
20
96.0949154
40
0.5487547
50
359.8593896
51
90.1301939
0
ARC
8
DEFAULT_255_2_778
10
28.2485632
20
96.0922368
40
0.5486696
50
269.8609058
51
0.1390942
0
ARC
8
DEFAULT_255_2_778
10
28.2458846
20
96.0923218
40
0.5487547
50
179.8698061
51
270.1406104
0
LINE
8
DEFAULT_255_2_778
10
27.6971313
20
96.0935687
11
27.6971313
21
96.0935687
0
ARC
8
DEFAULT_255_2_778
10
28.2459696
20
90.8950304
40
0.5488398
50
89.8682888
51
180.1317112
0
ARC
8
DEFAULT_255_2_778
10
28.2484782
20
90.8951154
40
0.5487547
50
359.8593896
51
90.1301939
0
ARC
8
DEFAULT_255_2_778
10
28.2485632
20
90.8924368
40
0.5486696
50
269.8609058
51
0.1390942
0
ARC
8
DEFAULT_255_2_778
10
28.2458846
20
90.8925218
40
0.5487547
50
179.8698061
51
270.1406104
0
LINE
8
DEFAULT_255_2_778
10
27.6971313
20
90.8937687
11
27.6971313
21
90.8937687
0
LINE
8
DEFAULT_255_2_778
10
26.7469448
20
97.5937884
11
29.7470448
21
97.5937884
0
LINE
8
DEFAULT_255_2_778
10
26.7469448
20
94.5936884
11
29.7470448
21
94.5936884
0
LINE
8
DEFAULT_255_2_778
10
26.7469448
20
92.3936884
11
29.7470448
21
92.3936884
0
LINE
8
DEFAULT_255_2_778
10
26.7469448
20
87.1937884
11
29.7470448
21
87.1937884
0
LINE
8
DEFAULT_255_2_778
10
26.7469448
20
89.3938
11
29.7470448
21
89.3938
0
LINE
8
DEFAULT_255_2_778
10
29.7470448
20
118.8937993
11
26.7469448
21
118.8937993
0
LINE
8
DEFAULT_255_2_778
10
26.7469448
20
118.8937993
11
26.7469448
21
68.0937993
0
LINE
8
DEFAULT_255_2_778
10
26.7469448
20
68.0937993
11
29.7470448
21
68.0937993
0
LINE
8
DEFAULT_255_2_778
10
29.7470448
20
68.0937993
11
29.7470448
21
118.8937993
0
ARC
8
DEFAULT_255_2_778
10
28.2459696
20
101.2949304
40
0.5488398
50
89.8682888
51
180.1317112
0
ARC
8
DEFAULT_255_2_778
10
28.2484782
20
101.2950154
40
0.5487547
50
359.8593896
51
90.1301939
0
ARC
8
DEFAULT_255_2_778
10
28.2485632
20
101.2923368
40
0.5486696
50
269.8609058
51
0.1390942
0
ARC
8
DEFAULT_255_2_778
10
28.2458846
20
101.2924218
40
0.5487547
50
179.8698061
51
270.1406104
0
LINE
8
DEFAULT_255_2_778
10
27.6971313
20
101.2936687
11
27.6971313
21
101.2936687
0
LINE
8
DEFAULT_255_2_778
10
26.7469448
20
104.9937281
11
29.7470448
21
104.9937281
0
LINE
8
DEFAULT_255_2_778
10
26.7469448
20
102.7937281
11
29.7470448
21
102.7937281
0
LINE
8
DEFAULT_255_2_778
10
26.7469448
20
99.7938281
11
29.7470448
21
99.7938281
0
ARC
8
DEFAULT_255_2_778
10
28.2459696
20
111.6949304
40
0.5488398
50
89.8682888
51
180.1317112
0
ARC
8
DEFAULT_255_2_778
10
28.2484782
20
111.6950154
40
0.5487547
50
359.8593896
51
90.1301939
0
ARC
8
DEFAULT_255_2_778
10
28.2485632
20
111.6923368
40
0.5486696
50
269.8609058
51
0.1390942
0
ARC
8
DEFAULT_255_2_778
10
28.2458846
20
111.6924218
40
0.5487547
50
179.8698061
51
270.1406104
0
LINE
8
DEFAULT_255_2_778
10
27.6971313
20
111.6936687
11
27.6971313
21
111.6936687
0
ARC
8
DEFAULT_255_2_778
10
28.2459696
20
106.4948304
40
0.5488398
50
89.8682888
51
180.1317112
0
ARC
8
DEFAULT_255_2_778
10
28.2484782
20
106.4949154
40
0.5487547
50
359.8593896
51
90.1301939
0
ARC
8
DEFAULT_255_2_778
10
28.2485632
20
106.4922368
40
0.5486696
50
269.8609058
51
0.1390942
0
ARC
8
DEFAULT_255_2_778
10
28.2458846
20
106.4923218
40
0.5487547
50
179.8698061
51
270.1406104
0
LINE
8
DEFAULT_255_2_778
10
27.6971313
20
106.4935687
11
27.6971313
21
106.4935687
0
LINE
8
DEFAULT_255_2_778
10
26.7469448
20
115.3936332
11
29.7470448
21
115.3936332
0
LINE
8
DEFAULT_255_2_778
10
26.7469448
20
113.1936332
11
29.7470448
21
113.1936332
0
LINE
8
DEFAULT_255_2_778
10
26.7469448
20
110.1937332
11
29.7470448
21
110.1937332
0
LINE
8
DEFAULT_255_2_778
10
26.7469448
20
107.9937332
11
29.7470448
21
107.9937332
0
ARC
8
DEFAULT_255_2_778
10
28.2459696
20
116.8948304
40
0.5488398
50
89.8682888
51
180.1317112
0
ARC
8
DEFAULT_255_2_778
10
28.2484782
20
116.8949154
40
0.5487547
50
359.8593896
51
90.1301939
0
ARC
8
DEFAULT_255_2_778
10
28.2485632
20
116.8922368
40
0.5486696
50
269.8609058
51
0.1390942
0
ARC
8
DEFAULT_255_2_778
10
28.2458846
20
116.8923218
40
0.5487547
50
179.8698061
51
270.1406104
0
LINE
8
DEFAULT_255_2_778
10
27.6971313
20
116.8935687
11
27.6971313
21
116.8935687
0
LINE
8
DEFAULT_255_2_778
10
26.7469448
20
118.3938
11
29.7470448
21
118.3938
0
ARC
8
DEFAULT_255_2_778
10
28.2459696
20
7.6949304
40
0.5488398
50
89.8682888
51
180.1317112
0
ARC
8
DEFAULT_255_2_778
10
28.2484782
20
7.6950154
40
0.5487547
50
359.8593896
51
90.1301939
0
ARC
8
DEFAULT_255_2_778
10
28.2485632
20
7.6923368
40
0.5486696
50
269.8609058
51
0.1390942
0
ARC
8
DEFAULT_255_2_778
10
28.2458846
20
7.6924218
40
0.5487547
50
179.8698061
51
270.1406104
0
LINE
8
DEFAULT_255_2_778
10
27.6971313
20
7.6936687
11
27.6971313
21
7.6936687
0
LINE
8
DEFAULT_255_2_778
10
26.7469448
20
11.3938603
11
29.7470448
21
11.3938603
0
LINE
8
DEFAULT_255_2_778
10
26.7469448
20
9.1938603
11
29.7470448
21
9.1938603
0
LINE
8
DEFAULT_255_2_778
10
26.7469448
20
6.1937603
11
29.7470448
21
6.1937603
0
ARC
8
DEFAULT_255_2_778
10
28.2459696
20
18.0949304
40
0.5488398
50
89.8682888
51
180.1317112
0
ARC
8
DEFAULT_255_2_778
10
28.2484782
20
18.0950154
40
0.5487547
50
359.8593896
51
90.1301939
0
ARC
8
DEFAULT_255_2_778
10
28.2485632
20
18.0923368
40
0.5486696
50
269.8609058
51
0.1390942
0
ARC
8
DEFAULT_255_2_778
10
28.2458846
20
18.0924218
40
0.5487547
50
179.8698061
51
270.1406104
0
LINE
8
DEFAULT_255_2_778
10
27.6971313
20
18.0936687
11
27.6971313
21
18.0936687
0
ARC
8
DEFAULT_255_2_778
10
28.2459696
20
12.8950304
40
0.5488398
50
89.8682888
51
180.1317112
0
ARC
8
DEFAULT_255_2_778
10
28.2484782
20
12.8951154
40
0.5487547
50
359.8593896
51
90.1301939
0
ARC
8
DEFAULT_255_2_778
10
28.2485632
20
12.8924368
40
0.5486696
50
269.8609058
51
0.1390942
0
ARC
8
DEFAULT_255_2_778
10
28.2458846
20
12.8925218
40
0.5487547
50
179.8698061
51
270.1406104
0
LINE
8
DEFAULT_255_2_778
10
27.6971313
20
12.8937687
11
27.6971313
21
12.8937687
0
LINE
8
DEFAULT_255_2_778
10
26.7469448
20
21.7938655
11
29.7470448
21
21.7938655
0
LINE
8
DEFAULT_255_2_778
10
26.7469448
20
19.5938655
11
29.7470448
21
19.5938655
0
LINE
8
DEFAULT_255_2_778
10
26.7469448
20
16.5937655
11
29.7470448
21
16.5937655
0
LINE
8
DEFAULT_255_2_778
10
26.7469448
20
14.3937655
11
29.7470448
21
14.3937655
0
ARC
8
DEFAULT_255_2_778
10
28.2459696
20
33.6949304
40
0.5488398
50
89.8682888
51
180.1317112
0
ARC
8
DEFAULT_255_2_778
10
28.2484782
20
33.6950154
40
0.5487547
50
359.8593896
51
90.1301939
0
ARC
8
DEFAULT_255_2_778
10
28.2485632
20
33.6923368
40
0.5486696
50
269.8609058
51
0.1390942
0
ARC
8
DEFAULT_255_2_778
10
28.2458846
20
33.6924218
40
0.5487547
50
179.8698061
51
270.1406104
0
LINE
8
DEFAULT_255_2_778
10
27.6971313
20
33.6936687
11
27.6971313
21
33.6936687
0
ARC
8
DEFAULT_255_2_778
10
28.2459696
20
28.4948304
40
0.5488398
50
89.8682888
51
180.1317112
0
ARC
8
DEFAULT_255_2_778
10
28.2484782
20
28.4949154
40
0.5487547
50
359.8593896
51
90.1301939
0
ARC
8
DEFAULT_255_2_778
10
28.2485632
20
28.4922368
40
0.5486696
50
269.8609058
51
0.1390942
0
ARC
8
DEFAULT_255_2_778
10
28.2458846
20
28.4923218
40
0.5487547
50
179.8698061
51
270.1406104
0
LINE
8
DEFAULT_255_2_778
10
27.6971313
20
28.4935687
11
27.6971313
21
28.4935687
0
LINE
8
DEFAULT_255_2_778
10
26.7469448
20
35.1936884
11
29.7470448
21
35.1936884
0
LINE
8
DEFAULT_255_2_778
10
26.7469448
20
32.1938884
11
29.7470448
21
32.1938884
0
LINE
8
DEFAULT_255_2_778
10
26.7469448
20
29.9937884
11
29.7470448
21
29.9937884
0
LINE
8
DEFAULT_255_2_778
10
26.7469448
20
24.7936884
11
29.7470448
21
24.7936884
0
LINE
8
DEFAULT_255_2_778
10
26.7469448
20
26.9937
11
29.7470448
21
26.9937
0
LINE
8
DEFAULT_255_2_778
10
29.7470448
20
56.4936993
11
26.7469448
21
56.4936993
0
LINE
8
DEFAULT_255_2_778
10
26.7469448
20
56.4936993
11
26.7469448
21
5.6936993
0
LINE
8
DEFAULT_255_2_778
10
26.7469448
20
5.6936993
11
29.7470448
21
5.6936993
0
LINE
8
DEFAULT_255_2_778
10
29.7470448
20
5.6936993
11
29.7470448
21
56.4936993
0
ARC
8
DEFAULT_255_2_778
10
28.2459696
20
38.8948304
40
0.5488398
50
89.8682888
51
180.1317112
0
ARC
8
DEFAULT_255_2_778
10
28.2484782
20
38.8949154
40
0.5487547
50
359.8593896
51
90.1301939
0
ARC
8
DEFAULT_255_2_778
10
28.2485632
20
38.8922368
40
0.5486696
50
269.8609058
51
0.1390942
0
ARC
8
DEFAULT_255_2_778
10
28.2458846
20
38.8923218
40
0.5487547
50
179.8698061
51
270.1406104
0
LINE
8
DEFAULT_255_2_778
10
27.6971313
20
38.8935687
11
27.6971313
21
38.8935687
0
LINE
8
DEFAULT_255_2_778
10
26.7469448
20
42.5937603
11
29.7470448
21
42.5937603
0
LINE
8
DEFAULT_255_2_778
10
26.7469448
20
40.3937603
11
29.7470448
21
40.3937603
0
LINE
8
DEFAULT_255_2_778
10
26.7469448
20
37.3936603
11
29.7470448
21
37.3936603
0
ARC
8
DEFAULT_255_2_778
10
28.2459696
20
49.2948304
40
0.5488398
50
89.8682888
51
180.1317112
0
ARC
8
DEFAULT_255_2_778
10
28.2484782
20
49.2949154
40
0.5487547
50
359.8593896
51
90.1301939
0
ARC
8
DEFAULT_255_2_778
10
28.2485632
20
49.2922368
40
0.5486696
50
269.8609058
51
0.1390942
0
ARC
8
DEFAULT_255_2_778
10
28.2458846
20
49.2923218
40
0.5487547
50
179.8698061
51
270.1406104
0
LINE
8
DEFAULT_255_2_778
10
27.6971313
20
49.2935687
11
27.6971313
21
49.2935687
0
ARC
8
DEFAULT_255_2_778
10
28.2459696
20
44.0949304
40
0.5488398
50
89.8682888
51
180.1317112
0
ARC
8
DEFAULT_255_2_778
10
28.2484782
20
44.0950154
40
0.5487547
50
359.8593896
51
90.1301939
0
ARC
8
DEFAULT_255_2_778
10
28.2485632
20
44.0923368
40
0.5486696
50
269.8609058
51
0.1390942
0
ARC
8
DEFAULT_255_2_778
10
28.2458846
20
44.0924218
40
0.5487547
50
179.8698061
51
270.1406104
0
LINE
8
DEFAULT_255_2_778
10
27.6971313
20
44.0936687
11
27.6971313
21
44.0936687
0
LINE
8
DEFAULT_255_2_778
10
26.7469448
20
52.9937655
11
29.7470448
21
52.9937655
0
LINE
8
DEFAULT_255_2_778
10
26.7469448
20
50.7937655
11
29.7470448
21
50.7937655
0
LINE
8
DEFAULT_255_2_778
10
26.7469448
20
47.7936655
11
29.7470448
21
47.7936655
0
LINE
8
DEFAULT_255_2_778
10
26.7469448
20
45.5936655
11
29.7470448
21
45.5936655
0
ARC
8
DEFAULT_255_2_778
10
28.2459696
20
54.4949304
40
0.5488398
50
89.8682888
51
180.1317112
0
ARC
8
DEFAULT_255_2_778
10
28.2484782
20
54.4950154
40
0.5487547
50
359.8593896
51
90.1301939
0
ARC
8
DEFAULT_255_2_778
10
28.2485632
20
54.4923368
40
0.5486696
50
269.8609058
51
0.1390942
0
ARC
8
DEFAULT_255_2_778
10
28.2458846
20
54.4924218
40
0.5487547
50
179.8698061
51
270.1406104
0
LINE
8
DEFAULT_255_2_778
10
27.6971313
20
54.4936687
11
27.6971313
21
54.4936687
0
LINE
8
DEFAULT_255_2_778
10
26.7469778
20
55.9935752
11
29.7470778
21
55.9935752
0
LINE
8
DEFAULT_255_2_778
10
75.8726778
20
107.5227752
11
75.7702778
21
107.5960752
0
LINE
8
DEFAULT_255_2_778
10
75.7702778
20
107.5960752
11
75.6475778
21
107.6503752
0
LINE
8
DEFAULT_255_2_778
10
75.6475778
20
107.6503752
11
75.4779778
21
107.6865752
0
LINE
8
DEFAULT_255_2_778
10
75.4779778
20
107.6865752
11
75.2905778
21
107.6913752
0
LINE
8
DEFAULT_255_2_778
10
75.2905778
20
107.6913752
11
75.1363778
21
107.6693752
0
LINE
8
DEFAULT_255_2_778
10
75.1363778
20
107.6693752
11
75.0005778
21
107.6225752
0
LINE
8
DEFAULT_255_2_778
10
75.0005778
20
107.6225752
11
74.9061778
21
107.5677752
0
LINE
8
DEFAULT_255_2_778
10
74.9061778
20
107.5677752
11
74.7635778
21
107.4251752
0
LINE
8
DEFAULT_255_2_778
10
74.7635778
20
107.4251752
11
74.7063778
21
107.3164752
0
LINE
8
DEFAULT_255_2_778
10
74.7063778
20
107.3164752
11
74.6823778
21
107.2394752
0
LINE
8
DEFAULT_255_2_778
10
74.6823778
20
107.2394752
11
74.6703778
21
107.1780752
0
LINE
8
DEFAULT_255_2_778
10
74.6703778
20
107.1780752
11
74.6659778
21
107.1407752
0
LINE
8
DEFAULT_255_2_778
10
74.6659778
20
107.1407752
11
74.6635778
21
107.1034752
0
LINE
8
DEFAULT_255_2_778
10
74.6635778
20
107.1034752
11
74.6629778
21
107.0663752
0
LINE
8
DEFAULT_255_2_778
10
74.6629778
20
107.0663752
11
74.9482778
21
107.0663752
0
LINE
8
DEFAULT_255_2_778
10
74.9482778
20
107.0663752
11
74.9495778
21
107.1084752
0
LINE
8
DEFAULT_255_2_778
10
74.9495778
20
107.1084752
11
74.9527778
21
107.1364752
0
LINE
8
DEFAULT_255_2_778
10
74.9527778
20
107.1364752
11
74.9606778
21
107.1783752
0
LINE
8
DEFAULT_255_2_778
10
74.9606778
20
107.1783752
11
74.9781778
21
107.2325752
0
LINE
8
DEFAULT_255_2_778
10
74.9781778
20
107.2325752
11
75.0159778
21
107.3013752
0
LINE
8
DEFAULT_255_2_778
10
75.0159778
20
107.3013752
11
75.0990778
21
107.3833752
0
LINE
8
DEFAULT_255_2_778
10
75.0990778
20
107.3833752
11
75.2400778
21
107.4442752
0
LINE
8
DEFAULT_255_2_778
10
75.2400778
20
107.4442752
11
75.4490778
21
107.4487752
0
LINE
8
DEFAULT_255_2_778
10
75.4490778
20
107.4487752
11
75.6120778
21
107.3878752
0
LINE
8
DEFAULT_255_2_778
10
75.6120778
20
107.3878752
11
75.7004778
21
107.3037752
0
LINE
8
DEFAULT_255_2_778
10
75.7004778
20
107.3037752
11
75.7358778
21
107.2359752
0
LINE
8
DEFAULT_255_2_778
10
75.7358778
20
107.2359752
11
75.7491778
21
107.1928752
0
LINE
8
DEFAULT_255_2_778
10
75.7491778
20
107.1928752
11
75.7557778
21
107.1571752
0
LINE
8
DEFAULT_255_2_778
10
75.7557778
20
107.1571752
11
75.7557778
21
107.0550752
0
LINE
8
DEFAULT_255_2_778
10
75.7557778
20
107.0550752
11
75.7522778
21
107.0341752
0
LINE
8
DEFAULT_255_2_778
10
75.7522778
20
107.0341752
11
75.7427778
21
106.9928752
0
LINE
8
DEFAULT_255_2_778
10
75.7427778
20
106.9928752
11
75.7223778
21
106.9322752
0
LINE
8
DEFAULT_255_2_778
10
75.7223778
20
106.9322752
11
75.6911778
21
106.8626752
0
LINE
8
DEFAULT_255_2_778
10
75.6911778
20
106.8626752
11
75.6419778
21
106.7758752
0
LINE
8
DEFAULT_255_2_778
10
75.6419778
20
106.7758752
11
75.5456778
21
106.6404752
0
LINE
8
DEFAULT_255_2_778
10
75.5456778
20
106.6404752
11
75.3974778
21
106.4647752
0
LINE
8
DEFAULT_255_2_778
10
75.3974778
20
106.4647752
11
75.2254778
21
106.2855752
0
LINE
8
DEFAULT_255_2_778
10
75.2254778
20
106.2855752
11
74.9439778
21
106.0247752
0
LINE
8
DEFAULT_255_2_778
10
74.9439778
20
106.0247752
11
74.6365778
21
105.7723752
0
LINE
8
DEFAULT_255_2_778
10
74.6365778
20
105.7723752
11
74.5725778
21
105.7233752
0
LINE
8
DEFAULT_255_2_778
10
74.5725778
20
105.7233752
11
74.5725778
21
105.4598752
0
LINE
8
DEFAULT_255_2_778
10
74.5725778
20
105.4598752
11
76.0896778
21
105.4598752
0
LINE
8
DEFAULT_255_2_778
10
76.0896778
20
105.4598752
11
76.0896778
21
105.7000752
0
LINE
8
DEFAULT_255_2_778
10
76.0896778
20
105.7000752
11
74.9312778
21
105.7000752
0
LINE
8
DEFAULT_255_2_778
10
74.9312778
20
105.7000752
11
75.4577778
21
106.1347752
0
LINE
8
DEFAULT_255_2_778
10
75.4577778
20
106.1347752
11
75.6408778
21
106.3112752
0
LINE
8
DEFAULT_255_2_778
10
75.6408778
20
106.3112752
11
75.7538778
21
106.4401752
0
LINE
8
DEFAULT_255_2_778
10
75.7538778
20
106.4401752
11
75.8308778
21
106.5430752
0
LINE
8
DEFAULT_255_2_778
10
75.8308778
20
106.5430752
11
75.8999778
21
106.6517752
0
LINE
8
DEFAULT_255_2_778
10
75.8999778
20
106.6517752
11
75.9605778
21
106.7692752
0
LINE
8
DEFAULT_255_2_778
10
75.9605778
20
106.7692752
11
75.9941778
21
106.8515752
0
LINE
8
DEFAULT_255_2_778
10
75.9941778
20
106.8515752
11
76.0126778
21
106.9076752
0
LINE
8
DEFAULT_255_2_778
10
76.0126778
20
106.9076752
11
76.0271778
21
106.9645752
0
LINE
8
DEFAULT_255_2_778
10
76.0271778
20
106.9645752
11
76.0330778
21
106.9933752
0
LINE
8
DEFAULT_255_2_778
10
76.0330778
20
106.9933752
11
76.0377778
21
107.0221752
0
LINE
8
DEFAULT_255_2_778
10
76.0377778
20
107.0221752
11
76.0412778
21
107.0513752
0
LINE
8
DEFAULT_255_2_778
10
76.0412778
20
107.0513752
11
76.0412778
21
107.1859752
0
LINE
8
DEFAULT_255_2_778
10
76.0412778
20
107.1859752
11
76.0380778
21
107.2113752
0
LINE
8
DEFAULT_255_2_778
10
76.0380778
20
107.2113752
11
76.0337778
21
107.2365752
0
LINE
8
DEFAULT_255_2_778
10
76.0337778
20
107.2365752
11
76.0216778
21
107.2862752
0
LINE
8
DEFAULT_255_2_778
10
76.0216778
20
107.2862752
11
76.0065778
21
107.3307752
0
LINE
8
DEFAULT_255_2_778
10
76.0065778
20
107.3307752
11
75.9766778
21
107.3942752
0
LINE
8
DEFAULT_255_2_778
10
75.9766778
20
107.3942752
11
75.9377778
21
107.4529752
0
LINE
8
DEFAULT_255_2_778
10
75.9377778
20
107.4529752
11
75.8726778
21
107.5222752
0
LINE
8
DEFAULT_255_2_778
10
75.3493778
20
112.8480752
11
75.0998778
21
112.8480752
0
LINE
8
DEFAULT_255_2_778
10
75.0998778
20
112.8480752
11
74.8349778
21
112.6408752
0
LINE
8
DEFAULT_255_2_778
10
74.8349778
20
112.6408752
11
74.5727778
21
112.5096752
0
LINE
8
DEFAULT_255_2_778
10
74.5727778
20
112.5096752
11
74.5727778
21
112.2352752
0
LINE
8
DEFAULT_255_2_778
10
74.5727778
20
112.2352752
11
74.9495778
21
112.4271752
0
LINE
8
DEFAULT_255_2_778
10
74.9495778
20
112.4271752
11
75.0545778
21
112.5080752
0
LINE
8
DEFAULT_255_2_778
10
75.0545778
20
112.5080752
11
75.0545778
21
110.6604752
0
LINE
8
DEFAULT_255_2_778
10
75.0545778
20
110.6604752
11
75.3493778
21
110.6604752
0
LINE
8
DEFAULT_255_2_778
10
75.3493778
20
110.6604752
11
75.3493778
21
112.8480752
0
LINE
8
DEFAULT_255_2_778
10
75.6673778
20
91.2649752
11
75.5059778
21
91.3115752
0
LINE
8
DEFAULT_255_2_778
10
75.5059778
20
91.3115752
11
75.2871778
21
91.3138752
0
LINE
8
DEFAULT_255_2_778
10
75.2871778
20
91.3138752
11
75.1233778
21
91.2707752
0
LINE
8
DEFAULT_255_2_778
10
75.1233778
20
91.2707752
11
75.0170778
21
91.2093752
0
LINE
8
DEFAULT_255_2_778
10
75.0170778
20
91.2093752
11
74.9000778
21
91.1001752
0
LINE
8
DEFAULT_255_2_778
10
74.9000778
20
91.1001752
11
74.9172778
21
91.8078752
0
LINE
8
DEFAULT_255_2_778
10
74.9172778
20
91.8078752
11
75.9149778
21
91.8078752
0
LINE
8
DEFAULT_255_2_778
10
75.9149778
20
91.8078752
11
75.9149778
21
92.0481752
0
LINE
8
DEFAULT_255_2_778
10
75.9149778
20
92.0481752
11
74.6410778
21
92.0481752
0
LINE
8
DEFAULT_255_2_778
10
74.6410778
20
92.0481752
11
74.6222778
21
90.7617752
0
LINE
8
DEFAULT_255_2_778
10
74.6222778
20
90.7617752
11
74.9169778
21
90.7617752
0
LINE
8
DEFAULT_255_2_778
10
74.9169778
20
90.7617752
11
74.9204778
21
90.7886752
0
LINE
8
DEFAULT_255_2_778
10
74.9204778
20
90.7886752
11
74.9294778
21
90.8286752
0
LINE
8
DEFAULT_255_2_778
10
74.9294778
20
90.8286752
11
74.9476778
21
90.8783752
0
LINE
8
DEFAULT_255_2_778
10
74.9476778
20
90.8783752
11
74.9878778
21
90.9439752
0
LINE
8
DEFAULT_255_2_778
10
74.9878778
20
90.9439752
11
75.0847778
21
91.0278752
0
LINE
8
DEFAULT_255_2_778
10
75.0847778
20
91.0278752
11
75.2040778
21
91.0739752
0
LINE
8
DEFAULT_255_2_778
10
75.2040778
20
91.0739752
11
75.3876778
21
91.0760752
0
LINE
8
DEFAULT_255_2_778
10
75.3876778
20
91.0760752
11
75.5273778
21
91.0228752
0
LINE
8
DEFAULT_255_2_778
10
75.5273778
20
91.0228752
11
75.6168778
21
90.9413752
0
LINE
8
DEFAULT_255_2_778
10
75.6168778
20
90.9413752
11
75.6710778
21
90.8566752
0
LINE
8
DEFAULT_255_2_778
10
75.6710778
20
90.8566752
11
75.6993778
21
90.7871752
0
LINE
8
DEFAULT_255_2_778
10
75.6993778
20
90.7871752
11
75.7149778
21
90.7275752
0
LINE
8
DEFAULT_255_2_778
10
75.7149778
20
90.7275752
11
75.7210778
21
90.6931752
0
LINE
8
DEFAULT_255_2_778
10
75.7210778
20
90.6931752
11
75.7210778
21
90.4579752
0
LINE
8
DEFAULT_255_2_778
10
75.7210778
20
90.4579752
11
75.7117778
21
90.4092752
0
LINE
8
DEFAULT_255_2_778
10
75.7117778
20
90.4092752
11
75.6946778
21
90.3494752
0
LINE
8
DEFAULT_255_2_778
10
75.6946778
20
90.3494752
11
75.6649778
21
90.2804752
0
LINE
8
DEFAULT_255_2_778
10
75.6649778
20
90.2804752
11
75.6030778
21
90.1891752
0
LINE
8
DEFAULT_255_2_778
10
75.6030778
20
90.1891752
11
75.5088778
21
90.1110752
0
LINE
8
DEFAULT_255_2_778
10
75.5088778
20
90.1110752
11
75.3736778
21
90.0658752
0
LINE
8
DEFAULT_255_2_778
10
75.3736778
20
90.0658752
11
75.1569778
21
90.0782752
0
LINE
8
DEFAULT_255_2_778
10
75.1569778
20
90.0782752
11
75.0326778
21
90.1412752
0
LINE
8
DEFAULT_255_2_778
10
75.0326778
20
90.1412752
11
74.9460778
21
90.2341752
0
LINE
8
DEFAULT_255_2_778
10
74.9460778
20
90.2341752
11
74.9024778
21
90.3148752
0
LINE
8
DEFAULT_255_2_778
10
74.9024778
20
90.3148752
11
74.8820778
21
90.3764752
0
LINE
8
DEFAULT_255_2_778
10
74.8820778
20
90.3764752
11
74.8746778
21
90.4143752
0
LINE
8
DEFAULT_255_2_778
10
74.8746778
20
90.4143752
11
74.8730778
21
90.4270752
0
LINE
8
DEFAULT_255_2_778
10
74.8730778
20
90.4270752
11
74.5722778
21
90.4270752
0
LINE
8
DEFAULT_255_2_778
10
74.5722778
20
90.4270752
11
74.5748778
21
90.4042752
0
LINE
8
DEFAULT_255_2_778
10
74.5748778
20
90.4042752
11
74.5820778
21
90.3590752
0
LINE
8
DEFAULT_255_2_778
10
74.5820778
20
90.3590752
11
74.5920778
21
90.3140752
0
LINE
8
DEFAULT_255_2_778
10
74.5920778
20
90.3140752
11
74.6124778
21
90.2481752
0
LINE
8
DEFAULT_255_2_778
10
74.6124778
20
90.2481752
11
74.6468778
21
90.1695752
0
LINE
8
DEFAULT_255_2_778
10
74.6468778
20
90.1695752
11
74.6913778
21
90.0965752
0
LINE
8
DEFAULT_255_2_778
10
74.6913778
20
90.0965752
11
74.7611778
21
90.0147752
0
LINE
8
DEFAULT_255_2_778
10
74.7611778
20
90.0147752
11
74.8672778
21
89.9290752
0
LINE
8
DEFAULT_255_2_778
10
74.8672778
20
89.9290752
11
74.9963778
21
89.8631752
0
LINE
8
DEFAULT_255_2_778
10
74.9963778
20
89.8631752
11
75.1672778
21
89.8200752
0
LINE
8
DEFAULT_255_2_778
10
75.1672778
20
89.8200752
11
75.3805778
21
89.8142752
0
LINE
8
DEFAULT_255_2_778
10
75.3805778
20
89.8142752
11
75.5593778
21
89.8475752
0
LINE
8
DEFAULT_255_2_778
10
75.5593778
20
89.8475752
11
75.7104778
21
89.9155752
0
LINE
8
DEFAULT_255_2_778
10
75.7104778
20
89.9155752
11
75.8102778
21
89.9920752
0
LINE
8
DEFAULT_255_2_778
10
75.8102778
20
89.9920752
11
75.8845778
21
90.0753752
0
LINE
8
DEFAULT_255_2_778
10
75.8845778
20
90.0753752
11
75.9348778
21
90.1539752
0
LINE
8
DEFAULT_255_2_778
10
75.9348778
20
90.1539752
11
75.9660778
21
90.2190752
0
LINE
8
DEFAULT_255_2_778
10
75.9660778
20
90.2190752
11
75.9909778
21
90.2878752
0
LINE
8
DEFAULT_255_2_778
10
75.9909778
20
90.2878752
11
76.0038778
21
90.3349752
0
LINE
8
DEFAULT_255_2_778
10
76.0038778
20
90.3349752
11
76.0144778
21
90.3851752
0
LINE
8
DEFAULT_255_2_778
10
76.0144778
20
90.3851752
11
76.0224778
21
90.4386752
0
LINE
8
DEFAULT_255_2_778
10
76.0224778
20
90.4386752
11
76.0237778
21
90.7037752
0
LINE
8
DEFAULT_255_2_778
10
76.0237778
20
90.7037752
11
76.0197778
21
90.7360752
0
LINE
8
DEFAULT_255_2_778
10
76.0197778
20
90.7360752
11
76.0134778
21
90.7762752
0
LINE
8
DEFAULT_255_2_778
10
76.0134778
20
90.7762752
11
76.0041778
21
90.8209752
0
LINE
8
DEFAULT_255_2_778
10
76.0041778
20
90.8209752
11
75.9859778
21
90.8871752
0
LINE
8
DEFAULT_255_2_778
10
75.9859778
20
90.8871752
11
75.9544778
21
90.9688752
0
LINE
8
DEFAULT_255_2_778
10
75.9544778
20
90.9688752
11
75.9091778
21
91.0524752
0
LINE
8
DEFAULT_255_2_778
10
75.9091778
20
91.0524752
11
75.8414778
21
91.1403752
0
LINE
8
DEFAULT_255_2_778
10
75.8414778
20
91.1403752
11
75.7459778
21
91.2220752
0
LINE
8
DEFAULT_255_2_778
10
75.7459778
20
91.2220752
11
75.6676778
21
91.2654752
0
LINE
8
DEFAULT_255_2_778
10
74.5727778
20
81.6605752
11
76.0679778
21
81.6605752
0
LINE
8
DEFAULT_255_2_778
10
76.0679778
20
81.6605752
11
76.0679778
21
81.3909752
0
LINE
8
DEFAULT_255_2_778
10
76.0679778
20
81.3909752
11
75.2244778
21
79.4608752
0
LINE
8
DEFAULT_255_2_778
10
75.2244778
20
79.4608752
11
74.8704778
21
79.4608752
0
LINE
8
DEFAULT_255_2_778
10
74.8704778
20
79.4608752
11
75.7575778
21
81.4145752
0
LINE
8
DEFAULT_255_2_778
10
75.7575778
20
81.4145752
11
74.5725778
21
81.4145752
0
LINE
8
DEFAULT_255_2_778
10
74.5725778
20
81.4145752
11
74.5725778
21
81.6608752
0
LINE
8
DEFAULT_255_2_778
10
75.6525778
20
102.1731752
11
75.7287778
21
102.1004752
0
LINE
8
DEFAULT_255_2_778
10
75.7287778
20
102.1004752
11
75.7678778
21
102.0300752
0
LINE
8
DEFAULT_255_2_778
10
75.7678778
20
102.0300752
11
75.7824778
21
101.9850752
0
LINE
8
DEFAULT_255_2_778
10
75.7824778
20
101.9850752
11
75.7895778
21
101.9480752
0
LINE
8
DEFAULT_255_2_778
10
75.7895778
20
101.9480752
11
75.7872778
21
101.8196752
0
LINE
8
DEFAULT_255_2_778
10
75.7872778
20
101.8196752
11
75.7750778
21
101.7744752
0
LINE
8
DEFAULT_255_2_778
10
75.7750778
20
101.7744752
11
75.7308778
21
101.6937752
0
LINE
8
DEFAULT_255_2_778
10
75.7308778
20
101.6937752
11
75.6160778
21
101.5932752
0
LINE
8
DEFAULT_255_2_778
10
75.6160778
20
101.5932752
11
75.4019778
21
101.5159752
0
LINE
8
DEFAULT_255_2_778
10
75.4019778
20
101.5159752
11
75.2945778
21
101.5080752
0
LINE
8
DEFAULT_255_2_778
10
75.2945778
20
101.5080752
11
75.1963778
21
101.5080752
0
LINE
8
DEFAULT_255_2_778
10
75.1963778
20
101.5080752
11
75.1963778
21
101.2616752
0
LINE
8
DEFAULT_255_2_778
10
75.1963778
20
101.2616752
11
75.5133778
21
101.2405752
0
LINE
8
DEFAULT_255_2_778
10
75.5133778
20
101.2405752
11
75.7059778
21
101.1574752
0
LINE
8
DEFAULT_255_2_778
10
75.7059778
20
101.1574752
11
75.7824778
21
101.0825752
0
LINE
8
DEFAULT_255_2_778
10
75.7824778
20
101.0825752
11
75.8152778
21
101.0235752
0
LINE
8
DEFAULT_255_2_778
10
75.8152778
20
101.0235752
11
75.8292778
21
100.9791752
0
LINE
8
DEFAULT_255_2_778
10
75.8292778
20
100.9791752
11
75.8353778
21
100.9441752
0
LINE
8
DEFAULT_255_2_778
10
75.8353778
20
100.9441752
11
75.8343778
21
100.8243752
0
LINE
8
DEFAULT_255_2_778
10
75.8343778
20
100.8243752
11
75.8263778
21
100.7817752
0
LINE
8
DEFAULT_255_2_778
10
75.8263778
20
100.7817752
11
75.8107778
21
100.7298752
0
LINE
8
DEFAULT_255_2_778
10
75.8107778
20
100.7298752
11
75.7827778
21
100.6703752
0
LINE
8
DEFAULT_255_2_778
10
75.7827778
20
100.6703752
11
75.7173778
21
100.5883752
0
LINE
8
DEFAULT_255_2_778
10
75.7173778
20
100.5883752
11
75.6014778
21
100.5092752
0
LINE
8
DEFAULT_255_2_778
10
75.6014778
20
100.5092752
11
75.4212778
21
100.4626752
0
LINE
8
DEFAULT_255_2_778
10
75.4212778
20
100.4626752
11
75.1858778
21
100.4877752
0
LINE
8
DEFAULT_255_2_778
10
75.1858778
20
100.4877752
11
75.0339778
21
100.5801752
0
LINE
8
DEFAULT_255_2_778
10
75.0339778
20
100.5801752
11
74.9415778
21
100.6925752
0
LINE
8
DEFAULT_255_2_778
10
74.9415778
20
100.6925752
11
74.8923778
21
100.7968752
0
LINE
8
DEFAULT_255_2_778
10
74.8923778
20
100.7968752
11
74.8730778
21
100.8605752
0
LINE
8
DEFAULT_255_2_778
10
74.8730778
20
100.8605752
11
74.5722778
21
100.8605752
0
LINE
8
DEFAULT_255_2_778
10
74.5722778
20
100.8605752
11
74.5807778
21
100.8132752
0
LINE
8
DEFAULT_255_2_778
10
74.5807778
20
100.8132752
11
74.5918778
21
100.7663752
0
LINE
8
DEFAULT_255_2_778
10
74.5918778
20
100.7663752
11
74.6135778
21
100.6973752
0
LINE
8
DEFAULT_255_2_778
10
74.6135778
20
100.6973752
11
74.6500778
21
100.6129752
0
LINE
8
DEFAULT_255_2_778
10
74.6500778
20
100.6129752
11
74.6957778
21
100.5351752
0
LINE
8
DEFAULT_255_2_778
10
74.6957778
20
100.5351752
11
74.7667778
21
100.4475752
0
LINE
8
DEFAULT_255_2_778
10
74.7667778
20
100.4475752
11
74.8532778
21
100.3700752
0
LINE
8
DEFAULT_255_2_778
10
74.8532778
20
100.3700752
11
74.9855778
21
100.2888752
0
LINE
8
DEFAULT_255_2_778
10
74.9855778
20
100.2888752
11
75.1331778
21
100.2361752
0
LINE
8
DEFAULT_255_2_778
10
75.1331778
20
100.2361752
11
75.3241778
21
100.2112752
0
LINE
8
DEFAULT_255_2_778
10
75.3241778
20
100.2112752
11
75.5326778
21
100.2234752
0
LINE
8
DEFAULT_255_2_778
10
75.5326778
20
100.2234752
11
75.7197778
21
100.2713752
0
LINE
8
DEFAULT_255_2_778
10
75.7197778
20
100.2713752
11
75.8628778
21
100.3438752
0
LINE
8
DEFAULT_255_2_778
10
75.8628778
20
100.3438752
11
75.9623778
21
100.4245752
0
LINE
8
DEFAULT_255_2_778
10
75.9623778
20
100.4245752
11
76.0292778
21
100.5047752
0
LINE
8
DEFAULT_255_2_778
10
76.0292778
20
100.5047752
11
76.0705778
21
100.5764752
0
LINE
8
DEFAULT_255_2_778
10
76.0705778
20
100.5764752
11
76.0946778
21
100.6338752
0
LINE
8
DEFAULT_255_2_778
10
76.0946778
20
100.6338752
11
76.1131778
21
100.6949752
0
LINE
8
DEFAULT_255_2_778
10
76.1131778
20
100.6949752
11
76.1224778
21
100.7391752
0
LINE
8
DEFAULT_255_2_778
10
76.1224778
20
100.7391752
11
76.1287778
21
100.7838752
0
LINE
8
DEFAULT_255_2_778
10
76.1287778
20
100.7838752
11
76.1266778
21
100.9711752
0
LINE
8
DEFAULT_255_2_778
10
76.1266778
20
100.9711752
11
76.1163778
21
101.0256752
0
LINE
8
DEFAULT_255_2_778
10
76.1163778
20
101.0256752
11
76.0922778
21
101.0989752
0
LINE
8
DEFAULT_255_2_778
10
76.0922778
20
101.0989752
11
76.0269778
21
101.2055752
0
LINE
8
DEFAULT_255_2_778
10
76.0269778
20
101.2055752
11
75.8684778
21
101.3344752
0
LINE
8
DEFAULT_255_2_778
10
75.8684778
20
101.3344752
11
75.7250778
21
101.3863752
0
LINE
8
DEFAULT_255_2_778
10
75.7250778
20
101.3863752
11
75.8692778
21
101.4701752
0
LINE
8
DEFAULT_255_2_778
10
75.8692778
20
101.4701752
11
75.9597778
21
101.5545752
0
LINE
8
DEFAULT_255_2_778
10
75.9597778
20
101.5545752
11
76.0081778
21
101.6202752
0
LINE
8
DEFAULT_255_2_778
10
76.0081778
20
101.6202752
11
76.0446778
21
101.6908752
0
LINE
8
DEFAULT_255_2_778
10
76.0446778
20
101.6908752
11
76.0644778
21
101.7469752
0
LINE
8
DEFAULT_255_2_778
10
76.0644778
20
101.7469752
11
76.0745778
21
101.7876752
0
LINE
8
DEFAULT_255_2_778
10
76.0745778
20
101.7876752
11
76.0814778
21
101.8292752
0
LINE
8
DEFAULT_255_2_778
10
76.0814778
20
101.8292752
11
76.0793778
21
102.0117752
0
LINE
8
DEFAULT_255_2_778
10
76.0793778
20
102.0117752
11
76.0716778
21
102.0504752
0
LINE
8
DEFAULT_255_2_778
10
76.0716778
20
102.0504752
11
76.0552778
21
102.1059752
0
LINE
8
DEFAULT_255_2_778
10
76.0552778
20
102.1059752
11
76.0248778
21
102.1737752
0
LINE
8
DEFAULT_255_2_778
10
76.0248778
20
102.1737752
11
75.9845778
21
102.2361752
0
LINE
8
DEFAULT_255_2_778
10
75.9845778
20
102.2361752
11
75.9038778
21
102.3205752
0
LINE
8
DEFAULT_255_2_778
10
75.9038778
20
102.3205752
11
75.7776778
21
102.4036752
0
LINE
8
DEFAULT_255_2_778
10
75.7776778
20
102.4036752
11
75.6205778
21
102.4626752
0
LINE
8
DEFAULT_255_2_778
10
75.6205778
20
102.4626752
11
75.4141778
21
102.4922752
0
LINE
8
DEFAULT_255_2_778
10
75.4141778
20
102.4922752
11
75.1929778
21
102.4819752
0
LINE
8
DEFAULT_255_2_778
10
75.1929778
20
102.4819752
11
75.0201778
21
102.4388752
0
LINE
8
DEFAULT_255_2_778
10
75.0201778
20
102.4388752
11
74.8159778
21
102.3189752
0
LINE
8
DEFAULT_255_2_778
10
74.8159778
20
102.3189752
11
74.7190778
21
102.2070752
0
LINE
8
DEFAULT_255_2_778
10
74.7190778
20
102.2070752
11
74.6709778
21
102.1083752
0
LINE
8
DEFAULT_255_2_778
10
74.6709778
20
102.1083752
11
74.6500778
21
102.0369752
0
LINE
8
DEFAULT_255_2_778
10
74.6500778
20
102.0369752
11
74.6410778
21
101.9877752
0
LINE
8
DEFAULT_255_2_778
10
74.6410778
20
101.9877752
11
74.6367778
21
101.9504752
0
LINE
8
DEFAULT_255_2_778
10
74.6367778
20
101.9504752
11
74.6349778
21
101.8884752
0
LINE
8
DEFAULT_255_2_778
10
74.6349778
20
101.8884752
11
74.9201778
21
101.8884752
0
LINE
8
DEFAULT_255_2_778
10
74.9201778
20
101.8884752
11
74.9225778
21
101.9377752
0
LINE
8
DEFAULT_255_2_778
10
74.9225778
20
101.9377752
11
74.9288778
21
101.9742752
0
LINE
8
DEFAULT_255_2_778
10
74.9288778
20
101.9742752
11
74.9426778
21
102.0199752
0
LINE
8
DEFAULT_255_2_778
10
74.9426778
20
102.0199752
11
74.9736778
21
102.0813752
0
LINE
8
DEFAULT_255_2_778
10
74.9736778
20
102.0813752
11
75.0545778
21
102.1660752
0
LINE
8
DEFAULT_255_2_778
10
75.0545778
20
102.1660752
11
75.1839778
21
102.2319752
0
LINE
8
DEFAULT_255_2_778
10
75.1839778
20
102.2319752
11
75.3908778
21
102.2557752
0
LINE
8
DEFAULT_255_2_778
10
75.3908778
20
102.2557752
11
75.5620778
21
102.2218752
0
LINE
8
DEFAULT_255_2_778
10
75.5620778
20
102.2218752
11
75.6525778
21
102.1734752
0
LINE
8
DEFAULT_255_2_778
10
74.8299778
20
95.8509752
11
75.5953778
21
95.8509752
0
LINE
8
DEFAULT_255_2_778
10
75.5953778
20
95.8509752
11
75.5953778
21
96.9471752
0
LINE
8
DEFAULT_255_2_778
10
75.5953778
20
96.9471752
11
74.8299778
21
95.8509752
0
LINE
8
DEFAULT_255_2_778
10
75.5424778
20
97.2603752
11
75.8901778
21
97.2603752
0
LINE
8
DEFAULT_255_2_778
10
75.8901778
20
97.2603752
11
75.8901778
21
95.8509752
0
LINE
8
DEFAULT_255_2_778
10
75.8901778
20
95.8509752
11
76.3063778
21
95.8509752
0
LINE
8
DEFAULT_255_2_778
10
76.3063778
20
95.8509752
11
76.3063778
21
95.6107752
0
LINE
8
DEFAULT_255_2_778
10
76.3063778
20
95.6107752
11
75.8901778
21
95.6107752
0
LINE
8
DEFAULT_255_2_778
10
75.8901778
20
95.6107752
11
75.8901778
21
95.0603752
0
LINE
8
DEFAULT_255_2_778
10
75.8901778
20
95.0603752
11
75.5953778
21
95.0603752
0
LINE
8
DEFAULT_255_2_778
10
75.5953778
20
95.0603752
11
75.5953778
21
95.6107752
0
LINE
8
DEFAULT_255_2_778
10
75.5953778
20
95.6107752
11
74.5725778
21
95.6107752
0
LINE
8
DEFAULT_255_2_778
10
74.5725778
20
95.6107752
11
74.5725778
21
95.8758752
0
LINE
8
DEFAULT_255_2_778
10
74.5725778
20
95.8758752
11
75.5424778
21
97.2603752
0
LINE
8
DEFAULT_255_2_778
10
75.7062778
20
86.5558752
11
75.7541778
21
86.4966752
0
LINE
8
DEFAULT_255_2_778
10
75.7541778
20
86.4966752
11
75.7768778
21
86.4495752
0
LINE
8
DEFAULT_255_2_778
10
75.7768778
20
86.4495752
11
75.7885778
21
86.4119752
0
LINE
8
DEFAULT_255_2_778
10
75.7885778
20
86.4119752
11
75.7943778
21
86.3831752
0
LINE
8
DEFAULT_255_2_778
10
75.7943778
20
86.3831752
11
75.7980778
21
86.3540752
0
LINE
8
DEFAULT_255_2_778
10
75.7980778
20
86.3540752
11
75.7999778
21
86.3103752
0
LINE
8
DEFAULT_255_2_778
10
75.7999778
20
86.3103752
11
76.0883778
21
86.3103752
0
LINE
8
DEFAULT_255_2_778
10
76.0883778
20
86.3103752
11
76.0869778
21
86.3611752
0
LINE
8
DEFAULT_255_2_778
10
76.0869778
20
86.3611752
11
76.0851778
21
86.3865752
0
LINE
8
DEFAULT_255_2_778
10
76.0851778
20
86.3865752
11
76.0822778
21
86.4119752
0
LINE
8
DEFAULT_255_2_778
10
76.0822778
20
86.4119752
11
76.0782778
21
86.4373752
0
LINE
8
DEFAULT_255_2_778
10
76.0782778
20
86.4373752
11
76.0673778
21
86.4876752
0
LINE
8
DEFAULT_255_2_778
10
76.0673778
20
86.4876752
11
76.0491778
21
86.5450752
0
LINE
8
DEFAULT_255_2_778
10
76.0491778
20
86.5450752
11
76.0245778
21
86.5998752
0
LINE
8
DEFAULT_255_2_778
10
76.0245778
20
86.5998752
11
75.9819778
21
86.6667752
0
LINE
8
DEFAULT_255_2_778
10
75.9819778
20
86.6667752
11
75.9147778
21
86.7387752
0
LINE
8
DEFAULT_255_2_778
10
75.9147778
20
86.7387752
11
75.8096778
21
86.8112752
0
LINE
8
DEFAULT_255_2_778
10
75.8096778
20
86.8112752
11
75.6943778
21
86.8583752
0
LINE
8
DEFAULT_255_2_778
10
75.6943778
20
86.8583752
11
75.5239778
21
86.8897752
0
LINE
8
DEFAULT_255_2_778
10
75.5239778
20
86.8897752
11
75.3006778
21
86.8844752
0
LINE
8
DEFAULT_255_2_778
10
75.3006778
20
86.8844752
11
75.1477778
21
86.8477752
0
LINE
8
DEFAULT_255_2_778
10
75.1477778
20
86.8477752
11
75.0159778
21
86.7842752
0
LINE
8
DEFAULT_255_2_778
10
75.0159778
20
86.7842752
11
74.9183778
21
86.7111752
0
LINE
8
DEFAULT_255_2_778
10
74.9183778
20
86.7111752
11
74.8460778
21
86.6357752
0
LINE
8
DEFAULT_255_2_778
10
74.8460778
20
86.6357752
11
74.7704778
21
86.5288752
0
LINE
8
DEFAULT_255_2_778
10
74.7704778
20
86.5288752
11
74.7159778
21
86.4265752
0
LINE
8
DEFAULT_255_2_778
10
74.7159778
20
86.4265752
11
74.6791778
21
86.3389752
0
LINE
8
DEFAULT_255_2_778
10
74.6791778
20
86.3389752
11
74.6489778
21
86.2487752
0
LINE
8
DEFAULT_255_2_778
10
74.6489778
20
86.2487752
11
74.6280778
21
86.1703752
0
LINE
8
DEFAULT_255_2_778
10
74.6280778
20
86.1703752
11
74.6108778
21
86.0912752
0
LINE
8
DEFAULT_255_2_778
10
74.6108778
20
86.0912752
11
74.5973778
21
86.0113752
0
LINE
8
DEFAULT_255_2_778
10
74.5973778
20
86.0113752
11
74.5918778
21
85.9711752
0
LINE
8
DEFAULT_255_2_778
10
74.5918778
20
85.9711752
11
74.5865778
21
85.9256752
0
LINE
8
DEFAULT_255_2_778
10
74.5865778
20
85.9256752
11
74.5820778
21
85.8798752
0
LINE
8
DEFAULT_255_2_778
10
74.5820778
20
85.8798752
11
74.5785778
21
85.8341752
0
LINE
8
DEFAULT_255_2_778
10
74.5785778
20
85.8341752
11
74.5785778
21
85.4914752
0
LINE
8
DEFAULT_255_2_778
10
74.5785778
20
85.4914752
11
74.5817778
21
85.4517752
0
LINE
8
DEFAULT_255_2_778
10
74.5817778
20
85.4517752
11
74.5859778
21
85.4120752
0
LINE
8
DEFAULT_255_2_778
10
74.5859778
20
85.4120752
11
74.5910778
21
85.3726752
0
LINE
8
DEFAULT_255_2_778
10
74.5910778
20
85.3726752
11
74.6021778
21
85.3038752
0
LINE
8
DEFAULT_255_2_778
10
74.6021778
20
85.3038752
11
74.6164778
21
85.2356752
0
LINE
8
DEFAULT_255_2_778
10
74.6164778
20
85.2356752
11
74.6344778
21
85.1684752
0
LINE
8
DEFAULT_255_2_778
10
74.6344778
20
85.1684752
11
74.6632778
21
85.0842752
0
LINE
8
DEFAULT_255_2_778
10
74.6632778
20
85.0842752
11
74.6957778
21
85.0096752
0
LINE
8
DEFAULT_255_2_778
10
74.6957778
20
85.0096752
11
74.7479778
21
84.9178752
0
LINE
8
DEFAULT_255_2_778
10
74.7479778
20
84.9178752
11
74.8220778
21
84.8223752
0
LINE
8
DEFAULT_255_2_778
10
74.8220778
20
84.8223752
11
74.9111778
21
84.7421752
0
LINE
8
DEFAULT_255_2_778
10
74.9111778
20
84.7421752
11
75.0331778
21
84.6720752
0
LINE
8
DEFAULT_255_2_778
10
75.0331778
20
84.6720752
11
75.1741778
21
84.6281752
0
LINE
8
DEFAULT_255_2_778
10
75.1741778
20
84.6281752
11
75.3821778
21
84.6111752
0
LINE
8
DEFAULT_255_2_778
10
75.3821778
20
84.6111752
11
75.5998778
21
84.6389752
0
LINE
8
DEFAULT_255_2_778
10
75.5998778
20
84.6389752
11
75.7422778
21
84.6892752
0
LINE
8
DEFAULT_255_2_778
10
75.7422778
20
84.6892752
11
75.8671778
21
84.7649752
0
LINE
8
DEFAULT_255_2_778
10
75.8671778
20
84.7649752
11
75.9562778
21
84.8464752
0
LINE
8
DEFAULT_255_2_778
10
75.9562778
20
84.8464752
11
76.0155778
21
84.9220752
0
LINE
8
DEFAULT_255_2_778
10
76.0155778
20
84.9220752
11
76.0525778
21
84.9847752
0
LINE
8
DEFAULT_255_2_778
10
76.0525778
20
84.9847752
11
76.0827778
21
85.0527752
0
LINE
8
DEFAULT_255_2_778
10
76.0827778
20
85.0527752
11
76.0988778
21
85.0998752
0
LINE
8
DEFAULT_255_2_778
10
76.0988778
20
85.0998752
11
76.1118778
21
85.1477752
0
LINE
8
DEFAULT_255_2_778
10
76.1118778
20
85.1477752
11
76.1226778
21
85.2017752
0
LINE
8
DEFAULT_255_2_778
10
76.1226778
20
85.2017752
11
76.1205778
21
85.5449752
0
LINE
8
DEFAULT_255_2_778
10
76.1205778
20
85.5449752
11
76.1105778
21
85.5928752
0
LINE
8
DEFAULT_255_2_778
10
76.1105778
20
85.5928752
11
76.0912778
21
85.6597752
0
LINE
8
DEFAULT_255_2_778
10
76.0912778
20
85.6597752
11
76.0658778
21
85.7245752
0
LINE
8
DEFAULT_255_2_778
10
76.0658778
20
85.7245752
11
76.0165778
21
85.8145752
0
LINE
8
DEFAULT_255_2_778
10
76.0165778
20
85.8145752
11
75.9425778
21
85.9084752
0
LINE
8
DEFAULT_255_2_778
10
75.9425778
20
85.9084752
11
75.8507778
21
85.9888752
0
LINE
8
DEFAULT_255_2_778
10
75.8507778
20
85.9888752
11
75.7252778
21
86.0566752
0
LINE
8
DEFAULT_255_2_778
10
75.7252778
20
86.0566752
11
75.5596778
21
86.0989752
0
LINE
8
DEFAULT_255_2_778
10
75.5596778
20
86.0989752
11
75.3617778
21
86.1002752
0
LINE
8
DEFAULT_255_2_778
10
75.3617778
20
86.1002752
11
75.1958778
21
86.0587752
0
LINE
8
DEFAULT_255_2_778
10
75.1958778
20
86.0587752
11
75.0651778
21
85.9878752
0
LINE
8
DEFAULT_255_2_778
10
75.0651778
20
85.9878752
11
74.9471778
21
85.8851752
0
LINE
8
DEFAULT_255_2_778
10
74.9471778
20
85.8851752
11
74.8717778
21
85.7920752
0
LINE
8
DEFAULT_255_2_778
10
74.8717778
20
85.7920752
11
74.8619778
21
85.7766752
0
LINE
8
DEFAULT_255_2_778
10
74.8619778
20
85.7766752
11
74.8648778
21
85.8129752
0
LINE
8
DEFAULT_255_2_778
10
74.8648778
20
85.8129752
11
74.8680778
21
85.8491752
0
LINE
8
DEFAULT_255_2_778
10
74.8680778
20
85.8491752
11
74.8762778
21
85.9214752
0
LINE
8
DEFAULT_255_2_778
10
74.8762778
20
85.9214752
11
74.8868778
21
85.9933752
0
LINE
8
DEFAULT_255_2_778
10
74.8868778
20
85.9933752
11
74.8984778
21
86.0566752
0
LINE
8
DEFAULT_255_2_778
10
74.8984778
20
86.0566752
11
74.9127778
21
86.1193752
0
LINE
8
DEFAULT_255_2_778
10
74.9127778
20
86.1193752
11
74.9370778
21
86.2047752
0
LINE
8
DEFAULT_255_2_778
10
74.9370778
20
86.2047752
11
74.9709778
21
86.2965752
0
LINE
8
DEFAULT_255_2_778
10
74.9709778
20
86.2965752
11
75.0270778
21
86.4077752
0
LINE
8
DEFAULT_255_2_778
10
75.0270778
20
86.4077752
11
75.0937778
21
86.4989752
0
LINE
8
DEFAULT_255_2_778
10
75.0937778
20
86.4989752
11
75.2003778
21
86.5884752
0
LINE
8
DEFAULT_255_2_778
10
75.2003778
20
86.5884752
11
75.3167778
21
86.6363752
0
LINE
8
DEFAULT_255_2_778
10
75.3167778
20
86.6363752
11
75.4847778
21
86.6479752
0
LINE
8
DEFAULT_255_2_778
10
75.4847778
20
86.6479752
11
75.6107778
21
86.6183752
0
LINE
8
DEFAULT_255_2_778
10
75.6107778
20
86.6183752
11
75.7062778
21
86.5558752
0
LINE
8
DEFAULT_255_2_778
10
75.7041778
20
85.7541752
11
75.7625778
21
85.6838752
0
LINE
8
DEFAULT_255_2_778
10
75.7625778
20
85.6838752
11
75.8009778
21
85.6126752
0
LINE
8
DEFAULT_255_2_778
10
75.8009778
20
85.6126752
11
75.8237778
21
85.5475752
0
LINE
8
DEFAULT_255_2_778
10
75.8237778
20
85.5475752
11
75.8353778
21
85.4972752
0
LINE
8
DEFAULT_255_2_778
10
75.8353778
20
85.4972752
11
75.8411778
21
85.4594752
0
LINE
8
DEFAULT_255_2_778
10
75.8411778
20
85.4594752
11
75.8401778
21
85.2626752
0
LINE
8
DEFAULT_255_2_778
10
75.8401778
20
85.2626752
11
75.8332778
21
85.2226752
0
LINE
8
DEFAULT_255_2_778
10
75.8332778
20
85.2226752
11
75.8218778
21
85.1763752
0
LINE
8
DEFAULT_255_2_778
10
75.8218778
20
85.1763752
11
75.8001778
21
85.1165752
0
LINE
8
DEFAULT_255_2_778
10
75.8001778
20
85.1165752
11
75.7549778
21
85.0377752
0
LINE
8
DEFAULT_255_2_778
10
75.7549778
20
85.0377752
11
75.6800778
21
84.9572752
0
LINE
8
DEFAULT_255_2_778
10
75.6800778
20
84.9572752
11
75.5760778
21
84.8956752
0
LINE
8
DEFAULT_255_2_778
10
75.5760778
20
84.8956752
11
75.4125778
21
84.8614752
0
LINE
8
DEFAULT_255_2_778
10
75.4125778
20
84.8614752
11
75.2254778
21
84.8808752
0
LINE
8
DEFAULT_255_2_778
10
75.2254778
20
84.8808752
11
75.1117778
21
84.9329752
0
LINE
8
DEFAULT_255_2_778
10
75.1117778
20
84.9329752
11
75.0201778
21
85.0157752
0
LINE
8
DEFAULT_255_2_778
10
75.0201778
20
85.0157752
11
74.9701778
21
85.0911752
0
LINE
8
DEFAULT_255_2_778
10
74.9701778
20
85.0911752
11
74.9447778
21
85.1483752
0
LINE
8
DEFAULT_255_2_778
10
74.9447778
20
85.1483752
11
74.9267778
21
85.2091752
0
LINE
8
DEFAULT_255_2_778
10
74.9267778
20
85.2091752
11
74.9196778
21
85.2443752
0
LINE
8
DEFAULT_255_2_778
10
74.9196778
20
85.2443752
11
74.9140778
21
85.2840752
0
LINE
8
DEFAULT_255_2_778
10
74.9140778
20
85.2840752
11
74.9159778
21
85.4541752
0
LINE
8
DEFAULT_255_2_778
10
74.9159778
20
85.4541752
11
74.9220778
21
85.4896752
0
LINE
8
DEFAULT_255_2_778
10
74.9220778
20
85.4896752
11
74.9347778
21
85.5385752
0
LINE
8
DEFAULT_255_2_778
10
74.9347778
20
85.5385752
11
74.9585778
21
85.5994752
0
LINE
8
DEFAULT_255_2_778
10
74.9585778
20
85.5994752
11
75.0000778
21
85.6682752
0
LINE
8
DEFAULT_255_2_778
10
75.0000778
20
85.6682752
11
75.0773778
21
85.7481752
0
LINE
8
DEFAULT_255_2_778
10
75.0773778
20
85.7481752
11
75.2014778
21
85.8192752
0
LINE
8
DEFAULT_255_2_778
10
75.2014778
20
85.8192752
11
75.3882778
21
85.8563752
0
LINE
8
DEFAULT_255_2_778
10
75.3882778
20
85.8563752
11
75.5771778
21
85.8327752
0
LINE
8
DEFAULT_255_2_778
10
75.5771778
20
85.8327752
11
75.6824778
21
85.7740752
0
LINE
8
DEFAULT_255_2_778
10
75.6824778
20
85.7740752
11
75.7041778
21
85.7541752
0
LINE
8
DEFAULT_255_2_778
10
75.8835778
20
76.3400752
11
75.7498778
21
76.4175752
0
LINE
8
DEFAULT_255_2_778
10
75.7498778
20
76.4175752
11
75.5662778
21
76.4744752
0
LINE
8
DEFAULT_255_2_778
10
75.5662778
20
76.4744752
11
75.3038778
21
76.4921752
0
LINE
8
DEFAULT_255_2_778
10
75.3038778
20
76.4921752
11
75.0765778
21
76.4577752
0
LINE
8
DEFAULT_255_2_778
10
75.0765778
20
76.4577752
11
74.8971778
21
76.3834752
0
LINE
8
DEFAULT_255_2_778
10
74.8971778
20
76.3834752
11
74.7635778
21
76.2821752
0
LINE
8
DEFAULT_255_2_778
10
74.7635778
20
76.2821752
11
74.6973778
21
76.1977752
0
LINE
8
DEFAULT_255_2_778
10
74.6973778
20
76.1977752
11
74.6637778
21
76.1310752
0
LINE
8
DEFAULT_255_2_778
10
74.6637778
20
76.1310752
11
74.6444778
21
76.0728752
0
LINE
8
DEFAULT_255_2_778
10
74.6444778
20
76.0728752
11
74.6346778
21
76.0265752
0
LINE
8
DEFAULT_255_2_778
10
74.6346778
20
76.0265752
11
74.6349778
21
75.8352752
0
LINE
8
DEFAULT_255_2_778
10
74.6349778
20
75.8352752
11
74.6449778
21
75.7878752
0
LINE
8
DEFAULT_255_2_778
10
74.6449778
20
75.7878752
11
74.6648778
21
75.7288752
0
LINE
8
DEFAULT_255_2_778
10
74.6648778
20
75.7288752
11
74.7077778
21
75.6471752
0
LINE
8
DEFAULT_255_2_778
10
74.7077778
20
75.6471752
11
74.7910778
21
75.5492752
0
LINE
8
DEFAULT_255_2_778
10
74.7910778
20
75.5492752
11
74.9214778
21
75.4560752
0
LINE
8
DEFAULT_255_2_778
10
74.9214778
20
75.4560752
11
75.0244778
21
75.4116752
0
LINE
8
DEFAULT_255_2_778
10
75.0244778
20
75.4116752
11
74.8595778
21
75.3375752
0
LINE
8
DEFAULT_255_2_778
10
74.8595778
20
75.3375752
11
74.7397778
21
75.2454752
0
LINE
8
DEFAULT_255_2_778
10
74.7397778
20
75.2454752
11
74.6685778
21
75.1626752
0
LINE
8
DEFAULT_255_2_778
10
74.6685778
20
75.1626752
11
74.6225778
21
75.0824752
0
LINE
8
DEFAULT_255_2_778
10
74.6225778
20
75.0824752
11
74.6018778
21
75.0308752
0
LINE
8
DEFAULT_255_2_778
10
74.6018778
20
75.0308752
11
74.5904778
21
74.9922752
0
LINE
8
DEFAULT_255_2_778
10
74.5904778
20
74.9922752
11
74.5814778
21
74.9496752
0
LINE
8
DEFAULT_255_2_778
10
74.5814778
20
74.9496752
11
74.5838778
21
74.7133752
0
LINE
8
DEFAULT_255_2_778
10
74.5838778
20
74.7133752
11
74.5936778
21
74.6718752
0
LINE
8
DEFAULT_255_2_778
10
74.5936778
20
74.6718752
11
74.6132778
21
74.6136752
0
LINE
8
DEFAULT_255_2_778
10
74.6132778
20
74.6136752
11
74.6484778
21
74.5416752
0
LINE
8
DEFAULT_255_2_778
10
74.6484778
20
74.5416752
11
74.6947778
21
74.4752752
0
LINE
8
DEFAULT_255_2_778
10
74.6947778
20
74.4752752
11
74.7849778
21
74.3874752
0
LINE
8
DEFAULT_255_2_778
10
74.7849778
20
74.3874752
11
74.9056778
21
74.3099752
0
LINE
8
DEFAULT_255_2_778
10
74.9056778
20
74.3099752
11
75.0760778
21
74.2450752
0
LINE
8
DEFAULT_255_2_778
10
75.0760778
20
74.2450752
11
75.2985778
21
74.2125752
0
LINE
8
DEFAULT_255_2_778
10
75.2985778
20
74.2125752
11
75.5310778
21
74.2233752
0
LINE
8
DEFAULT_255_2_778
10
75.5310778
20
74.2233752
11
75.7041778
21
74.2649752
0
LINE
8
DEFAULT_255_2_778
10
75.7041778
20
74.2649752
11
75.8782778
21
74.3501752
0
LINE
8
DEFAULT_255_2_778
10
75.8782778
20
74.3501752
11
75.9988778
21
74.4511752
0
LINE
8
DEFAULT_255_2_778
10
75.9988778
20
74.4511752
11
76.0599778
21
74.5313752
0
LINE
8
DEFAULT_255_2_778
10
76.0599778
20
74.5313752
11
76.0975778
21
74.6043752
0
LINE
8
DEFAULT_255_2_778
10
76.0975778
20
74.6043752
11
76.1197778
21
74.6676752
0
LINE
8
DEFAULT_255_2_778
10
76.1197778
20
74.6676752
11
76.1316778
21
74.7189752
0
LINE
8
DEFAULT_255_2_778
10
76.1316778
20
74.7189752
11
76.1369778
21
74.7536752
0
LINE
8
DEFAULT_255_2_778
10
76.1369778
20
74.7536752
11
76.1364778
21
74.9285752
0
LINE
8
DEFAULT_255_2_778
10
76.1364778
20
74.9285752
11
76.1306778
21
74.9629752
0
LINE
8
DEFAULT_255_2_778
10
76.1306778
20
74.9629752
11
76.1181778
21
75.0137752
0
LINE
8
DEFAULT_255_2_778
10
76.1181778
20
75.0137752
11
76.0951778
21
75.0758752
0
LINE
8
DEFAULT_255_2_778
10
76.0951778
20
75.0758752
11
76.0554778
21
75.1486752
0
LINE
8
DEFAULT_255_2_778
10
76.0554778
20
75.1486752
11
75.9782778
21
75.2417752
0
LINE
8
DEFAULT_255_2_778
10
75.9782778
20
75.2417752
11
75.8713778
21
75.3261752
0
LINE
8
DEFAULT_255_2_778
10
75.8713778
20
75.3261752
11
75.7104778
21
75.4036752
0
LINE
8
DEFAULT_255_2_778
10
75.7104778
20
75.4036752
11
75.6890778
21
75.4105752
0
LINE
8
DEFAULT_255_2_778
10
75.6890778
20
75.4105752
11
75.8247778
21
75.4743752
0
LINE
8
DEFAULT_255_2_778
10
75.8247778
20
75.4743752
11
75.9311778
21
75.5566752
0
LINE
8
DEFAULT_255_2_778
10
75.9311778
20
75.5566752
11
75.9970778
21
75.6336752
0
LINE
8
DEFAULT_255_2_778
10
75.9970778
20
75.6336752
11
76.0396778
21
75.7082752
0
LINE
8
DEFAULT_255_2_778
10
76.0396778
20
75.7082752
11
76.0639778
21
75.7725752
0
LINE
8
DEFAULT_255_2_778
10
76.0639778
20
75.7725752
11
76.0740778
21
75.8119752
0
LINE
8
DEFAULT_255_2_778
10
76.0740778
20
75.8119752
11
76.0808778
21
75.8519752
0
LINE
8
DEFAULT_255_2_778
10
76.0808778
20
75.8519752
11
76.0785778
21
76.0294752
0
LINE
8
DEFAULT_255_2_778
10
76.0785778
20
76.0294752
11
76.0708778
21
76.0672752
0
LINE
8
DEFAULT_255_2_778
10
76.0708778
20
76.0672752
11
76.0539778
21
76.1215752
0
LINE
8
DEFAULT_255_2_778
10
76.0539778
20
76.1215752
11
76.0226778
21
76.1873752
0
LINE
8
DEFAULT_255_2_778
10
76.0226778
20
76.1873752
11
75.9816778
21
76.2477752
0
LINE
8
DEFAULT_255_2_778
10
75.9816778
20
76.2477752
11
75.8983778
21
76.3294752
0
LINE
8
DEFAULT_255_2_778
10
75.8983778
20
76.3294752
11
75.8835778
21
76.3400752
0
LINE
8
DEFAULT_255_2_778
10
75.6885778
20
75.1957752
11
75.7784778
21
75.1147752
0
LINE
8
DEFAULT_255_2_778
10
75.7784778
20
75.1147752
11
75.8192778
21
75.0488752
0
LINE
8
DEFAULT_255_2_778
10
75.8192778
20
75.0488752
11
75.8374778
21
75.0007752
0
LINE
8
DEFAULT_255_2_778
10
75.8374778
20
75.0007752
11
75.8472778
21
74.9599752
0
LINE
8
DEFAULT_255_2_778
10
75.8472778
20
74.9599752
11
75.8446778
21
74.7771752
0
LINE
8
DEFAULT_255_2_778
10
75.8446778
20
74.7771752
11
75.8295778
21
74.7247752
0
LINE
8
DEFAULT_255_2_778
10
75.8295778
20
74.7247752
11
75.8014778
21
74.6657752
0
LINE
8
DEFAULT_255_2_778
10
75.8014778
20
74.6657752
11
75.7438778
21
74.5938752
0
LINE
8
DEFAULT_255_2_778
10
75.7438778
20
74.5938752
11
75.6345778
21
74.5176752
0
LINE
8
DEFAULT_255_2_778
10
75.6345778
20
74.5176752
11
75.4710778
21
74.4678752
0
LINE
8
DEFAULT_255_2_778
10
75.4710778
20
74.4678752
11
75.2432778
21
74.4678752
0
LINE
8
DEFAULT_255_2_778
10
75.2432778
20
74.4678752
11
75.0807778
21
74.5170752
0
LINE
8
DEFAULT_255_2_778
10
75.0807778
20
74.5170752
11
74.9707778
21
74.5938752
0
LINE
8
DEFAULT_255_2_778
10
74.9707778
20
74.5938752
11
74.9138778
21
74.6657752
0
LINE
8
DEFAULT_255_2_778
10
74.9138778
20
74.6657752
11
74.8860778
21
74.7245752
0
LINE
8
DEFAULT_255_2_778
10
74.8860778
20
74.7245752
11
74.8741778
21
74.7631752
0
LINE
8
DEFAULT_255_2_778
10
74.8741778
20
74.7631752
11
74.8659778
21
74.8049752
0
LINE
8
DEFAULT_255_2_778
10
74.8659778
20
74.8049752
11
74.8683778
21
74.9591752
0
LINE
8
DEFAULT_255_2_778
10
74.8683778
20
74.9591752
11
74.8780778
21
74.9996752
0
LINE
8
DEFAULT_255_2_778
10
74.8780778
20
74.9996752
11
74.9021778
21
75.0592752
0
LINE
8
DEFAULT_255_2_778
10
74.9021778
20
75.0592752
11
74.9455778
21
75.1237752
0
LINE
8
DEFAULT_255_2_778
10
74.9455778
20
75.1237752
11
75.0270778
21
75.1952752
0
LINE
8
DEFAULT_255_2_778
10
75.0270778
20
75.1952752
11
75.1598778
21
75.2565752
0
LINE
8
DEFAULT_255_2_778
10
75.1598778
20
75.2565752
11
75.3760778
21
75.2825752
0
LINE
8
DEFAULT_255_2_778
10
75.3760778
20
75.2825752
11
75.5718778
21
75.2515752
0
LINE
8
DEFAULT_255_2_778
10
75.5718778
20
75.2515752
11
75.6885778
21
75.1957752
0
LINE
8
DEFAULT_255_2_778
10
75.6633778
20
76.1611752
11
75.7374778
21
76.0910752
0
LINE
8
DEFAULT_255_2_778
10
75.7374778
20
76.0910752
11
75.7713778
21
76.0323752
0
LINE
8
DEFAULT_255_2_778
10
75.7713778
20
76.0323752
11
75.7864778
21
75.9886752
0
LINE
8
DEFAULT_255_2_778
10
75.7864778
20
75.9886752
11
75.7938778
21
75.9527752
0
LINE
8
DEFAULT_255_2_778
10
75.7938778
20
75.9527752
11
75.7919778
21
75.8172752
0
LINE
8
DEFAULT_255_2_778
10
75.7919778
20
75.8172752
11
75.7797778
21
75.7704752
0
LINE
8
DEFAULT_255_2_778
10
75.7797778
20
75.7704752
11
75.7506778
21
75.7087752
0
LINE
8
DEFAULT_255_2_778
10
75.7506778
20
75.7087752
11
75.6813778
21
75.6312752
0
LINE
8
DEFAULT_255_2_778
10
75.6813778
20
75.6312752
11
75.5620778
21
75.5650752
0
LINE
8
DEFAULT_255_2_778
10
75.5620778
20
75.5650752
11
75.3403778
21
75.5330752
0
LINE
8
DEFAULT_255_2_778
10
75.3403778
20
75.5330752
11
75.1522778
21
75.5650752
0
LINE
8
DEFAULT_255_2_778
10
75.1522778
20
75.5650752
11
75.0151778
21
75.6465752
0
LINE
8
DEFAULT_255_2_778
10
75.0151778
20
75.6465752
11
74.9577778
21
75.7185752
0
LINE
8
DEFAULT_255_2_778
10
74.9577778
20
75.7185752
11
74.9344778
21
75.7704752
0
LINE
8
DEFAULT_255_2_778
10
74.9344778
20
75.7704752
11
74.9246778
21
75.8053752
0
LINE
8
DEFAULT_255_2_778
10
74.9246778
20
75.8053752
11
74.9185778
21
75.8418752
0
LINE
8
DEFAULT_255_2_778
10
74.9185778
20
75.8418752
11
74.9201778
21
75.9527752
0
LINE
8
DEFAULT_255_2_778
10
74.9201778
20
75.9527752
11
74.9275778
21
75.9886752
0
LINE
8
DEFAULT_255_2_778
10
74.9275778
20
75.9886752
11
74.9474778
21
76.0426752
0
LINE
8
DEFAULT_255_2_778
10
74.9474778
20
76.0426752
11
74.9913778
21
76.1090752
0
LINE
8
DEFAULT_255_2_778
10
74.9913778
20
76.1090752
11
75.0884778
21
76.1844752
0
LINE
8
DEFAULT_255_2_778
10
75.0884778
20
76.1844752
11
75.2405778
21
76.2347752
0
LINE
8
DEFAULT_255_2_778
10
75.2405778
20
76.2347752
11
75.4879778
21
76.2321752
0
LINE
8
DEFAULT_255_2_778
10
75.4879778
20
76.2321752
11
75.6374778
21
76.1776752
0
LINE
8
DEFAULT_255_2_778
10
75.6374778
20
76.1776752
11
75.6633778
21
76.1611752
0
LINE
8
DEFAULT_255_2_778
10
75.6070778
20
118.0603752
11
75.8327778
21
118.0603752
0
LINE
8
DEFAULT_255_2_778
10
75.8327778
20
118.0603752
11
75.8327778
21
116.7567752
0
LINE
8
DEFAULT_255_2_778
10
75.8327778
20
116.7567752
11
76.3142778
21
117.3928752
0
LINE
8
DEFAULT_255_2_778
10
76.3142778
20
117.3928752
11
76.6000778
21
117.3928752
0
LINE
8
DEFAULT_255_2_778
10
76.6000778
20
117.3928752
11
76.0724778
21
116.7456752
0
LINE
8
DEFAULT_255_2_778
10
76.0724778
20
116.7456752
11
76.6859778
21
115.8600752
0
LINE
8
DEFAULT_255_2_778
10
76.6859778
20
115.8600752
11
76.3817778
21
115.8600752
0
LINE
8
DEFAULT_255_2_778
10
76.3817778
20
115.8600752
11
75.8329778
21
116.7035752
0
LINE
8
DEFAULT_255_2_778
10
75.8329778
20
116.7035752
11
75.8329778
21
115.8600752
0
LINE
8
DEFAULT_255_2_778
10
75.8329778
20
115.8600752
11
75.6072778
21
115.8600752
0
LINE
8
DEFAULT_255_2_778
10
75.6072778
20
115.8600752
11
75.6072778
21
118.0600752
0
LINE
8
DEFAULT_255_2_778
10
72.0672785
20
117.7720134
11
72.1788785
21
117.6874134
0
LINE
8
DEFAULT_255_2_778
10
72.1788785
20
117.6874134
11
72.2172785
21
117.6257134
0
LINE
8
DEFAULT_255_2_778
10
72.2172785
20
117.6257134
11
72.2349785
21
117.5731134
0
LINE
8
DEFAULT_255_2_778
10
72.2349785
20
117.5731134
11
72.2415785
21
117.5400134
0
LINE
8
DEFAULT_255_2_778
10
72.2415785
20
117.5400134
11
72.2407785
21
117.3849134
0
LINE
8
DEFAULT_255_2_778
10
72.2407785
20
117.3849134
11
72.2315785
21
117.3437134
0
LINE
8
DEFAULT_255_2_778
10
72.2315785
20
117.3437134
11
72.2124785
21
117.2952134
0
LINE
8
DEFAULT_255_2_778
10
72.2124785
20
117.2952134
11
72.1510785
21
117.2193134
0
LINE
8
DEFAULT_255_2_778
10
72.1510785
20
117.2193134
11
72.0420785
21
117.1579134
0
LINE
8
DEFAULT_255_2_778
10
72.0420785
20
117.1579134
11
71.8428785
21
117.1312134
0
LINE
8
DEFAULT_255_2_778
10
71.8428785
20
117.1312134
11
71.5134785
21
117.1312134
0
LINE
8
DEFAULT_255_2_778
10
71.5134785
20
117.1312134
11
71.5134785
21
117.8109134
0
LINE
8
DEFAULT_255_2_778
10
71.5134785
20
117.8109134
11
72.0071785
21
117.7934134
0
LINE
8
DEFAULT_255_2_778
10
72.0071785
20
117.7934134
11
72.0672785
21
117.7720134
0
LINE
8
DEFAULT_255_2_778
10
77.1834785
20
115.8625134
11
77.3750785
21
115.8160134
0
LINE
8
DEFAULT_255_2_778
10
77.3750785
20
115.8160134
11
77.5419785
21
115.8334134
0
LINE
8
DEFAULT_255_2_778
10
77.5419785
20
115.8334134
11
77.6710785
21
115.8972134
0
LINE
8
DEFAULT_255_2_778
10
77.6710785
20
115.8972134
11
77.7549785
21
115.9821134
0
LINE
8
DEFAULT_255_2_778
10
77.7549785
20
115.9821134
11
77.8052785
21
116.0599134
0
LINE
8
DEFAULT_255_2_778
10
77.8052785
20
116.0599134
11
77.8052785
21
115.8604134
0
LINE
8
DEFAULT_255_2_778
10
77.8052785
20
115.8604134
11
78.0147785
21
115.8604134
0
LINE
8
DEFAULT_255_2_778
10
78.0147785
20
115.8604134
11
78.0147785
21
117.3931134
0
LINE
8
DEFAULT_255_2_778
10
78.0147785
20
117.3931134
11
77.7890785
21
117.3931134
0
LINE
8
DEFAULT_255_2_778
10
77.7890785
20
117.3931134
11
77.7877785
21
116.3793134
0
LINE
8
DEFAULT_255_2_778
10
77.7877785
20
116.3793134
11
77.7848785
21
116.3501134
0
LINE
8
DEFAULT_255_2_778
10
77.7848785
20
116.3501134
11
77.7777785
21
116.3068134
0
LINE
8
DEFAULT_255_2_778
10
77.7777785
20
116.3068134
11
77.7671785
21
116.2642134
0
LINE
8
DEFAULT_255_2_778
10
77.7671785
20
116.2642134
11
77.7338785
21
116.1845134
0
LINE
8
DEFAULT_255_2_778
10
77.7338785
20
116.1845134
11
77.6697785
21
116.1017134
0
LINE
8
DEFAULT_255_2_778
10
77.6697785
20
116.1017134
11
77.5520785
21
116.0385134
0
LINE
8
DEFAULT_255_2_778
10
77.5520785
20
116.0385134
11
77.3485785
21
116.0427134
0
LINE
8
DEFAULT_255_2_778
10
77.3485785
20
116.0427134
11
77.2580785
21
116.0961134
0
LINE
8
DEFAULT_255_2_778
10
77.2580785
20
116.0961134
11
77.2006785
21
116.1787134
0
LINE
8
DEFAULT_255_2_778
10
77.2006785
20
116.1787134
11
77.1763785
21
116.2406134
0
LINE
8
DEFAULT_255_2_778
10
77.1763785
20
116.2406134
11
77.1614785
21
116.2996134
0
LINE
8
DEFAULT_255_2_778
10
77.1614785
20
116.2996134
11
77.1546785
21
116.3443134
0
LINE
8
DEFAULT_255_2_778
10
77.1546785
20
116.3443134
11
77.1496785
21
116.4028134
0
LINE
8
DEFAULT_255_2_778
10
77.1496785
20
116.4028134
11
77.1480785
21
117.3929134
0
LINE
8
DEFAULT_255_2_778
10
77.1480785
20
117.3929134
11
76.9223785
21
117.3929134
0
LINE
8
DEFAULT_255_2_778
10
76.9223785
20
117.3929134
11
76.9241785
21
116.4049134
0
LINE
8
DEFAULT_255_2_778
10
76.9241785
20
116.4049134
11
76.9268785
21
116.3599134
0
LINE
8
DEFAULT_255_2_778
10
76.9268785
20
116.3599134
11
76.9310785
21
116.3152134
0
LINE
8
DEFAULT_255_2_778
10
76.9310785
20
116.3152134
11
76.9368785
21
116.2705134
0
LINE
8
DEFAULT_255_2_778
10
76.9368785
20
116.2705134
11
76.9447785
21
116.2261134
0
LINE
8
DEFAULT_255_2_778
10
76.9447785
20
116.2261134
11
76.9551785
21
116.1821134
0
LINE
8
DEFAULT_255_2_778
10
76.9551785
20
116.1821134
11
76.9863785
21
116.0906134
0
LINE
8
DEFAULT_255_2_778
10
76.9863785
20
116.0906134
11
77.0323785
21
116.0022134
0
LINE
8
DEFAULT_255_2_778
10
77.0323785
20
116.0022134
11
77.1041785
21
115.9162134
0
LINE
8
DEFAULT_255_2_778
10
77.1041785
20
115.9162134
11
77.1840785
21
115.8620134
0
LINE
8
DEFAULT_255_2_778
10
72.1166785
20
116.8333134
11
72.2309785
21
116.7502134
0
LINE
8
DEFAULT_255_2_778
10
72.2309785
20
116.7502134
11
72.2743785
21
116.6859134
0
LINE
8
DEFAULT_255_2_778
10
72.2743785
20
116.6859134
11
72.2952785
21
116.6295134
0
LINE
8
DEFAULT_255_2_778
10
72.2952785
20
116.6295134
11
72.3053785
21
116.5819134
0
LINE
8
DEFAULT_255_2_778
10
72.3053785
20
116.5819134
11
72.3095785
21
116.5454134
0
LINE
8
DEFAULT_255_2_778
10
72.3095785
20
116.5454134
11
72.3082785
21
116.4213134
0
LINE
8
DEFAULT_255_2_778
10
72.3082785
20
116.4213134
11
72.3042785
21
116.3917134
0
LINE
8
DEFAULT_255_2_778
10
72.3042785
20
116.3917134
11
72.2926785
21
116.3382134
0
LINE
8
DEFAULT_255_2_778
10
72.2926785
20
116.3382134
11
72.2712785
21
116.2798134
0
LINE
8
DEFAULT_255_2_778
10
72.2712785
20
116.2798134
11
72.2240785
21
116.2089134
0
LINE
8
DEFAULT_255_2_778
10
72.2240785
20
116.2089134
11
72.1214785
21
116.1419134
0
LINE
8
DEFAULT_255_2_778
10
72.1214785
20
116.1419134
11
71.9113785
21
116.1102134
0
LINE
8
DEFAULT_255_2_778
10
71.9113785
20
116.1102134
11
71.5134785
21
116.1102134
0
LINE
8
DEFAULT_255_2_778
10
71.5134785
20
116.1102134
11
71.5134785
21
116.8756134
0
LINE
8
DEFAULT_255_2_778
10
71.5134785
20
116.8756134
11
72.0330785
21
116.8611134
0
LINE
8
DEFAULT_255_2_778
10
72.0330785
20
116.8611134
11
72.1166785
21
116.8335134
0
LINE
8
DEFAULT_255_2_778
10
72.2280785
20
117.9877134
11
72.0780785
21
118.0398134
0
LINE
8
DEFAULT_255_2_778
10
72.0780785
20
118.0398134
11
71.8425785
21
118.0604134
0
LINE
8
DEFAULT_255_2_778
10
71.8425785
20
118.0604134
11
71.2726785
21
118.0604134
0
LINE
8
DEFAULT_255_2_778
10
71.2726785
20
118.0604134
11
71.2726785
21
115.8604134
0
LINE
8
DEFAULT_255_2_778
10
71.2726785
20
115.8604134
11
72.0896785
21
115.8705134
0
LINE
8
DEFAULT_255_2_778
10
72.0896785
20
115.8705134
11
72.2412785
21
115.9104134
0
LINE
8
DEFAULT_255_2_778
10
72.2412785
20
115.9104134
11
72.3709785
21
115.9893134
0
LINE
8
DEFAULT_255_2_778
10
72.3709785
20
115.9893134
11
72.4487785
21
116.0715134
0
LINE
8
DEFAULT_255_2_778
10
72.4487785
20
116.0715134
11
72.4921785
21
116.1422134
0
LINE
8
DEFAULT_255_2_778
10
72.4921785
20
116.1422134
11
72.5140785
21
116.1940134
0
LINE
8
DEFAULT_255_2_778
10
72.5140785
20
116.1940134
11
72.5304785
21
116.2483134
0
LINE
8
DEFAULT_255_2_778
10
72.5304785
20
116.2483134
11
72.5384785
21
116.2853134
0
LINE
8
DEFAULT_255_2_778
10
72.5384785
20
116.2853134
11
72.5445785
21
116.3229134
0
LINE
8
DEFAULT_255_2_778
10
72.5445785
20
116.3229134
11
72.5487785
21
116.3610134
0
LINE
8
DEFAULT_255_2_778
10
72.5487785
20
116.3610134
11
72.5479785
21
116.5494134
0
LINE
8
DEFAULT_255_2_778
10
72.5479785
20
116.5494134
11
72.5453785
21
116.5724134
0
LINE
8
DEFAULT_255_2_778
10
72.5453785
20
116.5724134
11
72.5381785
21
116.6179134
0
LINE
8
DEFAULT_255_2_778
10
72.5381785
20
116.6179134
11
72.5244785
21
116.6753134
0
LINE
8
DEFAULT_255_2_778
10
72.5244785
20
116.6753134
11
72.5003785
21
116.7433134
0
LINE
8
DEFAULT_255_2_778
10
72.5003785
20
116.7433134
11
72.4588785
21
116.8206134
0
LINE
8
DEFAULT_255_2_778
10
72.4588785
20
116.8206134
11
72.3939785
21
116.8986134
0
LINE
8
DEFAULT_255_2_778
10
72.3939785
20
116.8986134
11
72.3040785
21
116.9666134
0
LINE
8
DEFAULT_255_2_778
10
72.3040785
20
116.9666134
11
72.1770785
21
117.0209134
0
LINE
8
DEFAULT_255_2_778
10
72.1770785
20
117.0209134
11
72.2945785
21
117.0822134
0
LINE
8
DEFAULT_255_2_778
10
72.2945785
20
117.0822134
11
72.3794785
21
117.1659134
0
LINE
8
DEFAULT_255_2_778
10
72.3794785
20
117.1659134
11
72.4286785
21
117.2426134
0
LINE
8
DEFAULT_255_2_778
10
72.4286785
20
117.2426134
11
72.4529785
21
117.2981134
0
LINE
8
DEFAULT_255_2_778
10
72.4529785
20
117.2981134
11
72.4693785
21
117.3521134
0
LINE
8
DEFAULT_255_2_778
10
72.4693785
20
117.3521134
11
72.4770785
21
117.3889134
0
LINE
8
DEFAULT_255_2_778
10
72.4770785
20
117.3889134
11
72.4825785
21
117.4262134
0
LINE
8
DEFAULT_255_2_778
10
72.4825785
20
117.4262134
11
72.4815785
21
117.6209134
0
LINE
8
DEFAULT_255_2_778
10
72.4815785
20
117.6209134
11
72.4736785
21
117.6699134
0
LINE
8
DEFAULT_255_2_778
10
72.4736785
20
117.6699134
11
72.4616785
21
117.7175134
0
LINE
8
DEFAULT_255_2_778
10
72.4616785
20
117.7175134
11
72.4389785
21
117.7784134
0
LINE
8
DEFAULT_255_2_778
10
72.4389785
20
117.7784134
11
72.3995785
21
117.8456134
0
LINE
8
DEFAULT_255_2_778
10
72.3995785
20
117.8456134
11
72.3167785
21
117.9310134
0
LINE
8
DEFAULT_255_2_778
10
72.3167785
20
117.9310134
11
72.2280785
21
117.9879134
0
LINE
8
DEFAULT_255_2_778
10
74.9927785
20
117.3786134
11
74.8771785
21
117.4222134
0
LINE
8
DEFAULT_255_2_778
10
74.8771785
20
117.4222134
11
74.7027785
21
117.4357134
0
LINE
8
DEFAULT_255_2_778
10
74.7027785
20
117.4357134
11
74.5339785
21
117.4011134
0
LINE
8
DEFAULT_255_2_778
10
74.5339785
20
117.4011134
11
74.4174785
21
117.3370134
0
LINE
8
DEFAULT_255_2_778
10
74.4174785
20
117.3370134
11
74.3341785
21
117.2579134
0
LINE
8
DEFAULT_255_2_778
10
74.3341785
20
117.2579134
11
74.2746785
21
117.1746134
0
LINE
8
DEFAULT_255_2_778
10
74.2746785
20
117.1746134
11
74.2333785
21
117.0952134
0
LINE
8
DEFAULT_255_2_778
10
74.2333785
20
117.0952134
11
74.2079785
21
117.0304134
0
LINE
8
DEFAULT_255_2_778
10
74.2079785
20
117.0304134
11
74.1868785
21
116.9590134
0
LINE
8
DEFAULT_255_2_778
10
74.1868785
20
116.9590134
11
74.1756785
21
116.9105134
0
LINE
8
DEFAULT_255_2_778
10
74.1756785
20
116.9105134
11
74.1669785
21
116.8616134
0
LINE
8
DEFAULT_255_2_778
10
74.1669785
20
116.8616134
11
74.1624785
21
116.8296134
0
LINE
8
DEFAULT_255_2_778
10
74.1624785
20
116.8296134
11
74.1629785
21
116.3959134
0
LINE
8
DEFAULT_255_2_778
10
74.1629785
20
116.3959134
11
74.1706785
21
116.3472134
0
LINE
8
DEFAULT_255_2_778
10
74.1706785
20
116.3472134
11
74.1804785
21
116.2991134
0
LINE
8
DEFAULT_255_2_778
10
74.1804785
20
116.2991134
11
74.2000785
21
116.2276134
0
LINE
8
DEFAULT_255_2_778
10
74.2000785
20
116.2276134
11
74.2367785
21
116.1329134
0
LINE
8
DEFAULT_255_2_778
10
74.2367785
20
116.1329134
11
74.2870785
21
116.0422134
0
LINE
8
DEFAULT_255_2_778
10
74.2870785
20
116.0422134
11
74.3627785
21
115.9504134
0
LINE
8
DEFAULT_255_2_778
10
74.3627785
20
115.9504134
11
74.4574785
21
115.8810134
0
LINE
8
DEFAULT_255_2_778
10
74.4574785
20
115.8810134
11
74.6201785
21
115.8268134
0
LINE
8
DEFAULT_255_2_778
10
74.6201785
20
115.8268134
11
74.8485785
21
115.8244134
0
LINE
8
DEFAULT_255_2_778
10
74.8485785
20
115.8244134
11
74.9792785
21
115.8636134
0
LINE
8
DEFAULT_255_2_778
10
74.9792785
20
115.8636134
11
75.0715785
21
115.9263134
0
LINE
8
DEFAULT_255_2_778
10
75.0715785
20
115.9263134
11
75.1443785
21
116.0115134
0
LINE
8
DEFAULT_255_2_778
10
75.1443785
20
116.0115134
11
75.1932785
21
116.0993134
0
LINE
8
DEFAULT_255_2_778
10
75.1932785
20
116.0993134
11
75.2186785
21
116.1652134
0
LINE
8
DEFAULT_255_2_778
10
75.2186785
20
116.1652134
11
75.2329785
21
116.2157134
0
LINE
8
DEFAULT_255_2_778
10
75.2329785
20
116.2157134
11
75.2429785
21
116.2665134
0
LINE
8
DEFAULT_255_2_778
10
75.2429785
20
116.2665134
11
75.2472785
21
116.3001134
0
LINE
8
DEFAULT_255_2_778
10
75.2472785
20
116.3001134
11
75.2496785
21
116.3814134
0
LINE
8
DEFAULT_255_2_778
10
75.2496785
20
116.3814134
11
75.0225785
21
116.3814134
0
LINE
8
DEFAULT_255_2_778
10
75.0225785
20
116.3814134
11
75.0202785
21
116.3250134
0
LINE
8
DEFAULT_255_2_778
10
75.0202785
20
116.3250134
11
75.0146785
21
116.2898134
0
LINE
8
DEFAULT_255_2_778
10
75.0146785
20
116.2898134
11
74.9985785
21
116.2308134
0
LINE
8
DEFAULT_255_2_778
10
74.9985785
20
116.2308134
11
74.9641785
21
116.1573134
0
LINE
8
DEFAULT_255_2_778
10
74.9641785
20
116.1573134
11
74.9035785
21
116.0858134
0
LINE
8
DEFAULT_255_2_778
10
74.9035785
20
116.0858134
11
74.7823785
21
116.0337134
0
LINE
8
DEFAULT_255_2_778
10
74.7823785
20
116.0337134
11
74.6225785
21
116.0427134
0
LINE
8
DEFAULT_255_2_778
10
74.6225785
20
116.0427134
11
74.5183785
21
116.1067134
0
LINE
8
DEFAULT_255_2_778
10
74.5183785
20
116.1067134
11
74.4656785
21
116.1792134
0
LINE
8
DEFAULT_255_2_778
10
74.4656785
20
116.1792134
11
74.4407785
21
116.2356134
0
LINE
8
DEFAULT_255_2_778
10
74.4407785
20
116.2356134
11
74.4227785
21
116.2964134
0
LINE
8
DEFAULT_255_2_778
10
74.4227785
20
116.2964134
11
74.4116785
21
116.3501134
0
LINE
8
DEFAULT_255_2_778
10
74.4116785
20
116.3501134
11
74.4047785
21
116.3959134
0
LINE
8
DEFAULT_255_2_778
10
74.4047785
20
116.3959134
11
74.4047785
21
116.8497134
0
LINE
8
DEFAULT_255_2_778
10
74.4047785
20
116.8497134
11
74.4145785
21
116.9058134
0
LINE
8
DEFAULT_255_2_778
10
74.4145785
20
116.9058134
11
74.4381785
21
116.9952134
0
LINE
8
DEFAULT_255_2_778
10
74.4381785
20
116.9952134
11
74.4743785
21
117.0801134
0
LINE
8
DEFAULT_255_2_778
10
74.4743785
20
117.0801134
11
74.5288785
21
117.1513134
0
LINE
8
DEFAULT_255_2_778
10
74.5288785
20
117.1513134
11
74.6632785
21
117.2180134
0
LINE
8
DEFAULT_255_2_778
10
74.6632785
20
117.2180134
11
74.8186785
21
117.2095134
0
LINE
8
DEFAULT_255_2_778
10
74.8186785
20
117.2095134
11
74.9226785
21
117.1434134
0
LINE
8
DEFAULT_255_2_778
10
74.9226785
20
117.1434134
11
74.9681785
21
117.0783134
0
LINE
8
DEFAULT_255_2_778
10
74.9681785
20
117.0783134
11
74.9911785
21
117.0185134
0
LINE
8
DEFAULT_255_2_778
10
74.9911785
20
117.0185134
11
74.9990785
21
116.9841134
0
LINE
8
DEFAULT_255_2_778
10
74.9990785
20
116.9841134
11
75.0032785
21
116.9566134
0
LINE
8
DEFAULT_255_2_778
10
75.0032785
20
116.9566134
11
75.0059785
21
116.9291134
0
LINE
8
DEFAULT_255_2_778
10
75.0059785
20
116.9291134
11
75.0072785
21
116.9015134
0
LINE
8
DEFAULT_255_2_778
10
75.0072785
20
116.9015134
11
75.2379785
21
116.9015134
0
LINE
8
DEFAULT_255_2_778
10
75.2379785
20
116.9015134
11
75.2358785
21
116.9478134
0
LINE
8
DEFAULT_255_2_778
10
75.2358785
20
116.9478134
11
75.2337785
21
116.9711134
0
LINE
8
DEFAULT_255_2_778
10
75.2337785
20
116.9711134
11
75.2311785
21
116.9944134
0
LINE
8
DEFAULT_255_2_778
10
75.2311785
20
116.9944134
11
75.2236785
21
117.0407134
0
LINE
8
DEFAULT_255_2_778
10
75.2236785
20
117.0407134
11
75.2096785
21
117.0987134
0
LINE
8
DEFAULT_255_2_778
10
75.2096785
20
117.0987134
11
75.1919785
21
117.1497134
0
LINE
8
DEFAULT_255_2_778
10
75.1919785
20
117.1497134
11
75.1610785
21
117.2130134
0
LINE
8
DEFAULT_255_2_778
10
75.1610785
20
117.2130134
11
75.1012785
21
117.2937134
0
LINE
8
DEFAULT_255_2_778
10
75.1012785
20
117.2937134
11
75.0223785
21
117.3606134
0
LINE
8
DEFAULT_255_2_778
10
75.0223785
20
117.3606134
11
74.9927785
21
117.3786134
0
LINE
8
DEFAULT_255_2_778
10
73.5864785
20
117.3849134
11
73.4382785
21
117.4302134
0
LINE
8
DEFAULT_255_2_778
10
73.4382785
20
117.4302134
11
73.2049785
21
117.4259134
0
LINE
8
DEFAULT_255_2_778
10
73.2049785
20
117.4259134
11
73.0620785
21
117.3741134
0
LINE
8
DEFAULT_255_2_778
10
73.0620785
20
117.3741134
11
72.9654785
21
117.2947134
0
LINE
8
DEFAULT_255_2_778
10
72.9654785
20
117.2947134
11
72.9085785
21
117.2156134
0
LINE
8
DEFAULT_255_2_778
10
72.9085785
20
117.2156134
11
72.8797785
21
117.1534134
0
LINE
8
DEFAULT_255_2_778
10
72.8797785
20
117.1534134
11
72.8643785
21
117.1010134
0
LINE
8
DEFAULT_255_2_778
10
72.8643785
20
117.1010134
11
72.8593785
21
117.0740134
0
LINE
8
DEFAULT_255_2_778
10
72.8593785
20
117.0740134
11
72.8564785
21
117.0468134
0
LINE
8
DEFAULT_255_2_778
10
72.8564785
20
117.0468134
11
72.8564785
21
116.9920134
0
LINE
8
DEFAULT_255_2_778
10
72.8564785
20
116.9920134
11
73.0935785
21
116.9920134
0
LINE
8
DEFAULT_255_2_778
10
73.0935785
20
116.9920134
11
73.0953785
21
117.0336134
0
LINE
8
DEFAULT_255_2_778
10
73.0953785
20
117.0336134
11
73.1080785
21
117.0820134
0
LINE
8
DEFAULT_255_2_778
10
73.1080785
20
117.0820134
11
73.1612785
21
117.1656134
0
LINE
8
DEFAULT_255_2_778
10
73.1612785
20
117.1656134
11
73.3038785
21
117.2233134
0
LINE
8
DEFAULT_255_2_778
10
73.3038785
20
117.2233134
11
73.4782785
21
117.1971134
0
LINE
8
DEFAULT_255_2_778
10
73.4782785
20
117.1971134
11
73.5735785
21
117.1124134
0
LINE
8
DEFAULT_255_2_778
10
73.5735785
20
117.1124134
11
73.5978785
21
117.0584134
0
LINE
8
DEFAULT_255_2_778
10
73.5978785
20
117.0584134
11
73.6076785
21
117.0148134
0
LINE
8
DEFAULT_255_2_778
10
73.6076785
20
117.0148134
11
73.6108785
21
116.9881134
0
LINE
8
DEFAULT_255_2_778
10
73.6108785
20
116.9881134
11
73.6126785
21
116.8140134
0
LINE
8
DEFAULT_255_2_778
10
73.6126785
20
116.8140134
11
73.2541785
21
116.8021134
0
LINE
8
DEFAULT_255_2_778
10
73.2541785
20
116.8021134
11
73.0667785
21
116.7446134
0
LINE
8
DEFAULT_255_2_778
10
73.0667785
20
116.7446134
11
72.9392785
21
116.6594134
0
LINE
8
DEFAULT_255_2_778
10
72.9392785
20
116.6594134
11
72.8773785
21
116.5891134
0
LINE
8
DEFAULT_255_2_778
10
72.8773785
20
116.5891134
11
72.8392785
21
116.5219134
0
LINE
8
DEFAULT_255_2_778
10
72.8392785
20
116.5219134
11
72.8175785
21
116.4639134
0
LINE
8
DEFAULT_255_2_778
10
72.8175785
20
116.4639134
11
72.8054785
21
116.4139134
0
LINE
8
DEFAULT_255_2_778
10
72.8054785
20
116.4139134
11
72.8000785
21
116.3800134
0
LINE
8
DEFAULT_255_2_778
10
72.8000785
20
116.3800134
11
72.8024785
21
116.1829134
0
LINE
8
DEFAULT_255_2_778
10
72.8024785
20
116.1829134
11
72.8093785
21
116.1464134
0
LINE
8
DEFAULT_255_2_778
10
72.8093785
20
116.1464134
11
72.8220785
21
116.0993134
0
LINE
8
DEFAULT_255_2_778
10
72.8220785
20
116.0993134
11
72.8461785
21
116.0390134
0
LINE
8
DEFAULT_255_2_778
10
72.8461785
20
116.0390134
11
72.8905785
21
115.9684134
0
LINE
8
DEFAULT_255_2_778
10
72.8905785
20
115.9684134
11
72.9795785
21
115.8866134
0
LINE
8
DEFAULT_255_2_778
10
72.9795785
20
115.8866134
11
73.1043785
21
115.8324134
0
LINE
8
DEFAULT_255_2_778
10
73.1043785
20
115.8324134
11
73.3665785
21
115.8337134
0
LINE
8
DEFAULT_255_2_778
10
73.3665785
20
115.8337134
11
73.5266785
21
115.9345134
0
LINE
8
DEFAULT_255_2_778
10
73.5266785
20
115.9345134
11
73.6102785
21
116.0570134
0
LINE
8
DEFAULT_255_2_778
10
73.6102785
20
116.0570134
11
73.6282785
21
116.0938134
0
LINE
8
DEFAULT_255_2_778
10
73.6282785
20
116.0938134
11
73.6314785
21
116.0559134
0
LINE
8
DEFAULT_255_2_778
10
73.6314785
20
116.0559134
11
73.6343785
21
115.9789134
0
LINE
8
DEFAULT_255_2_778
10
73.6343785
20
115.9789134
11
73.6375785
21
115.9395134
0
LINE
8
DEFAULT_255_2_778
10
73.6375785
20
115.9395134
11
73.6525785
21
115.8731134
0
LINE
8
DEFAULT_255_2_778
10
73.6525785
20
115.8731134
11
73.6581785
21
115.8596134
0
LINE
8
DEFAULT_255_2_778
10
73.6581785
20
115.8596134
11
73.8727785
21
115.8596134
0
LINE
8
DEFAULT_255_2_778
10
73.8727785
20
115.8596134
11
73.8605785
21
115.9149134
0
LINE
8
DEFAULT_255_2_778
10
73.8605785
20
115.9149134
11
73.8541785
21
115.9567134
0
LINE
8
DEFAULT_255_2_778
10
73.8541785
20
115.9567134
11
73.8496785
21
115.9972134
0
LINE
8
DEFAULT_255_2_778
10
73.8496785
20
115.9972134
11
73.8467785
21
116.0379134
0
LINE
8
DEFAULT_255_2_778
10
73.8467785
20
116.0379134
11
73.8449785
21
116.0787134
0
LINE
8
DEFAULT_255_2_778
10
73.8449785
20
116.0787134
11
73.8430785
21
116.1401134
0
LINE
8
DEFAULT_255_2_778
10
73.8430785
20
116.1401134
11
73.8407785
21
116.2480134
0
LINE
8
DEFAULT_255_2_778
10
73.8407785
20
116.2480134
11
73.8385785
21
116.9767134
0
LINE
8
DEFAULT_255_2_778
10
73.8385785
20
116.9767134
11
73.8362785
21
117.0103134
0
LINE
8
DEFAULT_255_2_778
10
73.8362785
20
117.0103134
11
73.8319785
21
117.0436134
0
LINE
8
DEFAULT_255_2_778
10
73.8319785
20
117.0436134
11
73.8258785
21
117.0767134
0
LINE
8
DEFAULT_255_2_778
10
73.8258785
20
117.0767134
11
73.8137785
21
117.1222134
0
LINE
8
DEFAULT_255_2_778
10
73.8137785
20
117.1222134
11
73.7917785
21
117.1786134
0
LINE
8
DEFAULT_255_2_778
10
73.7917785
20
117.1786134
11
73.7452785
21
117.2548134
0
LINE
8
DEFAULT_255_2_778
10
73.7452785
20
117.2548134
11
73.6499785
21
117.3463134
0
LINE
8
DEFAULT_255_2_778
10
73.6499785
20
117.3463134
11
73.5864785
21
117.3849134
0
LINE
8
DEFAULT_255_2_778
10
73.1538785
20
116.0504134
11
73.0633785
21
116.1268134
0
LINE
8
DEFAULT_255_2_778
10
73.0633785
20
116.1268134
11
73.0392785
21
116.1742134
0
LINE
8
DEFAULT_255_2_778
10
73.0392785
20
116.1742134
11
73.0289785
21
116.2128134
0
LINE
8
DEFAULT_255_2_778
10
73.0289785
20
116.2128134
11
73.0308785
21
116.3769134
0
LINE
8
DEFAULT_255_2_778
10
73.0308785
20
116.3769134
11
73.0469785
21
116.4314134
0
LINE
8
DEFAULT_255_2_778
10
73.0469785
20
116.4314134
11
73.1123785
21
116.5211134
0
LINE
8
DEFAULT_255_2_778
10
73.1123785
20
116.5211134
11
73.2718785
21
116.5949134
0
LINE
8
DEFAULT_255_2_778
10
73.2718785
20
116.5949134
11
73.3951785
21
116.6055134
0
LINE
8
DEFAULT_255_2_778
10
73.3951785
20
116.6055134
11
73.6123785
21
116.6055134
0
LINE
8
DEFAULT_255_2_778
10
73.6123785
20
116.6055134
11
73.6105785
21
116.4136134
0
LINE
8
DEFAULT_255_2_778
10
73.6105785
20
116.4136134
11
73.6081785
21
116.3832134
0
LINE
8
DEFAULT_255_2_778
10
73.6081785
20
116.3832134
11
73.6046785
21
116.3528134
0
LINE
8
DEFAULT_255_2_778
10
73.6046785
20
116.3528134
11
73.5970785
21
116.3075134
0
LINE
8
DEFAULT_255_2_778
10
73.5970785
20
116.3075134
11
73.5856785
21
116.2628134
0
LINE
8
DEFAULT_255_2_778
10
73.5856785
20
116.2628134
11
73.5464785
21
116.1721134
0
LINE
8
DEFAULT_255_2_778
10
73.5464785
20
116.1721134
11
73.4798785
21
116.0911134
0
LINE
8
DEFAULT_255_2_778
10
73.4798785
20
116.0911134
11
73.3324785
21
116.0321134
0
LINE
8
DEFAULT_255_2_778
10
73.3324785
20
116.0321134
11
73.1617785
21
116.0464134
0
LINE
8
DEFAULT_255_2_778
10
73.1617785
20
116.0464134
11
73.1538785
21
116.0504134
0
LINE
8
DEFAULT_255_2_778
10
79.0932785
20
117.1979134
11
79.1741785
21
117.1330134
0
LINE
8
DEFAULT_255_2_778
10
79.1741785
20
117.1330134
11
79.2292785
21
117.0476134
0
LINE
8
DEFAULT_255_2_778
10
79.2292785
20
117.0476134
11
79.2593785
21
116.9724134
0
LINE
8
DEFAULT_255_2_778
10
79.2593785
20
116.9724134
11
79.2781785
21
116.9044134
0
LINE
8
DEFAULT_255_2_778
10
79.2781785
20
116.9044134
11
79.2892785
21
116.8470134
0
LINE
8
DEFAULT_255_2_778
10
79.2892785
20
116.8470134
11
79.2969785
21
116.7891134
0
LINE
8
DEFAULT_255_2_778
10
79.2969785
20
116.7891134
11
79.2948785
21
116.4570134
0
LINE
8
DEFAULT_255_2_778
10
79.2948785
20
116.4570134
11
79.2860785
21
116.3983134
0
LINE
8
DEFAULT_255_2_778
10
79.2860785
20
116.3983134
11
79.2739785
21
116.3404134
0
LINE
8
DEFAULT_255_2_778
10
79.2739785
20
116.3404134
11
79.2543785
21
116.2737134
0
LINE
8
DEFAULT_255_2_778
10
79.2543785
20
116.2737134
11
79.2181785
21
116.1895134
0
LINE
8
DEFAULT_255_2_778
10
79.2181785
20
116.1895134
11
79.1590785
21
116.1067134
0
LINE
8
DEFAULT_255_2_778
10
79.1590785
20
116.1067134
11
79.0654785
21
116.0438134
0
LINE
8
DEFAULT_255_2_778
10
79.0654785
20
116.0438134
11
78.9011785
21
116.0324134
0
LINE
8
DEFAULT_255_2_778
10
78.9011785
20
116.0324134
11
78.7738785
21
116.0927134
0
LINE
8
DEFAULT_255_2_778
10
78.7738785
20
116.0927134
11
78.7188785
21
116.1567134
0
LINE
8
DEFAULT_255_2_778
10
78.7188785
20
116.1567134
11
78.6759785
21
116.2459134
0
LINE
8
DEFAULT_255_2_778
10
78.6759785
20
116.2459134
11
78.6550785
21
116.3142134
0
LINE
8
DEFAULT_255_2_778
10
78.6550785
20
116.3142134
11
78.6413785
21
116.3766134
0
LINE
8
DEFAULT_255_2_778
10
78.6413785
20
116.3766134
11
78.6346785
21
116.4184134
0
LINE
8
DEFAULT_255_2_778
10
78.6346785
20
116.4184134
11
78.6296785
21
116.4602134
0
LINE
8
DEFAULT_255_2_778
10
78.6296785
20
116.4602134
11
78.6304785
21
116.7835134
0
LINE
8
DEFAULT_255_2_778
10
78.6304785
20
116.7835134
11
78.6352785
21
116.8224134
0
LINE
8
DEFAULT_255_2_778
10
78.6352785
20
116.8224134
11
78.6450785
21
116.8801134
0
LINE
8
DEFAULT_255_2_778
10
78.6450785
20
116.8801134
11
78.6624785
21
116.9513134
0
LINE
8
DEFAULT_255_2_778
10
78.6624785
20
116.9513134
11
78.6849785
21
117.0158134
0
LINE
8
DEFAULT_255_2_778
10
78.6849785
20
117.0158134
11
78.7289785
21
117.1000134
0
LINE
8
DEFAULT_255_2_778
10
78.7289785
20
117.1000134
11
78.8069785
21
117.1812134
0
LINE
8
DEFAULT_255_2_778
10
78.8069785
20
117.1812134
11
78.9320785
21
117.2264134
0
LINE
8
DEFAULT_255_2_778
10
78.9320785
20
117.2264134
11
79.0757785
21
117.2066134
0
LINE
8
DEFAULT_255_2_778
10
79.0757785
20
117.2066134
11
79.0932785
21
117.1979134
0
LINE
8
DEFAULT_255_2_778
10
79.2453785
20
117.3783134
11
79.0813785
21
117.4331134
0
LINE
8
DEFAULT_255_2_778
10
79.0813785
20
117.4331134
11
78.8791785
21
117.4169134
0
LINE
8
DEFAULT_255_2_778
10
78.8791785
20
117.4169134
11
78.7410785
21
117.3413134
0
LINE
8
DEFAULT_255_2_778
10
78.7410785
20
117.3413134
11
78.6468785
21
117.2328134
0
LINE
8
DEFAULT_255_2_778
10
78.6468785
20
117.2328134
11
78.6222785
21
117.1936134
0
LINE
8
DEFAULT_255_2_778
10
78.6222785
20
117.1936134
11
78.6222785
21
117.3931134
0
LINE
8
DEFAULT_255_2_778
10
78.6222785
20
117.3931134
11
78.3965785
21
117.3931134
0
LINE
8
DEFAULT_255_2_778
10
78.3965785
20
117.3931134
11
78.3965785
21
115.2884134
0
LINE
8
DEFAULT_255_2_778
10
78.3965785
20
115.2884134
11
78.6222785
21
115.2884134
0
LINE
8
DEFAULT_255_2_778
10
78.6222785
20
115.2884134
11
78.6222785
21
116.0369134
0
LINE
8
DEFAULT_255_2_778
10
78.6222785
20
116.0369134
11
78.6775785
21
115.9625134
0
LINE
8
DEFAULT_255_2_778
10
78.6775785
20
115.9625134
11
78.7587785
21
115.8911134
0
LINE
8
DEFAULT_255_2_778
10
78.7587785
20
115.8911134
11
78.8569785
21
115.8411134
0
LINE
8
DEFAULT_255_2_778
10
78.8569785
20
115.8411134
11
78.9884785
21
115.8173134
0
LINE
8
DEFAULT_255_2_778
10
78.9884785
20
115.8173134
11
79.1371785
21
115.8334134
0
LINE
8
DEFAULT_255_2_778
10
79.1371785
20
115.8334134
11
79.2519785
21
115.8850134
0
LINE
8
DEFAULT_255_2_778
10
79.2519785
20
115.8850134
11
79.3223785
21
115.9422134
0
LINE
8
DEFAULT_255_2_778
10
79.3223785
20
115.9422134
11
79.3839785
21
116.0178134
0
LINE
8
DEFAULT_255_2_778
10
79.3839785
20
116.0178134
11
79.4260785
21
116.0898134
0
LINE
8
DEFAULT_255_2_778
10
79.4260785
20
116.0898134
11
79.4562785
21
116.1570134
0
LINE
8
DEFAULT_255_2_778
10
79.4562785
20
116.1570134
11
79.4802785
21
116.2266134
0
LINE
8
DEFAULT_255_2_778
10
79.4802785
20
116.2266134
11
79.4969785
21
116.2888134
0
LINE
8
DEFAULT_255_2_778
10
79.4969785
20
116.2888134
11
79.5099785
21
116.3520134
0
LINE
8
DEFAULT_255_2_778
10
79.5099785
20
116.3520134
11
79.5197785
21
116.4158134
0
LINE
8
DEFAULT_255_2_778
10
79.5197785
20
116.4158134
11
79.5239785
21
116.4523134
0
LINE
8
DEFAULT_255_2_778
10
79.5239785
20
116.4523134
11
79.5273785
21
116.4888134
0
LINE
8
DEFAULT_255_2_778
10
79.5273785
20
116.4888134
11
79.5273785
21
116.7796134
0
LINE
8
DEFAULT_255_2_778
10
79.5273785
20
116.7796134
11
79.5242785
21
116.8155134
0
LINE
8
DEFAULT_255_2_778
10
79.5242785
20
116.8155134
11
79.5199785
21
116.8513134
0
LINE
8
DEFAULT_255_2_778
10
79.5199785
20
116.8513134
11
79.5104785
21
116.9137134
0
LINE
8
DEFAULT_255_2_778
10
79.5104785
20
116.9137134
11
79.4977785
21
116.9756134
0
LINE
8
DEFAULT_255_2_778
10
79.4977785
20
116.9756134
11
79.4813785
21
117.0367134
0
LINE
8
DEFAULT_255_2_778
10
79.4813785
20
117.0367134
11
79.4578785
21
117.1050134
0
LINE
8
DEFAULT_255_2_778
10
79.4578785
20
117.1050134
11
79.4281785
21
117.1709134
0
LINE
8
DEFAULT_255_2_778
10
79.4281785
20
117.1709134
11
79.3601785
21
117.2780134
0
LINE
8
DEFAULT_255_2_778
10
79.3601785
20
117.2780134
11
79.2559785
21
117.3722134
0
LINE
8
DEFAULT_255_2_778
10
79.2559785
20
117.3722134
11
79.2453785
21
117.3783134
0
LINE
8
DEFAULT_255_2_778
10
57.7201785
20
121.0211134
11
57.7797785
21
121.0806134
0
LINE
8
DEFAULT_255_2_778
10
52.4057785
20
122.0498134
11
51.5421785
21
122.0498134
0
LINE
8
DEFAULT_255_2_778
10
51.5421785
20
122.0498134
11
51.5421785
21
119.6506134
0
LINE
8
DEFAULT_255_2_778
10
51.5421785
20
119.6506134
11
52.0221785
21
119.6506134
0
LINE
8
DEFAULT_255_2_778
10
52.0221785
20
119.6506134
11
52.0221785
21
121.1859134
0
LINE
8
DEFAULT_255_2_778
10
52.0221785
20
121.1859134
11
52.6938785
21
119.6265134
0
LINE
8
DEFAULT_255_2_778
10
52.6938785
20
119.6265134
11
53.1256785
21
119.6265134
0
LINE
8
DEFAULT_255_2_778
10
53.1256785
20
119.6265134
11
53.7974785
21
121.2100134
0
LINE
8
DEFAULT_255_2_778
10
53.7974785
20
121.2100134
11
53.7974785
21
119.6506134
0
LINE
8
DEFAULT_255_2_778
10
53.7974785
20
119.6506134
11
54.4933785
21
119.6506134
0
LINE
8
DEFAULT_255_2_778
10
54.4933785
20
119.6506134
11
54.4933785
21
122.0498134
0
LINE
8
DEFAULT_255_2_778
10
54.4933785
20
122.0498134
11
53.6297785
21
122.0498134
0
LINE
8
DEFAULT_255_2_778
10
53.6297785
20
122.0498134
11
53.0299785
21
120.5864134
0
LINE
8
DEFAULT_255_2_778
10
53.0299785
20
120.5864134
11
52.4060785
21
122.0498134
0
ARC
8
DEFAULT_255_2_778
10
46.550346
20
121.9874769
40
2.3986685
50
271.0932301
51
280.9903969
0
ARC
8
DEFAULT_255_2_778
10
46.5502317
20
121.9907882
40
2.4019815
50
270.0003253
51
271.094449
0
ARC
8
DEFAULT_255_2_778
10
46.5503809
20
121.9929495
40
2.4041427
50
252.6173498
51
269.9967697
0
ARC
8
DEFAULT_255_2_778
10
46.4607725
20
121.6966384
40
1.6430504
50
247.5050814
51
270.0014959
0
ARC
8
DEFAULT_255_2_778
10
46.4608155
20
121.6970026
40
1.6434146
50
269.9999939
51
271.9292983
0
ARC
8
DEFAULT_255_2_778
10
46.4608079
20
121.6971183
40
1.6435305
50
271.9294297
51
280.7632391
0
ARC
8
DEFAULT_255_2_778
10
46.6919125
20
120.6414658
40
0.5640835
50
277.7253185
51
295.6105845
0
ARC
8
DEFAULT_255_2_778
10
46.8356067
20
120.2723617
40
0.1717654
50
305.6589239
51
359.98432
0
ARC
8
DEFAULT_255_2_778
10
46.8354741
20
120.272304
40
0.1718981
50
0.0035521
51
8.5495839
0
ARC
8
DEFAULT_255_2_778
10
46.8277455
20
120.2711299
40
0.1797152
50
8.5534361
51
9.0188554
0
ARC
8
DEFAULT_255_2_778
10
46.8354862
20
120.2726371
40
0.1718342
50
8.9271109
51
72.2617004
0
ARC
8
DEFAULT_255_2_778
10
46.741066
20
121.7007621
40
1.0922064
50
227.2831052
51
242.7007608
0
ARC
8
DEFAULT_255_2_778
10
46.4372673
20
121.346405
40
0.6260013
50
194.8372739
51
225.710287
0
ARC
8
DEFAULT_255_2_778
10
46.4691164
20
121.3662165
40
0.6619528
50
180.3439195
51
195.7890107
0
ARC
8
DEFAULT_255_2_778
10
46.4699516
20
121.3661983
40
0.6627879
50
180.0029238
51
180.3419141
0
ARC
8
DEFAULT_255_2_778
10
46.466681
20
121.3662267
40
0.6595171
50
164.1817793
51
180.0054045
0
ARC
8
DEFAULT_255_2_778
10
46.3837484
20
121.4199456
40
0.5658297
50
142.8182823
51
167.1275445
0
ARC
8
DEFAULT_255_2_778
10
46.5560866
20
121.2674564
40
0.7954807
50
121.1972413
51
141.5692487
0
ARC
8
DEFAULT_255_2_778
10
46.7495914
20
120.9157475
40
1.1966774
50
90.036169
51
120.3996289
0
ARC
8
DEFAULT_255_2_778
10
46.7488422
20
120.9242808
40
1.1881437
50
86.1925672
51
90.0003012
0
ARC
8
DEFAULT_255_2_778
10
46.6128979
20
117.5313843
40
4.5834556
50
78.6945114
51
87.3133818
0
ARC
8
DEFAULT_255_2_778
10
46.7202293
20
119.3379205
40
2.3455568
50
70.286156
51
82.961651
0
ARC
8
DEFAULT_255_2_778
10
46.8922489
20
120.5616843
40
1.110131
50
84.0337442
51
89.0479125
0
ARC
8
DEFAULT_255_2_778
10
46.8922736
20
120.5627318
40
1.1090831
50
89.0482887
51
90.0005676
0
ARC
8
DEFAULT_255_2_778
10
46.8921973
20
120.5638379
40
1.1079771
50
89.9966237
51
103.3886779
0
ARC
8
DEFAULT_255_2_778
10
46.6820338
20
121.439159
40
0.2077887
50
102.9017069
51
149.1530399
0
ARC
8
DEFAULT_255_2_778
10
46.642158
20
121.4798473
40
0.1533766
50
154.572672
51
177.549449
0
ARC
8
DEFAULT_255_2_778
10
46.6421947
20
121.479848
40
0.1534131
50
177.5503042
51
180.0008838
0
ARC
8
DEFAULT_255_2_778
10
46.6419731
20
121.4797717
40
0.1531915
50
179.9723464
51
221.7812088
0
ARC
8
DEFAULT_255_2_778
10
46.8490361
20
121.6745871
40
0.4374616
50
222.738562
51
239.0018664
0
ARC
8
DEFAULT_255_2_778
10
47.3067796
20
122.486005
40
1.3689765
50
240.0699309
51
251.3384767
0
ARC
8
DEFAULT_255_2_778
10
45.5875365
20
117.9839127
40
3.4516774
50
59.8856259
51
68.2114333
0
ARC
8
DEFAULT_255_2_778
10
46.9337071
20
120.3156162
40
0.7593024
50
25.9353318
51
59.4775174
0
ARC
8
DEFAULT_255_2_778
10
46.9709232
20
120.3547605
40
0.7089671
50
0.0082345
51
24.4056861
0
LINE
8
DEFAULT_255_2_778
10
47.6798903
20
120.3548624
11
47.6798903
21
120.3546541
0
ARC
8
DEFAULT_255_2_778
10
46.9696531
20
120.3546328
40
0.7102373
50
335.4024261
51
0.0017211
0
ARC
8
DEFAULT_255_2_778
10
46.9661804
20
120.3826748
40
0.7254659
50
315.9206977
51
333.5025129
0
ARC
8
DEFAULT_255_2_778
10
46.779516
20
120.6685773
40
1.0611421
50
282.4032196
51
311.8389259
0
LINE
8
DEFAULT_255_2_778
10
45.8321389
20
119.698602
11
45.8321389
21
120.178602
0
LINE
8
DEFAULT_255_2_778
10
46.8878389
20
120.436302
11
46.5999389
21
120.562202
0
LINE
8
DEFAULT_255_2_778
10
46.5999389
20
120.562202
11
46.2401389
21
120.730202
0
LINE
8
DEFAULT_255_2_778
10
47.5114389
20
122.025902
11
47.5114389
21
121.546002
0
ARC
8
DEFAULT_255_2_778
10
60.477746
20
121.9874769
40
2.3986685
50
271.0932301
51
280.9903969
0
ARC
8
DEFAULT_255_2_778
10
60.4776317
20
121.9907882
40
2.4019815
50
270.0003253
51
271.094449
0
ARC
8
DEFAULT_255_2_778
10
60.4777809
20
121.9929495
40
2.4041427
50
252.6173498
51
269.9967697
0
ARC
8
DEFAULT_255_2_778
10
60.3881725
20
121.6966384
40
1.6430504
50
247.5050814
51
270.0014959
0
ARC
8
DEFAULT_255_2_778
10
60.3882155
20
121.6970026
40
1.6434146
50
269.9999939
51
271.9292983
0
ARC
8
DEFAULT_255_2_778
10
60.3882079
20
121.6971183
40
1.6435305
50
271.9294297
51
280.7632391
0
ARC
8
DEFAULT_255_2_778
10
60.6193125
20
120.6414658
40
0.5640835
50
277.7253185
51
295.6105845
0
ARC
8
DEFAULT_255_2_778
10
60.7630067
20
120.2723617
40
0.1717654
50
305.6589239
51
359.98432
0
ARC
8
DEFAULT_255_2_778
10
60.7628741
20
120.272304
40
0.1718981
50
0.0035521
51
8.5495839
0
ARC
8
DEFAULT_255_2_778
10
60.7551455
20
120.2711299
40
0.1797152
50
8.5534361
51
9.0188554
0
ARC
8
DEFAULT_255_2_778
10
60.7628862
20
120.2726371
40
0.1718342
50
8.9271109
51
72.2617004
0
ARC
8
DEFAULT_255_2_778
10
60.668466
20
121.7007621
40
1.0922064
50
227.2831052
51
242.7007608
0
ARC
8
DEFAULT_255_2_778
10
60.3646673
20
121.346405
40
0.6260013
50
194.8372739
51
225.710287
0
ARC
8
DEFAULT_255_2_778
10
60.3965164
20
121.3662165
40
0.6619528
50
180.3439195
51
195.7890107
0
ARC
8
DEFAULT_255_2_778
10
60.3973516
20
121.3661983
40
0.6627879
50
180.0029238
51
180.3419141
0
ARC
8
DEFAULT_255_2_778
10
60.394081
20
121.3662267
40
0.6595171
50
164.1817793
51
180.0054045
0
ARC
8
DEFAULT_255_2_778
10
60.3111484
20
121.4199456
40
0.5658297
50
142.8182823
51
167.1275445
0
ARC
8
DEFAULT_255_2_778
10
60.4834866
20
121.2674564
40
0.7954807
50
121.1972413
51
141.5692487
0
ARC
8
DEFAULT_255_2_778
10
60.6769914
20
120.9157475
40
1.1966774
50
90.036169
51
120.3996289
0
ARC
8
DEFAULT_255_2_778
10
60.6762422
20
120.9242808
40
1.1881437
50
86.1925672
51
90.0003012
0
ARC
8
DEFAULT_255_2_778
10
60.5404946
20
117.5329872
40
4.5818452
50
78.6929939
51
87.3148994
0
ARC
8
DEFAULT_255_2_778
10
60.6476293
20
119.3379205
40
2.3455568
50
70.286156
51
82.961651
0
ARC
8
DEFAULT_255_2_778
10
60.8196489
20
120.5616843
40
1.110131
50
84.0337442
51
89.0479125
0
ARC
8
DEFAULT_255_2_778
10
60.8196736
20
120.5627318
40
1.1090831
50
89.0482887
51
90.0005676
0
ARC
8
DEFAULT_255_2_778
10
60.8195973
20
120.5638379
40
1.1079771
50
89.9966237
51
103.3886779
0
ARC
8
DEFAULT_255_2_778
10
60.6094338
20
121.439159
40
0.2077887
50
102.9017069
51
149.1530399
0
ARC
8
DEFAULT_255_2_778
10
60.569558
20
121.4798473
40
0.1533766
50
154.572672
51
177.549449
0
ARC
8
DEFAULT_255_2_778
10
60.5695947
20
121.479848
40
0.1534131
50
177.5503042
51
180.0008838
0
ARC
8
DEFAULT_255_2_778
10
60.5693731
20
121.4797717
40
0.1531915
50
179.9723464
51
221.7812088
0
ARC
8
DEFAULT_255_2_778
10
60.7764361
20
121.6745871
40
0.4374616
50
222.738562
51
239.0018664
0
ARC
8
DEFAULT_255_2_778
10
61.2341796
20
122.486005
40
1.3689765
50
240.0699309
51
251.3384767
0
ARC
8
DEFAULT_255_2_778
10
59.5149365
20
117.9839127
40
3.4516774
50
59.8856259
51
68.2114333
0
ARC
8
DEFAULT_255_2_778
10
60.86063
20
120.3151756
40
0.7599243
50
25.9494704
51
59.463397
0
ARC
8
DEFAULT_255_2_778
10
60.8983232
20
120.3547605
40
0.7089671
50
0.0082345
51
24.4056861
0
LINE
8
DEFAULT_255_2_778
10
61.6072903
20
120.3548624
11
61.6072903
21
120.3546541
0
ARC
8
DEFAULT_255_2_778
10
60.8970531
20
120.3546328
40
0.7102373
50
335.4024261
51
0.0017211
0
ARC
8
DEFAULT_255_2_778
10
60.8935804
20
120.3826748
40
0.7254659
50
315.9206977
51
333.5025129
0
ARC
8
DEFAULT_255_2_778
10
60.706916
20
120.6685773
40
1.0611421
50
282.4032196
51
311.8389259
0
LINE
8
DEFAULT_255_2_778
10
59.7595389
20
119.698602
11
59.7595389
21
120.178602
0
LINE
8
DEFAULT_255_2_778
10
60.8152389
20
120.436302
11
60.5273389
21
120.562202
0
LINE
8
DEFAULT_255_2_778
10
60.5273389
20
120.562202
11
60.1675389
21
120.730202
0
LINE
8
DEFAULT_255_2_778
10
61.4388389
20
122.025902
11
61.4388389
21
121.546002
0
LINE
8
DEFAULT_255_2_778
10
49.3347844
20
122.0500208
11
51.1100844
21
122.0500208
0
LINE
8
DEFAULT_255_2_778
10
51.1100844
20
122.0500208
11
51.1100844
21
121.6060208
0
LINE
8
DEFAULT_255_2_778
10
51.1100844
20
121.6060208
11
50.0303844
21
121.6060208
0
LINE
8
DEFAULT_255_2_778
10
50.0303844
20
121.6060208
11
50.0303844
21
121.0663208
0
LINE
8
DEFAULT_255_2_778
10
50.0303844
20
121.0663208
11
50.9658844
21
121.0663208
0
LINE
8
DEFAULT_255_2_778
10
50.9658844
20
121.0663208
11
50.9658844
21
120.6705208
0
LINE
8
DEFAULT_255_2_778
10
50.9658844
20
120.6705208
11
50.0303844
21
120.6705208
0
LINE
8
DEFAULT_255_2_778
10
50.0303844
20
120.6705208
11
50.0303844
21
120.1066208
0
LINE
8
DEFAULT_255_2_778
10
50.0303844
20
120.1066208
11
51.1338844
21
120.1066208
0
LINE
8
DEFAULT_255_2_778
10
51.1338844
20
120.1066208
11
51.1338844
21
119.6508208
0
LINE
8
DEFAULT_255_2_778
10
51.1338844
20
119.6508208
11
49.3344844
21
119.6508208
0
LINE
8
DEFAULT_255_2_778
10
49.3344844
20
119.6508208
11
49.3344844
21
122.0500208
0
LINE
8
DEFAULT_255_2_778
10
48.0631762
20
122.0500208
11
48.7828762
21
122.0500208
0
LINE
8
DEFAULT_255_2_778
10
48.7828762
20
122.0500208
11
48.7828762
21
119.6508208
0
LINE
8
DEFAULT_255_2_778
10
48.7828762
20
119.6508208
11
48.0631762
21
119.6508208
0
LINE
8
DEFAULT_255_2_778
10
48.0631762
20
119.6508208
11
48.0631762
21
122.0500208
0
LINE
8
DEFAULT_255_2_778
10
58.0199762
20
122.0500208
11
57.2401762
21
122.0500208
0
LINE
8
DEFAULT_255_2_778
10
57.2401762
20
122.0500208
11
57.2401762
21
119.6508208
0
LINE
8
DEFAULT_255_2_778
10
57.2401762
20
119.6508208
11
57.7201762
21
119.6508208
0
LINE
8
DEFAULT_255_2_778
10
57.7201762
20
119.6508208
11
57.7201762
21
121.1861208
0
LINE
8
DEFAULT_255_2_778
10
57.7201762
20
121.1861208
11
58.5837762
21
119.6508208
0
LINE
8
DEFAULT_255_2_778
10
58.5837762
20
119.6508208
11
59.3515762
21
119.6508208
0
LINE
8
DEFAULT_255_2_778
10
59.3515762
20
119.6508208
11
59.3515762
21
122.0500208
0
LINE
8
DEFAULT_255_2_778
10
59.3515762
20
122.0500208
11
58.8716762
21
122.0500208
0
LINE
8
DEFAULT_255_2_778
10
58.8716762
20
122.0500208
11
58.8716762
21
120.5625208
0
LINE
8
DEFAULT_255_2_778
10
58.8716762
20
120.5625208
11
58.0199762
21
122.0500208
0
LINE
8
DEFAULT_255_2_778
10
55.0449844
20
122.0500208
11
56.8202844
21
122.0500208
0
LINE
8
DEFAULT_255_2_778
10
56.8202844
20
122.0500208
11
56.8202844
21
121.6060208
0
LINE
8
DEFAULT_255_2_778
10
56.8202844
20
121.6060208
11
55.7405844
21
121.6060208
0
LINE
8
DEFAULT_255_2_778
10
55.7405844
20
121.6060208
11
55.7405844
21
121.0663208
0
LINE
8
DEFAULT_255_2_778
10
55.7405844
20
121.0663208
11
56.6760844
21
121.0663208
0
LINE
8
DEFAULT_255_2_778
10
56.6760844
20
121.0663208
11
56.6760844
21
120.6705208
0
LINE
8
DEFAULT_255_2_778
10
56.6760844
20
120.6705208
11
55.7405844
21
120.6705208
0
LINE
8
DEFAULT_255_2_778
10
55.7405844
20
120.6705208
11
55.7405844
21
120.1066208
0
LINE
8
DEFAULT_255_2_778
10
55.7405844
20
120.1066208
11
56.8440844
21
120.1066208
0
LINE
8
DEFAULT_255_2_778
10
56.8440844
20
120.1066208
11
56.8440844
21
119.6508208
0
LINE
8
DEFAULT_255_2_778
10
56.8440844
20
119.6508208
11
55.0446844
21
119.6508208
0
LINE
8
DEFAULT_255_2_778
10
55.0446844
20
119.6508208
11
55.0446844
21
122.0500208
0
LINE
8
DEFAULT_255_2_778
10
35.3785344
20
118.1239052
11
36.7334344
21
118.1239052
0
LINE
8
DEFAULT_255_2_778
10
36.7334344
20
118.1239052
11
36.7334344
21
117.8744052
0
LINE
8
DEFAULT_255_2_778
10
36.7334344
20
117.8744052
11
35.6793344
21
117.8744052
0
LINE
8
DEFAULT_255_2_778
10
35.6793344
20
117.8744052
11
35.6793344
21
117.1807052
0
LINE
8
DEFAULT_255_2_778
10
35.6793344
20
117.1807052
11
36.6787344
21
117.1807052
0
LINE
8
DEFAULT_255_2_778
10
36.6787344
20
117.1807052
11
36.6787344
21
116.9312052
0
LINE
8
DEFAULT_255_2_778
10
36.6787344
20
116.9312052
11
35.6793344
21
116.9312052
0
LINE
8
DEFAULT_255_2_778
10
35.6793344
20
116.9312052
11
35.6793344
21
115.9239052
0
LINE
8
DEFAULT_255_2_778
10
35.6793344
20
115.9239052
11
35.3785344
21
115.9239052
0
LINE
8
DEFAULT_255_2_778
10
35.3785344
20
115.9239052
11
35.3785344
21
118.1239052
0
LINE
8
DEFAULT_255_2_778
10
34.376038
20
118.1432286
11
34.100038
21
118.1675286
0
LINE
8
DEFAULT_255_2_778
10
34.100038
20
118.1675286
11
33.855838
21
118.1474286
0
LINE
8
DEFAULT_255_2_778
10
33.855838
20
118.1474286
11
33.670638
21
118.0963286
0
LINE
8
DEFAULT_255_2_778
10
33.670638
20
118.0963286
11
33.515838
21
118.0154286
0
LINE
8
DEFAULT_255_2_778
10
33.515838
20
118.0154286
11
33.417438
21
117.9312286
0
LINE
8
DEFAULT_255_2_778
10
33.417438
20
117.9312286
11
33.365038
21
117.8648286
0
LINE
8
DEFAULT_255_2_778
10
33.365038
20
117.8648286
11
33.324838
21
117.7921286
0
LINE
8
DEFAULT_255_2_778
10
33.324838
20
117.7921286
11
33.302338
21
117.7338286
0
LINE
8
DEFAULT_255_2_778
10
33.302338
20
117.7338286
11
33.290438
21
117.6905286
0
LINE
8
DEFAULT_255_2_778
10
33.290438
20
117.6905286
11
33.281638
21
117.6463286
0
LINE
8
DEFAULT_255_2_778
10
33.281638
20
117.6463286
11
33.281638
21
117.4256286
0
LINE
8
DEFAULT_255_2_778
10
33.281638
20
117.4256286
11
33.294338
21
117.3679286
0
LINE
8
DEFAULT_255_2_778
10
33.294338
20
117.3679286
11
33.321138
21
117.2957286
0
LINE
8
DEFAULT_255_2_778
10
33.321138
20
117.2957286
11
33.374038
21
117.2084286
0
LINE
8
DEFAULT_255_2_778
10
33.374038
20
117.2084286
11
33.478838
21
117.1102286
0
LINE
8
DEFAULT_255_2_778
10
33.478838
20
117.1102286
11
33.669538
21
117.0155286
0
LINE
8
DEFAULT_255_2_778
10
33.669538
20
117.0155286
11
33.831538
21
116.9676286
0
LINE
8
DEFAULT_255_2_778
10
33.831538
20
116.9676286
11
34.399038
21
116.8229286
0
LINE
8
DEFAULT_255_2_778
10
34.399038
20
116.8229286
11
34.536038
21
116.7403286
0
LINE
8
DEFAULT_255_2_778
10
34.536038
20
116.7403286
11
34.587638
21
116.6760286
0
LINE
8
DEFAULT_255_2_778
10
34.587638
20
116.6760286
11
34.608038
21
116.6252286
0
LINE
8
DEFAULT_255_2_778
10
34.608038
20
116.6252286
11
34.615438
21
116.5927286
0
LINE
8
DEFAULT_255_2_778
10
34.615438
20
116.5927286
11
34.613638
21
116.4448286
0
LINE
8
DEFAULT_255_2_778
10
34.613638
20
116.4448286
11
34.600338
21
116.3953286
0
LINE
8
DEFAULT_255_2_778
10
34.600338
20
116.3953286
11
34.574438
21
116.3374286
0
LINE
8
DEFAULT_255_2_778
10
34.574438
20
116.3374286
11
34.520738
21
116.2673286
0
LINE
8
DEFAULT_255_2_778
10
34.520738
20
116.2673286
11
34.382838
21
116.1765286
0
LINE
8
DEFAULT_255_2_778
10
34.382838
20
116.1765286
11
34.181238
21
116.1329286
0
LINE
8
DEFAULT_255_2_778
10
34.181238
20
116.1329286
11
33.907938
21
116.1442286
0
LINE
8
DEFAULT_255_2_778
10
33.907938
20
116.1442286
11
33.693638
21
116.2411286
0
LINE
8
DEFAULT_255_2_778
10
33.693638
20
116.2411286
11
33.590938
21
116.3646286
0
LINE
8
DEFAULT_255_2_778
10
33.590938
20
116.3646286
11
33.560338
21
116.4424286
0
LINE
8
DEFAULT_255_2_778
10
33.560338
20
116.4424286
11
33.552138
21
116.4840286
0
LINE
8
DEFAULT_255_2_778
10
33.552138
20
116.4840286
11
33.551338
21
116.5620286
0
LINE
8
DEFAULT_255_2_778
10
33.551338
20
116.5620286
11
33.248838
21
116.5620286
0
LINE
8
DEFAULT_255_2_778
10
33.248838
20
116.5620286
11
33.250238
21
116.4969286
0
LINE
8
DEFAULT_255_2_778
10
33.250238
20
116.4969286
11
33.252338
21
116.4755286
0
LINE
8
DEFAULT_255_2_778
10
33.252338
20
116.4755286
11
33.258938
21
116.4332286
0
LINE
8
DEFAULT_255_2_778
10
33.258938
20
116.4332286
11
33.268438
21
116.3916286
0
LINE
8
DEFAULT_255_2_778
10
33.268438
20
116.3916286
11
33.288338
21
116.3313286
0
LINE
8
DEFAULT_255_2_778
10
33.288338
20
116.3313286
11
33.324038
21
116.2548286
0
LINE
8
DEFAULT_255_2_778
10
33.324038
20
116.2548286
11
33.383238
21
116.1654286
0
LINE
8
DEFAULT_255_2_778
10
33.383238
20
116.1654286
11
33.460538
21
116.0815286
0
LINE
8
DEFAULT_255_2_778
10
33.460538
20
116.0815286
11
33.569038
21
115.9990286
0
LINE
8
DEFAULT_255_2_778
10
33.569038
20
115.9990286
11
33.700238
21
115.9355286
0
LINE
8
DEFAULT_255_2_778
10
33.700238
20
115.9355286
11
33.889938
21
115.8913286
0
LINE
8
DEFAULT_255_2_778
10
33.889938
20
115.8913286
11
34.184138
21
115.8839286
0
LINE
8
DEFAULT_255_2_778
10
34.184138
20
115.8839286
11
34.398238
21
115.9159286
0
LINE
8
DEFAULT_255_2_778
10
34.398238
20
115.9159286
11
34.571838
21
115.9797286
0
LINE
8
DEFAULT_255_2_778
10
34.571838
20
115.9797286
11
34.688438
21
116.0530286
0
LINE
8
DEFAULT_255_2_778
10
34.688438
20
116.0530286
11
34.769138
21
116.1278286
0
LINE
8
DEFAULT_255_2_778
10
34.769138
20
116.1278286
11
34.822638
21
116.1977286
0
LINE
8
DEFAULT_255_2_778
10
34.822638
20
116.1977286
11
34.864138
21
116.2749286
0
LINE
8
DEFAULT_255_2_778
10
34.864138
20
116.2749286
11
34.887738
21
116.3363286
0
LINE
8
DEFAULT_255_2_778
10
34.887738
20
116.3363286
11
34.900438
21
116.3808286
0
LINE
8
DEFAULT_255_2_778
10
34.900438
20
116.3808286
11
34.910438
21
116.4281286
0
LINE
8
DEFAULT_255_2_778
10
34.910438
20
116.4281286
11
34.909438
21
116.7030286
0
LINE
8
DEFAULT_255_2_778
10
34.909438
20
116.7030286
11
34.895638
21
116.7559286
0
LINE
8
DEFAULT_255_2_778
10
34.895638
20
116.7559286
11
34.865438
21
116.8292286
0
LINE
8
DEFAULT_255_2_778
10
34.865438
20
116.8292286
11
34.806738
21
116.9168286
0
LINE
8
DEFAULT_255_2_778
10
34.806738
20
116.9168286
11
34.669938
21
117.0293286
0
LINE
8
DEFAULT_255_2_778
10
34.669938
20
117.0293286
11
34.437338
21
117.1261286
0
LINE
8
DEFAULT_255_2_778
10
34.437338
20
117.1261286
11
33.777738
21
117.2962286
0
LINE
8
DEFAULT_255_2_778
10
33.777738
20
117.2962286
11
33.646538
21
117.3830286
0
LINE
8
DEFAULT_255_2_778
10
33.646538
20
117.3830286
11
33.605238
21
117.4425286
0
LINE
8
DEFAULT_255_2_778
10
33.605238
20
117.4425286
11
33.587838
21
117.4923286
0
LINE
8
DEFAULT_255_2_778
10
33.587838
20
117.4923286
11
33.582038
21
117.5238286
0
LINE
8
DEFAULT_255_2_778
10
33.582038
20
117.5238286
11
33.584338
21
117.6214286
0
LINE
8
DEFAULT_255_2_778
10
33.584338
20
117.6214286
11
33.595238
21
117.6637286
0
LINE
8
DEFAULT_255_2_778
10
33.595238
20
117.6637286
11
33.623238
21
117.7243286
0
LINE
8
DEFAULT_255_2_778
10
33.623238
20
117.7243286
11
33.682538
21
117.7942286
0
LINE
8
DEFAULT_255_2_778
10
33.682538
20
117.7942286
11
33.822538
21
117.8714286
0
LINE
8
DEFAULT_255_2_778
10
33.822538
20
117.8714286
11
34.033638
21
117.9111286
0
LINE
8
DEFAULT_255_2_778
10
34.033638
20
117.9111286
11
34.233438
21
117.9003286
0
LINE
8
DEFAULT_255_2_778
10
34.233438
20
117.9003286
11
34.461738
21
117.7876286
0
LINE
8
DEFAULT_255_2_778
10
34.461738
20
117.7876286
11
34.533438
21
117.6844286
0
LINE
8
DEFAULT_255_2_778
10
34.533438
20
117.6844286
11
34.553538
21
117.6193286
0
LINE
8
DEFAULT_255_2_778
10
34.553538
20
117.6193286
11
34.557738
21
117.5894286
0
LINE
8
DEFAULT_255_2_778
10
34.557738
20
117.5894286
11
34.558838
21
117.5743286
0
LINE
8
DEFAULT_255_2_778
10
34.558838
20
117.5743286
11
34.864438
21
117.5743286
0
LINE
8
DEFAULT_255_2_778
10
34.864438
20
117.5743286
11
34.863338
21
117.6510286
0
LINE
8
DEFAULT_255_2_778
10
34.863338
20
117.6510286
11
34.861238
21
117.6698286
0
LINE
8
DEFAULT_255_2_778
10
34.861238
20
117.6698286
11
34.854638
21
117.7066286
0
LINE
8
DEFAULT_255_2_778
10
34.854638
20
117.7066286
11
34.839838
21
117.7598286
0
LINE
8
DEFAULT_255_2_778
10
34.839838
20
117.7598286
11
34.810938
21
117.8270286
0
LINE
8
DEFAULT_255_2_778
10
34.810938
20
117.8270286
11
34.762338
21
117.9042286
0
LINE
8
DEFAULT_255_2_778
10
34.762338
20
117.9042286
11
34.689538
21
117.9847286
0
LINE
8
DEFAULT_255_2_778
10
34.689538
20
117.9847286
11
34.585038
21
118.0627286
0
LINE
8
DEFAULT_255_2_778
10
34.585038
20
118.0627286
11
34.456138
21
118.1220286
0
LINE
8
DEFAULT_255_2_778
10
34.456138
20
118.1220286
11
34.376538
21
118.1440286
0
LINE
8
DEFAULT_255_2_778
10
1.916438
20
2.6475286
11
1.736738
21
2.6139286
0
LINE
8
DEFAULT_255_2_778
10
1.736738
20
2.6139286
11
1.539638
21
2.4951286
0
LINE
8
DEFAULT_255_2_778
10
1.539638
20
2.4951286
11
1.463138
21
2.3872286
0
LINE
8
DEFAULT_255_2_778
10
1.463138
20
2.3872286
11
1.434538
21
2.3065286
0
LINE
8
DEFAULT_255_2_778
10
1.434538
20
2.3065286
11
1.425338
21
2.2588286
0
LINE
8
DEFAULT_255_2_778
10
1.425338
20
2.2588286
11
1.422138
21
2.2300286
0
LINE
8
DEFAULT_255_2_778
10
1.422138
20
2.2300286
11
1.420838
21
2.1821286
0
LINE
8
DEFAULT_255_2_778
10
1.420838
20
2.1821286
11
1.641238
21
2.1821286
0
LINE
8
DEFAULT_255_2_778
10
1.641238
20
2.1821286
11
1.643038
21
2.2202286
0
LINE
8
DEFAULT_255_2_778
10
1.643038
20
2.2202286
11
1.647838
21
2.2485286
0
LINE
8
DEFAULT_255_2_778
10
1.647838
20
2.2485286
11
1.665338
21
2.3004286
0
LINE
8
DEFAULT_255_2_778
10
1.665338
20
2.3004286
11
1.717138
21
2.3731286
0
LINE
8
DEFAULT_255_2_778
10
1.717138
20
2.3731286
11
1.833838
21
2.4440286
0
LINE
8
DEFAULT_255_2_778
10
1.833838
20
2.4440286
11
2.043438
21
2.4628286
0
LINE
8
DEFAULT_255_2_778
10
2.043438
20
2.4628286
11
2.206938
21
2.4025286
0
LINE
8
DEFAULT_255_2_778
10
2.206938
20
2.4025286
11
2.275938
21
2.3316286
0
LINE
8
DEFAULT_255_2_778
10
2.275938
20
2.3316286
11
2.302138
21
2.2752286
0
LINE
8
DEFAULT_255_2_778
10
2.302138
20
2.2752286
11
2.311438
21
2.2382286
0
LINE
8
DEFAULT_255_2_778
10
2.311438
20
2.2382286
11
2.309838
21
2.1223286
0
LINE
8
DEFAULT_255_2_778
10
2.309838
20
2.1223286
11
2.287338
21
2.0620286
0
LINE
8
DEFAULT_255_2_778
10
2.287338
20
2.0620286
11
2.187338
21
1.9596286
0
LINE
8
DEFAULT_255_2_778
10
2.187338
20
1.9596286
11
1.961938
21
1.8892286
0
LINE
8
DEFAULT_255_2_778
10
1.961938
20
1.8892286
11
1.854738
21
1.8884286
0
LINE
8
DEFAULT_255_2_778
10
1.854738
20
1.8884286
11
1.854738
21
1.6982286
0
LINE
8
DEFAULT_255_2_778
10
1.854738
20
1.6982286
11
2.149238
21
1.6675286
0
LINE
8
DEFAULT_255_2_778
10
2.149238
20
1.6675286
11
2.284738
21
1.5871286
0
LINE
8
DEFAULT_255_2_778
10
2.284738
20
1.5871286
11
2.329638
21
1.5222286
0
LINE
8
DEFAULT_255_2_778
10
2.329638
20
1.5222286
11
2.343938
21
1.4799286
0
LINE
8
DEFAULT_255_2_778
10
2.343938
20
1.4799286
11
2.341838
21
1.3272286
0
LINE
8
DEFAULT_255_2_778
10
2.341838
20
1.3272286
11
2.322238
21
1.2682286
0
LINE
8
DEFAULT_255_2_778
10
2.322238
20
1.2682286
11
2.278838
21
1.1997286
0
LINE
8
DEFAULT_255_2_778
10
2.278838
20
1.1997286
11
2.168238
21
1.1166286
0
LINE
8
DEFAULT_255_2_778
10
2.168238
20
1.1166286
11
1.917738
21
1.0828286
0
LINE
8
DEFAULT_255_2_778
10
1.917738
20
1.0828286
11
1.736738
21
1.1653286
0
LINE
8
DEFAULT_255_2_778
10
1.736738
20
1.1653286
11
1.648938
21
1.2751286
0
LINE
8
DEFAULT_255_2_778
10
1.648938
20
1.2751286
11
1.610838
21
1.3685286
0
LINE
8
DEFAULT_255_2_778
10
1.610838
20
1.3685286
11
1.605538
21
1.3884286
0
LINE
8
DEFAULT_255_2_778
10
1.605538
20
1.3884286
11
1.372938
21
1.3884286
0
LINE
8
DEFAULT_255_2_778
10
1.372938
20
1.3884286
11
1.379238
21
1.3518286
0
LINE
8
DEFAULT_255_2_778
10
1.379238
20
1.3518286
11
1.392738
21
1.2976286
0
LINE
8
DEFAULT_255_2_778
10
1.392738
20
1.2976286
11
1.417938
21
1.2285286
0
LINE
8
DEFAULT_255_2_778
10
1.417938
20
1.2285286
11
1.458638
21
1.1513286
0
LINE
8
DEFAULT_255_2_778
10
1.458638
20
1.1513286
11
1.522938
21
1.0690286
0
LINE
8
DEFAULT_255_2_778
10
1.522938
20
1.0690286
11
1.622438
21
0.9857286
0
LINE
8
DEFAULT_255_2_778
10
1.622438
20
0.9857286
11
1.748138
21
0.9230286
0
LINE
8
DEFAULT_255_2_778
10
1.748138
20
0.9230286
11
1.910838
21
0.8888286
0
LINE
8
DEFAULT_255_2_778
10
1.910838
20
0.8888286
11
2.114838
21
0.8957286
0
LINE
8
DEFAULT_255_2_778
10
2.114838
20
0.8957286
11
2.310138
21
0.9547286
0
LINE
8
DEFAULT_255_2_778
10
2.310138
20
0.9547286
11
2.435238
21
1.0399286
0
LINE
8
DEFAULT_255_2_778
10
2.435238
20
1.0399286
11
2.498438
21
1.1132286
0
LINE
8
DEFAULT_255_2_778
10
2.498438
20
1.1132286
11
2.537138
21
1.1830286
0
LINE
8
DEFAULT_255_2_778
10
2.537138
20
1.1830286
11
2.558838
21
1.2431286
0
LINE
8
DEFAULT_255_2_778
10
2.558838
20
1.2431286
11
2.567238
21
1.2770286
0
LINE
8
DEFAULT_255_2_778
10
2.567238
20
1.2770286
11
2.573338
21
1.3114286
0
LINE
8
DEFAULT_255_2_778
10
2.573338
20
1.3114286
11
2.577038
21
1.3460286
0
LINE
8
DEFAULT_255_2_778
10
2.577038
20
1.3460286
11
2.576038
21
1.4548286
0
LINE
8
DEFAULT_255_2_778
10
2.576038
20
1.4548286
11
2.569338
21
1.4987286
0
LINE
8
DEFAULT_255_2_778
10
2.569338
20
1.4987286
11
2.550338
21
1.5640286
0
LINE
8
DEFAULT_255_2_778
10
2.550338
20
1.5640286
11
2.480438
21
1.6728286
0
LINE
8
DEFAULT_255_2_778
10
2.480438
20
1.6728286
11
2.287638
21
1.7884286
0
LINE
8
DEFAULT_255_2_778
10
2.287638
20
1.7884286
11
2.263238
21
1.7940286
0
LINE
8
DEFAULT_255_2_778
10
2.263238
20
1.7940286
11
2.399538
21
1.8789286
0
LINE
8
DEFAULT_255_2_778
10
2.399538
20
1.8789286
11
2.464638
21
1.9487286
0
LINE
8
DEFAULT_255_2_778
10
2.464638
20
1.9487286
11
2.504038
21
2.0152286
0
LINE
8
DEFAULT_255_2_778
10
2.504038
20
2.0152286
11
2.525738
21
2.0726286
0
LINE
8
DEFAULT_255_2_778
10
2.525738
20
2.0726286
11
2.533438
21
2.1041286
0
LINE
8
DEFAULT_255_2_778
10
2.533438
20
2.1041286
11
2.538738
21
2.1361286
0
LINE
8
DEFAULT_255_2_778
10
2.538738
20
2.1361286
11
2.537138
21
2.2771286
0
LINE
8
DEFAULT_255_2_778
10
2.537138
20
2.2771286
11
2.531238
21
2.3070286
0
LINE
8
DEFAULT_255_2_778
10
2.531238
20
2.3070286
11
2.518538
21
2.3499286
0
LINE
8
DEFAULT_255_2_778
10
2.518538
20
2.3499286
11
2.488138
21
2.4147286
0
LINE
8
DEFAULT_255_2_778
10
2.488138
20
2.4147286
11
2.434738
21
2.4845286
0
LINE
8
DEFAULT_255_2_778
10
2.434738
20
2.4845286
11
2.335538
21
2.5623286
0
LINE
8
DEFAULT_255_2_778
10
2.335538
20
2.5623286
11
2.182538
21
2.6253286
0
LINE
8
DEFAULT_255_2_778
10
2.182538
20
2.6253286
11
1.959738
21
2.6488286
0
LINE
8
DEFAULT_255_2_778
10
1.959738
20
2.6488286
11
1.916638
21
2.6470286
0
LINE
8
DEFAULT_255_2_778
10
5.954738
20
1.6437286
11
6.540238
21
1.6437286
0
LINE
8
DEFAULT_255_2_778
10
6.540238
20
1.6437286
11
6.540238
21
1.4833286
0
LINE
8
DEFAULT_255_2_778
10
6.540238
20
1.4833286
11
5.954738
21
1.4833286
0
LINE
8
DEFAULT_255_2_778
10
5.954738
20
1.4833286
11
5.954738
21
1.6437286
0
LINE
8
DEFAULT_255_2_778
10
12.537838
20
2.6147286
11
12.730738
21
2.6147286
0
LINE
8
DEFAULT_255_2_778
10
12.730738
20
2.6147286
11
12.730738
21
0.9243286
0
LINE
8
DEFAULT_255_2_778
10
12.730738
20
0.9243286
11
12.502938
21
0.9243286
0
LINE
8
DEFAULT_255_2_778
10
12.502938
20
0.9243286
11
12.502938
21
2.3520286
0
LINE
8
DEFAULT_255_2_778
10
12.502938
20
2.3520286
11
12.235138
21
2.1850286
0
LINE
8
DEFAULT_255_2_778
10
12.235138
20
2.1850286
11
12.130638
21
2.1414286
0
LINE
8
DEFAULT_255_2_778
10
12.130638
20
2.1414286
11
12.130638
21
2.3533286
0
LINE
8
DEFAULT_255_2_778
10
12.130638
20
2.3533286
11
12.439438
21
2.5290286
0
LINE
8
DEFAULT_255_2_778
10
12.439438
20
2.5290286
11
12.537838
21
2.6147286
0
LINE
8
DEFAULT_255_2_778
10
14.964338
20
1.6437286
11
15.549838
21
1.6437286
0
LINE
8
DEFAULT_255_2_778
10
15.549838
20
1.6437286
11
15.549838
21
1.4833286
0
LINE
8
DEFAULT_255_2_778
10
15.549838
20
1.4833286
11
14.964338
21
1.4833286
0
LINE
8
DEFAULT_255_2_778
10
14.964338
20
1.4833286
11
14.964338
21
1.6437286
0
LINE
8
DEFAULT_255_2_778
10
5.036338
20
1.8673286
11
4.890838
21
1.8157286
0
LINE
8
DEFAULT_255_2_778
10
4.890838
20
1.8157286
11
4.820738
21
1.7455286
0
LINE
8
DEFAULT_255_2_778
10
4.820738
20
1.7455286
11
4.793738
21
1.6926286
0
LINE
8
DEFAULT_255_2_778
10
4.793738
20
1.6926286
11
4.782138
21
1.6521286
0
LINE
8
DEFAULT_255_2_778
10
4.782138
20
1.6521286
11
4.778638
21
1.6315286
0
LINE
8
DEFAULT_255_2_778
10
4.778638
20
1.6315286
11
4.777638
21
1.6212286
0
LINE
8
DEFAULT_255_2_778
10
4.777638
20
1.6212286
11
4.549838
21
1.6212286
0
LINE
8
DEFAULT_255_2_778
10
4.549838
20
1.6212286
11
4.564338
21
2.6152286
0
LINE
8
DEFAULT_255_2_778
10
4.564338
20
2.6152286
11
5.548638
21
2.6152286
0
LINE
8
DEFAULT_255_2_778
10
5.548638
20
2.6152286
11
5.548638
21
2.4298286
0
LINE
8
DEFAULT_255_2_778
10
5.548638
20
2.4298286
11
4.777638
21
2.4298286
0
LINE
8
DEFAULT_255_2_778
10
4.777638
20
2.4298286
11
4.764338
21
1.8829286
0
LINE
8
DEFAULT_255_2_778
10
4.764338
20
1.8829286
11
4.877038
21
1.9829286
0
LINE
8
DEFAULT_255_2_778
10
4.877038
20
1.9829286
11
5.032638
21
2.0432286
0
LINE
8
DEFAULT_255_2_778
10
5.032638
20
2.0432286
11
5.247738
21
2.0437286
0
LINE
8
DEFAULT_255_2_778
10
5.247738
20
2.0437286
11
5.406238
21
1.9842286
0
LINE
8
DEFAULT_255_2_778
10
5.406238
20
1.9842286
11
5.500938
21
1.9032286
0
LINE
8
DEFAULT_255_2_778
10
5.500938
20
1.9032286
11
5.559138
21
1.8204286
0
LINE
8
DEFAULT_255_2_778
10
5.559138
20
1.8204286
11
5.591738
21
1.7511286
0
LINE
8
DEFAULT_255_2_778
10
5.591738
20
1.7511286
11
5.613438
21
1.6839286
0
LINE
8
DEFAULT_255_2_778
10
5.613438
20
1.6839286
11
5.624838
21
1.6320286
0
LINE
8
DEFAULT_255_2_778
10
5.624838
20
1.6320286
11
5.629838
21
1.6011286
0
LINE
8
DEFAULT_255_2_778
10
5.629838
20
1.6011286
11
5.629038
21
1.3505286
0
LINE
8
DEFAULT_255_2_778
10
5.629038
20
1.3505286
11
5.621638
21
1.3092286
0
LINE
8
DEFAULT_255_2_778
10
5.621638
20
1.3092286
11
5.607638
21
1.2545286
0
LINE
8
DEFAULT_255_2_778
10
5.607638
20
1.2545286
11
5.588538
21
1.2013286
0
LINE
8
DEFAULT_255_2_778
10
5.588538
20
1.2013286
11
5.555738
21
1.1354286
0
LINE
8
DEFAULT_255_2_778
10
5.555738
20
1.1354286
11
5.503338
21
1.0624286
0
LINE
8
DEFAULT_255_2_778
10
5.503338
20
1.0624286
11
5.405138
21
0.9756286
0
LINE
8
DEFAULT_255_2_778
10
5.405138
20
0.9756286
11
5.274738
21
0.9142286
0
LINE
8
DEFAULT_255_2_778
10
5.274738
20
0.9142286
11
5.095338
21
0.8864286
0
LINE
8
DEFAULT_255_2_778
10
5.095338
20
0.8864286
11
4.894238
21
0.9087286
0
LINE
8
DEFAULT_255_2_778
10
4.894238
20
0.9087286
11
4.755938
21
0.9674286
0
LINE
8
DEFAULT_255_2_778
10
4.755938
20
0.9674286
11
4.646338
21
1.0552286
0
LINE
8
DEFAULT_255_2_778
10
4.646338
20
1.0552286
11
4.586038
21
1.1341286
0
LINE
8
DEFAULT_255_2_778
10
4.586038
20
1.1341286
11
4.549038
21
1.2082286
0
LINE
8
DEFAULT_255_2_778
10
4.549038
20
1.2082286
11
4.532038
21
1.2574286
0
LINE
8
DEFAULT_255_2_778
10
4.532038
20
1.2574286
11
4.519638
21
1.3092286
0
LINE
8
DEFAULT_255_2_778
10
4.519638
20
1.3092286
11
4.514038
21
1.3442286
0
LINE
8
DEFAULT_255_2_778
10
4.514038
20
1.3442286
11
4.512238
21
1.3616286
0
LINE
8
DEFAULT_255_2_778
10
4.512238
20
1.3616286
11
4.744738
21
1.3616286
0
LINE
8
DEFAULT_255_2_778
10
4.744738
20
1.3616286
11
4.749538
21
1.3325286
0
LINE
8
DEFAULT_255_2_778
10
4.749538
20
1.3325286
11
4.767538
21
1.2751286
0
LINE
8
DEFAULT_255_2_778
10
4.767538
20
1.2751286
11
4.819438
21
1.1889286
0
LINE
8
DEFAULT_255_2_778
10
4.819438
20
1.1889286
11
4.917338
21
1.1100286
0
LINE
8
DEFAULT_255_2_778
10
4.917338
20
1.1100286
11
5.109138
21
1.0801286
0
LINE
8
DEFAULT_255_2_778
10
5.109138
20
1.0801286
11
5.259638
21
1.1328286
0
LINE
8
DEFAULT_255_2_778
10
5.259638
20
1.1328286
11
5.333238
21
1.2098286
0
LINE
8
DEFAULT_255_2_778
10
5.333238
20
1.2098286
11
5.370838
21
1.2793286
0
LINE
8
DEFAULT_255_2_778
10
5.370838
20
1.2793286
11
5.389538
21
1.3365286
0
LINE
8
DEFAULT_255_2_778
10
5.389538
20
1.3365286
11
5.399638
21
1.3857286
0
LINE
8
DEFAULT_255_2_778
10
5.399638
20
1.3857286
11
5.397238
21
1.5823286
0
LINE
8
DEFAULT_255_2_778
10
5.397238
20
1.5823286
11
5.382738
21
1.6400286
0
LINE
8
DEFAULT_255_2_778
10
5.382738
20
1.6400286
11
5.350138
21
1.7135286
0
LINE
8
DEFAULT_255_2_778
10
5.350138
20
1.7135286
11
5.282938
21
1.7971286
0
LINE
8
DEFAULT_255_2_778
10
5.282938
20
1.7971286
11
5.174738
21
1.8559286
0
LINE
8
DEFAULT_255_2_778
10
5.174738
20
1.8559286
11
5.037138
21
1.8673286
0
LINE
8
DEFAULT_255_2_778
10
3.489338
20
1.8673286
11
3.343838
21
1.8157286
0
LINE
8
DEFAULT_255_2_778
10
3.343838
20
1.8157286
11
3.273738
21
1.7455286
0
LINE
8
DEFAULT_255_2_778
10
3.273738
20
1.7455286
11
3.246738
21
1.6926286
0
LINE
8
DEFAULT_255_2_778
10
3.246738
20
1.6926286
11
3.235038
21
1.6521286
0
LINE
8
DEFAULT_255_2_778
10
3.235038
20
1.6521286
11
3.231638
21
1.6315286
0
LINE
8
DEFAULT_255_2_778
10
3.231638
20
1.6315286
11
3.230538
21
1.6212286
0
LINE
8
DEFAULT_255_2_778
10
3.230538
20
1.6212286
11
3.002738
21
1.6212286
0
LINE
8
DEFAULT_255_2_778
10
3.002738
20
1.6212286
11
3.017338
21
2.6152286
0
LINE
8
DEFAULT_255_2_778
10
3.017338
20
2.6152286
11
4.001538
21
2.6152286
0
LINE
8
DEFAULT_255_2_778
10
4.001538
20
2.6152286
11
4.001538
21
2.4298286
0
LINE
8
DEFAULT_255_2_778
10
4.001538
20
2.4298286
11
3.230338
21
2.4298286
0
LINE
8
DEFAULT_255_2_778
10
3.230338
20
2.4298286
11
3.217038
21
1.8829286
0
LINE
8
DEFAULT_255_2_778
10
3.217038
20
1.8829286
11
3.329838
21
1.9829286
0
LINE
8
DEFAULT_255_2_778
10
3.329838
20
1.9829286
11
3.485338
21
2.0432286
0
LINE
8
DEFAULT_255_2_778
10
3.485338
20
2.0432286
11
3.700438
21
2.0437286
0
LINE
8
DEFAULT_255_2_778
10
3.700438
20
2.0437286
11
3.858938
21
1.9842286
0
LINE
8
DEFAULT_255_2_778
10
3.858938
20
1.9842286
11
3.953638
21
1.9032286
0
LINE
8
DEFAULT_255_2_778
10
3.953638
20
1.9032286
11
4.011938
21
1.8204286
0
LINE
8
DEFAULT_255_2_778
10
4.011938
20
1.8204286
11
4.044438
21
1.7511286
0
LINE
8
DEFAULT_255_2_778
10
4.044438
20
1.7511286
11
4.066138
21
1.6839286
0
LINE
8
DEFAULT_255_2_778
10
4.066138
20
1.6839286
11
4.077538
21
1.6320286
0
LINE
8
DEFAULT_255_2_778
10
4.077538
20
1.6320286
11
4.082538
21
1.6011286
0
LINE
8
DEFAULT_255_2_778
10
4.082538
20
1.6011286
11
4.081738
21
1.3505286
0
LINE
8
DEFAULT_255_2_778
10
4.081738
20
1.3505286
11
4.074338
21
1.3092286
0
LINE
8
DEFAULT_255_2_778
10
4.074338
20
1.3092286
11
4.060338
21
1.2545286
0
LINE
8
DEFAULT_255_2_778
10
4.060338
20
1.2545286
11
4.041238
21
1.2013286
0
LINE
8
DEFAULT_255_2_778
10
4.041238
20
1.2013286
11
4.008438
21
1.1354286
0
LINE
8
DEFAULT_255_2_778
10
4.008438
20
1.1354286
11
3.956038
21
1.0624286
0
LINE
8
DEFAULT_255_2_778
10
3.956038
20
1.0624286
11
3.857938
21
0.9756286
0
LINE
8
DEFAULT_255_2_778
10
3.857938
20
0.9756286
11
3.727438
21
0.9142286
0
LINE
8
DEFAULT_255_2_778
10
3.727438
20
0.9142286
11
3.548038
21
0.8864286
0
LINE
8
DEFAULT_255_2_778
10
3.548038
20
0.8864286
11
3.347038
21
0.9087286
0
LINE
8
DEFAULT_255_2_778
10
3.347038
20
0.9087286
11
3.208638
21
0.9674286
0
LINE
8
DEFAULT_255_2_778
10
3.208638
20
0.9674286
11
3.099038
21
1.0552286
0
LINE
8
DEFAULT_255_2_778
10
3.099038
20
1.0552286
11
3.038738
21
1.1341286
0
LINE
8
DEFAULT_255_2_778
10
3.038738
20
1.1341286
11
3.001738
21
1.2082286
0
LINE
8
DEFAULT_255_2_778
10
3.001738
20
1.2082286
11
2.984738
21
1.2574286
0
LINE
8
DEFAULT_255_2_778
10
2.984738
20
1.2574286
11
2.972338
21
1.3092286
0
LINE
8
DEFAULT_255_2_778
10
2.972338
20
1.3092286
11
2.966738
21
1.3442286
0
LINE
8
DEFAULT_255_2_778
10
2.966738
20
1.3442286
11
2.964938
21
1.3616286
0
LINE
8
DEFAULT_255_2_778
10
2.964938
20
1.3616286
11
3.197538
21
1.3616286
0
LINE
8
DEFAULT_255_2_778
10
3.197538
20
1.3616286
11
3.202238
21
1.3325286
0
LINE
8
DEFAULT_255_2_778
10
3.202238
20
1.3325286
11
3.220238
21
1.2751286
0
LINE
8
DEFAULT_255_2_778
10
3.220238
20
1.2751286
11
3.272138
21
1.1889286
0
LINE
8
DEFAULT_255_2_778
10
3.272138
20
1.1889286
11
3.370038
21
1.1100286
0
LINE
8
DEFAULT_255_2_778
10
3.370038
20
1.1100286
11
3.561838
21
1.0801286
0
LINE
8
DEFAULT_255_2_778
10
3.561838
20
1.0801286
11
3.712338
21
1.1328286
0
LINE
8
DEFAULT_255_2_778
10
3.712338
20
1.1328286
11
3.785938
21
1.2098286
0
LINE
8
DEFAULT_255_2_778
10
3.785938
20
1.2098286
11
3.823538
21
1.2793286
0
LINE
8
DEFAULT_255_2_778
10
3.823538
20
1.2793286
11
3.842338
21
1.3365286
0
LINE
8
DEFAULT_255_2_778
10
3.842338
20
1.3365286
11
3.852338
21
1.3857286
0
LINE
8
DEFAULT_255_2_778
10
3.852338
20
1.3857286
11
3.849938
21
1.5823286
0
LINE
8
DEFAULT_255_2_778
10
3.849938
20
1.5823286
11
3.835438
21
1.6400286
0
LINE
8
DEFAULT_255_2_778
10
3.835438
20
1.6400286
11
3.802838
21
1.7135286
0
LINE
8
DEFAULT_255_2_778
10
3.802838
20
1.7135286
11
3.735638
21
1.7971286
0
LINE
8
DEFAULT_255_2_778
10
3.735638
20
1.7971286
11
3.627438
21
1.8559286
0
LINE
8
DEFAULT_255_2_778
10
3.627438
20
1.8559286
11
3.489838
21
1.8673286
0
LINE
8
DEFAULT_255_2_778
10
9.644838
20
2.6242286
11
9.896738
21
2.6242286
0
LINE
8
DEFAULT_255_2_778
10
9.896738
20
2.6242286
11
9.222038
21
0.9243286
0
LINE
8
DEFAULT_255_2_778
10
9.222038
20
0.9243286
11
8.961738
21
0.9243286
0
LINE
8
DEFAULT_255_2_778
10
8.961738
20
0.9243286
11
8.287038
21
2.6242286
0
LINE
8
DEFAULT_255_2_778
10
8.287038
20
2.6242286
11
8.538938
21
2.6242286
0
LINE
8
DEFAULT_255_2_778
10
8.538938
20
2.6242286
11
9.095638
21
1.1471286
0
LINE
8
DEFAULT_255_2_778
10
9.095638
20
1.1471286
11
9.644838
21
2.6242286
0
LINE
8
DEFAULT_255_2_778
10
11.307538
20
2.6242286
11
11.540038
21
2.6242286
0
LINE
8
DEFAULT_255_2_778
10
11.540038
20
2.6242286
11
11.540038
21
0.9243286
0
LINE
8
DEFAULT_255_2_778
10
11.540038
20
0.9243286
11
11.307538
21
0.9243286
0
LINE
8
DEFAULT_255_2_778
10
11.307538
20
0.9243286
11
11.307538
21
1.7003286
0
LINE
8
DEFAULT_255_2_778
10
11.307538
20
1.7003286
11
10.431438
21
1.7003286
0
LINE
8
DEFAULT_255_2_778
10
10.431438
20
1.7003286
11
10.431438
21
0.9243286
0
LINE
8
DEFAULT_255_2_778
10
10.431438
20
0.9243286
11
10.198938
21
0.9243286
0
LINE
8
DEFAULT_255_2_778
10
10.198938
20
0.9243286
11
10.198938
21
2.6242286
0
LINE
8
DEFAULT_255_2_778
10
10.198938
20
2.6242286
11
10.431438
21
2.6242286
0
LINE
8
DEFAULT_255_2_778
10
10.431438
20
2.6242286
11
10.431438
21
1.8977286
0
LINE
8
DEFAULT_255_2_778
10
10.431438
20
1.8977286
11
11.307538
21
1.8977286
0
LINE
8
DEFAULT_255_2_778
10
11.307538
20
1.8977286
11
11.307538
21
2.6242286
0
LINE
8
DEFAULT_255_2_778
10
19.260638
20
2.6242286
11
20.296738
21
2.6242286
0
LINE
8
DEFAULT_255_2_778
10
20.296738
20
2.6242286
11
20.296738
21
2.4313286
0
LINE
8
DEFAULT_255_2_778
10
20.296738
20
2.4313286
11
19.493238
21
2.4313286
0
LINE
8
DEFAULT_255_2_778
10
19.493238
20
2.4313286
11
19.493238
21
1.8953286
0
LINE
8
DEFAULT_255_2_778
10
19.493238
20
1.8953286
11
20.265538
21
1.8953286
0
LINE
8
DEFAULT_255_2_778
10
20.265538
20
1.8953286
11
20.265538
21
1.7024286
0
LINE
8
DEFAULT_255_2_778
10
20.265538
20
1.7024286
11
19.493238
21
1.7024286
0
LINE
8
DEFAULT_255_2_778
10
19.493238
20
1.7024286
11
19.493238
21
1.1169286
0
LINE
8
DEFAULT_255_2_778
10
19.493238
20
1.1169286
11
20.318438
21
1.1169286
0
LINE
8
DEFAULT_255_2_778
10
20.318438
20
1.1169286
11
20.318438
21
0.9240286
0
LINE
8
DEFAULT_255_2_778
10
20.318438
20
0.9240286
11
19.260638
21
0.9240286
0
LINE
8
DEFAULT_255_2_778
10
19.260638
20
0.9240286
11
19.260638
21
2.6240286
0
LINE
8
DEFAULT_255_2_778
10
21.132238
20
2.6435286
11
21.001838
21
2.6105286
0
LINE
8
DEFAULT_255_2_778
10
21.001838
20
2.6105286
11
20.888038
21
2.5493286
0
LINE
8
DEFAULT_255_2_778
10
20.888038
20
2.5493286
11
20.803138
21
2.4755286
0
LINE
8
DEFAULT_255_2_778
10
20.803138
20
2.4755286
11
20.731138
21
2.3848286
0
LINE
8
DEFAULT_255_2_778
10
20.731138
20
2.3848286
11
20.676138
21
2.2895286
0
LINE
8
DEFAULT_255_2_778
10
20.676138
20
2.2895286
11
20.644138
21
2.2176286
0
LINE
8
DEFAULT_255_2_778
10
20.644138
20
2.2176286
11
20.616638
21
2.1379286
0
LINE
8
DEFAULT_255_2_778
10
20.616638
20
2.1379286
11
20.601538
21
2.0821286
0
LINE
8
DEFAULT_255_2_778
10
20.601538
20
2.0821286
11
20.589338
21
2.0255286
0
LINE
8
DEFAULT_255_2_778
10
20.589338
20
2.0255286
11
20.584338
21
1.9969286
0
LINE
8
DEFAULT_255_2_778
10
20.584338
20
1.9969286
11
20.579038
21
1.9607286
0
LINE
8
DEFAULT_255_2_778
10
20.579038
20
1.9607286
11
20.574838
21
1.9241286
0
LINE
8
DEFAULT_255_2_778
10
20.574838
20
1.9241286
11
20.571638
21
1.8876286
0
LINE
8
DEFAULT_255_2_778
10
20.571638
20
1.8876286
11
20.571338
21
1.6656286
0
LINE
8
DEFAULT_255_2_778
10
20.571338
20
1.6656286
11
20.574538
21
1.6283286
0
LINE
8
DEFAULT_255_2_778
10
20.574538
20
1.6283286
11
20.578738
21
1.5913286
0
LINE
8
DEFAULT_255_2_778
10
20.578738
20
1.5913286
11
20.584038
21
1.5543286
0
LINE
8
DEFAULT_255_2_778
10
20.584038
20
1.5543286
11
20.594638
21
1.4966286
0
LINE
8
DEFAULT_255_2_778
10
20.594638
20
1.4966286
11
20.607838
21
1.4394286
0
LINE
8
DEFAULT_255_2_778
10
20.607838
20
1.4394286
11
20.624238
21
1.3831286
0
LINE
8
DEFAULT_255_2_778
10
20.624238
20
1.3831286
11
20.653438
21
1.3037286
0
LINE
8
DEFAULT_255_2_778
10
20.653438
20
1.3037286
11
20.688538
21
1.2285286
0
LINE
8
DEFAULT_255_2_778
10
20.688538
20
1.2285286
11
20.741738
21
1.1404286
0
LINE
8
DEFAULT_255_2_778
10
20.741738
20
1.1404286
11
20.800538
21
1.0664286
0
LINE
8
DEFAULT_255_2_778
10
20.800538
20
1.0664286
11
20.885738
21
0.9899286
0
LINE
8
DEFAULT_255_2_778
10
20.885738
20
0.9899286
11
21.000038
21
0.9267286
0
LINE
8
DEFAULT_255_2_778
10
21.000038
20
0.9267286
11
21.131538
21
0.8923286
0
LINE
8
DEFAULT_255_2_778
10
21.131538
20
0.8923286
11
21.292138
21
0.8896286
0
LINE
8
DEFAULT_255_2_778
10
21.292138
20
0.8896286
11
21.426238
21
0.9190286
0
LINE
8
DEFAULT_255_2_778
10
21.426238
20
0.9190286
11
21.543138
21
0.9775286
0
LINE
8
DEFAULT_255_2_778
10
21.543138
20
0.9775286
11
21.629938
21
1.0492286
0
LINE
8
DEFAULT_255_2_778
10
21.629938
20
1.0492286
11
21.704838
21
1.1404286
0
LINE
8
DEFAULT_255_2_778
10
21.704838
20
1.1404286
11
21.757738
21
1.2285286
0
LINE
8
DEFAULT_255_2_778
10
21.757738
20
1.2285286
11
21.792938
21
1.3040286
0
LINE
8
DEFAULT_255_2_778
10
21.792938
20
1.3040286
11
21.822038
21
1.3836286
0
LINE
8
DEFAULT_255_2_778
10
21.822038
20
1.3836286
11
21.838438
21
1.4400286
0
LINE
8
DEFAULT_255_2_778
10
21.838438
20
1.4400286
11
21.851638
21
1.4971286
0
LINE
8
DEFAULT_255_2_778
10
21.851638
20
1.4971286
11
21.862238
21
1.5548286
0
LINE
8
DEFAULT_255_2_778
10
21.862238
20
1.5548286
11
21.867538
21
1.5916286
0
LINE
8
DEFAULT_255_2_778
10
21.867538
20
1.5916286
11
21.871838
21
1.6286286
0
LINE
8
DEFAULT_255_2_778
10
21.871838
20
1.6286286
11
21.874938
21
1.6656286
0
LINE
8
DEFAULT_255_2_778
10
21.874938
20
1.6656286
11
21.874938
21
1.8874286
0
LINE
8
DEFAULT_255_2_778
10
21.874938
20
1.8874286
11
21.871838
21
1.9239286
0
LINE
8
DEFAULT_255_2_778
10
21.871838
20
1.9239286
11
21.867538
21
1.9604286
0
LINE
8
DEFAULT_255_2_778
10
21.867538
20
1.9604286
11
21.862238
21
1.9966286
0
LINE
8
DEFAULT_255_2_778
10
21.862238
20
1.9966286
11
21.851638
21
2.0535286
0
LINE
8
DEFAULT_255_2_778
10
21.851638
20
2.0535286
11
21.838238
21
2.1099286
0
LINE
8
DEFAULT_255_2_778
10
21.838238
20
2.1099286
11
21.821538
21
2.1654286
0
LINE
8
DEFAULT_255_2_778
10
21.821538
20
2.1654286
11
21.791938
21
2.2438286
0
LINE
8
DEFAULT_255_2_778
10
21.791938
20
2.2438286
11
21.756138
21
2.3178286
0
LINE
8
DEFAULT_255_2_778
10
21.756138
20
2.3178286
11
21.702738
21
2.4038286
0
LINE
8
DEFAULT_255_2_778
10
21.702738
20
2.4038286
11
21.628138
21
2.4922286
0
LINE
8
DEFAULT_255_2_778
10
21.628138
20
2.4922286
11
21.541638
21
2.5615286
0
LINE
8
DEFAULT_255_2_778
10
21.541638
20
2.5615286
11
21.425438
21
2.6181286
0
LINE
8
DEFAULT_255_2_778
10
21.425438
20
2.6181286
11
21.269338
21
2.6483286
0
LINE
8
DEFAULT_255_2_778
10
21.269338
20
2.6483286
11
21.132238
21
2.6435286
0
LINE
8
DEFAULT_255_2_778
10
21.165338
20
2.4525286
11
21.309538
21
2.4472286
0
LINE
8
DEFAULT_255_2_778
10
21.309538
20
2.4472286
11
21.414338
21
2.4036286
0
LINE
8
DEFAULT_255_2_778
10
21.414338
20
2.4036286
11
21.479638
21
2.3499286
0
LINE
8
DEFAULT_255_2_778
10
21.479638
20
2.3499286
11
21.534438
21
2.2795286
0
LINE
8
DEFAULT_255_2_778
10
21.534438
20
2.2795286
11
21.571538
21
2.2112286
0
LINE
8
DEFAULT_255_2_778
10
21.571538
20
2.2112286
11
21.604338
21
2.1289286
0
LINE
8
DEFAULT_255_2_778
10
21.604338
20
2.1289286
11
21.623638
21
2.0625286
0
LINE
8
DEFAULT_255_2_778
10
21.623638
20
2.0625286
11
21.634438
21
2.0136286
0
LINE
8
DEFAULT_255_2_778
10
21.634438
20
2.0136286
11
21.642938
21
1.9641286
0
LINE
8
DEFAULT_255_2_778
10
21.642938
20
1.9641286
11
21.649238
21
1.9120286
0
LINE
8
DEFAULT_255_2_778
10
21.649238
20
1.9120286
11
21.649238
21
1.6352286
0
LINE
8
DEFAULT_255_2_778
10
21.649238
20
1.6352286
11
21.642938
21
1.5823286
0
LINE
8
DEFAULT_255_2_778
10
21.642938
20
1.5823286
11
21.634738
21
1.5320286
0
LINE
8
DEFAULT_255_2_778
10
21.634738
20
1.5320286
11
21.624138
21
1.4823286
0
LINE
8
DEFAULT_255_2_778
10
21.624138
20
1.4823286
11
21.604538
21
1.4127286
0
LINE
8
DEFAULT_255_2_778
10
21.604538
20
1.4127286
11
21.579938
21
1.3468286
0
LINE
8
DEFAULT_255_2_778
10
21.579938
20
1.3468286
11
21.536038
21
1.2608286
0
LINE
8
DEFAULT_255_2_778
10
21.536038
20
1.2608286
11
21.470938
21
1.1780286
0
LINE
8
DEFAULT_255_2_778
10
21.470938
20
1.1780286
11
21.378338
21
1.1119286
0
LINE
8
DEFAULT_255_2_778
10
21.378338
20
1.1119286
11
21.252638
21
1.0796286
0
LINE
8
DEFAULT_255_2_778
10
21.252638
20
1.0796286
11
21.108738
21
1.0957286
0
LINE
8
DEFAULT_255_2_778
10
21.108738
20
1.0957286
11
21.008238
21
1.1497286
0
LINE
8
DEFAULT_255_2_778
10
21.008238
20
1.1497286
11
20.942038
21
1.2158286
0
LINE
8
DEFAULT_255_2_778
10
20.942038
20
1.2158286
11
20.892538
21
1.2926286
0
LINE
8
DEFAULT_255_2_778
10
20.892538
20
1.2926286
11
20.857938
21
1.3685286
0
LINE
8
DEFAULT_255_2_778
10
20.857938
20
1.3685286
11
20.835138
21
1.4352286
0
LINE
8
DEFAULT_255_2_778
10
20.835138
20
1.4352286
11
20.816938
21
1.5072286
0
LINE
8
DEFAULT_255_2_778
10
20.816938
20
1.5072286
11
20.807338
21
1.5572286
0
LINE
8
DEFAULT_255_2_778
10
20.807338
20
1.5572286
11
20.800238
21
1.6074286
0
LINE
8
DEFAULT_255_2_778
10
20.800238
20
1.6074286
11
20.797338
21
1.6352286
0
LINE
8
DEFAULT_255_2_778
10
20.797338
20
1.6352286
11
20.797338
21
1.9120286
0
LINE
8
DEFAULT_255_2_778
10
20.797338
20
1.9120286
11
20.803638
21
1.9641286
0
LINE
8
DEFAULT_255_2_778
10
20.803638
20
1.9641286
11
20.812138
21
2.0136286
0
LINE
8
DEFAULT_255_2_778
10
20.812138
20
2.0136286
11
20.822938
21
2.0625286
0
LINE
8
DEFAULT_255_2_778
10
20.822938
20
2.0625286
11
20.842838
21
2.1310286
0
LINE
8
DEFAULT_255_2_778
10
20.842838
20
2.1310286
11
20.867738
21
2.1959286
0
LINE
8
DEFAULT_255_2_778
10
20.867738
20
2.1959286
11
20.911838
21
2.2797286
0
LINE
8
DEFAULT_255_2_778
10
20.911838
20
2.2797286
11
20.976738
21
2.3602286
0
LINE
8
DEFAULT_255_2_778
10
20.976738
20
2.3602286
11
21.069038
21
2.4245286
0
LINE
8
DEFAULT_255_2_778
10
21.069038
20
2.4245286
11
21.165338
21
2.4525286
0
LINE
8
DEFAULT_255_2_778
10
17.996938
20
2.6242286
11
18.252338
21
2.6242286
0
LINE
8
DEFAULT_255_2_778
10
18.252338
20
2.6242286
11
18.950038
21
0.9243286
0
LINE
8
DEFAULT_255_2_778
10
18.950038
20
0.9243286
11
18.697038
21
0.9243286
0
LINE
8
DEFAULT_255_2_778
10
18.697038
20
0.9243286
11
18.525838
21
1.3677286
0
LINE
8
DEFAULT_255_2_778
10
18.525838
20
1.3677286
11
17.725738
21
1.3677286
0
LINE
8
DEFAULT_255_2_778
10
17.725738
20
1.3677286
11
17.556938
21
0.9243286
0
LINE
8
DEFAULT_255_2_778
10
17.556938
20
0.9243286
11
17.299238
21
0.9243286
0
LINE
8
DEFAULT_255_2_778
10
17.299238
20
0.9243286
11
17.996938
21
2.6242286
0
LINE
8
DEFAULT_255_2_778
10
17.800638
20
1.5603286
11
18.452538
21
1.5603286
0
LINE
8
DEFAULT_255_2_778
10
18.452538
20
1.5603286
11
18.126138
21
2.4049286
0
LINE
8
DEFAULT_255_2_778
10
18.126138
20
2.4049286
11
17.800638
21
1.5603286
0
LINE
8
DEFAULT_255_2_778
10
16.376899
20
2.6462427
11
16.244099
21
2.6179427
0
LINE
8
DEFAULT_255_2_778
10
16.244099
20
2.6179427
11
16.127999
21
2.5613427
0
LINE
8
DEFAULT_255_2_778
10
16.127999
20
2.5613427
11
16.041399
21
2.4919427
0
LINE
8
DEFAULT_255_2_778
10
16.041399
20
2.4919427
11
15.966299
21
2.4036427
0
LINE
8
DEFAULT_255_2_778
10
15.966299
20
2.4036427
11
15.909999
21
2.3126427
0
LINE
8
DEFAULT_255_2_778
10
15.909999
20
2.3126427
11
15.876099
21
2.2414427
0
LINE
8
DEFAULT_255_2_778
10
15.876099
20
2.2414427
11
15.847499
21
2.1652427
0
LINE
8
DEFAULT_255_2_778
10
15.847499
20
2.1652427
11
15.830799
21
2.1096427
0
LINE
8
DEFAULT_255_2_778
10
15.830799
20
2.1096427
11
15.817299
21
2.0533427
0
LINE
8
DEFAULT_255_2_778
10
15.817299
20
2.0533427
11
15.806799
21
1.9964427
0
LINE
8
DEFAULT_255_2_778
10
15.806799
20
1.9964427
11
15.801499
21
1.9601427
0
LINE
8
DEFAULT_255_2_778
10
15.801499
20
1.9601427
11
15.797199
21
1.9236427
0
LINE
8
DEFAULT_255_2_778
10
15.797199
20
1.9236427
11
15.794099
21
1.8871427
0
LINE
8
DEFAULT_255_2_778
10
15.794099
20
1.8871427
11
15.793799
21
1.6651427
0
LINE
8
DEFAULT_255_2_778
10
15.793799
20
1.6651427
11
15.796999
21
1.6278427
0
LINE
8
DEFAULT_255_2_778
10
15.796999
20
1.6278427
11
15.801199
21
1.5908427
0
LINE
8
DEFAULT_255_2_778
10
15.801199
20
1.5908427
11
15.806499
21
1.5537427
0
LINE
8
DEFAULT_255_2_778
10
15.806499
20
1.5537427
11
15.817099
21
1.4961427
0
LINE
8
DEFAULT_255_2_778
10
15.817099
20
1.4961427
11
15.830299
21
1.4389427
0
LINE
8
DEFAULT_255_2_778
10
15.830299
20
1.4389427
11
15.846699
21
1.3826427
0
LINE
8
DEFAULT_255_2_778
10
15.846699
20
1.3826427
11
15.875799
21
1.3032427
0
LINE
8
DEFAULT_255_2_778
10
15.875799
20
1.3032427
11
15.910999
21
1.2280427
0
LINE
8
DEFAULT_255_2_778
10
15.910999
20
1.2280427
11
15.964199
21
1.1399427
0
LINE
8
DEFAULT_255_2_778
10
15.964199
20
1.1399427
11
16.022899
21
1.0659427
0
LINE
8
DEFAULT_255_2_778
10
16.022899
20
1.0659427
11
16.108099
21
0.9894427
0
LINE
8
DEFAULT_255_2_778
10
16.108099
20
0.9894427
11
16.222399
21
0.9262427
0
LINE
8
DEFAULT_255_2_778
10
16.222399
20
0.9262427
11
16.353899
21
0.8918427
0
LINE
8
DEFAULT_255_2_778
10
16.353899
20
0.8918427
11
16.514499
21
0.8891427
0
LINE
8
DEFAULT_255_2_778
10
16.514499
20
0.8891427
11
16.648699
21
0.9185427
0
LINE
8
DEFAULT_255_2_778
10
16.648699
20
0.9185427
11
16.765599
21
0.9770427
0
LINE
8
DEFAULT_255_2_778
10
16.765599
20
0.9770427
11
16.852399
21
1.0487427
0
LINE
8
DEFAULT_255_2_778
10
16.852399
20
1.0487427
11
16.927299
21
1.1399427
0
LINE
8
DEFAULT_255_2_778
10
16.927299
20
1.1399427
11
16.980199
21
1.2280427
0
LINE
8
DEFAULT_255_2_778
10
16.980199
20
1.2280427
11
17.015399
21
1.3035427
0
LINE
8
DEFAULT_255_2_778
10
17.015399
20
1.3035427
11
17.044499
21
1.3831427
0
LINE
8
DEFAULT_255_2_778
10
17.044499
20
1.3831427
11
17.060899
21
1.4394427
0
LINE
8
DEFAULT_255_2_778
10
17.060899
20
1.4394427
11
17.074099
21
1.4966427
0
LINE
8
DEFAULT_255_2_778
10
17.074099
20
1.4966427
11
17.084699
21
1.5543427
0
LINE
8
DEFAULT_255_2_778
10
17.084699
20
1.5543427
11
17.089999
21
1.5911427
0
LINE
8
DEFAULT_255_2_778
10
17.089999
20
1.5911427
11
17.094199
21
1.6281427
0
LINE
8
DEFAULT_255_2_778
10
17.094199
20
1.6281427
11
17.097399
21
1.6651427
0
LINE
8
DEFAULT_255_2_778
10
17.097399
20
1.6651427
11
17.097399
21
1.8869427
0
LINE
8
DEFAULT_255_2_778
10
17.097399
20
1.8869427
11
17.094199
21
1.9234427
0
LINE
8
DEFAULT_255_2_778
10
17.094199
20
1.9234427
11
17.089999
21
1.9599427
0
LINE
8
DEFAULT_255_2_778
10
17.089999
20
1.9599427
11
17.084699
21
1.9961427
0
LINE
8
DEFAULT_255_2_778
10
17.084699
20
1.9961427
11
17.074099
21
2.0530427
0
LINE
8
DEFAULT_255_2_778
10
17.074099
20
2.0530427
11
17.060599
21
2.1094427
0
LINE
8
DEFAULT_255_2_778
10
17.060599
20
2.1094427
11
17.043999
21
2.1649427
0
LINE
8
DEFAULT_255_2_778
10
17.043999
20
2.1649427
11
17.014299
21
2.2433427
0
LINE
8
DEFAULT_255_2_778
10
17.014299
20
2.2433427
11
16.978599
21
2.3173427
0
LINE
8
DEFAULT_255_2_778
10
16.978599
20
2.3173427
11
16.925199
21
2.4033427
0
LINE
8
DEFAULT_255_2_778
10
16.925199
20
2.4033427
11
16.850499
21
2.4917427
0
LINE
8
DEFAULT_255_2_778
10
16.850499
20
2.4917427
11
16.763999
21
2.5610427
0
LINE
8
DEFAULT_255_2_778
10
16.763999
20
2.5610427
11
16.647899
21
2.6176427
0
LINE
8
DEFAULT_255_2_778
10
16.647899
20
2.6176427
11
16.491799
21
2.6478427
0
LINE
8
DEFAULT_255_2_778
10
16.491799
20
2.6478427
11
16.376899
21
2.6462427
0
LINE
8
DEFAULT_255_2_778
10
16.387299
20
2.4528427
11
16.531499
21
2.4475427
0
LINE
8
DEFAULT_255_2_778
10
16.531499
20
2.4475427
11
16.636199
21
2.4039427
0
LINE
8
DEFAULT_255_2_778
10
16.636199
20
2.4039427
11
16.701599
21
2.3501427
0
LINE
8
DEFAULT_255_2_778
10
16.701599
20
2.3501427
11
16.756399
21
2.2797427
0
LINE
8
DEFAULT_255_2_778
10
16.756399
20
2.2797427
11
16.793399
21
2.2115427
0
LINE
8
DEFAULT_255_2_778
10
16.793399
20
2.2115427
11
16.826199
21
2.1292427
0
LINE
8
DEFAULT_255_2_778
10
16.826199
20
2.1292427
11
16.845499
21
2.0628427
0
LINE
8
DEFAULT_255_2_778
10
16.845499
20
2.0628427
11
16.856399
21
2.0139427
0
LINE
8
DEFAULT_255_2_778
10
16.856399
20
2.0139427
11
16.864799
21
1.9644427
0
LINE
8
DEFAULT_255_2_778
10
16.864799
20
1.9644427
11
16.871199
21
1.9123427
0
LINE
8
DEFAULT_255_2_778
10
16.871199
20
1.9123427
11
16.871199
21
1.6355427
0
LINE
8
DEFAULT_255_2_778
10
16.871199
20
1.6355427
11
16.864799
21
1.5826427
0
LINE
8
DEFAULT_255_2_778
10
16.864799
20
1.5826427
11
16.856599
21
1.5323427
0
LINE
8
DEFAULT_255_2_778
10
16.856599
20
1.5323427
11
16.845999
21
1.4826427
0
LINE
8
DEFAULT_255_2_778
10
16.845999
20
1.4826427
11
16.826499
21
1.4130427
0
LINE
8
DEFAULT_255_2_778
10
16.826499
20
1.4130427
11
16.801899
21
1.3471427
0
LINE
8
DEFAULT_255_2_778
10
16.801899
20
1.3471427
11
16.757899
21
1.2611427
0
LINE
8
DEFAULT_255_2_778
10
16.757899
20
1.2611427
11
16.692899
21
1.1783427
0
LINE
8
DEFAULT_255_2_778
10
16.692899
20
1.1783427
11
16.600199
21
1.1122427
0
LINE
8
DEFAULT_255_2_778
10
16.600199
20
1.1122427
11
16.474599
21
1.0799427
0
LINE
8
DEFAULT_255_2_778
10
16.474599
20
1.0799427
11
16.330599
21
1.0960427
0
LINE
8
DEFAULT_255_2_778
10
16.330599
20
1.0960427
11
16.230099
21
1.1500427
0
LINE
8
DEFAULT_255_2_778
10
16.230099
20
1.1500427
11
16.163999
21
1.2161427
0
LINE
8
DEFAULT_255_2_778
10
16.163999
20
1.2161427
11
16.114499
21
1.2929427
0
LINE
8
DEFAULT_255_2_778
10
16.114499
20
1.2929427
11
16.079799
21
1.3688427
0
LINE
8
DEFAULT_255_2_778
10
16.079799
20
1.3688427
11
16.057099
21
1.4355427
0
LINE
8
DEFAULT_255_2_778
10
16.057099
20
1.4355427
11
16.038799
21
1.5074427
0
LINE
8
DEFAULT_255_2_778
10
16.038799
20
1.5074427
11
16.029299
21
1.5575427
0
LINE
8
DEFAULT_255_2_778
10
16.029299
20
1.5575427
11
16.022099
21
1.6077427
0
LINE
8
DEFAULT_255_2_778
10
16.022099
20
1.6077427
11
16.019199
21
1.6355427
0
LINE
8
DEFAULT_255_2_778
10
16.019199
20
1.6355427
11
16.019199
21
1.9123427
0
LINE
8
DEFAULT_255_2_778
10
16.019199
20
1.9123427
11
16.025599
21
1.9644427
0
LINE
8
DEFAULT_255_2_778
10
16.025599
20
1.9644427
11
16.033999
21
2.0139427
0
LINE
8
DEFAULT_255_2_778
10
16.033999
20
2.0139427
11
16.044899
21
2.0628427
0
LINE
8
DEFAULT_255_2_778
10
16.044899
20
2.0628427
11
16.064699
21
2.1313427
0
LINE
8
DEFAULT_255_2_778
10
16.064699
20
2.1313427
11
16.089599
21
2.1962427
0
LINE
8
DEFAULT_255_2_778
10
16.089599
20
2.1962427
11
16.133799
21
2.2800427
0
LINE
8
DEFAULT_255_2_778
10
16.133799
20
2.2800427
11
16.198599
21
2.3605427
0
LINE
8
DEFAULT_255_2_778
10
16.198599
20
2.3605427
11
16.290999
21
2.4248427
0
LINE
8
DEFAULT_255_2_778
10
16.290999
20
2.4248427
11
16.387299
21
2.4528427
0
LINE
8
DEFAULT_255_2_778
10
14.010399
20
2.6462427
11
13.877599
21
2.6179427
0
LINE
8
DEFAULT_255_2_778
10
13.877599
20
2.6179427
11
13.761499
21
2.5613427
0
LINE
8
DEFAULT_255_2_778
10
13.761499
20
2.5613427
11
13.674899
21
2.4919427
0
LINE
8
DEFAULT_255_2_778
10
13.674899
20
2.4919427
11
13.599799
21
2.4036427
0
LINE
8
DEFAULT_255_2_778
10
13.599799
20
2.4036427
11
13.543499
21
2.3126427
0
LINE
8
DEFAULT_255_2_778
10
13.543499
20
2.3126427
11
13.509599
21
2.2414427
0
LINE
8
DEFAULT_255_2_778
10
13.509599
20
2.2414427
11
13.480999
21
2.1652427
0
LINE
8
DEFAULT_255_2_778
10
13.480999
20
2.1652427
11
13.464299
21
2.1096427
0
LINE
8
DEFAULT_255_2_778
10
13.464299
20
2.1096427
11
13.450799
21
2.0533427
0
LINE
8
DEFAULT_255_2_778
10
13.450799
20
2.0533427
11
13.440299
21
1.9964427
0
LINE
8
DEFAULT_255_2_778
10
13.440299
20
1.9964427
11
13.434999
21
1.9601427
0
LINE
8
DEFAULT_255_2_778
10
13.434999
20
1.9601427
11
13.430699
21
1.9236427
0
LINE
8
DEFAULT_255_2_778
10
13.430699
20
1.9236427
11
13.427599
21
1.8871427
0
LINE
8
DEFAULT_255_2_778
10
13.427599
20
1.8871427
11
13.427299
21
1.6651427
0
LINE
8
DEFAULT_255_2_778
10
13.427299
20
1.6651427
11
13.430499
21
1.6278427
0
LINE
8
DEFAULT_255_2_778
10
13.430499
20
1.6278427
11
13.434699
21
1.5908427
0
LINE
8
DEFAULT_255_2_778
10
13.434699
20
1.5908427
11
13.439999
21
1.5537427
0
LINE
8
DEFAULT_255_2_778
10
13.439999
20
1.5537427
11
13.450599
21
1.4961427
0
LINE
8
DEFAULT_255_2_778
10
13.450599
20
1.4961427
11
13.463799
21
1.4389427
0
LINE
8
DEFAULT_255_2_778
10
13.463799
20
1.4389427
11
13.480199
21
1.3826427
0
LINE
8
DEFAULT_255_2_778
10
13.480199
20
1.3826427
11
13.509299
21
1.3032427
0
LINE
8
DEFAULT_255_2_778
10
13.509299
20
1.3032427
11
13.544499
21
1.2280427
0
LINE
8
DEFAULT_255_2_778
10
13.544499
20
1.2280427
11
13.597699
21
1.1399427
0
LINE
8
DEFAULT_255_2_778
10
13.597699
20
1.1399427
11
13.656399
21
1.0659427
0
LINE
8
DEFAULT_255_2_778
10
13.656399
20
1.0659427
11
13.741599
21
0.9894427
0
LINE
8
DEFAULT_255_2_778
10
13.741599
20
0.9894427
11
13.855899
21
0.9262427
0
LINE
8
DEFAULT_255_2_778
10
13.855899
20
0.9262427
11
13.987399
21
0.8918427
0
LINE
8
DEFAULT_255_2_778
10
13.987399
20
0.8918427
11
14.147999
21
0.8891427
0
LINE
8
DEFAULT_255_2_778
10
14.147999
20
0.8891427
11
14.282199
21
0.9185427
0
LINE
8
DEFAULT_255_2_778
10
14.282199
20
0.9185427
11
14.399099
21
0.9770427
0
LINE
8
DEFAULT_255_2_778
10
14.399099
20
0.9770427
11
14.485899
21
1.0487427
0
LINE
8
DEFAULT_255_2_778
10
14.485899
20
1.0487427
11
14.560799
21
1.1399427
0
LINE
8
DEFAULT_255_2_778
10
14.560799
20
1.1399427
11
14.613699
21
1.2280427
0
LINE
8
DEFAULT_255_2_778
10
14.613699
20
1.2280427
11
14.648899
21
1.3035427
0
LINE
8
DEFAULT_255_2_778
10
14.648899
20
1.3035427
11
14.677999
21
1.3831427
0
LINE
8
DEFAULT_255_2_778
10
14.677999
20
1.3831427
11
14.694399
21
1.4394427
0
LINE
8
DEFAULT_255_2_778
10
14.694399
20
1.4394427
11
14.707599
21
1.4966427
0
LINE
8
DEFAULT_255_2_778
10
14.707599
20
1.4966427
11
14.718199
21
1.5543427
0
LINE
8
DEFAULT_255_2_778
10
14.718199
20
1.5543427
11
14.723499
21
1.5911427
0
LINE
8
DEFAULT_255_2_778
10
14.723499
20
1.5911427
11
14.727699
21
1.6281427
0
LINE
8
DEFAULT_255_2_778
10
14.727699
20
1.6281427
11
14.730899
21
1.6651427
0
LINE
8
DEFAULT_255_2_778
10
14.730899
20
1.6651427
11
14.730899
21
1.8869427
0
LINE
8
DEFAULT_255_2_778
10
14.730899
20
1.8869427
11
14.727699
21
1.9234427
0
LINE
8
DEFAULT_255_2_778
10
14.727699
20
1.9234427
11
14.723499
21
1.9599427
0
LINE
8
DEFAULT_255_2_778
10
14.723499
20
1.9599427
11
14.718199
21
1.9961427
0
LINE
8
DEFAULT_255_2_778
10
14.718199
20
1.9961427
11
14.707599
21
2.0530427
0
LINE
8
DEFAULT_255_2_778
10
14.707599
20
2.0530427
11
14.694099
21
2.1094427
0
LINE
8
DEFAULT_255_2_778
10
14.694099
20
2.1094427
11
14.677499
21
2.1649427
0
LINE
8
DEFAULT_255_2_778
10
14.677499
20
2.1649427
11
14.647799
21
2.2433427
0
LINE
8
DEFAULT_255_2_778
10
14.647799
20
2.2433427
11
14.612099
21
2.3173427
0
LINE
8
DEFAULT_255_2_778
10
14.612099
20
2.3173427
11
14.558699
21
2.4033427
0
LINE
8
DEFAULT_255_2_778
10
14.558699
20
2.4033427
11
14.483999
21
2.4917427
0
LINE
8
DEFAULT_255_2_778
10
14.483999
20
2.4917427
11
14.397499
21
2.5610427
0
LINE
8
DEFAULT_255_2_778
10
14.397499
20
2.5610427
11
14.281399
21
2.6176427
0
LINE
8
DEFAULT_255_2_778
10
14.281399
20
2.6176427
11
14.125299
21
2.6478427
0
LINE
8
DEFAULT_255_2_778
10
14.125299
20
2.6478427
11
14.010399
21
2.6462427
0
LINE
8
DEFAULT_255_2_778
10
14.020799
20
2.4528427
11
14.164999
21
2.4475427
0
LINE
8
DEFAULT_255_2_778
10
14.164999
20
2.4475427
11
14.269699
21
2.4039427
0
LINE
8
DEFAULT_255_2_778
10
14.269699
20
2.4039427
11
14.335099
21
2.3501427
0
LINE
8
DEFAULT_255_2_778
10
14.335099
20
2.3501427
11
14.389899
21
2.2797427
0
LINE
8
DEFAULT_255_2_778
10
14.389899
20
2.2797427
11
14.426899
21
2.2115427
0
LINE
8
DEFAULT_255_2_778
10
14.426899
20
2.2115427
11
14.459699
21
2.1292427
0
LINE
8
DEFAULT_255_2_778
10
14.459699
20
2.1292427
11
14.478999
21
2.0628427
0
LINE
8
DEFAULT_255_2_778
10
14.478999
20
2.0628427
11
14.489899
21
2.0139427
0
LINE
8
DEFAULT_255_2_778
10
14.489899
20
2.0139427
11
14.498299
21
1.9644427
0
LINE
8
DEFAULT_255_2_778
10
14.498299
20
1.9644427
11
14.504699
21
1.9123427
0
LINE
8
DEFAULT_255_2_778
10
14.504699
20
1.9123427
11
14.504699
21
1.6355427
0
LINE
8
DEFAULT_255_2_778
10
14.504699
20
1.6355427
11
14.498299
21
1.5826427
0
LINE
8
DEFAULT_255_2_778
10
14.498299
20
1.5826427
11
14.490099
21
1.5323427
0
LINE
8
DEFAULT_255_2_778
10
14.490099
20
1.5323427
11
14.479499
21
1.4826427
0
LINE
8
DEFAULT_255_2_778
10
14.479499
20
1.4826427
11
14.459999
21
1.4130427
0
LINE
8
DEFAULT_255_2_778
10
14.459999
20
1.4130427
11
14.435399
21
1.3471427
0
LINE
8
DEFAULT_255_2_778
10
14.435399
20
1.3471427
11
14.391399
21
1.2611427
0
LINE
8
DEFAULT_255_2_778
10
14.391399
20
1.2611427
11
14.326399
21
1.1783427
0
LINE
8
DEFAULT_255_2_778
10
14.326399
20
1.1783427
11
14.233699
21
1.1122427
0
LINE
8
DEFAULT_255_2_778
10
14.233699
20
1.1122427
11
14.108099
21
1.0799427
0
LINE
8
DEFAULT_255_2_778
10
14.108099
20
1.0799427
11
13.964099
21
1.0960427
0
LINE
8
DEFAULT_255_2_778
10
13.964099
20
1.0960427
11
13.863599
21
1.1500427
0
LINE
8
DEFAULT_255_2_778
10
13.863599
20
1.1500427
11
13.797499
21
1.2161427
0
LINE
8
DEFAULT_255_2_778
10
13.797499
20
1.2161427
11
13.747999
21
1.2929427
0
LINE
8
DEFAULT_255_2_778
10
13.747999
20
1.2929427
11
13.713299
21
1.3688427
0
LINE
8
DEFAULT_255_2_778
10
13.713299
20
1.3688427
11
13.690599
21
1.4355427
0
LINE
8
DEFAULT_255_2_778
10
13.690599
20
1.4355427
11
13.672299
21
1.5074427
0
LINE
8
DEFAULT_255_2_778
10
13.672299
20
1.5074427
11
13.662799
21
1.5575427
0
LINE
8
DEFAULT_255_2_778
10
13.662799
20
1.5575427
11
13.655599
21
1.6077427
0
LINE
8
DEFAULT_255_2_778
10
13.655599
20
1.6077427
11
13.652699
21
1.6355427
0
LINE
8
DEFAULT_255_2_778
10
13.652699
20
1.6355427
11
13.652699
21
1.9123427
0
LINE
8
DEFAULT_255_2_778
10
13.652699
20
1.9123427
11
13.659099
21
1.9644427
0
LINE
8
DEFAULT_255_2_778
10
13.659099
20
1.9644427
11
13.667499
21
2.0139427
0
LINE
8
DEFAULT_255_2_778
10
13.667499
20
2.0139427
11
13.678399
21
2.0628427
0
LINE
8
DEFAULT_255_2_778
10
13.678399
20
2.0628427
11
13.698199
21
2.1313427
0
LINE
8
DEFAULT_255_2_778
10
13.698199
20
2.1313427
11
13.723099
21
2.1962427
0
LINE
8
DEFAULT_255_2_778
10
13.723099
20
2.1962427
11
13.767299
21
2.2800427
0
LINE
8
DEFAULT_255_2_778
10
13.767299
20
2.2800427
11
13.832099
21
2.3605427
0
LINE
8
DEFAULT_255_2_778
10
13.832099
20
2.3605427
11
13.924499
21
2.4248427
0
LINE
8
DEFAULT_255_2_778
10
13.924499
20
2.4248427
11
14.020799
21
2.4528427
0
LINE
8
DEFAULT_255_2_778
10
7.3670648
20
2.6462567
11
7.2342648
21
2.6179567
0
LINE
8
DEFAULT_255_2_778
10
7.2342648
20
2.6179567
11
7.1181648
21
2.5613567
0
LINE
8
DEFAULT_255_2_778
10
7.1181648
20
2.5613567
11
7.0315648
21
2.4919567
0
LINE
8
DEFAULT_255_2_778
10
7.0315648
20
2.4919567
11
6.9564648
21
2.4036567
0
LINE
8
DEFAULT_255_2_778
10
6.9564648
20
2.4036567
11
6.9001648
21
2.3125567
0
LINE
8
DEFAULT_255_2_778
10
6.9001648
20
2.3125567
11
6.8662648
21
2.2414567
0
LINE
8
DEFAULT_255_2_778
10
6.8662648
20
2.2414567
11
6.8376648
21
2.1652567
0
LINE
8
DEFAULT_255_2_778
10
6.8376648
20
2.1652567
11
6.8209648
21
2.1096567
0
LINE
8
DEFAULT_255_2_778
10
6.8209648
20
2.1096567
11
6.8074648
21
2.0533567
0
LINE
8
DEFAULT_255_2_778
10
6.8074648
20
2.0533567
11
6.7969648
21
1.9964567
0
LINE
8
DEFAULT_255_2_778
10
6.7969648
20
1.9964567
11
6.7916648
21
1.9601567
0
LINE
8
DEFAULT_255_2_778
10
6.7916648
20
1.9601567
11
6.7873648
21
1.9236567
0
LINE
8
DEFAULT_255_2_778
10
6.7873648
20
1.9236567
11
6.7842648
21
1.8871567
0
LINE
8
DEFAULT_255_2_778
10
6.7842648
20
1.8871567
11
6.7839648
21
1.6651567
0
LINE
8
DEFAULT_255_2_778
10
6.7839648
20
1.6651567
11
6.7871648
21
1.6278567
0
LINE
8
DEFAULT_255_2_778
10
6.7871648
20
1.6278567
11
6.7913648
21
1.5908567
0
LINE
8
DEFAULT_255_2_778
10
6.7913648
20
1.5908567
11
6.7966648
21
1.5537567
0
LINE
8
DEFAULT_255_2_778
10
6.7966648
20
1.5537567
11
6.8072648
21
1.4960567
0
LINE
8
DEFAULT_255_2_778
10
6.8072648
20
1.4960567
11
6.8204648
21
1.4389567
0
LINE
8
DEFAULT_255_2_778
10
6.8204648
20
1.4389567
11
6.8368648
21
1.3825567
0
LINE
8
DEFAULT_255_2_778
10
6.8368648
20
1.3825567
11
6.8659648
21
1.3032567
0
LINE
8
DEFAULT_255_2_778
10
6.8659648
20
1.3032567
11
6.9011648
21
1.2280567
0
LINE
8
DEFAULT_255_2_778
10
6.9011648
20
1.2280567
11
6.9543648
21
1.1399567
0
LINE
8
DEFAULT_255_2_778
10
6.9543648
20
1.1399567
11
7.0130648
21
1.0658567
0
LINE
8
DEFAULT_255_2_778
10
7.0130648
20
1.0658567
11
7.0982648
21
0.9894567
0
LINE
8
DEFAULT_255_2_778
10
7.0982648
20
0.9894567
11
7.2125648
21
0.9261567
0
LINE
8
DEFAULT_255_2_778
10
7.2125648
20
0.9261567
11
7.3440648
21
0.8917567
0
LINE
8
DEFAULT_255_2_778
10
7.3440648
20
0.8917567
11
7.5046648
21
0.8891567
0
LINE
8
DEFAULT_255_2_778
10
7.5046648
20
0.8891567
11
7.6388648
21
0.9185567
0
LINE
8
DEFAULT_255_2_778
10
7.6388648
20
0.9185567
11
7.7557648
21
0.9769567
0
LINE
8
DEFAULT_255_2_778
10
7.7557648
20
0.9769567
11
7.8425648
21
1.0486567
0
LINE
8
DEFAULT_255_2_778
10
7.8425648
20
1.0486567
11
7.9174648
21
1.1399567
0
LINE
8
DEFAULT_255_2_778
10
7.9174648
20
1.1399567
11
7.9703648
21
1.2280567
0
LINE
8
DEFAULT_255_2_778
10
7.9703648
20
1.2280567
11
8.0055648
21
1.3034567
0
LINE
8
DEFAULT_255_2_778
10
8.0055648
20
1.3034567
11
8.0346648
21
1.3831567
0
LINE
8
DEFAULT_255_2_778
10
8.0346648
20
1.3831567
11
8.0510648
21
1.4394567
0
LINE
8
DEFAULT_255_2_778
10
8.0510648
20
1.4394567
11
8.0642648
21
1.4966567
0
LINE
8
DEFAULT_255_2_778
10
8.0642648
20
1.4966567
11
8.0748648
21
1.5542567
0
LINE
8
DEFAULT_255_2_778
10
8.0748648
20
1.5542567
11
8.0801648
21
1.5910567
0
LINE
8
DEFAULT_255_2_778
10
8.0801648
20
1.5910567
11
8.0843648
21
1.6281567
0
LINE
8
DEFAULT_255_2_778
10
8.0843648
20
1.6281567
11
8.0875648
21
1.6651567
0
LINE
8
DEFAULT_255_2_778
10
8.0875648
20
1.6651567
11
8.0875648
21
1.8868567
0
LINE
8
DEFAULT_255_2_778
10
8.0875648
20
1.8868567
11
8.0843648
21
1.9233567
0
LINE
8
DEFAULT_255_2_778
10
8.0843648
20
1.9233567
11
8.0801648
21
1.9599567
0
LINE
8
DEFAULT_255_2_778
10
8.0801648
20
1.9599567
11
8.0748648
21
1.9961567
0
LINE
8
DEFAULT_255_2_778
10
8.0748648
20
1.9961567
11
8.0642648
21
2.0530567
0
LINE
8
DEFAULT_255_2_778
10
8.0642648
20
2.0530567
11
8.0507648
21
2.1093567
0
LINE
8
DEFAULT_255_2_778
10
8.0507648
20
2.1093567
11
8.0341648
21
2.1649567
0
LINE
8
DEFAULT_255_2_778
10
8.0341648
20
2.1649567
11
8.0044648
21
2.2432567
0
LINE
8
DEFAULT_255_2_778
10
8.0044648
20
2.2432567
11
7.9687648
21
2.3173567
0
LINE
8
DEFAULT_255_2_778
10
7.9687648
20
2.3173567
11
7.9153648
21
2.4033567
0
LINE
8
DEFAULT_255_2_778
10
7.9153648
20
2.4033567
11
7.8406648
21
2.4917567
0
LINE
8
DEFAULT_255_2_778
10
7.8406648
20
2.4917567
11
7.7541648
21
2.5610567
0
LINE
8
DEFAULT_255_2_778
10
7.7541648
20
2.5610567
11
7.6380648
21
2.6176567
0
LINE
8
DEFAULT_255_2_778
10
7.6380648
20
2.6176567
11
7.4819648
21
2.6478567
0
LINE
8
DEFAULT_255_2_778
10
7.4819648
20
2.6478567
11
7.3670648
21
2.6462567
0
LINE
8
DEFAULT_255_2_778
10
7.3919648
20
2.4544567
11
7.5358648
21
2.4438567
0
LINE
8
DEFAULT_255_2_778
10
7.5358648
20
2.4438567
11
7.6382648
21
2.3959567
0
LINE
8
DEFAULT_255_2_778
10
7.6382648
20
2.3959567
11
7.7041648
21
2.3369567
0
LINE
8
DEFAULT_255_2_778
10
7.7041648
20
2.3369567
11
7.7562648
21
2.2644567
0
LINE
8
DEFAULT_255_2_778
10
7.7562648
20
2.2644567
11
7.7930648
21
2.1914567
0
LINE
8
DEFAULT_255_2_778
10
7.7930648
20
2.1914567
11
7.8166648
21
2.1292567
0
LINE
8
DEFAULT_255_2_778
10
7.8166648
20
2.1292567
11
7.8359648
21
2.0628567
0
LINE
8
DEFAULT_255_2_778
10
7.8359648
20
2.0628567
11
7.8467648
21
2.0138567
0
LINE
8
DEFAULT_255_2_778
10
7.8467648
20
2.0138567
11
7.8552648
21
1.9644567
0
LINE
8
DEFAULT_255_2_778
10
7.8552648
20
1.9644567
11
7.8615648
21
1.9122567
0
LINE
8
DEFAULT_255_2_778
10
7.8615648
20
1.9122567
11
7.8615648
21
1.6355567
0
LINE
8
DEFAULT_255_2_778
10
7.8615648
20
1.6355567
11
7.8552648
21
1.5826567
0
LINE
8
DEFAULT_255_2_778
10
7.8552648
20
1.5826567
11
7.8470648
21
1.5323567
0
LINE
8
DEFAULT_255_2_778
10
7.8470648
20
1.5323567
11
7.8364648
21
1.4825567
0
LINE
8
DEFAULT_255_2_778
10
7.8364648
20
1.4825567
11
7.8168648
21
1.4130567
0
LINE
8
DEFAULT_255_2_778
10
7.8168648
20
1.4130567
11
7.7922648
21
1.3471567
0
LINE
8
DEFAULT_255_2_778
10
7.7922648
20
1.3471567
11
7.7483648
21
1.2611567
0
LINE
8
DEFAULT_255_2_778
10
7.7483648
20
1.2611567
11
7.6832648
21
1.1783567
0
LINE
8
DEFAULT_255_2_778
10
7.6832648
20
1.1783567
11
7.5906648
21
1.1121567
0
LINE
8
DEFAULT_255_2_778
10
7.5906648
20
1.1121567
11
7.4649648
21
1.0799567
0
LINE
8
DEFAULT_255_2_778
10
7.4649648
20
1.0799567
11
7.3210648
21
1.0960567
0
LINE
8
DEFAULT_255_2_778
10
7.3210648
20
1.0960567
11
7.2205648
21
1.1500567
0
LINE
8
DEFAULT_255_2_778
10
7.2205648
20
1.1500567
11
7.1543648
21
1.2161567
0
LINE
8
DEFAULT_255_2_778
10
7.1543648
20
1.2161567
11
7.1048648
21
1.2928567
0
LINE
8
DEFAULT_255_2_778
10
7.1048648
20
1.2928567
11
7.0702648
21
1.3688567
0
LINE
8
DEFAULT_255_2_778
10
7.0702648
20
1.3688567
11
7.0474648
21
1.4355567
0
LINE
8
DEFAULT_255_2_778
10
7.0474648
20
1.4355567
11
7.0292648
21
1.5074567
0
LINE
8
DEFAULT_255_2_778
10
7.0292648
20
1.5074567
11
7.0196648
21
1.5574567
0
LINE
8
DEFAULT_255_2_778
10
7.0196648
20
1.5574567
11
7.0125648
21
1.6077567
0
LINE
8
DEFAULT_255_2_778
10
7.0125648
20
1.6077567
11
7.0096648
21
1.6355567
0
LINE
8
DEFAULT_255_2_778
10
7.0096648
20
1.6355567
11
7.0096648
21
1.9122567
0
LINE
8
DEFAULT_255_2_778
10
7.0096648
20
1.9122567
11
7.0159648
21
1.9644567
0
LINE
8
DEFAULT_255_2_778
10
7.0159648
20
1.9644567
11
7.0244648
21
2.0138567
0
LINE
8
DEFAULT_255_2_778
10
7.0244648
20
2.0138567
11
7.0353648
21
2.0628567
0
LINE
8
DEFAULT_255_2_778
10
7.0353648
20
2.0628567
11
7.0551648
21
2.1313567
0
LINE
8
DEFAULT_255_2_778
10
7.0551648
20
2.1313567
11
7.0800648
21
2.1961567
0
LINE
8
DEFAULT_255_2_778
10
7.0800648
20
2.1961567
11
7.1242648
21
2.2800567
0
LINE
8
DEFAULT_255_2_778
10
7.1242648
20
2.2800567
11
7.1890648
21
2.3604567
0
LINE
8
DEFAULT_255_2_778
10
7.1890648
20
2.3604567
11
7.2813648
21
2.4247567
0
LINE
8
DEFAULT_255_2_778
10
7.2813648
20
2.4247567
11
7.3919648
21
2.4544567
0
LINE
8
DEFAULT_255_2_778
10
12.8646648
20
121.5872567
11
12.6240648
21
121.6068567
0
LINE
8
DEFAULT_255_2_778
10
12.6240648
20
121.6068567
11
12.4081648
21
121.5812567
0
LINE
8
DEFAULT_255_2_778
10
12.4081648
20
121.5812567
11
12.1803648
21
121.4870567
0
LINE
8
DEFAULT_255_2_778
10
12.1803648
20
121.4870567
11
12.0473648
21
121.3705567
0
LINE
8
DEFAULT_255_2_778
10
12.0473648
20
121.3705567
11
11.9816648
21
121.2674567
0
LINE
8
DEFAULT_255_2_778
10
11.9816648
20
121.2674567
11
11.9512648
21
121.1872567
0
LINE
8
DEFAULT_255_2_778
10
11.9512648
20
121.1872567
11
11.9367648
21
121.1261567
0
LINE
8
DEFAULT_255_2_778
10
11.9367648
20
121.1261567
11
11.9311648
21
121.0890567
0
LINE
8
DEFAULT_255_2_778
10
11.9311648
20
121.0890567
11
11.9287648
21
121.0642567
0
LINE
8
DEFAULT_255_2_778
10
11.9287648
20
121.0642567
11
11.9269648
21
121.0022567
0
LINE
8
DEFAULT_255_2_778
10
11.9269648
20
121.0022567
11
12.2121648
21
121.0022567
0
LINE
8
DEFAULT_255_2_778
10
12.2121648
20
121.0022567
11
12.2145648
21
121.0515567
0
LINE
8
DEFAULT_255_2_778
10
12.2145648
20
121.0515567
11
12.2208648
21
121.0880567
0
LINE
8
DEFAULT_255_2_778
10
12.2208648
20
121.0880567
11
12.2346648
21
121.1337567
0
LINE
8
DEFAULT_255_2_778
10
12.2346648
20
121.1337567
11
12.2655648
21
121.1951567
0
LINE
8
DEFAULT_255_2_778
10
12.2655648
20
121.1951567
11
12.3465648
21
121.2798567
0
LINE
8
DEFAULT_255_2_778
10
12.3465648
20
121.2798567
11
12.4759648
21
121.3457567
0
LINE
8
DEFAULT_255_2_778
10
12.4759648
20
121.3457567
11
12.6828648
21
121.3695567
0
LINE
8
DEFAULT_255_2_778
10
12.6828648
20
121.3695567
11
12.8540648
21
121.3356567
0
LINE
8
DEFAULT_255_2_778
10
12.8540648
20
121.3356567
11
12.9815648
21
121.2573567
0
LINE
8
DEFAULT_255_2_778
10
12.9815648
20
121.2573567
11
13.0397648
21
121.1856567
0
LINE
8
DEFAULT_255_2_778
10
13.0397648
20
121.1856567
11
13.0678648
21
121.1224567
0
LINE
8
DEFAULT_255_2_778
10
13.0678648
20
121.1224567
11
13.0773648
21
121.0869567
0
LINE
8
DEFAULT_255_2_778
10
13.0773648
20
121.0869567
11
13.0834648
21
121.0496567
0
LINE
8
DEFAULT_255_2_778
10
13.0834648
20
121.0496567
11
13.0810648
21
120.9430567
0
LINE
8
DEFAULT_255_2_778
10
13.0810648
20
120.9430567
11
13.0701648
21
120.8975567
0
LINE
8
DEFAULT_255_2_778
10
13.0701648
20
120.8975567
11
13.0339648
21
120.8229567
0
LINE
8
DEFAULT_255_2_778
10
13.0339648
20
120.8229567
11
12.9191648
21
120.7138567
0
LINE
8
DEFAULT_255_2_778
10
12.9191648
20
120.7138567
11
12.7077648
21
120.6321567
0
LINE
8
DEFAULT_255_2_778
10
12.7077648
20
120.6321567
11
12.5870648
21
120.6218567
0
LINE
8
DEFAULT_255_2_778
10
12.5870648
20
120.6218567
11
12.4888648
21
120.6218567
0
LINE
8
DEFAULT_255_2_778
10
12.4888648
20
120.6218567
11
12.4888648
21
120.3754567
0
LINE
8
DEFAULT_255_2_778
10
12.4888648
20
120.3754567
11
12.8058648
21
120.3543567
0
LINE
8
DEFAULT_255_2_778
10
12.8058648
20
120.3543567
11
12.9984648
21
120.2712567
0
LINE
8
DEFAULT_255_2_778
10
12.9984648
20
120.2712567
11
13.0749648
21
120.1963567
0
LINE
8
DEFAULT_255_2_778
10
13.0749648
20
120.1963567
11
13.1077648
21
120.1373567
0
LINE
8
DEFAULT_255_2_778
10
13.1077648
20
120.1373567
11
13.1217648
21
120.0929567
0
LINE
8
DEFAULT_255_2_778
10
13.1217648
20
120.0929567
11
13.1278648
21
120.0579567
0
LINE
8
DEFAULT_255_2_778
10
13.1278648
20
120.0579567
11
13.1268648
21
119.9381567
0
LINE
8
DEFAULT_255_2_778
10
13.1268648
20
119.9381567
11
13.1188648
21
119.8955567
0
LINE
8
DEFAULT_255_2_778
10
13.1188648
20
119.8955567
11
13.1032648
21
119.8436567
0
LINE
8
DEFAULT_255_2_778
10
13.1032648
20
119.8436567
11
13.0752648
21
119.7841567
0
LINE
8
DEFAULT_255_2_778
10
13.0752648
20
119.7841567
11
13.0098648
21
119.7021567
0
LINE
8
DEFAULT_255_2_778
10
13.0098648
20
119.7021567
11
12.8939648
21
119.6230567
0
LINE
8
DEFAULT_255_2_778
10
12.8939648
20
119.6230567
11
12.7137648
21
119.5764567
0
LINE
8
DEFAULT_255_2_778
10
12.7137648
20
119.5764567
11
12.4783648
21
119.6015567
0
LINE
8
DEFAULT_255_2_778
10
12.4783648
20
119.6015567
11
12.3264648
21
119.6939567
0
LINE
8
DEFAULT_255_2_778
10
12.3264648
20
119.6939567
11
12.2341648
21
119.8063567
0
LINE
8
DEFAULT_255_2_778
10
12.2341648
20
119.8063567
11
12.1848648
21
119.9106567
0
LINE
8
DEFAULT_255_2_778
10
12.1848648
20
119.9106567
11
12.1655648
21
119.9743567
0
LINE
8
DEFAULT_255_2_778
10
12.1655648
20
119.9743567
11
11.8647648
21
119.9743567
0
LINE
8
DEFAULT_255_2_778
10
11.8647648
20
119.9743567
11
11.8732648
21
119.9270567
0
LINE
8
DEFAULT_255_2_778
10
11.8732648
20
119.9270567
11
11.8843648
21
119.8801567
0
LINE
8
DEFAULT_255_2_778
10
11.8843648
20
119.8801567
11
11.9060648
21
119.8111567
0
LINE
8
DEFAULT_255_2_778
10
11.9060648
20
119.8111567
11
11.9425648
21
119.7267567
0
LINE
8
DEFAULT_255_2_778
10
11.9425648
20
119.7267567
11
11.9883648
21
119.6489567
0
LINE
8
DEFAULT_255_2_778
10
11.9883648
20
119.6489567
11
12.0592648
21
119.5613567
0
LINE
8
DEFAULT_255_2_778
10
12.0592648
20
119.5613567
11
12.1457648
21
119.4838567
0
LINE
8
DEFAULT_255_2_778
10
12.1457648
20
119.4838567
11
12.2780648
21
119.4026567
0
LINE
8
DEFAULT_255_2_778
10
12.2780648
20
119.4026567
11
12.4256648
21
119.3499567
0
LINE
8
DEFAULT_255_2_778
10
12.4256648
20
119.3499567
11
12.6166648
21
119.3251567
0
LINE
8
DEFAULT_255_2_778
10
12.6166648
20
119.3251567
11
12.8251648
21
119.3372567
0
LINE
8
DEFAULT_255_2_778
10
12.8251648
20
119.3372567
11
13.0122648
21
119.3851567
0
LINE
8
DEFAULT_255_2_778
10
13.0122648
20
119.3851567
11
13.1553648
21
119.4576567
0
LINE
8
DEFAULT_255_2_778
10
13.1553648
20
119.4576567
11
13.2548648
21
119.5383567
0
LINE
8
DEFAULT_255_2_778
10
13.2548648
20
119.5383567
11
13.3218648
21
119.6185567
0
LINE
8
DEFAULT_255_2_778
10
13.3218648
20
119.6185567
11
13.3630648
21
119.6902567
0
LINE
8
DEFAULT_255_2_778
10
13.3630648
20
119.6902567
11
13.3871648
21
119.7476567
0
LINE
8
DEFAULT_255_2_778
10
13.3871648
20
119.7476567
11
13.4056648
21
119.8087567
0
LINE
8
DEFAULT_255_2_778
10
13.4056648
20
119.8087567
11
13.4149648
21
119.8529567
0
LINE
8
DEFAULT_255_2_778
10
13.4149648
20
119.8529567
11
13.4212648
21
119.8976567
0
LINE
8
DEFAULT_255_2_778
10
13.4212648
20
119.8976567
11
13.4191648
21
120.0849567
0
LINE
8
DEFAULT_255_2_778
10
13.4191648
20
120.0849567
11
13.4088648
21
120.1394567
0
LINE
8
DEFAULT_255_2_778
10
13.4088648
20
120.1394567
11
13.3847648
21
120.2127567
0
LINE
8
DEFAULT_255_2_778
10
13.3847648
20
120.2127567
11
13.3194648
21
120.3194567
0
LINE
8
DEFAULT_255_2_778
10
13.3194648
20
120.3194567
11
13.1609648
21
120.4482567
0
LINE
8
DEFAULT_255_2_778
10
13.1609648
20
120.4482567
11
13.0175648
21
120.5001567
0
LINE
8
DEFAULT_255_2_778
10
13.0175648
20
120.5001567
11
13.1617648
21
120.5839567
0
LINE
8
DEFAULT_255_2_778
10
13.1617648
20
120.5839567
11
13.2522648
21
120.6683567
0
LINE
8
DEFAULT_255_2_778
10
13.2522648
20
120.6683567
11
13.3006648
21
120.7340567
0
LINE
8
DEFAULT_255_2_778
10
13.3006648
20
120.7340567
11
13.3371648
21
120.8046567
0
LINE
8
DEFAULT_255_2_778
10
13.3371648
20
120.8046567
11
13.3569648
21
120.8607567
0
LINE
8
DEFAULT_255_2_778
10
13.3569648
20
120.8607567
11
13.3670648
21
120.9014567
0
LINE
8
DEFAULT_255_2_778
10
13.3670648
20
120.9014567
11
13.3739648
21
120.9430567
0
LINE
8
DEFAULT_255_2_778
10
13.3739648
20
120.9430567
11
13.3718648
21
121.1255567
0
LINE
8
DEFAULT_255_2_778
10
13.3718648
20
121.1255567
11
13.3641648
21
121.1642567
0
LINE
8
DEFAULT_255_2_778
10
13.3641648
20
121.1642567
11
13.3477648
21
121.2197567
0
LINE
8
DEFAULT_255_2_778
10
13.3477648
20
121.2197567
11
13.3173648
21
121.2875567
0
LINE
8
DEFAULT_255_2_778
10
13.3173648
20
121.2875567
11
13.2770648
21
121.3499567
0
LINE
8
DEFAULT_255_2_778
10
13.2770648
20
121.3499567
11
13.1963648
21
121.4343567
0
LINE
8
DEFAULT_255_2_778
10
13.1963648
20
121.4343567
11
13.0701648
21
121.5174567
0
LINE
8
DEFAULT_255_2_778
10
13.0701648
20
121.5174567
11
12.9130648
21
121.5764567
0
LINE
8
DEFAULT_255_2_778
10
12.9130648
20
121.5764567
11
12.8651648
21
121.5872567
0
LINE
8
DEFAULT_255_2_778
10
16.9772648
20
117.0062567
11
17.1595648
21
117.0200567
0
LINE
8
DEFAULT_255_2_778
10
17.1595648
20
117.0200567
11
17.1595648
21
116.8573567
0
LINE
8
DEFAULT_255_2_778
10
17.1595648
20
116.8573567
11
16.8481648
21
116.8575567
0
LINE
8
DEFAULT_255_2_778
10
16.8481648
20
116.8575567
11
16.7222648
21
116.9419567
0
LINE
8
DEFAULT_255_2_778
10
16.7222648
20
116.9419567
11
16.6867648
21
117.0060567
0
LINE
8
DEFAULT_255_2_778
10
16.6867648
20
117.0060567
11
16.6780648
21
117.0459567
0
LINE
8
DEFAULT_255_2_778
10
16.6780648
20
117.0459567
11
16.6764648
21
117.9008567
0
LINE
8
DEFAULT_255_2_778
10
16.6764648
20
117.9008567
11
16.4430648
21
117.9008567
0
LINE
8
DEFAULT_255_2_778
10
16.4430648
20
117.9008567
11
16.4430648
21
118.0588567
0
LINE
8
DEFAULT_255_2_778
10
16.4430648
20
118.0588567
11
16.6764648
21
118.0588567
0
LINE
8
DEFAULT_255_2_778
10
16.6764648
20
118.0588567
11
16.6764648
21
118.2720567
0
LINE
8
DEFAULT_255_2_778
10
16.6764648
20
118.2720567
11
16.8836648
21
118.3625567
0
LINE
8
DEFAULT_255_2_778
10
16.8836648
20
118.3625567
11
16.8836648
21
118.0588567
0
LINE
8
DEFAULT_255_2_778
10
16.8836648
20
118.0588567
11
17.1595648
21
118.0588567
0
LINE
8
DEFAULT_255_2_778
10
17.1595648
20
118.0588567
11
17.1595648
21
117.9008567
0
LINE
8
DEFAULT_255_2_778
10
17.1595648
20
117.9008567
11
16.8836648
21
117.9008567
0
LINE
8
DEFAULT_255_2_778
10
16.8836648
20
117.9008567
11
16.8860648
21
117.0912567
0
LINE
8
DEFAULT_255_2_778
10
16.8860648
20
117.0912567
11
16.9360648
21
117.0187567
0
LINE
8
DEFAULT_255_2_778
10
16.9360648
20
117.0187567
11
16.9770648
21
117.0062567
0
LINE
8
DEFAULT_255_2_778
10
19.5895648
20
118.5744567
11
19.7966648
21
118.5744567
0
LINE
8
DEFAULT_255_2_778
10
19.7966648
20
118.5744567
11
19.7966648
21
116.8745567
0
LINE
8
DEFAULT_255_2_778
10
19.7966648
20
116.8745567
11
19.5895648
21
116.8745567
0
LINE
8
DEFAULT_255_2_778
10
19.5895648
20
116.8745567
11
19.5895648
21
118.5744567
0
LINE
8
DEFAULT_255_2_778
10
20.0901648
20
121.3512567
11
20.2496648
21
121.2975567
0
LINE
8
DEFAULT_255_2_778
10
20.2496648
20
121.2975567
11
20.3517648
21
121.2250567
0
LINE
8
DEFAULT_255_2_778
10
20.3517648
20
121.2250567
11
20.3964648
21
121.1695567
0
LINE
8
DEFAULT_255_2_778
10
20.3964648
20
121.1695567
11
20.4216648
21
121.1200567
0
LINE
8
DEFAULT_255_2_778
10
20.4216648
20
121.1200567
11
20.4343648
21
121.0819567
0
LINE
8
DEFAULT_255_2_778
10
20.4343648
20
121.0819567
11
20.4398648
21
121.0562567
0
LINE
8
DEFAULT_255_2_778
10
20.4398648
20
121.0562567
11
20.4433648
21
121.0303567
0
LINE
8
DEFAULT_255_2_778
10
20.4433648
20
121.0303567
11
20.4446648
21
120.9911567
0
LINE
8
DEFAULT_255_2_778
10
20.4446648
20
120.9911567
11
20.7534648
21
120.9911567
0
LINE
8
DEFAULT_255_2_778
10
20.7534648
20
120.9911567
11
20.7515648
21
121.0575567
0
LINE
8
DEFAULT_255_2_778
10
20.7515648
20
121.0575567
11
20.7491648
21
121.0798567
0
LINE
8
DEFAULT_255_2_778
10
20.7491648
20
121.0798567
11
20.7415648
21
121.1237567
0
LINE
8
DEFAULT_255_2_778
10
20.7415648
20
121.1237567
11
20.7304648
21
121.1668567
0
LINE
8
DEFAULT_255_2_778
10
20.7304648
20
121.1668567
11
20.7153648
21
121.2099567
0
LINE
8
DEFAULT_255_2_778
10
20.7153648
20
121.2099567
11
20.6854648
21
121.2734567
0
LINE
8
DEFAULT_255_2_778
10
20.6854648
20
121.2734567
11
20.6473648
21
121.3322567
0
LINE
8
DEFAULT_255_2_778
10
20.6473648
20
121.3322567
11
20.5817648
21
121.4044567
0
LINE
8
DEFAULT_255_2_778
10
20.5817648
20
121.4044567
11
20.4822648
21
121.4790567
0
LINE
8
DEFAULT_255_2_778
10
20.4822648
20
121.4790567
11
20.3467648
21
121.5457567
0
LINE
8
DEFAULT_255_2_778
10
20.3467648
20
121.5457567
11
20.1607648
21
121.5970567
0
LINE
8
DEFAULT_255_2_778
10
20.1607648
20
121.5970567
11
19.9490648
21
121.6174567
0
LINE
8
DEFAULT_255_2_778
10
19.9490648
20
121.6174567
11
19.7427648
21
121.6066567
0
LINE
8
DEFAULT_255_2_778
10
19.7427648
20
121.6066567
11
19.5559648
21
121.5637567
0
LINE
8
DEFAULT_255_2_778
10
19.5559648
20
121.5637567
11
19.4045648
21
121.4957567
0
LINE
8
DEFAULT_255_2_778
10
19.4045648
20
121.4957567
11
19.2918648
21
121.4168567
0
LINE
8
DEFAULT_255_2_778
10
19.2918648
20
121.4168567
11
19.1942648
21
121.3203567
0
LINE
8
DEFAULT_255_2_778
10
19.1942648
20
121.3203567
11
19.1219648
21
121.2245567
0
LINE
8
DEFAULT_255_2_778
10
19.1219648
20
121.2245567
11
19.0725648
21
121.1406567
0
LINE
8
DEFAULT_255_2_778
10
19.0725648
20
121.1406567
11
19.0312648
21
121.0525567
0
LINE
8
DEFAULT_255_2_778
10
19.0312648
20
121.0525567
11
19.0063648
21
120.9864567
0
LINE
8
DEFAULT_255_2_778
10
19.0063648
20
120.9864567
11
18.9854648
21
120.9189567
0
LINE
8
DEFAULT_255_2_778
10
18.9854648
20
120.9189567
11
18.9682648
21
120.8504567
0
LINE
8
DEFAULT_255_2_778
10
18.9682648
20
120.8504567
11
18.9545648
21
120.7811567
0
LINE
8
DEFAULT_255_2_778
10
18.9545648
20
120.7811567
11
18.9481648
21
120.7416567
0
LINE
8
DEFAULT_255_2_778
10
18.9481648
20
120.7416567
11
18.9428648
21
120.7022567
0
LINE
8
DEFAULT_255_2_778
10
18.9428648
20
120.7022567
11
18.9383648
21
120.6625567
0
LINE
8
DEFAULT_255_2_778
10
18.9383648
20
120.6625567
11
18.9349648
21
120.6228567
0
LINE
8
DEFAULT_255_2_778
10
18.9349648
20
120.6228567
11
18.9349648
21
120.3051567
0
LINE
8
DEFAULT_255_2_778
10
18.9349648
20
120.3051567
11
18.9383648
21
120.2656567
0
LINE
8
DEFAULT_255_2_778
10
18.9383648
20
120.2656567
11
18.9428648
21
120.2262567
0
LINE
8
DEFAULT_255_2_778
10
18.9428648
20
120.2262567
11
18.9481648
21
120.1871567
0
LINE
8
DEFAULT_255_2_778
10
18.9481648
20
120.1871567
11
18.9545648
21
120.1479567
0
LINE
8
DEFAULT_255_2_778
10
18.9545648
20
120.1479567
11
18.9682648
21
120.0794567
0
LINE
8
DEFAULT_255_2_778
10
18.9682648
20
120.0794567
11
18.9857648
21
120.0114567
0
LINE
8
DEFAULT_255_2_778
10
18.9857648
20
120.0114567
11
19.0069648
21
119.9447567
0
LINE
8
DEFAULT_255_2_778
10
19.0069648
20
119.9447567
11
19.0320648
21
119.8794567
0
LINE
8
DEFAULT_255_2_778
10
19.0320648
20
119.8794567
11
19.0735648
21
119.7923567
0
LINE
8
DEFAULT_255_2_778
10
19.0735648
20
119.7923567
11
19.1233648
21
119.7095567
0
LINE
8
DEFAULT_255_2_778
10
19.1233648
20
119.7095567
11
19.1958648
21
119.6161567
0
LINE
8
DEFAULT_255_2_778
10
19.1958648
20
119.6161567
11
19.2931648
21
119.5230567
0
LINE
8
DEFAULT_255_2_778
10
19.2931648
20
119.5230567
11
19.4053648
21
119.4473567
0
LINE
8
DEFAULT_255_2_778
10
19.4053648
20
119.4473567
11
19.5561648
21
119.3819567
0
LINE
8
DEFAULT_255_2_778
10
19.5561648
20
119.3819567
11
19.7427648
21
119.3404567
0
LINE
8
DEFAULT_255_2_778
10
19.7427648
20
119.3404567
11
19.9832648
21
119.3317567
0
LINE
8
DEFAULT_255_2_778
10
19.9832648
20
119.3317567
11
20.1861648
21
119.3584567
0
LINE
8
DEFAULT_255_2_778
10
20.1861648
20
119.3584567
11
20.3382648
21
119.4055567
0
LINE
8
DEFAULT_255_2_778
10
20.3382648
20
119.4055567
11
20.4949648
21
119.4888567
0
LINE
8
DEFAULT_255_2_778
10
20.4949648
20
119.4888567
11
20.5912648
21
119.5677567
0
LINE
8
DEFAULT_255_2_778
10
20.5912648
20
119.5677567
11
20.6531648
21
119.6412567
0
LINE
8
DEFAULT_255_2_778
10
20.6531648
20
119.6412567
11
20.6893648
21
119.7010567
0
LINE
8
DEFAULT_255_2_778
10
20.6893648
20
119.7010567
11
20.7179648
21
119.7651567
0
LINE
8
DEFAULT_255_2_778
10
20.7179648
20
119.7651567
11
20.7317648
21
119.8066567
0
LINE
8
DEFAULT_255_2_778
10
20.7317648
20
119.8066567
11
20.7420648
21
119.8489567
0
LINE
8
DEFAULT_255_2_778
10
20.7420648
20
119.8489567
11
20.7460648
21
119.8704567
0
LINE
8
DEFAULT_255_2_778
10
20.7460648
20
119.8704567
11
20.7491648
21
119.8921567
0
LINE
8
DEFAULT_255_2_778
10
20.7491648
20
119.8921567
11
20.7513648
21
119.9137567
0
LINE
8
DEFAULT_255_2_778
10
20.7513648
20
119.9137567
11
20.7531648
21
119.9571567
0
LINE
8
DEFAULT_255_2_778
10
20.7531648
20
119.9571567
11
20.4443648
21
119.9571567
0
LINE
8
DEFAULT_255_2_778
10
20.4443648
20
119.9571567
11
20.4393648
21
119.9230567
0
LINE
8
DEFAULT_255_2_778
10
20.4393648
20
119.9230567
11
20.4314648
21
119.8894567
0
LINE
8
DEFAULT_255_2_778
10
20.4314648
20
119.8894567
11
20.4142648
21
119.8405567
0
LINE
8
DEFAULT_255_2_778
10
20.4142648
20
119.8405567
11
20.3837648
21
119.7833567
0
LINE
8
DEFAULT_255_2_778
10
20.3837648
20
119.7833567
11
20.3319648
21
119.7203567
0
LINE
8
DEFAULT_255_2_778
10
20.3319648
20
119.7203567
11
20.2351648
21
119.6502567
0
LINE
8
DEFAULT_255_2_778
10
20.2351648
20
119.6502567
11
20.1245648
21
119.6060567
0
LINE
8
DEFAULT_255_2_778
10
20.1245648
20
119.6060567
11
19.9551648
21
119.5820567
0
LINE
8
DEFAULT_255_2_778
10
19.9551648
20
119.5820567
11
19.7715648
21
119.5968567
0
LINE
8
DEFAULT_255_2_778
10
19.7715648
20
119.5968567
11
19.6286648
21
119.6447567
0
LINE
8
DEFAULT_255_2_778
10
19.6286648
20
119.6447567
11
19.5236648
21
119.7105567
0
LINE
8
DEFAULT_255_2_778
10
19.5236648
20
119.7105567
11
19.4469648
21
119.7852567
0
LINE
8
DEFAULT_255_2_778
10
19.4469648
20
119.7852567
11
19.3839648
21
119.8717567
0
LINE
8
DEFAULT_255_2_778
10
19.3839648
20
119.8717567
11
19.3381648
21
119.9569567
0
LINE
8
DEFAULT_255_2_778
10
19.3381648
20
119.9569567
11
19.3024648
21
120.0468567
0
LINE
8
DEFAULT_255_2_778
10
19.3024648
20
120.0468567
11
19.2844648
21
120.1056567
0
LINE
8
DEFAULT_255_2_778
10
19.2844648
20
120.1056567
11
19.2699648
21
120.1654567
0
LINE
8
DEFAULT_255_2_778
10
19.2699648
20
120.1654567
11
19.2582648
21
120.2257567
0
LINE
8
DEFAULT_255_2_778
10
19.2582648
20
120.2257567
11
19.2489648
21
120.2908567
0
LINE
8
DEFAULT_255_2_778
10
19.2489648
20
120.2908567
11
19.2452648
21
120.3254567
0
LINE
8
DEFAULT_255_2_778
10
19.2452648
20
120.3254567
11
19.2442648
21
120.6514567
0
LINE
8
DEFAULT_255_2_778
10
19.2442648
20
120.6514567
11
19.2482648
21
120.6892567
0
LINE
8
DEFAULT_255_2_778
10
19.2482648
20
120.6892567
11
19.2548648
21
120.7363567
0
LINE
8
DEFAULT_255_2_778
10
19.2548648
20
120.7363567
11
19.2643648
21
120.7877567
0
LINE
8
DEFAULT_255_2_778
10
19.2643648
20
120.7877567
11
19.2762648
21
120.8385567
0
LINE
8
DEFAULT_255_2_778
10
19.2762648
20
120.8385567
11
19.2990648
21
120.9133567
0
LINE
8
DEFAULT_255_2_778
10
19.2990648
20
120.9133567
11
19.3328648
21
120.9959567
0
LINE
8
DEFAULT_255_2_778
10
19.3328648
20
120.9959567
11
19.3844648
21
121.0874567
0
LINE
8
DEFAULT_255_2_778
10
19.3844648
20
121.0874567
11
19.4678648
21
121.1893567
0
LINE
8
DEFAULT_255_2_778
10
19.4678648
20
121.1893567
11
19.5688648
21
121.2689567
0
LINE
8
DEFAULT_255_2_778
10
19.5688648
20
121.2689567
11
19.7204648
21
121.3348567
0
LINE
8
DEFAULT_255_2_778
10
19.7204648
20
121.3348567
11
19.9207648
21
121.3634567
0
LINE
8
DEFAULT_255_2_778
10
19.9207648
20
121.3634567
11
20.0890648
21
121.3510567
0
LINE
8
DEFAULT_255_2_778
10
10.8759648
20
121.5743567
11
11.3638648
21
121.5743567
0
LINE
8
DEFAULT_255_2_778
10
11.3638648
20
121.5743567
11
11.3638648
21
119.3743567
0
LINE
8
DEFAULT_255_2_778
10
11.3638648
20
119.3743567
11
11.0630648
21
119.3743567
0
LINE
8
DEFAULT_255_2_778
10
11.0630648
20
119.3743567
11
11.0630648
21
121.3467567
0
LINE
8
DEFAULT_255_2_778
10
11.0630648
20
121.3467567
11
10.3566648
21
119.3743567
0
LINE
8
DEFAULT_255_2_778
10
10.3566648
20
119.3743567
11
10.0541648
21
119.3743567
0
LINE
8
DEFAULT_255_2_778
10
10.0541648
20
119.3743567
11
9.3292648
21
121.3436567
0
LINE
8
DEFAULT_255_2_778
10
9.3292648
20
121.3436567
11
9.3292648
21
119.3743567
0
LINE
8
DEFAULT_255_2_778
10
9.3292648
20
119.3743567
11
9.0284648
21
119.3743567
0
LINE
8
DEFAULT_255_2_778
10
9.0284648
20
119.3743567
11
9.0284648
21
121.5743567
0
LINE
8
DEFAULT_255_2_778
10
9.0284648
20
121.5743567
11
9.5163648
21
121.5743567
0
LINE
8
DEFAULT_255_2_778
10
9.5163648
20
121.5743567
11
10.2071648
21
119.7328567
0
LINE
8
DEFAULT_255_2_778
10
10.2071648
20
119.7328567
11
10.8759648
21
121.5743567
0
LINE
8
DEFAULT_255_2_778
10
7.2728344
20
121.5743052
11
8.6277344
21
121.5743052
0
LINE
8
DEFAULT_255_2_778
10
8.6277344
20
121.5743052
11
8.6277344
21
121.3248052
0
LINE
8
DEFAULT_255_2_778
10
8.6277344
20
121.3248052
11
7.5736344
21
121.3248052
0
LINE
8
DEFAULT_255_2_778
10
7.5736344
20
121.3248052
11
7.5736344
21
120.6311052
0
LINE
8
DEFAULT_255_2_778
10
7.5736344
20
120.6311052
11
8.5730344
21
120.6311052
0
LINE
8
DEFAULT_255_2_778
10
8.5730344
20
120.6311052
11
8.5730344
21
120.3816052
0
LINE
8
DEFAULT_255_2_778
10
8.5730344
20
120.3816052
11
7.5736344
21
120.3816052
0
LINE
8
DEFAULT_255_2_778
10
7.5736344
20
120.3816052
11
7.5736344
21
119.3743052
0
LINE
8
DEFAULT_255_2_778
10
7.5736344
20
119.3743052
11
7.2728344
21
119.3743052
0
LINE
8
DEFAULT_255_2_778
10
7.2728344
20
119.3743052
11
7.2728344
21
121.5743052
0
LINE
8
DEFAULT_255_2_778
10
17.960997
20
117.8886249
11
17.773097
21
117.8481249
0
LINE
8
DEFAULT_255_2_778
10
17.773097
20
117.8481249
11
17.685797
21
117.7494249
0
LINE
8
DEFAULT_255_2_778
10
17.685797
20
117.7494249
11
17.658297
21
117.6838249
0
LINE
8
DEFAULT_255_2_778
10
17.658297
20
117.6838249
11
17.643997
21
117.6272249
0
LINE
8
DEFAULT_255_2_778
10
17.643997
20
117.6272249
11
17.637397
21
117.5811249
0
LINE
8
DEFAULT_255_2_778
10
17.637397
20
117.5811249
11
17.634497
21
117.5462249
0
LINE
8
DEFAULT_255_2_778
10
17.634497
20
117.5462249
11
17.632597
21
116.8739249
0
LINE
8
DEFAULT_255_2_778
10
17.632597
20
116.8739249
11
17.425497
21
116.8739249
0
LINE
8
DEFAULT_255_2_778
10
17.425497
20
116.8739249
11
17.425497
21
118.0582249
0
LINE
8
DEFAULT_255_2_778
10
17.425497
20
118.0582249
11
17.632597
21
118.0582249
0
LINE
8
DEFAULT_255_2_778
10
17.632597
20
118.0582249
11
17.632597
21
117.9378249
0
LINE
8
DEFAULT_255_2_778
10
17.632597
20
117.9378249
11
17.804597
21
118.0698249
0
LINE
8
DEFAULT_255_2_778
10
17.804597
20
118.0698249
11
17.947197
21
118.0918249
0
LINE
8
DEFAULT_255_2_778
10
17.947197
20
118.0918249
11
18.003297
21
118.0894249
0
LINE
8
DEFAULT_255_2_778
10
18.003297
20
118.0894249
11
18.003297
21
117.8857249
0
LINE
8
DEFAULT_255_2_778
10
18.003297
20
117.8857249
11
17.960997
21
117.8881249
0
LINE
8
DEFAULT_255_2_778
10
15.885097
20
118.0860249
11
15.677897
21
118.0812249
0
LINE
8
DEFAULT_255_2_778
10
15.677897
20
118.0812249
11
15.530797
21
118.0198249
0
LINE
8
DEFAULT_255_2_778
10
15.530797
20
118.0198249
11
15.439197
21
117.9357249
0
LINE
8
DEFAULT_255_2_778
10
15.439197
20
117.9357249
11
15.411397
21
117.8949249
0
LINE
8
DEFAULT_255_2_778
10
15.411397
20
117.8949249
11
15.411397
21
118.0587249
0
LINE
8
DEFAULT_255_2_778
10
15.411397
20
118.0587249
11
15.219097
21
118.0587249
0
LINE
8
DEFAULT_255_2_778
10
15.219097
20
118.0587249
11
15.219097
21
116.8744249
0
LINE
8
DEFAULT_255_2_778
10
15.219097
20
116.8744249
11
15.426297
21
116.8744249
0
LINE
8
DEFAULT_255_2_778
10
15.426297
20
116.8744249
11
15.428897
21
117.6158249
0
LINE
8
DEFAULT_255_2_778
10
15.428897
20
117.6158249
11
15.432897
21
117.6515249
0
LINE
8
DEFAULT_255_2_778
10
15.432897
20
117.6515249
11
15.442097
21
117.6984249
0
LINE
8
DEFAULT_255_2_778
10
15.442097
20
117.6984249
11
15.469097
21
117.7706249
0
LINE
8
DEFAULT_255_2_778
10
15.469097
20
117.7706249
11
15.538997
21
117.8603249
0
LINE
8
DEFAULT_255_2_778
10
15.538997
20
117.8603249
11
15.673897
21
117.9185249
0
LINE
8
DEFAULT_255_2_778
10
15.673897
20
117.9185249
11
15.863897
21
117.9005249
0
LINE
8
DEFAULT_255_2_778
10
15.863897
20
117.9005249
11
15.953097
21
117.8275249
0
LINE
8
DEFAULT_255_2_778
10
15.953097
20
117.8275249
11
15.985597
21
117.7693249
0
LINE
8
DEFAULT_255_2_778
10
15.985597
20
117.7693249
11
16.001197
21
117.7227249
0
LINE
8
DEFAULT_255_2_778
10
16.001197
20
117.7227249
11
16.008597
21
117.6867249
0
LINE
8
DEFAULT_255_2_778
10
16.008597
20
117.6867249
11
16.013097
21
117.6502249
0
LINE
8
DEFAULT_255_2_778
10
16.013097
20
117.6502249
11
16.015797
21
117.6013249
0
LINE
8
DEFAULT_255_2_778
10
16.015797
20
117.6013249
11
16.015997
21
116.8744249
0
LINE
8
DEFAULT_255_2_778
10
16.015997
20
116.8744249
11
16.223197
21
116.8744249
0
LINE
8
DEFAULT_255_2_778
10
16.223197
20
116.8744249
11
16.220797
21
117.6610249
0
LINE
8
DEFAULT_255_2_778
10
16.220797
20
117.6610249
11
16.218197
21
117.6933249
0
LINE
8
DEFAULT_255_2_778
10
16.218197
20
117.6933249
11
16.214197
21
117.7253249
0
LINE
8
DEFAULT_255_2_778
10
16.214197
20
117.7253249
11
16.205497
21
117.7730249
0
LINE
8
DEFAULT_255_2_778
10
16.205497
20
117.7730249
11
16.192797
21
117.8195249
0
LINE
8
DEFAULT_255_2_778
10
16.192797
20
117.8195249
11
16.159397
21
117.8971249
0
LINE
8
DEFAULT_255_2_778
10
16.159397
20
117.8971249
11
16.095897
21
117.9838249
0
LINE
8
DEFAULT_255_2_778
10
16.095897
20
117.9838249
11
16.009397
21
118.0484249
0
LINE
8
DEFAULT_255_2_778
10
16.009397
20
118.0484249
11
15.885097
21
118.0862249
0
LINE
8
DEFAULT_255_2_778
10
13.052697
20
118.4069249
11
13.199297
21
118.3606249
0
LINE
8
DEFAULT_255_2_778
10
13.199297
20
118.3606249
11
13.281797
21
118.2963249
0
LINE
8
DEFAULT_255_2_778
10
13.281797
20
118.2963249
11
13.316997
21
118.2429249
0
LINE
8
DEFAULT_255_2_778
10
13.316997
20
118.2429249
11
13.332397
21
118.2024249
0
LINE
8
DEFAULT_255_2_778
10
13.332397
20
118.2024249
11
13.339497
21
118.1690249
0
LINE
8
DEFAULT_255_2_778
10
13.339497
20
118.1690249
11
13.341897
21
118.1466249
0
LINE
8
DEFAULT_255_2_778
10
13.341897
20
118.1466249
11
13.342097
21
118.1238249
0
LINE
8
DEFAULT_255_2_778
10
13.342097
20
118.1238249
11
13.568897
21
118.1238249
0
LINE
8
DEFAULT_255_2_778
10
13.568897
20
118.1238249
11
13.567297
21
118.1751249
0
LINE
8
DEFAULT_255_2_778
10
13.567297
20
118.1751249
11
13.563097
21
118.2093249
0
LINE
8
DEFAULT_255_2_778
10
13.563097
20
118.2093249
11
13.556197
21
118.2431249
0
LINE
8
DEFAULT_255_2_778
10
13.556197
20
118.2431249
11
13.540797
21
118.2931249
0
LINE
8
DEFAULT_255_2_778
10
13.540797
20
118.2931249
11
13.518897
21
118.3421249
0
LINE
8
DEFAULT_255_2_778
10
13.518897
20
118.3421249
11
13.480297
21
118.4019249
0
LINE
8
DEFAULT_255_2_778
10
13.480297
20
118.4019249
11
13.414897
21
118.4680249
0
LINE
8
DEFAULT_255_2_778
10
13.414897
20
118.4680249
11
13.311197
21
118.5342249
0
LINE
8
DEFAULT_255_2_778
10
13.311197
20
118.5342249
11
13.157497
21
118.5874249
0
LINE
8
DEFAULT_255_2_778
10
13.157497
20
118.5874249
11
12.926997
21
118.6080249
0
LINE
8
DEFAULT_255_2_778
10
12.926997
20
118.6080249
11
12.753197
21
118.5858249
0
LINE
8
DEFAULT_255_2_778
10
12.753197
20
118.5858249
11
12.596497
21
118.5244249
0
LINE
8
DEFAULT_255_2_778
10
12.596497
20
118.5244249
11
12.495997
21
118.4532249
0
LINE
8
DEFAULT_255_2_778
10
12.495997
20
118.4532249
11
12.411597
21
118.3625249
0
LINE
8
DEFAULT_255_2_778
10
12.411597
20
118.3625249
11
12.358697
21
118.2836249
0
LINE
8
DEFAULT_255_2_778
10
12.358697
20
118.2836249
11
12.314497
21
118.1950249
0
LINE
8
DEFAULT_255_2_778
10
12.314497
20
118.1950249
11
12.286697
21
118.1209249
0
LINE
8
DEFAULT_255_2_778
10
12.286697
20
118.1209249
11
12.271397
21
118.0688249
0
LINE
8
DEFAULT_255_2_778
10
12.271397
20
118.0688249
11
12.258697
21
118.0159249
0
LINE
8
DEFAULT_255_2_778
10
12.258697
20
118.0159249
11
12.248597
21
117.9624249
0
LINE
8
DEFAULT_255_2_778
10
12.248597
20
117.9624249
11
12.243297
21
117.9275249
0
LINE
8
DEFAULT_255_2_778
10
12.243297
20
117.9275249
11
12.239097
21
117.8926249
0
LINE
8
DEFAULT_255_2_778
10
12.239097
20
117.8926249
11
12.235697
21
117.8576249
0
LINE
8
DEFAULT_255_2_778
10
12.235697
20
117.8576249
11
12.235697
21
117.5772249
0
LINE
8
DEFAULT_255_2_778
10
12.235697
20
117.5772249
11
12.239097
21
117.5425249
0
LINE
8
DEFAULT_255_2_778
10
12.239097
20
117.5425249
11
12.243297
21
117.5079249
0
LINE
8
DEFAULT_255_2_778
10
12.243297
20
117.5079249
11
12.253397
21
117.4467249
0
LINE
8
DEFAULT_255_2_778
10
12.253397
20
117.4467249
11
12.264797
21
117.3941249
0
LINE
8
DEFAULT_255_2_778
10
12.264797
20
117.3941249
11
12.278797
21
117.3420249
0
LINE
8
DEFAULT_255_2_778
10
12.278797
20
117.3420249
11
12.305197
21
117.2655249
0
LINE
8
DEFAULT_255_2_778
10
12.305197
20
117.2655249
11
12.335697
21
117.1983249
0
LINE
8
DEFAULT_255_2_778
10
12.335697
20
117.1983249
11
12.385697
21
117.1139249
0
LINE
8
DEFAULT_255_2_778
10
12.385697
20
117.1139249
11
12.466597
21
117.0176249
0
LINE
8
DEFAULT_255_2_778
10
12.466597
20
117.0176249
11
12.561597
21
116.9422249
0
LINE
8
DEFAULT_255_2_778
10
12.561597
20
116.9422249
11
12.708997
21
116.8747249
0
LINE
8
DEFAULT_255_2_778
10
12.708997
20
116.8747249
11
12.876497
21
116.8438249
0
LINE
8
DEFAULT_255_2_778
10
12.876497
20
116.8438249
11
13.080197
21
116.8493249
0
LINE
8
DEFAULT_255_2_778
10
13.080197
20
116.8493249
11
13.242897
21
116.8906249
0
LINE
8
DEFAULT_255_2_778
10
13.242897
20
116.8906249
11
13.378897
21
116.9633249
0
LINE
8
DEFAULT_255_2_778
10
13.378897
20
116.9633249
11
13.462297
21
117.0382249
0
LINE
8
DEFAULT_255_2_778
10
13.462297
20
117.0382249
11
13.504597
21
117.0962249
0
LINE
8
DEFAULT_255_2_778
10
13.504597
20
117.0962249
11
13.536297
21
117.1599249
0
LINE
8
DEFAULT_255_2_778
10
13.536297
20
117.1599249
11
13.553797
21
117.2128249
0
LINE
8
DEFAULT_255_2_778
10
13.553797
20
117.2128249
11
13.561697
21
117.2499249
0
LINE
8
DEFAULT_255_2_778
10
13.561697
20
117.2499249
11
13.564697
21
117.2687249
0
LINE
8
DEFAULT_255_2_778
10
13.564697
20
117.2687249
11
13.566797
21
117.2875249
0
LINE
8
DEFAULT_255_2_778
10
13.566797
20
117.2875249
11
13.568397
21
117.3250249
0
LINE
8
DEFAULT_255_2_778
10
13.568397
20
117.3250249
11
13.341597
21
117.3250249
0
LINE
8
DEFAULT_255_2_778
10
13.341597
20
117.3250249
11
13.337897
21
117.2988249
0
LINE
8
DEFAULT_255_2_778
10
13.337897
20
117.2988249
11
13.328397
21
117.2599249
0
LINE
8
DEFAULT_255_2_778
10
13.328397
20
117.2599249
11
13.303497
21
117.2015249
0
LINE
8
DEFAULT_255_2_778
10
13.303497
20
117.2015249
11
13.259297
21
117.1419249
0
LINE
8
DEFAULT_255_2_778
10
13.259297
20
117.1419249
11
13.164297
21
117.0753249
0
LINE
8
DEFAULT_255_2_778
10
13.164297
20
117.0753249
11
13.038697
21
117.0393249
0
LINE
8
DEFAULT_255_2_778
10
13.038697
20
117.0393249
11
12.847897
21
117.0462249
0
LINE
8
DEFAULT_255_2_778
10
12.847897
20
117.0462249
11
12.715897
21
117.0983249
0
LINE
8
DEFAULT_255_2_778
10
12.715897
20
117.0983249
11
12.630697
21
117.1676249
0
LINE
8
DEFAULT_255_2_778
10
12.630697
20
117.1676249
11
12.563497
21
117.2586249
0
LINE
8
DEFAULT_255_2_778
10
12.563497
20
117.2586249
11
12.522697
21
117.3417249
0
LINE
8
DEFAULT_255_2_778
10
12.522697
20
117.3417249
11
12.496797
21
117.4166249
0
LINE
8
DEFAULT_255_2_778
10
12.496797
20
117.4166249
11
12.479897
21
117.4856249
0
LINE
8
DEFAULT_255_2_778
10
12.479897
20
117.4856249
11
12.471397
21
117.5322249
0
LINE
8
DEFAULT_255_2_778
10
12.471397
20
117.5322249
11
12.464497
21
117.5825249
0
LINE
8
DEFAULT_255_2_778
10
12.464497
20
117.5825249
11
12.463997
21
117.8904249
0
LINE
8
DEFAULT_255_2_778
10
12.463997
20
117.8904249
11
12.472197
21
117.9465249
0
LINE
8
DEFAULT_255_2_778
10
12.472197
20
117.9465249
11
12.484597
21
118.0055249
0
LINE
8
DEFAULT_255_2_778
10
12.484597
20
118.0055249
11
12.501297
21
118.0635249
0
LINE
8
DEFAULT_255_2_778
10
12.501297
20
118.0635249
11
12.532797
21
118.1418249
0
LINE
8
DEFAULT_255_2_778
10
12.532797
20
118.1418249
11
12.588897
21
118.2341249
0
LINE
8
DEFAULT_255_2_778
10
12.588897
20
118.2341249
11
12.676997
21
118.3225249
0
LINE
8
DEFAULT_255_2_778
10
12.676997
20
118.3225249
11
12.810897
21
118.3892249
0
LINE
8
DEFAULT_255_2_778
10
12.810897
20
118.3892249
11
13.021197
21
118.4096249
0
LINE
8
DEFAULT_255_2_778
10
13.021197
20
118.4096249
11
13.052197
21
118.4064249
0
LINE
8
DEFAULT_255_2_778
10
9.171497
20
118.5744249
11
9.392397
21
118.5744249
0
LINE
8
DEFAULT_255_2_778
10
9.392397
20
118.5744249
11
9.392397
21
116.8744249
0
LINE
8
DEFAULT_255_2_778
10
9.392397
20
116.8744249
11
9.171497
21
116.8744249
0
LINE
8
DEFAULT_255_2_778
10
9.171497
20
116.8744249
11
9.171497
21
118.5744249
0
LINE
8
DEFAULT_255_2_778
10
14.560297
20
119.5803249
11
14.415597
21
119.6327249
0
LINE
8
DEFAULT_255_2_778
10
14.415597
20
119.6327249
11
14.321597
21
119.7163249
0
LINE
8
DEFAULT_255_2_778
10
14.321597
20
119.7163249
11
14.265497
21
119.8042249
0
LINE
8
DEFAULT_255_2_778
10
14.265497
20
119.8042249
11
14.241497
21
119.8648249
0
LINE
8
DEFAULT_255_2_778
10
14.241497
20
119.8648249
11
14.228997
21
119.9148249
0
LINE
8
DEFAULT_255_2_778
10
14.228997
20
119.9148249
11
14.225297
21
119.9399249
0
LINE
8
DEFAULT_255_2_778
10
14.225297
20
119.9399249
11
13.924497
21
119.9399249
0
LINE
8
DEFAULT_255_2_778
10
13.924497
20
119.9399249
11
13.927097
21
119.9172249
0
LINE
8
DEFAULT_255_2_778
10
13.927097
20
119.9172249
11
13.934297
21
119.8719249
0
LINE
8
DEFAULT_255_2_778
10
13.934297
20
119.8719249
11
13.944297
21
119.8269249
0
LINE
8
DEFAULT_255_2_778
10
13.944297
20
119.8269249
11
13.964697
21
119.7610249
0
LINE
8
DEFAULT_255_2_778
10
13.964697
20
119.7610249
11
13.999097
21
119.6825249
0
LINE
8
DEFAULT_255_2_778
10
13.999097
20
119.6825249
11
14.043597
21
119.6094249
0
LINE
8
DEFAULT_255_2_778
10
14.043597
20
119.6094249
11
14.113397
21
119.5277249
0
LINE
8
DEFAULT_255_2_778
10
14.113397
20
119.5277249
11
14.219497
21
119.4420249
0
LINE
8
DEFAULT_255_2_778
10
14.219497
20
119.4420249
11
14.348597
21
119.3761249
0
LINE
8
DEFAULT_255_2_778
10
14.348597
20
119.3761249
11
14.519497
21
119.3330249
0
LINE
8
DEFAULT_255_2_778
10
14.519497
20
119.3330249
11
14.732797
21
119.3271249
0
LINE
8
DEFAULT_255_2_778
10
14.732797
20
119.3271249
11
14.911697
21
119.3605249
0
LINE
8
DEFAULT_255_2_778
10
14.911697
20
119.3605249
11
15.062697
21
119.4285249
0
LINE
8
DEFAULT_255_2_778
10
15.062697
20
119.4285249
11
15.162497
21
119.5049249
0
LINE
8
DEFAULT_255_2_778
10
15.162497
20
119.5049249
11
15.236797
21
119.5883249
0
LINE
8
DEFAULT_255_2_778
10
15.236797
20
119.5883249
11
15.287097
21
119.6669249
0
LINE
8
DEFAULT_255_2_778
10
15.287097
20
119.6669249
11
15.318297
21
119.7319249
0
LINE
8
DEFAULT_255_2_778
10
15.318297
20
119.7319249
11
15.343197
21
119.8007249
0
LINE
8
DEFAULT_255_2_778
10
15.343197
20
119.8007249
11
15.356197
21
119.8478249
0
LINE
8
DEFAULT_255_2_778
10
15.356197
20
119.8478249
11
15.366697
21
119.8981249
0
LINE
8
DEFAULT_255_2_778
10
15.366697
20
119.8981249
11
15.374697
21
119.9515249
0
LINE
8
DEFAULT_255_2_778
10
15.374697
20
119.9515249
11
15.375997
21
120.2167249
0
LINE
8
DEFAULT_255_2_778
10
15.375997
20
120.2167249
11
15.371997
21
120.2489249
0
LINE
8
DEFAULT_255_2_778
10
15.371997
20
120.2489249
11
15.365697
21
120.2892249
0
LINE
8
DEFAULT_255_2_778
10
15.365697
20
120.2892249
11
15.356397
21
120.3339249
0
LINE
8
DEFAULT_255_2_778
10
15.356397
20
120.3339249
11
15.338197
21
120.4000249
0
LINE
8
DEFAULT_255_2_778
10
15.338197
20
120.4000249
11
15.306697
21
120.4818249
0
LINE
8
DEFAULT_255_2_778
10
15.306697
20
120.4818249
11
15.261397
21
120.5654249
0
LINE
8
DEFAULT_255_2_778
10
15.261397
20
120.5654249
11
15.193697
21
120.6532249
0
LINE
8
DEFAULT_255_2_778
10
15.193697
20
120.6532249
11
15.098197
21
120.7350249
0
LINE
8
DEFAULT_255_2_778
10
15.098197
20
120.7350249
11
14.952697
21
120.8038249
0
LINE
8
DEFAULT_255_2_778
10
14.952697
20
120.8038249
11
14.740497
21
120.8334249
0
LINE
8
DEFAULT_255_2_778
10
14.740497
20
120.8334249
11
14.545497
21
120.8085249
0
LINE
8
DEFAULT_255_2_778
10
14.545497
20
120.8085249
11
14.413197
21
120.7522249
0
LINE
8
DEFAULT_255_2_778
10
14.413197
20
120.7522249
11
14.313997
21
120.6754249
0
LINE
8
DEFAULT_255_2_778
10
14.313997
20
120.6754249
11
14.252597
21
120.6138249
0
LINE
8
DEFAULT_255_2_778
10
14.252597
20
120.6138249
11
14.269797
21
121.3216249
0
LINE
8
DEFAULT_255_2_778
10
14.269797
20
121.3216249
11
15.267497
21
121.3216249
0
LINE
8
DEFAULT_255_2_778
10
15.267497
20
121.3216249
11
15.267497
21
121.5618249
0
LINE
8
DEFAULT_255_2_778
10
15.267497
20
121.5618249
11
13.993497
21
121.5618249
0
LINE
8
DEFAULT_255_2_778
10
13.993497
20
121.5618249
11
13.974797
21
120.2754249
0
LINE
8
DEFAULT_255_2_778
10
13.974797
20
120.2754249
11
14.269497
21
120.2754249
0
LINE
8
DEFAULT_255_2_778
10
14.269497
20
120.2754249
11
14.272897
21
120.3024249
0
LINE
8
DEFAULT_255_2_778
10
14.272897
20
120.3024249
11
14.281897
21
120.3423249
0
LINE
8
DEFAULT_255_2_778
10
14.281897
20
120.3423249
11
14.300197
21
120.3921249
0
LINE
8
DEFAULT_255_2_778
10
14.300197
20
120.3921249
11
14.340397
21
120.4577249
0
LINE
8
DEFAULT_255_2_778
10
14.340397
20
120.4577249
11
14.437297
21
120.5416249
0
LINE
8
DEFAULT_255_2_778
10
14.437297
20
120.5416249
11
14.556597
21
120.5876249
0
LINE
8
DEFAULT_255_2_778
10
14.556597
20
120.5876249
11
14.740197
21
120.5897249
0
LINE
8
DEFAULT_255_2_778
10
14.740197
20
120.5897249
11
14.879897
21
120.5365249
0
LINE
8
DEFAULT_255_2_778
10
14.879897
20
120.5365249
11
14.969297
21
120.4550249
0
LINE
8
DEFAULT_255_2_778
10
14.969297
20
120.4550249
11
15.023597
21
120.3704249
0
LINE
8
DEFAULT_255_2_778
10
15.023597
20
120.3704249
11
15.051897
21
120.3008249
0
LINE
8
DEFAULT_255_2_778
10
15.051897
20
120.3008249
11
15.067497
21
120.2413249
0
LINE
8
DEFAULT_255_2_778
10
15.067497
20
120.2413249
11
15.073597
21
120.2069249
0
LINE
8
DEFAULT_255_2_778
10
15.073597
20
120.2069249
11
15.073597
21
119.9717249
0
LINE
8
DEFAULT_255_2_778
10
15.073597
20
119.9717249
11
15.064297
21
119.9230249
0
LINE
8
DEFAULT_255_2_778
10
15.064297
20
119.9230249
11
15.047097
21
119.8632249
0
LINE
8
DEFAULT_255_2_778
10
15.047097
20
119.8632249
11
15.017497
21
119.7941249
0
LINE
8
DEFAULT_255_2_778
10
15.017497
20
119.7941249
11
14.955597
21
119.7028249
0
LINE
8
DEFAULT_255_2_778
10
14.955597
20
119.7028249
11
14.861397
21
119.6248249
0
LINE
8
DEFAULT_255_2_778
10
14.861397
20
119.6248249
11
14.726197
21
119.5795249
0
LINE
8
DEFAULT_255_2_778
10
14.726197
20
119.5795249
11
14.560797
21
119.5809249
0
LINE
8
DEFAULT_255_2_778
10
16.898397
20
120.8183249
11
16.680897
21
120.8316249
0
LINE
8
DEFAULT_255_2_778
10
16.680897
20
120.8316249
11
16.511297
21
120.7979249
0
LINE
8
DEFAULT_255_2_778
10
16.511297
20
120.7979249
11
16.384597
21
120.7334249
0
LINE
8
DEFAULT_255_2_778
10
16.384597
20
120.7334249
11
16.274297
21
120.6358249
0
LINE
8
DEFAULT_255_2_778
10
16.274297
20
120.6358249
11
16.253397
21
120.6138249
0
LINE
8
DEFAULT_255_2_778
10
16.253397
20
120.6138249
11
16.270597
21
121.3216249
0
LINE
8
DEFAULT_255_2_778
10
16.270597
20
121.3216249
11
17.268297
21
121.3216249
0
LINE
8
DEFAULT_255_2_778
10
17.268297
20
121.3216249
11
17.268297
21
121.5618249
0
LINE
8
DEFAULT_255_2_778
10
17.268297
20
121.5618249
11
15.994297
21
121.5618249
0
LINE
8
DEFAULT_255_2_778
10
15.994297
20
121.5618249
11
15.975497
21
120.2754249
0
LINE
8
DEFAULT_255_2_778
10
15.975497
20
120.2754249
11
16.270297
21
120.2754249
0
LINE
8
DEFAULT_255_2_778
10
16.270297
20
120.2754249
11
16.273697
21
120.3024249
0
LINE
8
DEFAULT_255_2_778
10
16.273697
20
120.3024249
11
16.282697
21
120.3423249
0
LINE
8
DEFAULT_255_2_778
10
16.282697
20
120.3423249
11
16.300997
21
120.3921249
0
LINE
8
DEFAULT_255_2_778
10
16.300997
20
120.3921249
11
16.341197
21
120.4577249
0
LINE
8
DEFAULT_255_2_778
10
16.341197
20
120.4577249
11
16.437997
21
120.5416249
0
LINE
8
DEFAULT_255_2_778
10
16.437997
20
120.5416249
11
16.557397
21
120.5876249
0
LINE
8
DEFAULT_255_2_778
10
16.557397
20
120.5876249
11
16.740997
21
120.5897249
0
LINE
8
DEFAULT_255_2_778
10
16.740997
20
120.5897249
11
16.880697
21
120.5365249
0
LINE
8
DEFAULT_255_2_778
10
16.880697
20
120.5365249
11
16.970097
21
120.4550249
0
LINE
8
DEFAULT_255_2_778
10
16.970097
20
120.4550249
11
17.024297
21
120.3704249
0
LINE
8
DEFAULT_255_2_778
10
17.024297
20
120.3704249
11
17.052697
21
120.3008249
0
LINE
8
DEFAULT_255_2_778
10
17.052697
20
120.3008249
11
17.068297
21
120.2413249
0
LINE
8
DEFAULT_255_2_778
10
17.068297
20
120.2413249
11
17.074397
21
120.2069249
0
LINE
8
DEFAULT_255_2_778
10
17.074397
20
120.2069249
11
17.074397
21
119.9717249
0
LINE
8
DEFAULT_255_2_778
10
17.074397
20
119.9717249
11
17.065097
21
119.9230249
0
LINE
8
DEFAULT_255_2_778
10
17.065097
20
119.9230249
11
17.047897
21
119.8632249
0
LINE
8
DEFAULT_255_2_778
10
17.047897
20
119.8632249
11
17.018297
21
119.7941249
0
LINE
8
DEFAULT_255_2_778
10
17.018297
20
119.7941249
11
16.956397
21
119.7028249
0
LINE
8
DEFAULT_255_2_778
10
16.956397
20
119.7028249
11
16.862197
21
119.6248249
0
LINE
8
DEFAULT_255_2_778
10
16.862197
20
119.6248249
11
16.726997
21
119.5795249
0
LINE
8
DEFAULT_255_2_778
10
16.726997
20
119.5795249
11
16.510297
21
119.5920249
0
LINE
8
DEFAULT_255_2_778
10
16.510297
20
119.5920249
11
16.385897
21
119.6549249
0
LINE
8
DEFAULT_255_2_778
10
16.385897
20
119.6549249
11
16.299397
21
119.7478249
0
LINE
8
DEFAULT_255_2_778
10
16.299397
20
119.7478249
11
16.255697
21
119.8285249
0
LINE
8
DEFAULT_255_2_778
10
16.255697
20
119.8285249
11
16.235397
21
119.8902249
0
LINE
8
DEFAULT_255_2_778
10
16.235397
20
119.8902249
11
16.227997
21
119.9280249
0
LINE
8
DEFAULT_255_2_778
10
16.227997
20
119.9280249
11
16.226397
21
119.9407249
0
LINE
8
DEFAULT_255_2_778
10
16.226397
20
119.9407249
11
15.925497
21
119.9407249
0
LINE
8
DEFAULT_255_2_778
10
15.925497
20
119.9407249
11
15.928197
21
119.9179249
0
LINE
8
DEFAULT_255_2_778
10
15.928197
20
119.9179249
11
15.935297
21
119.8727249
0
LINE
8
DEFAULT_255_2_778
10
15.935297
20
119.8727249
11
15.945397
21
119.8277249
0
LINE
8
DEFAULT_255_2_778
10
15.945397
20
119.8277249
11
15.965797
21
119.7618249
0
LINE
8
DEFAULT_255_2_778
10
15.965797
20
119.7618249
11
16.000097
21
119.6833249
0
LINE
8
DEFAULT_255_2_778
10
16.000097
20
119.6833249
11
16.044597
21
119.6102249
0
LINE
8
DEFAULT_255_2_778
10
16.044597
20
119.6102249
11
16.114397
21
119.5285249
0
LINE
8
DEFAULT_255_2_778
10
16.114397
20
119.5285249
11
16.220497
21
119.4428249
0
LINE
8
DEFAULT_255_2_778
10
16.220497
20
119.4428249
11
16.349697
21
119.3769249
0
LINE
8
DEFAULT_255_2_778
10
16.349697
20
119.3769249
11
16.520597
21
119.3337249
0
LINE
8
DEFAULT_255_2_778
10
16.520597
20
119.3337249
11
16.733797
21
119.3279249
0
LINE
8
DEFAULT_255_2_778
10
16.733797
20
119.3279249
11
16.912697
21
119.3613249
0
LINE
8
DEFAULT_255_2_778
10
16.912697
20
119.3613249
11
17.063797
21
119.4293249
0
LINE
8
DEFAULT_255_2_778
10
17.063797
20
119.4293249
11
17.163497
21
119.5057249
0
LINE
8
DEFAULT_255_2_778
10
17.163497
20
119.5057249
11
17.237897
21
119.5891249
0
LINE
8
DEFAULT_255_2_778
10
17.237897
20
119.5891249
11
17.288097
21
119.6676249
0
LINE
8
DEFAULT_255_2_778
10
17.288097
20
119.6676249
11
17.319397
21
119.7327249
0
LINE
8
DEFAULT_255_2_778
10
17.319397
20
119.7327249
11
17.344197
21
119.8015249
0
LINE
8
DEFAULT_255_2_778
10
17.344197
20
119.8015249
11
17.357197
21
119.8486249
0
LINE
8
DEFAULT_255_2_778
10
17.357197
20
119.8486249
11
17.367797
21
119.8989249
0
LINE
8
DEFAULT_255_2_778
10
17.367797
20
119.8989249
11
17.375697
21
119.9523249
0
LINE
8
DEFAULT_255_2_778
10
17.375697
20
119.9523249
11
17.376997
21
120.2175249
0
LINE
8
DEFAULT_255_2_778
10
17.376997
20
120.2175249
11
17.373097
21
120.2497249
0
LINE
8
DEFAULT_255_2_778
10
17.373097
20
120.2497249
11
17.366697
21
120.2899249
0
LINE
8
DEFAULT_255_2_778
10
17.366697
20
120.2899249
11
17.357497
21
120.3347249
0
LINE
8
DEFAULT_255_2_778
10
17.357497
20
120.3347249
11
17.339197
21
120.4008249
0
LINE
8
DEFAULT_255_2_778
10
17.339197
20
120.4008249
11
17.307697
21
120.4826249
0
LINE
8
DEFAULT_255_2_778
10
17.307697
20
120.4826249
11
17.262497
21
120.5662249
0
LINE
8
DEFAULT_255_2_778
10
17.262497
20
120.5662249
11
17.194697
21
120.6540249
0
LINE
8
DEFAULT_255_2_778
10
17.194697
20
120.6540249
11
17.099197
21
120.7358249
0
LINE
8
DEFAULT_255_2_778
10
17.099197
20
120.7358249
11
16.953697
21
120.8046249
0
LINE
8
DEFAULT_255_2_778
10
16.953697
20
120.8046249
11
16.898097
21
120.8189249
0
LINE
8
DEFAULT_255_2_778
10
10.484097
20
118.5662249
11
10.662197
21
118.5286249
0
LINE
8
DEFAULT_255_2_778
10
10.662197
20
118.5286249
11
10.799497
21
118.4659249
0
LINE
8
DEFAULT_255_2_778
10
10.799497
20
118.4659249
11
10.905597
21
118.3839249
0
LINE
8
DEFAULT_255_2_778
10
10.905597
20
118.3839249
11
10.980497
21
118.3000249
0
LINE
8
DEFAULT_255_2_778
10
10.980497
20
118.3000249
11
11.041097
21
118.2056249
0
LINE
8
DEFAULT_255_2_778
10
11.041097
20
118.2056249
11
11.074897
21
118.1325249
0
LINE
8
DEFAULT_255_2_778
10
11.074897
20
118.1325249
11
11.094197
21
118.0778249
0
LINE
8
DEFAULT_255_2_778
10
11.094197
20
118.0778249
11
11.109597
21
118.0217249
0
LINE
8
DEFAULT_255_2_778
10
11.109597
20
118.0217249
11
11.121497
21
117.9645249
0
LINE
8
DEFAULT_255_2_778
10
11.121497
20
117.9645249
11
11.130197
21
117.9066249
0
LINE
8
DEFAULT_255_2_778
10
11.130197
20
117.9066249
11
11.128897
21
117.4922249
0
LINE
8
DEFAULT_255_2_778
10
11.128897
20
117.4922249
11
11.119397
21
117.4343249
0
LINE
8
DEFAULT_255_2_778
10
11.119397
20
117.4343249
11
11.106397
21
117.3774249
0
LINE
8
DEFAULT_255_2_778
10
11.106397
20
117.3774249
11
11.089497
21
117.3219249
0
LINE
8
DEFAULT_255_2_778
10
11.089497
20
117.3219249
11
11.068297
21
117.2676249
0
LINE
8
DEFAULT_255_2_778
10
11.068297
20
117.2676249
11
11.034697
21
117.2017249
0
LINE
8
DEFAULT_255_2_778
10
11.034697
20
117.2017249
11
10.970197
21
117.1097249
0
LINE
8
DEFAULT_255_2_778
10
10.970197
20
117.1097249
11
10.890997
21
117.0298249
0
LINE
8
DEFAULT_255_2_778
10
10.890997
20
117.0298249
11
10.799497
21
116.9657249
0
LINE
8
DEFAULT_255_2_778
10
10.799497
20
116.9657249
11
10.680997
21
116.9149249
0
LINE
8
DEFAULT_255_2_778
10
10.680997
20
116.9149249
11
10.475897
21
116.8776249
0
LINE
8
DEFAULT_255_2_778
10
10.475897
20
116.8776249
11
10.372197
21
116.8739249
0
LINE
8
DEFAULT_255_2_778
10
10.372197
20
116.8739249
11
9.817097
21
116.8739249
0
LINE
8
DEFAULT_255_2_778
10
9.817097
20
116.8739249
11
9.817097
21
118.5739249
0
LINE
8
DEFAULT_255_2_778
10
9.817097
20
118.5739249
11
10.484097
21
118.5662249
0
LINE
8
DEFAULT_255_2_778
10
10.441997
20
118.3754249
11
10.606897
21
118.3344249
0
LINE
8
DEFAULT_255_2_778
10
10.606897
20
118.3344249
11
10.724397
21
118.2624249
0
LINE
8
DEFAULT_255_2_778
10
10.724397
20
118.2624249
11
10.803197
21
118.1778249
0
LINE
8
DEFAULT_255_2_778
10
10.803197
20
118.1778249
11
10.854497
21
118.0931249
0
LINE
8
DEFAULT_255_2_778
10
10.854497
20
118.0931249
11
10.879097
21
118.0331249
0
LINE
8
DEFAULT_255_2_778
10
10.879097
20
118.0331249
11
10.897097
21
117.9706249
0
LINE
8
DEFAULT_255_2_778
10
10.897097
20
117.9706249
11
10.905897
21
117.9280249
0
LINE
8
DEFAULT_255_2_778
10
10.905897
20
117.9280249
11
10.912197
21
117.8849249
0
LINE
8
DEFAULT_255_2_778
10
10.912197
20
117.8849249
11
10.911197
21
117.5621249
0
LINE
8
DEFAULT_255_2_778
10
10.911197
20
117.5621249
11
10.903697
21
117.5105249
0
LINE
8
DEFAULT_255_2_778
10
10.903697
20
117.5105249
11
10.894697
21
117.4639249
0
LINE
8
DEFAULT_255_2_778
10
10.894697
20
117.4639249
11
10.883097
21
117.4179249
0
LINE
8
DEFAULT_255_2_778
10
10.883097
20
117.4179249
11
10.862497
21
117.3562249
0
LINE
8
DEFAULT_255_2_778
10
10.862497
20
117.3562249
11
10.832797
21
117.2925249
0
LINE
8
DEFAULT_255_2_778
10
10.832797
20
117.2925249
11
10.784197
21
117.2226249
0
LINE
8
DEFAULT_255_2_778
10
10.784197
20
117.2226249
11
10.698197
21
117.1478249
0
LINE
8
DEFAULT_255_2_778
10
10.698197
20
117.1478249
11
10.554197
21
117.0874249
0
LINE
8
DEFAULT_255_2_778
10
10.554197
20
117.0874249
11
10.372997
21
117.0673249
0
LINE
8
DEFAULT_255_2_778
10
10.372997
20
117.0673249
11
10.037997
21
117.0673249
0
LINE
8
DEFAULT_255_2_778
10
10.037997
20
117.0673249
11
10.037997
21
118.3818249
0
LINE
8
DEFAULT_255_2_778
10
10.037997
20
118.3818249
11
10.441997
21
118.3754249
0
LINE
8
DEFAULT_255_2_778
10
8.466697
20
118.5683249
11
8.650797
21
118.5178249
0
LINE
8
DEFAULT_255_2_778
10
8.650797
20
118.5178249
11
8.766197
21
118.4421249
0
LINE
8
DEFAULT_255_2_778
10
8.766197
20
118.4421249
11
8.833597
21
118.3638249
0
LINE
8
DEFAULT_255_2_778
10
8.833597
20
118.3638249
11
8.868597
21
118.2971249
0
LINE
8
DEFAULT_255_2_778
10
8.868597
20
118.2971249
11
8.887897
21
118.2400249
0
LINE
8
DEFAULT_255_2_778
10
8.887897
20
118.2400249
11
8.895297
21
118.2071249
0
LINE
8
DEFAULT_255_2_778
10
8.895297
20
118.2071249
11
8.900597
21
118.1741249
0
LINE
8
DEFAULT_255_2_778
10
8.900597
20
118.1741249
11
8.898197
21
117.9881249
0
LINE
8
DEFAULT_255_2_778
10
8.898197
20
117.9881249
11
8.891897
21
117.9545249
0
LINE
8
DEFAULT_255_2_778
10
8.891897
20
117.9545249
11
8.879397
21
117.9087249
0
LINE
8
DEFAULT_255_2_778
10
8.879397
20
117.9087249
11
8.856697
21
117.8521249
0
LINE
8
DEFAULT_255_2_778
10
8.856697
20
117.8521249
11
8.817497
21
117.7878249
0
LINE
8
DEFAULT_255_2_778
10
8.817497
20
117.7878249
11
8.745297
21
117.7129249
0
LINE
8
DEFAULT_255_2_778
10
8.745297
20
117.7129249
11
8.623297
21
117.6415249
0
LINE
8
DEFAULT_255_2_778
10
8.623297
20
117.6415249
11
8.445997
21
117.6002249
0
LINE
8
DEFAULT_255_2_778
10
8.445997
20
117.6002249
11
8.359497
21
117.5962249
0
LINE
8
DEFAULT_255_2_778
10
8.359497
20
117.5962249
11
7.993297
21
117.5962249
0
LINE
8
DEFAULT_255_2_778
10
7.993297
20
117.5962249
11
7.993297
21
116.8744249
0
LINE
8
DEFAULT_255_2_778
10
7.993297
20
116.8744249
11
7.772397
21
116.8744249
0
LINE
8
DEFAULT_255_2_778
10
7.772397
20
116.8744249
11
7.772397
21
118.5744249
0
LINE
8
DEFAULT_255_2_778
10
7.772397
20
118.5744249
11
8.466697
21
118.5683249
0
LINE
8
DEFAULT_255_2_778
10
8.424597
20
118.3781249
11
8.582797
21
118.3188249
0
LINE
8
DEFAULT_255_2_778
10
8.582797
20
118.3188249
11
8.647597
21
118.2460249
0
LINE
8
DEFAULT_255_2_778
10
8.647597
20
118.2460249
11
8.672197
21
118.1876249
0
LINE
8
DEFAULT_255_2_778
10
8.672197
20
118.1876249
11
8.680697
21
118.1489249
0
LINE
8
DEFAULT_255_2_778
10
8.680697
20
118.1489249
11
8.679097
21
118.0164249
0
LINE
8
DEFAULT_255_2_778
10
8.679097
20
118.0164249
11
8.666997
21
117.9701249
0
LINE
8
DEFAULT_255_2_778
10
8.666997
20
117.9701249
11
8.633597
21
117.9058249
0
LINE
8
DEFAULT_255_2_778
10
8.633597
20
117.9058249
11
8.544697
21
117.8291249
0
LINE
8
DEFAULT_255_2_778
10
8.544697
20
117.8291249
11
8.372997
21
117.7894249
0
LINE
8
DEFAULT_255_2_778
10
8.372997
20
117.7894249
11
7.993597
21
117.7891249
0
LINE
8
DEFAULT_255_2_778
10
7.993597
20
117.7891249
11
7.993597
21
118.3818249
0
LINE
8
DEFAULT_255_2_778
10
7.993597
20
118.3818249
11
8.424597
21
118.3781249
0
LINE
8
DEFAULT_255_2_778
10
14.477197
20
118.0852249
11
14.292797
21
118.0878249
0
LINE
8
DEFAULT_255_2_778
10
14.292797
20
118.0878249
11
14.141997
21
118.0495249
0
LINE
8
DEFAULT_255_2_778
10
14.141997
20
118.0495249
11
14.046497
21
117.9947249
0
LINE
8
DEFAULT_255_2_778
10
14.046497
20
117.9947249
11
13.964197
21
117.9150249
0
LINE
8
DEFAULT_255_2_778
10
13.964197
20
117.9150249
11
13.918897
21
117.8497249
0
LINE
8
DEFAULT_255_2_778
10
13.918897
20
117.8497249
11
13.883997
21
117.7788249
0
LINE
8
DEFAULT_255_2_778
10
13.883997
20
117.7788249
11
13.864697
21
117.7238249
0
LINE
8
DEFAULT_255_2_778
10
13.864697
20
117.7238249
11
13.850097
21
117.6671249
0
LINE
8
DEFAULT_255_2_778
10
13.850097
20
117.6671249
11
13.842197
21
117.6232249
0
LINE
8
DEFAULT_255_2_778
10
13.842197
20
117.6232249
11
13.838797
21
117.5983249
0
LINE
8
DEFAULT_255_2_778
10
13.838797
20
117.5983249
11
13.838497
21
117.3462249
0
LINE
8
DEFAULT_255_2_778
10
13.838497
20
117.3462249
11
13.846197
21
117.2959249
0
LINE
8
DEFAULT_255_2_778
10
13.846197
20
117.2959249
11
13.855397
21
117.2517249
0
LINE
8
DEFAULT_255_2_778
10
13.855397
20
117.2517249
11
13.874497
21
117.1869249
0
LINE
8
DEFAULT_255_2_778
10
13.874497
20
117.1869249
11
13.906197
21
117.1120249
0
LINE
8
DEFAULT_255_2_778
10
13.906197
20
117.1120249
11
13.954097
21
117.0348249
0
LINE
8
DEFAULT_255_2_778
10
13.954097
20
117.0348249
11
14.034597
21
116.9498249
0
LINE
8
DEFAULT_255_2_778
10
14.034597
20
116.9498249
11
14.148097
21
116.8821249
0
LINE
8
DEFAULT_255_2_778
10
14.148097
20
116.8821249
11
14.292297
21
116.8456249
0
LINE
8
DEFAULT_255_2_778
10
14.292297
20
116.8456249
11
14.478297
21
116.8482249
0
LINE
8
DEFAULT_255_2_778
10
14.478297
20
116.8482249
11
14.632297
21
116.8959249
0
LINE
8
DEFAULT_255_2_778
10
14.632297
20
116.8959249
11
14.740197
21
116.9718249
0
LINE
8
DEFAULT_255_2_778
10
14.740197
20
116.9718249
11
14.806597
21
117.0496249
0
LINE
8
DEFAULT_255_2_778
10
14.806597
20
117.0496249
11
14.851897
21
117.1284249
0
LINE
8
DEFAULT_255_2_778
10
14.851897
20
117.1284249
11
14.875697
21
117.1869249
0
LINE
8
DEFAULT_255_2_778
10
14.875697
20
117.1869249
11
14.894697
21
117.2517249
0
LINE
8
DEFAULT_255_2_778
10
14.894697
20
117.2517249
11
14.903997
21
117.2959249
0
LINE
8
DEFAULT_255_2_778
10
14.903997
20
117.2959249
11
14.911697
21
117.3462249
0
LINE
8
DEFAULT_255_2_778
10
14.911697
20
117.3462249
11
14.911397
21
117.5983249
0
LINE
8
DEFAULT_255_2_778
10
14.911397
20
117.5983249
11
14.903697
21
117.6478249
0
LINE
8
DEFAULT_255_2_778
10
14.903697
20
117.6478249
11
14.890697
21
117.7047249
0
LINE
8
DEFAULT_255_2_778
10
14.890697
20
117.7047249
11
14.872997
21
117.7603249
0
LINE
8
DEFAULT_255_2_778
10
14.872997
20
117.7603249
11
14.842597
21
117.8288249
0
LINE
8
DEFAULT_255_2_778
10
14.842597
20
117.8288249
11
14.793897
21
117.9047249
0
LINE
8
DEFAULT_255_2_778
10
14.793897
20
117.9047249
11
14.717997
21
117.9833249
0
LINE
8
DEFAULT_255_2_778
10
14.717997
20
117.9833249
11
14.624797
21
118.0420249
0
LINE
8
DEFAULT_255_2_778
10
14.624797
20
118.0420249
11
14.477197
21
118.0852249
0
LINE
8
DEFAULT_255_2_778
10
14.339097
20
117.0059249
11
14.207897
21
117.0528249
0
LINE
8
DEFAULT_255_2_778
10
14.207897
20
117.0528249
11
14.137997
21
117.1247249
0
LINE
8
DEFAULT_255_2_778
10
14.137997
20
117.1247249
11
14.095697
21
117.2052249
0
LINE
8
DEFAULT_255_2_778
10
14.095697
20
117.2052249
11
14.076897
21
117.2615249
0
LINE
8
DEFAULT_255_2_778
10
14.076897
20
117.2615249
11
14.064997
21
117.3142249
0
LINE
8
DEFAULT_255_2_778
10
14.064997
20
117.3142249
11
14.059397
21
117.3499249
0
LINE
8
DEFAULT_255_2_778
10
14.059397
20
117.3499249
11
14.062097
21
117.6095249
0
LINE
8
DEFAULT_255_2_778
10
14.062097
20
117.6095249
11
14.072397
21
117.6616249
0
LINE
8
DEFAULT_255_2_778
10
14.072397
20
117.6616249
11
14.090597
21
117.7214249
0
LINE
8
DEFAULT_255_2_778
10
14.090597
20
117.7214249
11
14.131697
21
117.8026249
0
LINE
8
DEFAULT_255_2_778
10
14.131697
20
117.8026249
11
14.193297
21
117.8706249
0
LINE
8
DEFAULT_255_2_778
10
14.193297
20
117.8706249
11
14.292497
21
117.9190249
0
LINE
8
DEFAULT_255_2_778
10
14.292497
20
117.9190249
11
14.456597
21
117.9190249
0
LINE
8
DEFAULT_255_2_778
10
14.456597
20
117.9190249
11
14.564297
21
117.8637249
0
LINE
8
DEFAULT_255_2_778
10
14.564297
20
117.8637249
11
14.631197
21
117.7798249
0
LINE
8
DEFAULT_255_2_778
10
14.631197
20
117.7798249
11
14.662897
21
117.7081249
0
LINE
8
DEFAULT_255_2_778
10
14.662897
20
117.7081249
11
14.676397
21
117.6616249
0
LINE
8
DEFAULT_255_2_778
10
14.676397
20
117.6616249
11
14.686797
21
117.6095249
0
LINE
8
DEFAULT_255_2_778
10
14.686797
20
117.6095249
11
14.686797
21
117.3319249
0
LINE
8
DEFAULT_255_2_778
10
14.686797
20
117.3319249
11
14.676397
21
117.2790249
0
LINE
8
DEFAULT_255_2_778
10
14.676397
20
117.2790249
11
14.658197
21
117.2181249
0
LINE
8
DEFAULT_255_2_778
10
14.658197
20
117.2181249
11
14.617397
21
117.1348249
0
LINE
8
DEFAULT_255_2_778
10
14.617397
20
117.1348249
11
14.549197
21
117.0589249
0
LINE
8
DEFAULT_255_2_778
10
14.549197
20
117.0589249
11
14.445197
21
117.0115249
0
LINE
8
DEFAULT_255_2_778
10
14.445197
20
117.0115249
11
14.339097
21
117.0059249
0
LINE
8
DEFAULT_255_2_778
10
18.637997
20
116.8480249
11
18.823997
21
116.8453249
0
LINE
8
DEFAULT_255_2_778
10
18.823997
20
116.8453249
11
18.983597
21
116.8885249
0
LINE
8
DEFAULT_255_2_778
10
18.983597
20
116.8885249
11
19.094197
21
116.9604249
0
LINE
8
DEFAULT_255_2_778
10
19.094197
20
116.9604249
11
19.162197
21
117.0345249
0
LINE
8
DEFAULT_255_2_778
10
19.162197
20
117.0345249
11
19.210097
21
117.1118249
0
LINE
8
DEFAULT_255_2_778
10
19.210097
20
117.1118249
11
19.234097
21
117.1655249
0
LINE
8
DEFAULT_255_2_778
10
19.234097
20
117.1655249
11
19.255297
21
117.2298249
0
LINE
8
DEFAULT_255_2_778
10
19.255297
20
117.2298249
11
19.265897
21
117.2737249
0
LINE
8
DEFAULT_255_2_778
10
19.265897
20
117.2737249
11
19.274397
21
117.3208249
0
LINE
8
DEFAULT_255_2_778
10
19.274397
20
117.3208249
11
19.277797
21
117.3459249
0
LINE
8
DEFAULT_255_2_778
10
19.277797
20
117.3459249
11
19.277497
21
117.5981249
0
LINE
8
DEFAULT_255_2_778
10
19.277497
20
117.5981249
11
19.269897
21
117.6476249
0
LINE
8
DEFAULT_255_2_778
10
19.269897
20
117.6476249
11
19.256897
21
117.7044249
0
LINE
8
DEFAULT_255_2_778
10
19.256897
20
117.7044249
11
19.239197
21
117.7600249
0
LINE
8
DEFAULT_255_2_778
10
19.239197
20
117.7600249
11
19.208697
21
117.8285249
0
LINE
8
DEFAULT_255_2_778
10
19.208697
20
117.8285249
11
19.160097
21
117.9045249
0
LINE
8
DEFAULT_255_2_778
10
19.160097
20
117.9045249
11
19.084097
21
117.9830249
0
LINE
8
DEFAULT_255_2_778
10
19.084097
20
117.9830249
11
18.990997
21
118.0418249
0
LINE
8
DEFAULT_255_2_778
10
18.990997
20
118.0418249
11
18.843597
21
118.0852249
0
LINE
8
DEFAULT_255_2_778
10
18.843597
20
118.0852249
11
18.659197
21
118.0878249
0
LINE
8
DEFAULT_255_2_778
10
18.659197
20
118.0878249
11
18.508397
21
118.0495249
0
LINE
8
DEFAULT_255_2_778
10
18.508397
20
118.0495249
11
18.412897
21
117.9947249
0
LINE
8
DEFAULT_255_2_778
10
18.412897
20
117.9947249
11
18.330597
21
117.9150249
0
LINE
8
DEFAULT_255_2_778
10
18.330597
20
117.9150249
11
18.285397
21
117.8497249
0
LINE
8
DEFAULT_255_2_778
10
18.285397
20
117.8497249
11
18.250397
21
117.7788249
0
LINE
8
DEFAULT_255_2_778
10
18.250397
20
117.7788249
11
18.231097
21
117.7238249
0
LINE
8
DEFAULT_255_2_778
10
18.231097
20
117.7238249
11
18.216597
21
117.6671249
0
LINE
8
DEFAULT_255_2_778
10
18.216597
20
117.6671249
11
18.208597
21
117.6232249
0
LINE
8
DEFAULT_255_2_778
10
18.208597
20
117.6232249
11
18.205197
21
117.5983249
0
LINE
8
DEFAULT_255_2_778
10
18.205197
20
117.5983249
11
18.204897
21
117.3462249
0
LINE
8
DEFAULT_255_2_778
10
18.204897
20
117.3462249
11
18.212597
21
117.2959249
0
LINE
8
DEFAULT_255_2_778
10
18.212597
20
117.2959249
11
18.221897
21
117.2517249
0
LINE
8
DEFAULT_255_2_778
10
18.221897
20
117.2517249
11
18.240897
21
117.1869249
0
LINE
8
DEFAULT_255_2_778
10
18.240897
20
117.1869249
11
18.272697
21
117.1120249
0
LINE
8
DEFAULT_255_2_778
10
18.272697
20
117.1120249
11
18.320497
21
117.0348249
0
LINE
8
DEFAULT_255_2_778
10
18.320497
20
117.0348249
11
18.400997
21
116.9498249
0
LINE
8
DEFAULT_255_2_778
10
18.400997
20
116.9498249
11
18.514497
21
116.8821249
0
LINE
8
DEFAULT_255_2_778
10
18.514497
20
116.8821249
11
18.637997
21
116.8480249
0
LINE
8
DEFAULT_255_2_778
10
18.788597
20
117.9256249
11
18.904697
21
117.8836249
0
LINE
8
DEFAULT_255_2_778
10
18.904697
20
117.8836249
11
18.977797
21
117.8124249
0
LINE
8
DEFAULT_255_2_778
10
18.977797
20
117.8124249
11
19.020897
21
117.7330249
0
LINE
8
DEFAULT_255_2_778
10
19.020897
20
117.7330249
11
19.039197
21
117.6790249
0
LINE
8
DEFAULT_255_2_778
10
19.039197
20
117.6790249
11
19.051097
21
117.6274249
0
LINE
8
DEFAULT_255_2_778
10
19.051097
20
117.6274249
11
19.056597
21
117.5925249
0
LINE
8
DEFAULT_255_2_778
10
19.056597
20
117.5925249
11
19.053997
21
117.3324249
0
LINE
8
DEFAULT_255_2_778
10
19.053997
20
117.3324249
11
19.043597
21
117.2795249
0
LINE
8
DEFAULT_255_2_778
10
19.043597
20
117.2795249
11
19.025397
21
117.2187249
0
LINE
8
DEFAULT_255_2_778
10
19.025397
20
117.2187249
11
18.984597
21
117.1353249
0
LINE
8
DEFAULT_255_2_778
10
18.984597
20
117.1353249
11
18.916397
21
117.0594249
0
LINE
8
DEFAULT_255_2_778
10
18.916397
20
117.0594249
11
18.812397
21
117.0120249
0
LINE
8
DEFAULT_255_2_778
10
18.812397
20
117.0120249
11
18.658897
21
117.0147249
0
LINE
8
DEFAULT_255_2_778
10
18.658897
20
117.0147249
11
18.551297
21
117.0718249
0
LINE
8
DEFAULT_255_2_778
10
18.551297
20
117.0718249
11
18.492297
21
117.1451249
0
LINE
8
DEFAULT_255_2_778
10
18.492297
20
117.1451249
11
18.457597
21
117.2184249
0
LINE
8
DEFAULT_255_2_778
10
18.457597
20
117.2184249
11
18.439297
21
117.2793249
0
LINE
8
DEFAULT_255_2_778
10
18.439297
20
117.2793249
11
18.428997
21
117.3322249
0
LINE
8
DEFAULT_255_2_778
10
18.428997
20
117.3322249
11
18.428997
21
117.6097249
0
LINE
8
DEFAULT_255_2_778
10
18.428997
20
117.6097249
11
18.439297
21
117.6618249
0
LINE
8
DEFAULT_255_2_778
10
18.439297
20
117.6618249
11
18.457597
21
117.7216249
0
LINE
8
DEFAULT_255_2_778
10
18.457597
20
117.7216249
11
18.498597
21
117.8029249
0
LINE
8
DEFAULT_255_2_778
10
18.498597
20
117.8029249
11
18.560297
21
117.8709249
0
LINE
8
DEFAULT_255_2_778
10
18.560297
20
117.8709249
11
18.659497
21
117.9193249
0
LINE
8
DEFAULT_255_2_778
10
18.659497
20
117.9193249
11
18.788597
21
117.9256249
0
ENDSEC
0
EOF