0
SECTION
2
HEADER
9
$MEASUREMENT
70
1
0
ENDSEC
0
SECTION
2
TABLES
0
TABLE
2
LTYPE
0
LTYPE
72
65
70
64
2
CONTINUOUS
3
______
73
0
40
0
0
ENDTAB
0
TABLE
2
LAYER
0
LAYER
2
DEFAULT_255_1_234
70
0
62
255
6
CONTINUOUS
0
LAYER
2
DEFAULT_255_2_778
70
0
62
255
6
CONTINUOUS
0
ENDTAB
0
ENDSEC
0
SECTION
2
ENTITIES
0
LINE
8
DEFAULT_255_1_234
10
3.5463293
20
287.1126
11
3.4346881
21
287.4178061
0
LINE
8
DEFAULT_255_1_234
10
3.4346881
20
287.4178061
11
2.9447521
21
287.4178061
0
LINE
8
DEFAULT_255_1_234
10
2.9447521
20
287.4178061
11
2.8347173
21
287.1126
0
LINE
8
DEFAULT_255_1_234
10
2.8347173
20
287.1126
11
2.6756889
21
287.1126
0
LINE
8
DEFAULT_255_1_234
10
2.6756889
20
287.1126
11
3.1222535
21
288.2820211
0
LINE
8
DEFAULT_255_1_234
10
3.1222535
20
288.2820211
11
3.2571867
21
288.2820211
0
LINE
8
DEFAULT_255_1_234
10
3.2571867
20
288.2820211
11
3.7045545
21
287.1126
0
LINE
8
DEFAULT_255_1_234
10
3.7045545
20
287.1126
11
3.5463293
21
287.1126
0
LINE
8
DEFAULT_255_1_234
10
3.1897201
20
288.0916689
11
2.9913362
21
287.5447075
0
LINE
8
DEFAULT_255_1_234
10
2.9913362
20
287.5447075
11
3.3889072
21
287.5447075
0
LINE
8
DEFAULT_255_1_234
10
3.3889072
20
287.5447075
11
3.1897201
21
288.0916689
0
LINE
8
DEFAULT_255_1_234
10
4.0274304
20
288.2820211
11
4.0274304
21
287.1126
0
LINE
8
DEFAULT_255_1_234
10
4.0274304
20
287.1126
11
3.873221
21
287.1126
0
LINE
8
DEFAULT_255_1_234
10
3.873221
20
287.1126
11
3.873221
21
288.2820211
0
LINE
8
DEFAULT_255_1_234
10
3.873221
20
288.2820211
11
4.0274304
21
288.2820211
0
LINE
8
DEFAULT_255_1_234
10
5.1663309
20
288.2876433
11
5.1663309
21
287.1126
0
LINE
8
DEFAULT_255_1_234
10
5.1663309
20
287.1126
11
5.0169406
21
287.1126
0
LINE
8
DEFAULT_255_1_234
10
5.0169406
20
287.1126
11
5.0169406
21
288.1029133
0
LINE
8
DEFAULT_255_1_234
10
5.0169406
20
288.1029133
11
4.7173567
21
287.9928785
0
LINE
8
DEFAULT_255_1_234
10
4.7173567
20
287.9928785
11
4.7173567
21
288.1278117
0
LINE
8
DEFAULT_255_1_234
10
4.7173567
20
288.1278117
11
5.1430389
21
288.2876433
0
LINE
8
DEFAULT_255_1_234
10
5.1430389
20
288.2876433
11
5.1663309
21
288.2876433
0
LINE
8
DEFAULT_255_1_234
10
6.1582506
20
288.2828243
11
6.1847553
21
288.2828243
0
LINE
8
DEFAULT_255_1_234
10
6.1847553
20
288.2828243
11
6.1847553
21
288.156726
0
LINE
8
DEFAULT_255_1_234
10
6.1847553
20
288.156726
11
6.1574474
21
288.156726
0
LINE
8
DEFAULT_255_1_234
10
5.610486
20
287.5575583
11
5.610486
21
287.6145836
0
LINE
8
DEFAULT_255_1_234
10
5.7598764
20
287.5953075
11
5.7598764
21
287.5406917
0
ARC
8
DEFAULT_255_1_234
10
6.1626822
20
287.6569455
40
0.4998079
50
90.6001036
51
104.514704
0
ARC
8
DEFAULT_255_1_234
10
6.1238337
20
287.8014131
40
0.3502176
50
104.2855254
51
133.862935
0
ARC
8
DEFAULT_255_1_234
10
6.1402095
20
287.790583
40
0.3693984
50
134.5302688
51
161.6210873
0
ARC
8
DEFAULT_255_1_234
10
6.3055283
20
287.7322895
40
0.5446739
50
161.2849839
51
174.2076652
0
ARC
8
DEFAULT_255_1_234
10
6.4462221
20
287.7128787
40
0.6866274
50
173.7810589
51
174.9254635
0
ARC
8
DEFAULT_255_1_234
10
5.9912053
20
287.5745839
40
0.3033419
50
95.8330959
51
138.9954921
0
ARC
8
DEFAULT_255_1_234
10
6.0135409
20
287.4467375
40
0.4328947
50
89.8753725
51
97.0544009
0
ARC
8
DEFAULT_255_1_234
10
6.0182875
20
287.5302748
40
0.3493769
50
71.6407809
51
90.6240094
0
ARC
8
DEFAULT_255_1_234
10
6.0333448
20
287.5857082
40
0.2920396
50
39.6367836
51
71.019018
0
ARC
8
DEFAULT_255_1_234
10
5.9696921
20
287.5306998
40
0.3761538
50
10.658731
51
39.9043955
0
ARC
8
DEFAULT_255_1_234
10
5.8149004
20
287.4970686
40
0.5345136
50
359.682601
51
11.132623
0
ARC
8
DEFAULT_255_1_234
10
5.8109135
20
287.490001
40
0.5385081
50
347.2486944
51
0.4369317
0
ARC
8
DEFAULT_255_1_234
10
5.9776612
20
287.4498807
40
0.3670249
50
318.1409698
51
347.6118597
0
ARC
8
DEFAULT_255_1_234
10
6.0101605
20
287.4231702
40
0.3250007
50
275.6342139
51
317.8248465
0
ARC
8
DEFAULT_255_1_234
10
5.9880716
20
287.5531219
40
0.4565864
50
269.8874292
51
276.7917694
0
ARC
8
DEFAULT_255_1_234
10
5.9825787
20
287.4505743
40
0.3540676
50
246.9140195
51
270.7437342
0
ARC
8
DEFAULT_255_1_234
10
5.9832177
20
287.4363384
40
0.3412781
50
218.1665114
51
245.878116
0
ARC
8
DEFAULT_255_1_234
10
6.0711638
20
287.5099279
40
0.455911
50
191.4115814
51
218.6077802
0
ARC
8
DEFAULT_255_1_234
10
6.2649727
20
287.5533833
40
0.6545001
50
179.6345085
51
191.7836486
0
ARC
8
DEFAULT_255_1_234
10
6.8232064
20
287.6212697
40
1.2127388
50
171.4525249
51
180.3158839
0
ARC
8
DEFAULT_255_1_234
10
6.3836939
20
287.6896608
40
0.7679464
50
157.9802646
51
171.6246686
0
ARC
8
DEFAULT_255_1_234
10
6.162296
20
287.7779421
40
0.5296008
50
141.4298019
51
157.854097
0
ARC
8
DEFAULT_255_1_234
10
6.0981281
20
287.8233381
40
0.4511509
50
102.8715806
51
140.8564722
0
ARC
8
DEFAULT_255_1_234
10
6.1628897
20
287.5793552
40
0.7034845
50
90.3778349
51
103.5869322
0
ARC
8
DEFAULT_255_1_234
10
5.9890673
20
287.518873
40
0.2370698
50
89.8751008
51
126.2071704
0
ARC
8
DEFAULT_255_1_234
10
5.9936463
20
287.5034303
40
0.2522934
50
124.9745049
51
144.895901
0
ARC
8
DEFAULT_255_1_234
10
5.9760653
20
287.517756
40
0.2296779
50
145.2974905
51
160.2660252
0
ARC
8
DEFAULT_255_1_234
10
6.2833192
20
287.5375071
40
0.5234525
50
179.6514266
51
190.2855912
0
ARC
8
DEFAULT_255_1_234
10
6.1139329
20
287.5055786
40
0.3510893
50
190.0945431
51
207.5098196
0
ARC
8
DEFAULT_255_1_234
10
6.0573599
20
287.4786623
40
0.288489
50
207.9583163
51
216.3251085
0
ARC
8
DEFAULT_255_1_234
10
6.0233707
20
287.4507105
40
0.2445587
50
215.7661442
51
232.5456785
0
ARC
8
DEFAULT_255_1_234
10
5.985069
20
287.4020482
40
0.1826382
50
232.8005391
51
270.6605633
0
ARC
8
DEFAULT_255_1_234
10
5.9896391
20
287.4384612
40
0.2190529
50
269.35537
51
288.4744281
0
ARC
8
DEFAULT_255_1_234
10
5.9989288
20
287.4035118
40
0.1829749
50
289.1833337
51
322.9683818
0
ARC
8
DEFAULT_255_1_234
10
5.937781
20
287.4517391
40
0.2608399
50
322.6007884
51
346.5182367
0
ARC
8
DEFAULT_255_1_234
10
5.8220406
20
287.4812616
40
0.3802777
50
346.2582162
51
358.7741648
0
ARC
8
DEFAULT_255_1_234
10
5.7202075
20
287.4867965
40
0.4822176
50
358.3755224
51
0.0098023
0
ARC
8
DEFAULT_255_1_234
10
5.7958262
20
287.4895657
40
0.4066078
50
359.6214041
51
11.2839074
0
ARC
8
DEFAULT_255_1_234
10
5.9235409
20
287.5162066
40
0.2761514
50
11.0482309
51
31.8146458
0
ARC
8
DEFAULT_255_1_234
10
5.9544452
20
287.5329584
40
0.2410679
50
32.3035391
51
38.082671
0
ARC
8
DEFAULT_255_1_234
10
5.9965112
20
287.5710662
40
0.1844966
50
36.825067
51
85.7415724
0
ARC
8
DEFAULT_255_1_234
10
5.9897945
20
287.5210301
40
0.2349122
50
85.0140713
51
90.0513278
0
LINE
8
DEFAULT_255_1_234
10
6.6417612
20
287.9816341
11
6.8321134
21
287.6643804
0
LINE
8
DEFAULT_255_1_234
10
6.8321134
20
287.6643804
11
7.0248751
21
287.9816341
0
LINE
8
DEFAULT_255_1_234
10
7.0248751
20
287.9816341
11
7.1983607
21
287.9816341
0
LINE
8
DEFAULT_255_1_234
10
7.1983607
20
287.9816341
11
6.9140372
21
287.5519361
0
LINE
8
DEFAULT_255_1_234
10
6.9140372
20
287.5519361
11
7.2071956
21
287.1126
0
LINE
8
DEFAULT_255_1_234
10
7.2071956
20
287.1126
11
7.0353164
21
287.1126
0
LINE
8
DEFAULT_255_1_234
10
7.0353164
20
287.1126
11
6.8345229
21
287.4378854
0
LINE
8
DEFAULT_255_1_234
10
6.8345229
20
287.4378854
11
6.6337295
21
287.1126
0
LINE
8
DEFAULT_255_1_234
10
6.6337295
20
287.1126
11
6.4610471
21
287.1126
0
LINE
8
DEFAULT_255_1_234
10
6.4610471
20
287.1126
11
6.7542056
21
287.5519361
0
LINE
8
DEFAULT_255_1_234
10
6.7542056
20
287.5519361
11
6.469882
21
287.9816341
0
LINE
8
DEFAULT_255_1_234
10
6.469882
20
287.9816341
11
6.6417612
21
287.9816341
0
LINE
8
DEFAULT_255_1_234
10
7.8288521
20
288.2876433
11
7.8288521
21
287.1126
0
LINE
8
DEFAULT_255_1_234
10
7.8288521
20
287.1126
11
7.6794618
21
287.1126
0
LINE
8
DEFAULT_255_1_234
10
7.6794618
20
287.1126
11
7.6794618
21
288.1029133
0
LINE
8
DEFAULT_255_1_234
10
7.6794618
20
288.1029133
11
7.379878
21
287.9928785
0
LINE
8
DEFAULT_255_1_234
10
7.379878
20
287.9928785
11
7.379878
21
288.1278117
0
LINE
8
DEFAULT_255_1_234
10
7.379878
20
288.1278117
11
7.8055601
21
288.2876433
0
LINE
8
DEFAULT_255_1_234
10
7.8055601
20
288.2876433
11
7.8288521
21
288.2876433
0
LINE
8
DEFAULT_255_1_234
10
8.4802261
20
287.6483169
11
8.4802261
21
287.7695962
0
LINE
8
DEFAULT_255_1_234
10
8.4802261
20
287.7695962
11
8.5918673
21
287.7695962
0
LINE
8
DEFAULT_255_1_234
10
8.4015151
20
287.9752087
11
8.2529279
21
287.9752087
0
LINE
8
DEFAULT_255_1_234
10
8.2424867
20
287.4210188
11
8.391877
21
287.4210188
0
LINE
8
DEFAULT_255_1_234
10
8.5918673
20
287.6483169
11
8.4802261
21
287.6483169
0
ARC
8
DEFAULT_255_1_234
10
8.5889539
20
288.1088713
40
0.3392876
50
270.4919872
51
281.8951556
0
ARC
8
DEFAULT_255_1_234
10
8.6130801
20
287.9986702
40
0.2264817
50
281.6691735
51
301.2943132
0
ARC
8
DEFAULT_255_1_234
10
8.6301011
20
287.9675304
40
0.1910381
50
301.7833094
51
311.7545298
0
ARC
8
DEFAULT_255_1_234
10
8.6392587
20
287.9573748
40
0.1773635
50
311.7323931
51
354.2802411
0
ARC
8
DEFAULT_255_1_234
10
8.5666212
20
287.9698722
40
0.2509385
50
353.0937916
51
0.1181479
0
ARC
8
DEFAULT_255_1_234
10
8.5204997
20
287.9746386
40
0.2970898
50
359.1805295
51
15.0453146
0
ARC
8
DEFAULT_255_1_234
10
8.6550834
20
288.0138992
40
0.1569564
50
13.9577229
51
77.6713066
0
ARC
8
DEFAULT_255_1_234
10
8.6164363
20
287.8753949
40
0.3006298
50
76.1116566
51
90.7026153
0
ARC
8
DEFAULT_255_1_234
10
8.6105202
20
287.9027545
40
0.2732568
50
89.5324876
51
103.531937
0
ARC
8
DEFAULT_255_1_234
10
8.5904646
20
287.9826884
40
0.1908508
50
103.2931773
51
133.5619022
0
ARC
8
DEFAULT_255_1_234
10
8.5860134
20
287.9886375
40
0.1834746
50
133.8349307
51
173.5344437
0
ARC
8
DEFAULT_255_1_234
10
8.6583177
20
287.9758213
40
0.2568033
50
172.5096846
51
180.1366907
0
ARC
8
DEFAULT_255_1_234
10
8.5632071
20
287.9792622
40
0.3103056
50
155.3484492
51
180.7484736
0
ARC
8
DEFAULT_255_1_234
10
8.558316
20
287.9763846
40
0.3070957
50
131.5744599
51
154.4798489
0
ARC
8
DEFAULT_255_1_234
10
8.5896307
20
287.944731
40
0.3515643
50
96.9875458
51
131.9690667
0
ARC
8
DEFAULT_255_1_234
10
8.6115787
20
287.8201636
40
0.4779224
50
89.8596053
51
97.7825159
0
ARC
8
DEFAULT_255_1_234
10
8.616385
20
287.7939616
40
0.5041361
50
78.3655447
51
90.4131539
0
ARC
8
DEFAULT_255_1_234
10
8.6521768
20
287.9598887
40
0.3344039
50
56.6229102
51
78.638727
0
ARC
8
DEFAULT_255_1_234
10
8.6736712
20
287.9974805
40
0.2912001
50
47.0253525
51
56.0854072
0
ARC
8
DEFAULT_255_1_234
10
8.6756492
20
288.0014223
40
0.2869704
50
10.9208013
51
46.7778124
0
ARC
8
DEFAULT_255_1_234
10
8.5392559
20
287.9698857
40
0.426899
50
359.6364486
51
11.6087304
0
ARC
8
DEFAULT_255_1_234
10
8.7227403
20
287.9683752
40
0.243409
50
332.3549906
51
359.7179418
0
ARC
8
DEFAULT_255_1_234
10
8.6577004
20
287.9992142
40
0.3153459
50
325.2333722
51
332.8745602
0
ARC
8
DEFAULT_255_1_234
10
8.6729628
20
287.9885828
40
0.2967456
50
292.9802137
51
325.2392345
0
ARC
8
DEFAULT_255_1_234
10
8.6455002
20
288.0419863
40
0.3566604
50
292.5402179
51
293.6924929
0
ARC
8
DEFAULT_255_1_234
10
8.6847598
20
287.3965091
40
0.3307468
50
57.6435486
51
72.8625112
0
ARC
8
DEFAULT_255_1_234
10
8.7202097
20
287.4539549
40
0.2632492
50
36.7248896
51
57.4697979
0
ARC
8
DEFAULT_255_1_234
10
8.719073
20
287.455222
40
0.2634081
50
8.0545065
51
36.356114
0
ARC
8
DEFAULT_255_1_234
10
8.6327915
20
287.4397174
40
0.3510261
50
359.8320645
51
8.5869982
0
ARC
8
DEFAULT_255_1_234
10
8.5952691
20
287.4349101
40
0.3885653
50
343.9829931
51
0.5571613
0
ARC
8
DEFAULT_255_1_234
10
8.6838889
20
287.4106438
40
0.2966924
50
311.6359546
51
343.7651759
0
ARC
8
DEFAULT_255_1_234
10
8.6460458
20
287.4533102
40
0.3537231
50
279.7829875
51
311.6255694
0
ARC
8
DEFAULT_255_1_234
10
8.6159234
20
287.597028
40
0.5004971
50
269.7286406
51
280.3856417
0
ARC
8
DEFAULT_255_1_234
10
8.6097307
20
287.5928996
40
0.4963778
50
256.6828919
51
270.4412052
0
ARC
8
DEFAULT_255_1_234
10
8.5758602
20
287.4544394
40
0.3538406
50
229.4223008
51
256.8556159
0
ARC
8
DEFAULT_255_1_234
10
8.5343995
20
287.4077736
40
0.2914296
50
181.818294
51
229.6455059
0
ARC
8
DEFAULT_255_1_234
10
8.6383952
20
287.4208496
40
0.3959084
50
179.9755256
51
183.2323064
0
ARC
8
DEFAULT_255_1_234
10
8.6211697
20
287.4188037
40
0.2293034
50
179.4465117
51
196.2869258
0
ARC
8
DEFAULT_255_1_234
10
8.5724105
20
287.4054651
40
0.1787621
50
196.5661473
51
227.705904
0
ARC
8
DEFAULT_255_1_234
10
8.58882
20
287.4238155
40
0.2033784
50
227.7652068
51
257.8762805
0
ARC
8
DEFAULT_255_1_234
10
8.611317
20
287.5181156
40
0.3003081
50
257.4584385
51
270.426602
0
ARC
8
DEFAULT_255_1_234
10
8.6158736
20
287.5470996
40
0.329292
50
269.5962073
51
280.8789248
0
ARC
8
DEFAULT_255_1_234
10
8.6388265
20
287.4324685
40
0.2123908
50
280.6346389
51
299.8595945
0
ARC
8
DEFAULT_255_1_234
10
8.6579172
20
287.3962212
40
0.171457
50
300.3576302
51
314.5517981
0
ARC
8
DEFAULT_255_1_234
10
8.6496232
20
287.4022919
40
0.1816095
50
315.0728369
51
345.0431014
0
ARC
8
DEFAULT_255_1_234
10
8.5573046
20
287.4291841
40
0.2777492
50
344.5986631
51
357.9269593
0
ARC
8
DEFAULT_255_1_234
10
8.4677373
20
287.4353276
40
0.3674917
50
357.4748886
51
0.0231117
0
ARC
8
DEFAULT_255_1_234
10
8.5700482
20
287.4377679
40
0.2651907
50
359.5047933
51
13.4239635
0
ARC
8
DEFAULT_255_1_234
10
8.6567126
20
287.4599478
40
0.1757509
50
12.9498199
51
48.7551375
0
ARC
8
DEFAULT_255_1_234
10
8.638486
20
287.43504
40
0.2065134
50
49.5088623
51
72.1836453
0
ARC
8
DEFAULT_255_1_234
10
8.6027012
20
287.3288291
40
0.3185836
50
71.9010081
51
84.3554254
0
ARC
8
DEFAULT_255_1_234
10
8.5865644
20
287.1927326
40
0.4556151
50
84.0193428
51
89.333121
0
LINE
8
DEFAULT_255_1_234
10
9.6319774
20
287.1126
11
9.2263746
21
287.1126
0
LINE
8
DEFAULT_255_1_234
10
9.2263746
20
287.1126
11
9.2263746
21
288.2820211
0
LINE
8
DEFAULT_255_1_234
10
9.2263746
20
288.2820211
11
9.6086854
21
288.2820211
0
LINE
8
DEFAULT_255_1_234
10
9.6375996
20
287.6595614
11
9.380584
21
287.6595614
0
LINE
8
DEFAULT_255_1_234
10
9.380584
20
287.6595614
11
9.380584
21
287.2386983
0
LINE
8
DEFAULT_255_1_234
10
9.380584
20
287.2386983
11
9.6351901
21
287.2386983
0
LINE
8
DEFAULT_255_1_234
10
9.380584
20
288.1551196
11
9.380584
21
287.7832501
0
LINE
8
DEFAULT_255_1_234
10
9.380584
20
287.7832501
11
9.6135044
21
287.7832501
0
LINE
8
DEFAULT_255_1_234
10
9.6086854
20
288.1551196
11
9.380584
21
288.1551196
0
ARC
8
DEFAULT_255_1_234
10
9.6124562
20
287.5452901
40
0.7367406
50
82.1257326
51
90.2932599
0
ARC
8
DEFAULT_255_1_234
10
9.6513517
20
287.8171013
40
0.4621653
50
69.9044149
51
82.2857423
0
ARC
8
DEFAULT_255_1_234
10
9.7084195
20
287.9713637
40
0.2976871
50
51.1838526
51
70.0181538
0
ARC
8
DEFAULT_255_1_234
10
9.7339161
20
288.008424
40
0.2528517
50
12.1017251
51
50.4214761
0
ARC
8
DEFAULT_255_1_234
10
9.5955035
20
287.9736676
40
0.3955061
50
359.5251267
51
12.8211707
0
ARC
8
DEFAULT_255_1_234
10
9.7534962
20
287.9667344
40
0.2375281
50
323.4908128
51
0.8817314
0
ARC
8
DEFAULT_255_1_234
10
9.7116648
20
287.999055
40
0.2903817
50
298.6825083
51
323.2756573
0
ARC
8
DEFAULT_255_1_234
10
9.6755011
20
288.0591649
40
0.3604842
50
293.1999386
51
299.1396394
0
ARC
8
DEFAULT_255_1_234
10
9.7427984
20
287.4506126
40
0.2871098
50
54.0011765
51
74.9167975
0
ARC
8
DEFAULT_255_1_234
10
9.7544343
20
287.4703332
40
0.2643248
50
36.3580696
51
53.5291921
0
ARC
8
DEFAULT_255_1_234
10
9.7417585
20
287.4612998
40
0.2798884
50
4.8189881
51
36.3089977
0
ARC
8
DEFAULT_255_1_234
10
9.6638421
20
287.450327
40
0.358478
50
359.9370252
51
5.5204067
0
ARC
8
DEFAULT_255_1_234
10
9.6313942
20
287.4462667
40
0.3909429
50
344.7478609
51
0.5373281
0
ARC
8
DEFAULT_255_1_234
10
9.7304913
20
287.4195544
40
0.2883093
50
311.1786488
51
344.6886812
0
ARC
8
DEFAULT_255_1_234
10
9.7012961
20
287.4558987
40
0.3348923
50
286.0418249
51
310.8441291
0
ARC
8
DEFAULT_255_1_234
10
9.6505792
20
287.6205807
40
0.5071869
50
274.1042341
51
286.4071509
0
ARC
8
DEFAULT_255_1_234
10
9.6329048
20
287.8089229
40
0.6963234
50
269.9236873
51
274.445647
0
ARC
8
DEFAULT_255_1_234
10
9.6375049
20
287.5749537
40
0.3362634
50
269.6055768
51
281.3740047
0
ARC
8
DEFAULT_255_1_234
10
9.6605687
20
287.4656353
40
0.224546
50
281.1055983
51
302.5132223
0
ARC
8
DEFAULT_255_1_234
10
9.6752587
20
287.4392823
40
0.1944357
50
303.0368945
51
311.8811219
0
ARC
8
DEFAULT_255_1_234
10
9.6823993
20
287.430789
40
0.1833454
50
311.9916004
51
351.7143462
0
ARC
8
DEFAULT_255_1_234
10
9.6007223
20
287.447293
40
0.2665871
50
350.7339597
51
0.2221581
0
ARC
8
DEFAULT_255_1_234
10
9.5899669
20
287.4529467
40
0.2773789
50
359.0456241
51
17.2296242
0
ARC
8
DEFAULT_255_1_234
10
9.6938786
20
287.4838163
40
0.1689915
50
17.6685481
51
78.9940892
0
ARC
8
DEFAULT_255_1_234
10
9.642195
20
287.2983224
40
0.3612658
50
76.5635957
51
90.6980921
0
LINE
8
DEFAULT_255_1_234
10
9.6377934
20
287.6595613
11
9.6375996
21
287.6595614
0
ARC
8
DEFAULT_255_1_234
10
9.615761
20
288.1118036
40
0.3285612
50
269.6064736
51
281.4533503
0
ARC
8
DEFAULT_255_1_234
10
9.638043
20
288.0066688
40
0.2210975
50
281.2041486
51
302.5148063
0
ARC
8
DEFAULT_255_1_234
10
9.651728
20
287.9820241
40
0.1929674
50
303.021671
51
309.8369575
0
ARC
8
DEFAULT_255_1_234
10
9.6700742
20
287.9614488
40
0.1654181
50
309.5228395
51
356.9509836
0
ARC
8
DEFAULT_255_1_234
10
9.6037324
20
287.9709932
40
0.2322512
50
355.4701227
51
0.0492546
0
ARC
8
DEFAULT_255_1_234
10
9.5758415
20
287.9732094
40
0.2601498
50
359.5558597
51
11.2096359
0
ARC
8
DEFAULT_255_1_234
10
9.6715705
20
287.993023
40
0.1623975
50
10.9182341
51
31.3230275
0
ARC
8
DEFAULT_255_1_234
10
9.7001439
20
288.0089214
40
0.1297302
50
31.8852677
51
52.1412565
0
ARC
8
DEFAULT_255_1_234
10
9.6727171
20
287.970175
40
0.1771663
50
52.8285564
51
71.9850297
0
ARC
8
DEFAULT_255_1_234
10
9.6351348
20
287.8595664
40
0.2939794
50
71.6863486
51
82.8455995
0
ARC
8
DEFAULT_255_1_234
10
9.6111884
20
287.6786149
40
0.476506
50
82.6984714
51
90.1729175
0
ARC
8
DEFAULT_255_1_234
10
9.6089518
20
287.8009623
40
0.3541573
50
89.8708275
51
90.0431131
0
LINE
8
DEFAULT_255_1_234
10
10.3885671
20
287.9816341
11
10.3885671
21
287.1126
0
LINE
8
DEFAULT_255_1_234
10
10.3885671
20
287.1126
11
10.23998
21
287.1126
0
LINE
8
DEFAULT_255_1_234
10
10.23998
20
287.1126
11
10.23998
21
287.9816341
0
LINE
8
DEFAULT_255_1_234
10
10.23998
20
287.9816341
11
10.3885671
21
287.9816341
0
ARC
8
DEFAULT_255_1_234
10
10.3257948
20
288.2130889
40
0.097867
50
161.415052
51
180.5526306
0
ARC
8
DEFAULT_255_1_234
10
10.3133727
20
288.2165077
40
0.0850062
50
138.1827368
51
160.9307106
0
ARC
8
DEFAULT_255_1_234
10
10.3023672
20
288.2260588
40
0.0704362
50
104.6368899
51
138.0039868
0
ARC
8
DEFAULT_255_1_234
10
10.3130827
20
288.1893963
40
0.1086221
50
92.0600725
51
105.2189128
0
ARC
8
DEFAULT_255_1_234
10
10.3154175
20
288.1551117
40
0.1429728
50
89.9756393
51
92.5012496
0
ARC
8
DEFAULT_255_1_234
10
10.3164195
20
288.1776731
40
0.1204151
50
78.0235316
51
90.4478182
0
ARC
8
DEFAULT_255_1_234
10
10.3256287
20
288.2190295
40
0.0780493
50
55.051506
51
78.3369085
0
ARC
8
DEFAULT_255_1_234
10
10.3306561
20
288.2274711
40
0.0682538
50
42.0501187
51
54.4513741
0
ARC
8
DEFAULT_255_1_234
10
10.3171428
20
288.2150798
40
0.0865878
50
1.7497075
51
42.1496013
0
ARC
8
DEFAULT_255_1_234
10
10.2916761
20
288.2121738
40
0.1121515
50
359.9852656
51
2.8364544
0
ARC
8
DEFAULT_255_1_234
10
10.3082753
20
288.2112229
40
0.0955566
50
342.1070653
51
0.552888
0
ARC
8
DEFAULT_255_1_234
10
10.322545
20
288.2072904
40
0.0807713
50
316.7107116
51
341.6516965
0
ARC
8
DEFAULT_255_1_234
10
10.3292488
20
288.2012823
40
0.0717724
50
285.4397031
51
316.5324284
0
ARC
8
DEFAULT_255_1_234
10
10.3182405
20
288.2378554
40
0.1099597
50
272.3547054
51
285.8953117
0
ARC
8
DEFAULT_255_1_234
10
10.3155563
20
288.2744048
40
0.1465932
50
269.9695369
51
272.8160237
0
ARC
8
DEFAULT_255_1_234
10
10.3145744
20
288.2524863
40
0.1246779
50
258.8431134
51
270.4153935
0
ARC
8
DEFAULT_255_1_234
10
10.3055786
20
288.2089414
40
0.0802162
50
238.5431189
51
259.1288175
0
ARC
8
DEFAULT_255_1_234
10
10.2987671
20
288.1965856
40
0.0661247
50
222.5062634
51
237.9906969
0
ARC
8
DEFAULT_255_1_234
10
10.3115259
20
288.2081889
40
0.0833707
50
184.1069131
51
222.460413
0
ARC
8
DEFAULT_255_1_234
10
10.3384499
20
288.2120349
40
0.1105176
50
179.9429482
51
185.0960898
0
LINE
8
DEFAULT_255_1_234
10
10.6793161
20
288.1920656
11
10.8279032
21
288.1920656
0
LINE
8
DEFAULT_255_1_234
10
10.8279032
20
288.1920656
11
10.8279032
21
287.9816341
0
LINE
8
DEFAULT_255_1_234
10
10.8279032
20
287.9816341
11
10.9901443
21
287.9816341
0
LINE
8
DEFAULT_255_1_234
10
10.9901443
20
287.9816341
11
10.9901443
21
287.8667802
0
LINE
8
DEFAULT_255_1_234
10
10.9901443
20
287.8667802
11
10.8279032
21
287.8667802
0
LINE
8
DEFAULT_255_1_234
10
10.8279032
20
287.8667802
11
10.8279032
21
287.3278506
0
LINE
8
DEFAULT_255_1_234
10
10.9941602
20
287.2330761
11
10.9941602
21
287.1126
0
LINE
8
DEFAULT_255_1_234
10
10.6793161
20
287.3278506
11
10.6793161
21
287.8667802
0
LINE
8
DEFAULT_255_1_234
10
10.6793161
20
287.8667802
11
10.5210908
21
287.8667802
0
LINE
8
DEFAULT_255_1_234
10
10.5210908
20
287.8667802
11
10.5210908
21
287.9816341
0
LINE
8
DEFAULT_255_1_234
10
10.5210908
20
287.9816341
11
10.6793161
21
287.9816341
0
LINE
8
DEFAULT_255_1_234
10
10.6793161
20
287.9816341
11
10.6793161
21
288.1920656
0
ARC
8
DEFAULT_255_1_234
10
11.0286535
20
287.3268084
40
0.200753
50
179.7025659
51
187.917967
0
ARC
8
DEFAULT_255_1_234
10
10.9540561
20
287.3160724
40
0.1253883
50
187.7545981
51
200.2447476
0
ARC
8
DEFAULT_255_1_234
10
10.9119882
20
287.3003859
40
0.0804913
50
200.130383
51
219.174133
0
ARC
8
DEFAULT_255_1_234
10
10.8984059
20
287.2911515
40
0.0641445
50
220.4434483
51
249.6172
0
ARC
8
DEFAULT_255_1_234
10
10.9138909
20
287.3300968
40
0.1060489
50
249.1032952
51
262.775154
0
ARC
8
DEFAULT_255_1_234
10
10.9227081
20
287.3929715
40
0.1695354
50
262.4913187
51
270.2611758
0
ARC
8
DEFAULT_255_1_234
10
10.9224498
20
287.4145103
40
0.191075
50
270.3091804
51
275.6625139
0
ARC
8
DEFAULT_255_1_234
10
10.9081723
20
287.5646435
40
0.3418851
50
275.5610264
51
279.0879356
0
ARC
8
DEFAULT_255_1_234
10
10.87516
20
287.7741699
40
0.5539959
50
279.0365489
51
281.5011378
0
ARC
8
DEFAULT_255_1_234
10
10.8394677
20
287.9545423
40
0.7378639
50
281.4243939
51
282.1017894
0
ARC
8
DEFAULT_255_1_234
10
10.8737924
20
287.5463858
40
0.4501761
50
275.2597045
51
285.5083879
0
ARC
8
DEFAULT_255_1_234
10
10.8799248
20
287.4907606
40
0.3942242
50
270.0268409
51
275.1132796
0
ARC
8
DEFAULT_255_1_234
10
10.8779213
20
287.3580614
40
0.261534
50
257.3573315
51
270.479383
0
ARC
8
DEFAULT_255_1_234
10
10.8566104
20
287.2682406
40
0.1692304
50
230.8037497
51
257.741658
0
ARC
8
DEFAULT_255_1_234
10
10.8498008
20
287.2572777
40
0.1564393
50
219.974146
51
230.1990686
0
ARC
8
DEFAULT_255_1_234
10
10.8829954
20
287.2826579
40
0.1981916
50
196.5084186
51
219.4318458
0
ARC
8
DEFAULT_255_1_234
10
10.9845399
20
287.3145194
40
0.3046086
50
184.6404872
51
196.8269686
0
ARC
8
DEFAULT_255_1_234
10
11.1090464
20
287.3270908
40
0.4297309
50
179.8986958
51
184.9681077
0
LINE
8
DEFAULT_255_1_234
10
3.2877628
20
277.0959211
11
3.2877628
21
276.319252
0
LINE
8
DEFAULT_255_1_234
10
3.2877628
20
276.319252
11
3.4500039
21
276.319252
0
LINE
8
DEFAULT_255_1_234
10
3.4500039
20
276.319252
11
3.4500039
21
276.1979728
0
LINE
8
DEFAULT_255_1_234
10
3.4500039
20
276.1979728
11
3.2877628
21
276.1979728
0
LINE
8
DEFAULT_255_1_234
10
3.2877628
20
276.1979728
11
3.2877628
21
275.9265
0
LINE
8
DEFAULT_255_1_234
10
3.2877628
20
275.9265
11
3.1383725
21
275.9265
0
LINE
8
DEFAULT_255_1_234
10
3.1383725
20
275.9265
11
3.1383725
21
276.1979728
0
LINE
8
DEFAULT_255_1_234
10
3.1383725
20
276.1979728
11
2.6058682
21
276.1979728
0
LINE
8
DEFAULT_255_1_234
10
2.6058682
20
276.1979728
11
2.6058682
21
276.2855187
0
LINE
8
DEFAULT_255_1_234
10
2.6058682
20
276.2855187
11
3.1295375
21
277.0959211
0
LINE
8
DEFAULT_255_1_234
10
3.1295375
20
277.0959211
11
3.2877628
21
277.0959211
0
LINE
8
DEFAULT_255_1_234
10
3.1207026
20
276.8605912
11
2.7745347
21
276.319252
0
LINE
8
DEFAULT_255_1_234
10
2.7745347
20
276.319252
11
3.1383725
21
276.319252
0
LINE
8
DEFAULT_255_1_234
10
3.1383725
20
276.319252
11
3.1383725
21
276.8927181
0
LINE
8
DEFAULT_255_1_234
10
3.1383725
20
276.8927181
11
3.1207026
21
276.8605912
0
LINE
8
DEFAULT_255_1_234
10
3.8001877
20
276.4622169
11
3.8001877
21
276.5834962
0
LINE
8
DEFAULT_255_1_234
10
3.8001877
20
276.5834962
11
3.9118289
21
276.5834962
0
LINE
8
DEFAULT_255_1_234
10
3.7214767
20
276.7891087
11
3.5728895
21
276.7891087
0
LINE
8
DEFAULT_255_1_234
10
3.5624482
20
276.2349188
11
3.7118386
21
276.2349188
0
LINE
8
DEFAULT_255_1_234
10
3.9118289
20
276.4622169
11
3.8001877
21
276.4622169
0
ARC
8
DEFAULT_255_1_234
10
3.9089155
20
276.9227713
40
0.3392876
50
270.4919872
51
281.8951556
0
ARC
8
DEFAULT_255_1_234
10
3.9330417
20
276.8125702
40
0.2264817
50
281.6691735
51
301.2943132
0
ARC
8
DEFAULT_255_1_234
10
3.9500627
20
276.7814304
40
0.1910381
50
301.7833094
51
311.7545298
0
ARC
8
DEFAULT_255_1_234
10
3.9592203
20
276.7712748
40
0.1773635
50
311.7323931
51
354.2802411
0
ARC
8
DEFAULT_255_1_234
10
3.8865828
20
276.7837722
40
0.2509385
50
353.0937916
51
0.1181479
0
ARC
8
DEFAULT_255_1_234
10
3.8404613
20
276.7885386
40
0.2970898
50
359.1805295
51
15.0453146
0
ARC
8
DEFAULT_255_1_234
10
3.975045
20
276.8277992
40
0.1569564
50
13.9577229
51
77.6713066
0
ARC
8
DEFAULT_255_1_234
10
3.9363979
20
276.6892949
40
0.3006298
50
76.1116566
51
90.7026153
0
ARC
8
DEFAULT_255_1_234
10
3.9304817
20
276.7166545
40
0.2732568
50
89.5324876
51
103.531937
0
ARC
8
DEFAULT_255_1_234
10
3.9104261
20
276.7965884
40
0.1908508
50
103.2931773
51
133.5619022
0
ARC
8
DEFAULT_255_1_234
10
3.905975
20
276.8025375
40
0.1834746
50
133.8349307
51
173.5344437
0
ARC
8
DEFAULT_255_1_234
10
3.9782793
20
276.7897213
40
0.2568033
50
172.5096846
51
180.1366907
0
ARC
8
DEFAULT_255_1_234
10
3.8831687
20
276.7931622
40
0.3103056
50
155.3484492
51
180.7484736
0
ARC
8
DEFAULT_255_1_234
10
3.8782776
20
276.7902846
40
0.3070957
50
131.5744599
51
154.4798489
0
ARC
8
DEFAULT_255_1_234
10
3.9095923
20
276.758631
40
0.3515643
50
96.9875458
51
131.9690667
0
ARC
8
DEFAULT_255_1_234
10
3.9315403
20
276.6340636
40
0.4779224
50
89.8596053
51
97.7825159
0
ARC
8
DEFAULT_255_1_234
10
3.9363466
20
276.6078616
40
0.5041361
50
78.3655447
51
90.4131539
0
ARC
8
DEFAULT_255_1_234
10
3.9721384
20
276.7737887
40
0.3344039
50
56.6229102
51
78.638727
0
ARC
8
DEFAULT_255_1_234
10
3.9936328
20
276.8113805
40
0.2912001
50
47.0253525
51
56.0854072
0
ARC
8
DEFAULT_255_1_234
10
3.9956108
20
276.8153223
40
0.2869704
50
10.9208013
51
46.7778124
0
ARC
8
DEFAULT_255_1_234
10
3.8592174
20
276.7837857
40
0.426899
50
359.6364486
51
11.6087304
0
ARC
8
DEFAULT_255_1_234
10
4.0427018
20
276.7822752
40
0.243409
50
332.3549906
51
359.7179418
0
ARC
8
DEFAULT_255_1_234
10
3.977662
20
276.8131142
40
0.3153459
50
325.2333722
51
332.8745602
0
ARC
8
DEFAULT_255_1_234
10
3.9929244
20
276.8024828
40
0.2967456
50
292.9802137
51
325.2392345
0
ARC
8
DEFAULT_255_1_234
10
3.9654617
20
276.8558863
40
0.3566604
50
292.5402179
51
293.6924929
0
ARC
8
DEFAULT_255_1_234
10
4.0047213
20
276.2104091
40
0.3307468
50
57.6435486
51
72.8625112
0
ARC
8
DEFAULT_255_1_234
10
4.0401713
20
276.2678549
40
0.2632492
50
36.7248896
51
57.4697979
0
ARC
8
DEFAULT_255_1_234
10
4.0390346
20
276.269122
40
0.2634081
50
8.0545065
51
36.356114
0
ARC
8
DEFAULT_255_1_234
10
3.9527531
20
276.2536174
40
0.3510261
50
359.8320645
51
8.5869982
0
ARC
8
DEFAULT_255_1_234
10
3.9152307
20
276.2488101
40
0.3885653
50
343.9829931
51
0.5571613
0
ARC
8
DEFAULT_255_1_234
10
4.0038504
20
276.2245438
40
0.2966924
50
311.6359546
51
343.7651759
0
ARC
8
DEFAULT_255_1_234
10
3.9660074
20
276.2672102
40
0.3537231
50
279.7829875
51
311.6255694
0
ARC
8
DEFAULT_255_1_234
10
3.935885
20
276.410928
40
0.5004971
50
269.7286406
51
280.3856417
0
ARC
8
DEFAULT_255_1_234
10
3.9296922
20
276.4067996
40
0.4963778
50
256.6828919
51
270.4412052
0
ARC
8
DEFAULT_255_1_234
10
3.8958218
20
276.2683394
40
0.3538406
50
229.4223008
51
256.8556159
0
ARC
8
DEFAULT_255_1_234
10
3.8543611
20
276.2216736
40
0.2914296
50
181.818294
51
229.6455059
0
ARC
8
DEFAULT_255_1_234
10
3.9583567
20
276.2347496
40
0.3959084
50
179.9755256
51
183.2323064
0
ARC
8
DEFAULT_255_1_234
10
3.9411313
20
276.2327037
40
0.2293034
50
179.4465117
51
196.2869258
0
ARC
8
DEFAULT_255_1_234
10
3.8923721
20
276.2193651
40
0.1787621
50
196.5661473
51
227.705904
0
ARC
8
DEFAULT_255_1_234
10
3.9087816
20
276.2377155
40
0.2033784
50
227.7652068
51
257.8762805
0
ARC
8
DEFAULT_255_1_234
10
3.9312786
20
276.3320156
40
0.3003081
50
257.4584385
51
270.426602
0
ARC
8
DEFAULT_255_1_234
10
3.9358352
20
276.3609996
40
0.329292
50
269.5962073
51
280.8789248
0
ARC
8
DEFAULT_255_1_234
10
3.9587881
20
276.2463685
40
0.2123908
50
280.6346389
51
299.8595945
0
ARC
8
DEFAULT_255_1_234
10
3.9778788
20
276.2101212
40
0.171457
50
300.3576302
51
314.5517981
0
ARC
8
DEFAULT_255_1_234
10
3.9695848
20
276.2161919
40
0.1816095
50
315.0728369
51
345.0431014
0
ARC
8
DEFAULT_255_1_234
10
3.8772662
20
276.2430841
40
0.2777492
50
344.5986631
51
357.9269593
0
ARC
8
DEFAULT_255_1_234
10
3.7876989
20
276.2492276
40
0.3674917
50
357.4748886
51
0.0231117
0
ARC
8
DEFAULT_255_1_234
10
3.8900098
20
276.2516679
40
0.2651907
50
359.5047933
51
13.4239635
0
ARC
8
DEFAULT_255_1_234
10
3.9766741
20
276.2738478
40
0.1757509
50
12.9498199
51
48.7551375
0
ARC
8
DEFAULT_255_1_234
10
3.9584475
20
276.24894
40
0.2065134
50
49.5088623
51
72.1836453
0
ARC
8
DEFAULT_255_1_234
10
3.9226628
20
276.1427291
40
0.3185836
50
71.9010081
51
84.3554254
0
ARC
8
DEFAULT_255_1_234
10
3.906526
20
276.0066326
40
0.4556151
50
84.0193428
51
89.333121
0
LINE
8
DEFAULT_255_1_234
10
4.9961135
20
277.1015433
11
4.9961135
21
275.9265
0
LINE
8
DEFAULT_255_1_234
10
4.9961135
20
275.9265
11
4.8467232
21
275.9265
0
LINE
8
DEFAULT_255_1_234
10
4.8467232
20
275.9265
11
4.8467232
21
276.9168133
0
LINE
8
DEFAULT_255_1_234
10
4.8467232
20
276.9168133
11
4.5471394
21
276.8067785
0
LINE
8
DEFAULT_255_1_234
10
4.5471394
20
276.8067785
11
4.5471394
21
276.9417117
0
LINE
8
DEFAULT_255_1_234
10
4.5471394
20
276.9417117
11
4.9728215
21
277.1015433
0
LINE
8
DEFAULT_255_1_234
10
4.9728215
20
277.1015433
11
4.9961135
21
277.1015433
0
LINE
8
DEFAULT_255_1_234
10
5.755916
20
276.4839026
11
5.755916
21
276.3626234
0
LINE
8
DEFAULT_255_1_234
10
5.755916
20
276.3626234
11
5.3639671
21
276.3626234
0
LINE
8
DEFAULT_255_1_234
10
5.3639671
20
276.3626234
11
5.3639671
21
276.4839026
0
LINE
8
DEFAULT_255_1_234
10
5.3639671
20
276.4839026
11
5.755916
21
276.4839026
0
LINE
8
DEFAULT_255_1_234
10
6.6185247
20
276.6180327
11
6.6185247
21
276.4252709
0
LINE
8
DEFAULT_255_1_234
10
5.8804079
20
276.4051916
11
5.8804079
21
276.6035755
0
LINE
8
DEFAULT_255_1_234
10
6.4699375
20
276.3851123
11
6.4699375
21
276.6284739
0
LINE
8
DEFAULT_255_1_234
10
6.0289951
20
276.6397184
11
6.0289951
21
276.4019789
0
ARC
8
DEFAULT_255_1_234
10
5.3938136
20
276.4203805
40
1.2247208
50
353.8441951
51
0.2287902
0
ARC
8
DEFAULT_255_1_234
10
5.857764
20
276.3685806
40
0.7578929
50
344.4934747
51
353.9765454
0
ARC
8
DEFAULT_255_1_234
10
6.157023
20
276.2834981
40
0.4467846
50
329.2803592
51
344.7472793
0
ARC
8
DEFAULT_255_1_234
10
6.2563055
20
276.2290018
40
0.3336173
50
324.9352394
51
328.6160465
0
ARC
8
DEFAULT_255_1_234
10
6.2940164
20
276.2026427
40
0.2876076
50
280.580143
51
324.9173126
0
ARC
8
DEFAULT_255_1_234
10
6.2538956
20
276.3697099
40
0.4592847
50
269.5977311
51
281.6734359
0
ARC
8
DEFAULT_255_1_234
10
6.2466862
20
276.3577173
40
0.4472986
50
256.6228859
51
270.51044
0
ARC
8
DEFAULT_255_1_234
10
6.206484
20
276.2028877
40
0.2873874
50
215.8618325
51
257.2788573
0
ARC
8
DEFAULT_255_1_234
10
6.3085871
20
276.2713977
40
0.4102928
50
197.9693508
51
215.2623606
0
ARC
8
DEFAULT_255_1_234
10
6.5570987
20
276.3552709
40
0.6725652
50
187.8816417
51
198.2346507
0
ARC
8
DEFAULT_255_1_234
10
6.9529195
20
276.4124079
40
1.0724845
50
180.8976217
51
188.0055519
0
ARC
8
DEFAULT_255_1_234
10
7.2329383
20
276.4227777
40
1.3526448
50
180.7449369
51
181.1510016
0
ARC
8
DEFAULT_255_1_234
10
7.0752112
20
276.6084042
40
1.1948131
50
173.7675579
51
180.231553
0
ARC
8
DEFAULT_255_1_234
10
6.6234259
20
276.6594666
40
0.7401564
50
164.3058563
51
173.9002247
0
ARC
8
DEFAULT_255_1_234
10
6.3322328
20
276.7433656
40
0.4371288
50
148.7922025
51
164.568378
0
ARC
8
DEFAULT_255_1_234
10
6.237078
20
276.7964929
40
0.3282386
50
144.5883898
51
148.1176286
0
ARC
8
DEFAULT_255_1_234
10
6.2027678
20
276.8204315
40
0.2864044
50
101.6440918
51
144.514236
0
ARC
8
DEFAULT_255_1_234
10
6.2452745
20
276.6515069
40
0.4604934
50
89.5284041
51
102.5819763
0
ARC
8
DEFAULT_255_1_234
10
6.2531832
20
276.6476018
40
0.464401
50
77.0437873
51
90.5081339
0
ARC
8
DEFAULT_255_1_234
10
6.2933834
20
276.8118615
40
0.2953195
50
48.2778575
51
77.4994676
0
ARC
8
DEFAULT_255_1_234
10
6.3006465
20
276.8247746
40
0.2808655
50
36.3142134
51
47.6305865
0
ARC
8
DEFAULT_255_1_234
10
6.2137772
20
276.7662515
40
0.3855453
50
18.2931786
51
35.6769206
0
ARC
8
DEFAULT_255_1_234
10
5.9594531
20
276.6789593
40
0.654423
50
8.024666
51
18.5605216
0
ARC
8
DEFAULT_255_1_234
10
5.5431451
20
276.6174792
40
1.0752407
50
1.1274072
51
8.1718305
0
ARC
8
DEFAULT_255_1_234
10
5.2195642
20
276.6047885
40
1.3990231
50
0.5424119
51
1.3863029
0
ARC
8
DEFAULT_255_1_234
10
5.401702
20
276.6320342
40
1.0682415
50
359.8090433
51
4.9407866
0
ARC
8
DEFAULT_255_1_234
10
5.8227034
20
276.6696113
40
0.6455691
50
4.8362157
51
12.2904523
0
ARC
8
DEFAULT_255_1_234
10
6.0982149
20
276.7309965
40
0.3633074
50
12.0805627
51
23.8173984
0
ARC
8
DEFAULT_255_1_234
10
6.2155854
20
276.7806919
40
0.2358723
50
24.2871213
51
31.3935614
0
ARC
8
DEFAULT_255_1_234
10
6.2680551
20
276.8150233
40
0.1732111
50
30.7407893
51
82.4657128
0
ARC
8
DEFAULT_255_1_234
10
6.2500685
20
276.7266691
40
0.263235
50
81.1060089
51
90.2184952
0
ARC
8
DEFAULT_255_1_234
10
6.2464984
20
276.7524924
40
0.2374236
50
89.3806855
51
105.6762551
0
ARC
8
DEFAULT_255_1_234
10
6.2281615
20
276.8191567
40
0.1682847
50
105.7981136
51
149.7388061
0
ARC
8
DEFAULT_255_1_234
10
6.3345693
20
276.755195
40
0.2924306
50
149.4208916
51
163.6286378
0
ARC
8
DEFAULT_255_1_234
10
6.5436581
20
276.691425
40
0.5110213
50
163.3763315
51
172.1410975
0
ARC
8
DEFAULT_255_1_234
10
6.87373
20
276.6441518
40
0.8444586
50
172.0259487
51
178.0703232
0
ARC
8
DEFAULT_255_1_234
10
7.176739
20
276.6297906
40
1.1477868
50
177.8631668
51
179.5044149
0
ARC
8
DEFAULT_255_1_234
10
7.0694794
20
276.3983389
40
1.0404907
50
179.7995573
51
185.2460446
0
ARC
8
DEFAULT_255_1_234
10
6.6651833
20
276.3600513
40
0.6343885
50
185.1411642
51
193.0079639
0
ARC
8
DEFAULT_255_1_234
10
6.4008306
20
276.2975641
40
0.3627568
50
192.7897626
51
205.2507664
0
ARC
8
DEFAULT_255_1_234
10
6.2961853
20
276.2508415
40
0.2481908
50
205.8005384
51
211.2537509
0
ARC
8
DEFAULT_255_1_234
10
6.2438293
20
276.215758
40
0.1852521
50
210.3789793
51
238.4008143
0
ARC
8
DEFAULT_255_1_234
10
6.2418815
20
276.2204376
40
0.1882621
50
239.6520629
51
265.9793761
0
ARC
8
DEFAULT_255_1_234
10
6.2504016
20
276.2876427
40
0.2559272
50
265.1315437
51
270.060332
0
ARC
8
DEFAULT_255_1_234
10
6.2532794
20
276.2552534
40
0.2235528
50
269.3314664
51
287.2178029
0
ARC
8
DEFAULT_255_1_234
10
6.2670646
20
276.2049279
40
0.1714108
50
287.7958004
51
329.080874
0
ARC
8
DEFAULT_255_1_234
10
6.1713103
20
276.264693
40
0.2842745
50
328.6634704
51
343.3325132
0
ARC
8
DEFAULT_255_1_234
10
5.9540123
20
276.3323863
40
0.5118644
50
343.0499468
51
351.9393422
0
ARC
8
DEFAULT_255_1_234
10
5.6073423
20
276.3834949
40
0.8622784
50
351.8069023
51
357.7959224
0
ARC
8
DEFAULT_255_1_234
10
5.2837979
20
276.4002721
40
1.1862365
50
357.5871873
51
359.2677531
0
LINE
8
DEFAULT_255_1_234
10
7.7461807
20
277.0959211
11
7.7461807
21
275.9265
0
LINE
8
DEFAULT_255_1_234
10
7.7461807
20
275.9265
11
7.5911682
21
275.9265
0
LINE
8
DEFAULT_255_1_234
10
7.5911682
20
275.9265
11
7.5911682
21
276.467036
0
LINE
8
DEFAULT_255_1_234
10
7.5911682
20
276.467036
11
7.0016386
21
276.467036
0
LINE
8
DEFAULT_255_1_234
10
7.0016386
20
276.467036
11
7.0016386
21
275.9265
0
LINE
8
DEFAULT_255_1_234
10
7.0016386
20
275.9265
11
6.8474292
21
275.9265
0
LINE
8
DEFAULT_255_1_234
10
6.8474292
20
275.9265
11
6.8474292
21
277.0959211
0
LINE
8
DEFAULT_255_1_234
10
6.8474292
20
277.0959211
11
7.0016386
21
277.0959211
0
LINE
8
DEFAULT_255_1_234
10
7.0016386
20
277.0959211
11
7.0016386
21
276.5931343
0
LINE
8
DEFAULT_255_1_234
10
7.0016386
20
276.5931343
11
7.5911682
21
276.5931343
0
LINE
8
DEFAULT_255_1_234
10
7.5911682
20
276.5931343
11
7.5911682
21
277.0959211
0
LINE
8
DEFAULT_255_1_234
10
7.5911682
20
277.0959211
11
7.7461807
21
277.0959211
0
LINE
8
DEFAULT_255_1_234
10
8.9188145
20
277.0959211
11
8.9188145
21
275.9265
0
LINE
8
DEFAULT_255_1_234
10
8.9188145
20
275.9265
11
8.763802
21
275.9265
0
LINE
8
DEFAULT_255_1_234
10
8.763802
20
275.9265
11
8.763802
21
276.467036
0
LINE
8
DEFAULT_255_1_234
10
8.763802
20
276.467036
11
8.1742724
21
276.467036
0
LINE
8
DEFAULT_255_1_234
10
8.1742724
20
276.467036
11
8.1742724
21
275.9265
0
LINE
8
DEFAULT_255_1_234
10
8.1742724
20
275.9265
11
8.020063
21
275.9265
0
LINE
8
DEFAULT_255_1_234
10
8.020063
20
275.9265
11
8.020063
21
277.0959211
0
LINE
8
DEFAULT_255_1_234
10
8.020063
20
277.0959211
11
8.1742724
21
277.0959211
0
LINE
8
DEFAULT_255_1_234
10
8.1742724
20
277.0959211
11
8.1742724
21
276.5931343
0
LINE
8
DEFAULT_255_1_234
10
8.1742724
20
276.5931343
11
8.763802
21
276.5931343
0
LINE
8
DEFAULT_255_1_234
10
8.763802
20
276.5931343
11
8.763802
21
277.0959211
0
LINE
8
DEFAULT_255_1_234
10
8.763802
20
277.0959211
11
8.9188145
21
277.0959211
0
LINE
8
DEFAULT_255_1_234
10
9.8874421
20
276.6180327
11
9.8874421
21
276.4252709
0
LINE
8
DEFAULT_255_1_234
10
9.1493254
20
276.4051916
11
9.1493254
21
276.6035755
0
LINE
8
DEFAULT_255_1_234
10
9.738855
20
276.3851123
11
9.738855
21
276.6284739
0
LINE
8
DEFAULT_255_1_234
10
9.2979125
20
276.6397184
11
9.2979125
21
276.4019789
0
ARC
8
DEFAULT_255_1_234
10
8.6627311
20
276.4203805
40
1.2247208
50
353.8441951
51
0.2287902
0
ARC
8
DEFAULT_255_1_234
10
9.1266815
20
276.3685806
40
0.7578929
50
344.4934747
51
353.9765454
0
ARC
8
DEFAULT_255_1_234
10
9.4259405
20
276.2834981
40
0.4467846
50
329.2803592
51
344.7472793
0
ARC
8
DEFAULT_255_1_234
10
9.525223
20
276.2290018
40
0.3336173
50
324.9352394
51
328.6160465
0
ARC
8
DEFAULT_255_1_234
10
9.5629338
20
276.2026427
40
0.2876076
50
280.580143
51
324.9173126
0
ARC
8
DEFAULT_255_1_234
10
9.5228131
20
276.3697099
40
0.4592847
50
269.5977311
51
281.6734359
0
ARC
8
DEFAULT_255_1_234
10
9.5156037
20
276.3577173
40
0.4472986
50
256.6228859
51
270.51044
0
ARC
8
DEFAULT_255_1_234
10
9.4754014
20
276.2028877
40
0.2873874
50
215.8618325
51
257.2788573
0
ARC
8
DEFAULT_255_1_234
10
9.5775046
20
276.2713977
40
0.4102928
50
197.9693508
51
215.2623606
0
ARC
8
DEFAULT_255_1_234
10
9.8260162
20
276.3552709
40
0.6725652
50
187.8816417
51
198.2346507
0
ARC
8
DEFAULT_255_1_234
10
10.221837
20
276.4124079
40
1.0724845
50
180.8976217
51
188.0055519
0
ARC
8
DEFAULT_255_1_234
10
10.5018558
20
276.4227777
40
1.3526448
50
180.7449369
51
181.1510016
0
ARC
8
DEFAULT_255_1_234
10
10.3441287
20
276.6084042
40
1.1948131
50
173.7675579
51
180.231553
0
ARC
8
DEFAULT_255_1_234
10
9.8923434
20
276.6594666
40
0.7401564
50
164.3058563
51
173.9002247
0
ARC
8
DEFAULT_255_1_234
10
9.6011503
20
276.7433656
40
0.4371288
50
148.7922025
51
164.568378
0
ARC
8
DEFAULT_255_1_234
10
9.5059955
20
276.7964929
40
0.3282386
50
144.5883898
51
148.1176286
0
ARC
8
DEFAULT_255_1_234
10
9.4716853
20
276.8204315
40
0.2864044
50
101.6440918
51
144.514236
0
ARC
8
DEFAULT_255_1_234
10
9.5141919
20
276.6515069
40
0.4604934
50
89.5284041
51
102.5819763
0
ARC
8
DEFAULT_255_1_234
10
9.5221007
20
276.6476018
40
0.464401
50
77.0437873
51
90.5081339
0
ARC
8
DEFAULT_255_1_234
10
9.5623009
20
276.8118615
40
0.2953195
50
48.2778575
51
77.4994676
0
ARC
8
DEFAULT_255_1_234
10
9.569564
20
276.8247746
40
0.2808655
50
36.3142134
51
47.6305865
0
ARC
8
DEFAULT_255_1_234
10
9.4826947
20
276.7662515
40
0.3855453
50
18.2931786
51
35.6769206
0
ARC
8
DEFAULT_255_1_234
10
9.2283706
20
276.6789593
40
0.654423
50
8.024666
51
18.5605216
0
ARC
8
DEFAULT_255_1_234
10
8.8120626
20
276.6174792
40
1.0752407
50
1.1274072
51
8.1718305
0
ARC
8
DEFAULT_255_1_234
10
8.4884817
20
276.6047885
40
1.3990231
50
0.5424119
51
1.3863029
0
ARC
8
DEFAULT_255_1_234
10
8.6706194
20
276.6320342
40
1.0682415
50
359.8090433
51
4.9407866
0
ARC
8
DEFAULT_255_1_234
10
9.0916208
20
276.6696113
40
0.6455691
50
4.8362157
51
12.2904523
0
ARC
8
DEFAULT_255_1_234
10
9.3671323
20
276.7309965
40
0.3633074
50
12.0805627
51
23.8173984
0
ARC
8
DEFAULT_255_1_234
10
9.4845029
20
276.7806919
40
0.2358723
50
24.2871213
51
31.3935614
0
ARC
8
DEFAULT_255_1_234
10
9.5369726
20
276.8150233
40
0.1732111
50
30.7407893
51
82.4657128
0
ARC
8
DEFAULT_255_1_234
10
9.518986
20
276.7266691
40
0.263235
50
81.1060089
51
90.2184952
0
ARC
8
DEFAULT_255_1_234
10
9.5154159
20
276.7524924
40
0.2374236
50
89.3806855
51
105.6762551
0
ARC
8
DEFAULT_255_1_234
10
9.497079
20
276.8191567
40
0.1682847
50
105.7981136
51
149.7388061
0
ARC
8
DEFAULT_255_1_234
10
9.6034868
20
276.755195
40
0.2924306
50
149.4208916
51
163.6286378
0
ARC
8
DEFAULT_255_1_234
10
9.8125756
20
276.691425
40
0.5110213
50
163.3763315
51
172.1410975
0
ARC
8
DEFAULT_255_1_234
10
10.1426475
20
276.6441518
40
0.8444586
50
172.0259487
51
178.0703232
0
ARC
8
DEFAULT_255_1_234
10
10.4456564
20
276.6297906
40
1.1477868
50
177.8631668
51
179.5044149
0
ARC
8
DEFAULT_255_1_234
10
10.3383969
20
276.3983389
40
1.0404907
50
179.7995573
51
185.2460446
0
ARC
8
DEFAULT_255_1_234
10
9.9341008
20
276.3600513
40
0.6343885
50
185.1411642
51
193.0079639
0
ARC
8
DEFAULT_255_1_234
10
9.6697481
20
276.2975641
40
0.3627568
50
192.7897626
51
205.2507664
0
ARC
8
DEFAULT_255_1_234
10
9.5651028
20
276.2508415
40
0.2481908
50
205.8005384
51
211.2537509
0
ARC
8
DEFAULT_255_1_234
10
9.5127468
20
276.215758
40
0.1852521
50
210.3789793
51
238.4008143
0
ARC
8
DEFAULT_255_1_234
10
9.510799
20
276.2204376
40
0.1882621
50
239.6520629
51
265.9793761
0
ARC
8
DEFAULT_255_1_234
10
9.519319
20
276.2876427
40
0.2559272
50
265.1315437
51
270.060332
0
ARC
8
DEFAULT_255_1_234
10
9.5221969
20
276.2552534
40
0.2235528
50
269.3314664
51
287.2178029
0
ARC
8
DEFAULT_255_1_234
10
9.5359821
20
276.2049279
40
0.1714108
50
287.7958004
51
329.080874
0
ARC
8
DEFAULT_255_1_234
10
9.4402278
20
276.264693
40
0.2842745
50
328.6634704
51
343.3325132
0
ARC
8
DEFAULT_255_1_234
10
9.2229298
20
276.3323863
40
0.5118644
50
343.0499468
51
351.9393422
0
ARC
8
DEFAULT_255_1_234
10
8.8762598
20
276.3834949
40
0.8622784
50
351.8069023
51
357.7959224
0
ARC
8
DEFAULT_255_1_234
10
8.5527154
20
276.4002721
40
1.1862365
50
357.5871873
51
359.2677531
0
LINE
8
DEFAULT_255_1_234
10
10.811092
20
276.6180327
11
10.811092
21
276.4252709
0
LINE
8
DEFAULT_255_1_234
10
10.0729753
20
276.4051916
11
10.0729753
21
276.6035755
0
LINE
8
DEFAULT_255_1_234
10
10.6625049
20
276.3851123
11
10.6625049
21
276.6284739
0
LINE
8
DEFAULT_255_1_234
10
10.2215625
20
276.6397184
11
10.2215625
21
276.4019789
0
ARC
8
DEFAULT_255_1_234
10
9.586381
20
276.4203805
40
1.2247208
50
353.8441951
51
0.2287902
0
ARC
8
DEFAULT_255_1_234
10
10.0503314
20
276.3685806
40
0.7578929
50
344.4934747
51
353.9765454
0
ARC
8
DEFAULT_255_1_234
10
10.3495904
20
276.2834981
40
0.4467846
50
329.2803592
51
344.7472793
0
ARC
8
DEFAULT_255_1_234
10
10.4488729
20
276.2290018
40
0.3336173
50
324.9352394
51
328.6160465
0
ARC
8
DEFAULT_255_1_234
10
10.4865837
20
276.2026427
40
0.2876076
50
280.580143
51
324.9173126
0
ARC
8
DEFAULT_255_1_234
10
10.446463
20
276.3697099
40
0.4592847
50
269.5977311
51
281.6734359
0
ARC
8
DEFAULT_255_1_234
10
10.4392536
20
276.3577173
40
0.4472986
50
256.6228859
51
270.51044
0
ARC
8
DEFAULT_255_1_234
10
10.3990513
20
276.2028877
40
0.2873874
50
215.8618325
51
257.2788573
0
ARC
8
DEFAULT_255_1_234
10
10.5011545
20
276.2713977
40
0.4102928
50
197.9693508
51
215.2623606
0
ARC
8
DEFAULT_255_1_234
10
10.7496661
20
276.3552709
40
0.6725652
50
187.8816417
51
198.2346507
0
ARC
8
DEFAULT_255_1_234
10
11.1454869
20
276.4124079
40
1.0724845
50
180.8976217
51
188.0055519
0
ARC
8
DEFAULT_255_1_234
10
11.4255057
20
276.4227777
40
1.3526448
50
180.7449369
51
181.1510016
0
ARC
8
DEFAULT_255_1_234
10
11.2677786
20
276.6084042
40
1.1948131
50
173.7675579
51
180.231553
0
ARC
8
DEFAULT_255_1_234
10
10.8159933
20
276.6594666
40
0.7401564
50
164.3058563
51
173.9002247
0
ARC
8
DEFAULT_255_1_234
10
10.5248002
20
276.7433656
40
0.4371288
50
148.7922025
51
164.568378
0
ARC
8
DEFAULT_255_1_234
10
10.4296454
20
276.7964929
40
0.3282386
50
144.5883898
51
148.1176286
0
ARC
8
DEFAULT_255_1_234
10
10.3953352
20
276.8204315
40
0.2864044
50
101.6440918
51
144.514236
0
ARC
8
DEFAULT_255_1_234
10
10.4378418
20
276.6515069
40
0.4604934
50
89.5284041
51
102.5819763
0
ARC
8
DEFAULT_255_1_234
10
10.4457506
20
276.6476018
40
0.464401
50
77.0437873
51
90.5081339
0
ARC
8
DEFAULT_255_1_234
10
10.4859508
20
276.8118615
40
0.2953195
50
48.2778575
51
77.4994676
0
ARC
8
DEFAULT_255_1_234
10
10.4932139
20
276.8247746
40
0.2808655
50
36.3142134
51
47.6305865
0
ARC
8
DEFAULT_255_1_234
10
10.4063446
20
276.7662515
40
0.3855453
50
18.2931786
51
35.6769206
0
ARC
8
DEFAULT_255_1_234
10
10.1520205
20
276.6789593
40
0.654423
50
8.024666
51
18.5605216
0
ARC
8
DEFAULT_255_1_234
10
9.7357125
20
276.6174792
40
1.0752407
50
1.1274072
51
8.1718305
0
ARC
8
DEFAULT_255_1_234
10
9.4121316
20
276.6047885
40
1.3990231
50
0.5424119
51
1.3863029
0
ARC
8
DEFAULT_255_1_234
10
9.5942693
20
276.6320342
40
1.0682415
50
359.8090433
51
4.9407866
0
ARC
8
DEFAULT_255_1_234
10
10.0152707
20
276.6696113
40
0.6455691
50
4.8362157
51
12.2904523
0
ARC
8
DEFAULT_255_1_234
10
10.2907822
20
276.7309965
40
0.3633074
50
12.0805627
51
23.8173984
0
ARC
8
DEFAULT_255_1_234
10
10.4081528
20
276.7806919
40
0.2358723
50
24.2871213
51
31.3935614
0
ARC
8
DEFAULT_255_1_234
10
10.4606225
20
276.8150233
40
0.1732111
50
30.7407893
51
82.4657128
0
ARC
8
DEFAULT_255_1_234
10
10.4426359
20
276.7266691
40
0.263235
50
81.1060089
51
90.2184952
0
ARC
8
DEFAULT_255_1_234
10
10.4390658
20
276.7524924
40
0.2374236
50
89.3806855
51
105.6762551
0
ARC
8
DEFAULT_255_1_234
10
10.4207289
20
276.8191567
40
0.1682847
50
105.7981136
51
149.7388061
0
ARC
8
DEFAULT_255_1_234
10
10.5271367
20
276.755195
40
0.2924306
50
149.4208916
51
163.6286378
0
ARC
8
DEFAULT_255_1_234
10
10.7362255
20
276.691425
40
0.5110213
50
163.3763315
51
172.1410975
0
ARC
8
DEFAULT_255_1_234
10
11.0662974
20
276.6441518
40
0.8444586
50
172.0259487
51
178.0703232
0
ARC
8
DEFAULT_255_1_234
10
11.3693064
20
276.6297906
40
1.1477868
50
177.8631668
51
179.5044149
0
ARC
8
DEFAULT_255_1_234
10
11.2620468
20
276.3983389
40
1.0404907
50
179.7995573
51
185.2460446
0
ARC
8
DEFAULT_255_1_234
10
10.8577507
20
276.3600513
40
0.6343885
50
185.1411642
51
193.0079639
0
ARC
8
DEFAULT_255_1_234
10
10.593398
20
276.2975641
40
0.3627568
50
192.7897626
51
205.2507664
0
ARC
8
DEFAULT_255_1_234
10
10.4887527
20
276.2508415
40
0.2481908
50
205.8005384
51
211.2537509
0
ARC
8
DEFAULT_255_1_234
10
10.4363967
20
276.215758
40
0.1852521
50
210.3789793
51
238.4008143
0
ARC
8
DEFAULT_255_1_234
10
10.4344489
20
276.2204376
40
0.1882621
50
239.6520629
51
265.9793761
0
ARC
8
DEFAULT_255_1_234
10
10.4429689
20
276.2876427
40
0.2559272
50
265.1315437
51
270.060332
0
ARC
8
DEFAULT_255_1_234
10
10.4458468
20
276.2552534
40
0.2235528
50
269.3314664
51
287.2178029
0
ARC
8
DEFAULT_255_1_234
10
10.459632
20
276.2049279
40
0.1714108
50
287.7958004
51
329.080874
0
ARC
8
DEFAULT_255_1_234
10
10.3638777
20
276.264693
40
0.2842745
50
328.6634704
51
343.3325132
0
ARC
8
DEFAULT_255_1_234
10
10.1465797
20
276.3323863
40
0.5118644
50
343.0499468
51
351.9393422
0
ARC
8
DEFAULT_255_1_234
10
9.7999097
20
276.3834949
40
0.8622784
50
351.8069023
51
357.7959224
0
ARC
8
DEFAULT_255_1_234
10
9.4763653
20
276.4002721
40
1.1862365
50
357.5871873
51
359.2677531
0
LINE
8
DEFAULT_255_1_234
10
11.3259265
20
276.4839026
11
11.3259265
21
276.3626234
0
LINE
8
DEFAULT_255_1_234
10
11.3259265
20
276.3626234
11
10.9339776
21
276.3626234
0
LINE
8
DEFAULT_255_1_234
10
10.9339776
20
276.3626234
11
10.9339776
21
276.4839026
0
LINE
8
DEFAULT_255_1_234
10
10.9339776
20
276.4839026
11
11.3259265
21
276.4839026
0
LINE
8
DEFAULT_255_1_234
10
12.1885352
20
276.6180327
11
12.1885352
21
276.4252709
0
LINE
8
DEFAULT_255_1_234
10
11.4504184
20
276.4051916
11
11.4504184
21
276.6035755
0
LINE
8
DEFAULT_255_1_234
10
12.039948
20
276.3851123
11
12.039948
21
276.6284739
0
LINE
8
DEFAULT_255_1_234
10
11.5990056
20
276.6397184
11
11.5990056
21
276.4019789
0
ARC
8
DEFAULT_255_1_234
10
10.9638241
20
276.4203805
40
1.2247208
50
353.8441951
51
0.2287902
0
ARC
8
DEFAULT_255_1_234
10
11.4277745
20
276.3685806
40
0.7578929
50
344.4934747
51
353.9765454
0
ARC
8
DEFAULT_255_1_234
10
11.7270335
20
276.2834981
40
0.4467846
50
329.2803592
51
344.7472793
0
ARC
8
DEFAULT_255_1_234
10
11.826316
20
276.2290018
40
0.3336173
50
324.9352394
51
328.6160465
0
ARC
8
DEFAULT_255_1_234
10
11.8640269
20
276.2026427
40
0.2876076
50
280.580143
51
324.9173126
0
ARC
8
DEFAULT_255_1_234
10
11.8239061
20
276.3697099
40
0.4592847
50
269.5977311
51
281.6734359
0
ARC
8
DEFAULT_255_1_234
10
11.8166967
20
276.3577173
40
0.4472986
50
256.6228859
51
270.51044
0
ARC
8
DEFAULT_255_1_234
10
11.7764945
20
276.2028877
40
0.2873874
50
215.8618325
51
257.2788573
0
ARC
8
DEFAULT_255_1_234
10
11.8785976
20
276.2713977
40
0.4102928
50
197.9693508
51
215.2623606
0
ARC
8
DEFAULT_255_1_234
10
12.1271092
20
276.3552709
40
0.6725652
50
187.8816417
51
198.2346507
0
ARC
8
DEFAULT_255_1_234
10
12.52293
20
276.4124079
40
1.0724845
50
180.8976217
51
188.0055519
0
ARC
8
DEFAULT_255_1_234
10
12.8029488
20
276.4227777
40
1.3526448
50
180.7449369
51
181.1510016
0
ARC
8
DEFAULT_255_1_234
10
12.6452217
20
276.6084042
40
1.1948131
50
173.7675579
51
180.231553
0
ARC
8
DEFAULT_255_1_234
10
12.1934364
20
276.6594666
40
0.7401564
50
164.3058563
51
173.9002247
0
ARC
8
DEFAULT_255_1_234
10
11.9022433
20
276.7433656
40
0.4371288
50
148.7922025
51
164.568378
0
ARC
8
DEFAULT_255_1_234
10
11.8070885
20
276.7964929
40
0.3282386
50
144.5883898
51
148.1176286
0
ARC
8
DEFAULT_255_1_234
10
11.7727783
20
276.8204315
40
0.2864044
50
101.6440918
51
144.514236
0
ARC
8
DEFAULT_255_1_234
10
11.815285
20
276.6515069
40
0.4604934
50
89.5284041
51
102.5819763
0
ARC
8
DEFAULT_255_1_234
10
11.8231937
20
276.6476018
40
0.464401
50
77.0437873
51
90.5081339
0
ARC
8
DEFAULT_255_1_234
10
11.8633939
20
276.8118615
40
0.2953195
50
48.2778575
51
77.4994676
0
ARC
8
DEFAULT_255_1_234
10
11.870657
20
276.8247746
40
0.2808655
50
36.3142134
51
47.6305865
0
ARC
8
DEFAULT_255_1_234
10
11.7837877
20
276.7662515
40
0.3855453
50
18.2931786
51
35.6769206
0
ARC
8
DEFAULT_255_1_234
10
11.5294636
20
276.6789593
40
0.654423
50
8.024666
51
18.5605216
0
ARC
8
DEFAULT_255_1_234
10
11.1131556
20
276.6174792
40
1.0752407
50
1.1274072
51
8.1718305
0
ARC
8
DEFAULT_255_1_234
10
10.7895747
20
276.6047885
40
1.3990231
50
0.5424119
51
1.3863029
0
ARC
8
DEFAULT_255_1_234
10
10.9717125
20
276.6320342
40
1.0682415
50
359.8090433
51
4.9407866
0
ARC
8
DEFAULT_255_1_234
10
11.3927139
20
276.6696113
40
0.6455691
50
4.8362157
51
12.2904523
0
ARC
8
DEFAULT_255_1_234
10
11.6682253
20
276.7309965
40
0.3633074
50
12.0805627
51
23.8173984
0
ARC
8
DEFAULT_255_1_234
10
11.7855959
20
276.7806919
40
0.2358723
50
24.2871213
51
31.3935614
0
ARC
8
DEFAULT_255_1_234
10
11.8380656
20
276.8150233
40
0.1732111
50
30.7407893
51
82.4657128
0
ARC
8
DEFAULT_255_1_234
10
11.820079
20
276.7266691
40
0.263235
50
81.1060089
51
90.2184952
0
ARC
8
DEFAULT_255_1_234
10
11.8165089
20
276.7524924
40
0.2374236
50
89.3806855
51
105.6762551
0
ARC
8
DEFAULT_255_1_234
10
11.798172
20
276.8191567
40
0.1682847
50
105.7981136
51
149.7388061
0
ARC
8
DEFAULT_255_1_234
10
11.9045798
20
276.755195
40
0.2924306
50
149.4208916
51
163.6286378
0
ARC
8
DEFAULT_255_1_234
10
12.1136686
20
276.691425
40
0.5110213
50
163.3763315
51
172.1410975
0
ARC
8
DEFAULT_255_1_234
10
12.4437405
20
276.6441518
40
0.8444586
50
172.0259487
51
178.0703232
0
ARC
8
DEFAULT_255_1_234
10
12.7467495
20
276.6297906
40
1.1477868
50
177.8631668
51
179.5044149
0
ARC
8
DEFAULT_255_1_234
10
12.6394899
20
276.3983389
40
1.0404907
50
179.7995573
51
185.2460446
0
ARC
8
DEFAULT_255_1_234
10
12.2351938
20
276.3600513
40
0.6343885
50
185.1411642
51
193.0079639
0
ARC
8
DEFAULT_255_1_234
10
11.9708411
20
276.2975641
40
0.3627568
50
192.7897626
51
205.2507664
0
ARC
8
DEFAULT_255_1_234
10
11.8661958
20
276.2508415
40
0.2481908
50
205.8005384
51
211.2537509
0
ARC
8
DEFAULT_255_1_234
10
11.8138398
20
276.215758
40
0.1852521
50
210.3789793
51
238.4008143
0
ARC
8
DEFAULT_255_1_234
10
11.811892
20
276.2204376
40
0.1882621
50
239.6520629
51
265.9793761
0
ARC
8
DEFAULT_255_1_234
10
11.8204121
20
276.2876427
40
0.2559272
50
265.1315437
51
270.060332
0
ARC
8
DEFAULT_255_1_234
10
11.8232899
20
276.2552534
40
0.2235528
50
269.3314664
51
287.2178029
0
ARC
8
DEFAULT_255_1_234
10
11.8370751
20
276.2049279
40
0.1714108
50
287.7958004
51
329.080874
0
ARC
8
DEFAULT_255_1_234
10
11.7413208
20
276.264693
40
0.2842745
50
328.6634704
51
343.3325132
0
ARC
8
DEFAULT_255_1_234
10
11.5240228
20
276.3323863
40
0.5118644
50
343.0499468
51
351.9393422
0
ARC
8
DEFAULT_255_1_234
10
11.1773528
20
276.3834949
40
0.8622784
50
351.8069023
51
357.7959224
0
ARC
8
DEFAULT_255_1_234
10
10.8538084
20
276.4002721
40
1.1862365
50
357.5871873
51
359.2677531
0
LINE
8
DEFAULT_255_1_234
10
13.1748326
20
275.9265
11
13.0631915
21
276.2317061
0
LINE
8
DEFAULT_255_1_234
10
13.0631915
20
276.2317061
11
12.5732554
21
276.2317061
0
LINE
8
DEFAULT_255_1_234
10
12.5732554
20
276.2317061
11
12.4632206
21
275.9265
0
LINE
8
DEFAULT_255_1_234
10
12.4632206
20
275.9265
11
12.3041922
21
275.9265
0
LINE
8
DEFAULT_255_1_234
10
12.3041922
20
275.9265
11
12.7507568
21
277.0959211
0
LINE
8
DEFAULT_255_1_234
10
12.7507568
20
277.0959211
11
12.88569
21
277.0959211
0
LINE
8
DEFAULT_255_1_234
10
12.88569
20
277.0959211
11
13.3330579
21
275.9265
0
LINE
8
DEFAULT_255_1_234
10
13.3330579
20
275.9265
11
13.1748326
21
275.9265
0
LINE
8
DEFAULT_255_1_234
10
12.8182234
20
276.9055689
11
12.6198395
21
276.3586075
0
LINE
8
DEFAULT_255_1_234
10
12.6198395
20
276.3586075
11
13.0174105
21
276.3586075
0
LINE
8
DEFAULT_255_1_234
10
13.0174105
20
276.3586075
11
12.8182234
21
276.9055689
0
LINE
8
DEFAULT_255_1_234
10
13.8960827
20
275.9265
11
13.4904799
21
275.9265
0
LINE
8
DEFAULT_255_1_234
10
13.4904799
20
275.9265
11
13.4904799
21
277.0959211
0
LINE
8
DEFAULT_255_1_234
10
13.4904799
20
277.0959211
11
13.8727907
21
277.0959211
0
LINE
8
DEFAULT_255_1_234
10
13.9017049
20
276.4734614
11
13.6446893
21
276.4734614
0
LINE
8
DEFAULT_255_1_234
10
13.6446893
20
276.4734614
11
13.6446893
21
276.0525983
0
LINE
8
DEFAULT_255_1_234
10
13.6446893
20
276.0525983
11
13.8992954
21
276.0525983
0
LINE
8
DEFAULT_255_1_234
10
13.6446893
20
276.9690196
11
13.6446893
21
276.5971501
0
LINE
8
DEFAULT_255_1_234
10
13.6446893
20
276.5971501
11
13.8776097
21
276.5971501
0
LINE
8
DEFAULT_255_1_234
10
13.8727907
20
276.9690196
11
13.6446893
21
276.9690196
0
ARC
8
DEFAULT_255_1_234
10
13.8765616
20
276.3591901
40
0.7367406
50
82.1257326
51
90.2932599
0
ARC
8
DEFAULT_255_1_234
10
13.915457
20
276.6310013
40
0.4621653
50
69.9044149
51
82.2857423
0
ARC
8
DEFAULT_255_1_234
10
13.9725248
20
276.7852637
40
0.2976871
50
51.1838526
51
70.0181538
0
ARC
8
DEFAULT_255_1_234
10
13.9980214
20
276.822324
40
0.2528517
50
12.1017251
51
50.4214761
0
ARC
8
DEFAULT_255_1_234
10
13.8596088
20
276.7875676
40
0.3955061
50
359.5251267
51
12.8211707
0
ARC
8
DEFAULT_255_1_234
10
14.0176015
20
276.7806344
40
0.2375281
50
323.4908128
51
0.8817314
0
ARC
8
DEFAULT_255_1_234
10
13.9757702
20
276.812955
40
0.2903817
50
298.6825083
51
323.2756573
0
ARC
8
DEFAULT_255_1_234
10
13.9396065
20
276.8730649
40
0.3604842
50
293.1999386
51
299.1396394
0
ARC
8
DEFAULT_255_1_234
10
14.0069037
20
276.2645126
40
0.2871098
50
54.0011765
51
74.9167975
0
ARC
8
DEFAULT_255_1_234
10
14.0185397
20
276.2842332
40
0.2643248
50
36.3580696
51
53.5291921
0
ARC
8
DEFAULT_255_1_234
10
14.0058639
20
276.2751998
40
0.2798884
50
4.8189881
51
36.3089977
0
ARC
8
DEFAULT_255_1_234
10
13.9279474
20
276.264227
40
0.358478
50
359.9370252
51
5.5204067
0
ARC
8
DEFAULT_255_1_234
10
13.8954995
20
276.2601667
40
0.3909429
50
344.7478609
51
0.5373281
0
ARC
8
DEFAULT_255_1_234
10
13.9945967
20
276.2334544
40
0.2883093
50
311.1786488
51
344.6886812
0
ARC
8
DEFAULT_255_1_234
10
13.9654014
20
276.2697987
40
0.3348923
50
286.0418249
51
310.8441291
0
ARC
8
DEFAULT_255_1_234
10
13.9146846
20
276.4344807
40
0.5071869
50
274.1042341
51
286.4071509
0
ARC
8
DEFAULT_255_1_234
10
13.8970102
20
276.6228229
40
0.6963234
50
269.9236873
51
274.445647
0
ARC
8
DEFAULT_255_1_234
10
13.9016102
20
276.3888537
40
0.3362634
50
269.6055768
51
281.3740047
0
ARC
8
DEFAULT_255_1_234
10
13.924674
20
276.2795353
40
0.224546
50
281.1055983
51
302.5132223
0
ARC
8
DEFAULT_255_1_234
10
13.939364
20
276.2531823
40
0.1944357
50
303.0368945
51
311.8811219
0
ARC
8
DEFAULT_255_1_234
10
13.9465046
20
276.244689
40
0.1833454
50
311.9916004
51
351.7143462
0
ARC
8
DEFAULT_255_1_234
10
13.8648276
20
276.261193
40
0.2665871
50
350.7339597
51
0.2221581
0
ARC
8
DEFAULT_255_1_234
10
13.8540722
20
276.2668467
40
0.2773789
50
359.0456241
51
17.2296242
0
ARC
8
DEFAULT_255_1_234
10
13.9579839
20
276.2977163
40
0.1689915
50
17.6685481
51
78.9940892
0
ARC
8
DEFAULT_255_1_234
10
13.9063003
20
276.1122224
40
0.3612658
50
76.5635957
51
90.6980921
0
LINE
8
DEFAULT_255_1_234
10
13.9018988
20
276.4734613
11
13.9017049
21
276.4734614
0
ARC
8
DEFAULT_255_1_234
10
13.8798664
20
276.9257036
40
0.3285612
50
269.6064736
51
281.4533503
0
ARC
8
DEFAULT_255_1_234
10
13.9021483
20
276.8205688
40
0.2210975
50
281.2041486
51
302.5148063
0
ARC
8
DEFAULT_255_1_234
10
13.9158333
20
276.7959241
40
0.1929674
50
303.021671
51
309.8369575
0
ARC
8
DEFAULT_255_1_234
10
13.9341795
20
276.7753488
40
0.1654181
50
309.5228395
51
356.9509836
0
ARC
8
DEFAULT_255_1_234
10
13.8678377
20
276.7848932
40
0.2322512
50
355.4701227
51
0.0492546
0
ARC
8
DEFAULT_255_1_234
10
13.8399469
20
276.7871094
40
0.2601498
50
359.5558597
51
11.2096359
0
ARC
8
DEFAULT_255_1_234
10
13.9356758
20
276.806923
40
0.1623975
50
10.9182341
51
31.3230275
0
ARC
8
DEFAULT_255_1_234
10
13.9642492
20
276.8228214
40
0.1297302
50
31.8852677
51
52.1412565
0
ARC
8
DEFAULT_255_1_234
10
13.9368225
20
276.784075
40
0.1771663
50
52.8285564
51
71.9850297
0
ARC
8
DEFAULT_255_1_234
10
13.8992401
20
276.6734664
40
0.2939794
50
71.6863486
51
82.8455995
0
ARC
8
DEFAULT_255_1_234
10
13.8752937
20
276.4925149
40
0.476506
50
82.6984714
51
90.1729175
0
ARC
8
DEFAULT_255_1_234
10
13.8730572
20
276.6148623
40
0.3541573
50
89.8708275
51
90.0431131
0
LINE
8
DEFAULT_255_1_234
10
15.2092719
20
276.6180327
11
15.2092719
21
276.4252709
0
LINE
8
DEFAULT_255_1_234
10
14.4711552
20
276.4051916
11
14.4711552
21
276.6035755
0
LINE
8
DEFAULT_255_1_234
10
15.0606848
20
276.3851123
11
15.0606848
21
276.6284739
0
LINE
8
DEFAULT_255_1_234
10
14.6197423
20
276.6397184
11
14.6197423
21
276.4019789
0
ARC
8
DEFAULT_255_1_234
10
13.9845609
20
276.4203805
40
1.2247208
50
353.8441951
51
0.2287902
0
ARC
8
DEFAULT_255_1_234
10
14.4485112
20
276.3685806
40
0.7578929
50
344.4934747
51
353.9765454
0
ARC
8
DEFAULT_255_1_234
10
14.7477703
20
276.2834981
40
0.4467846
50
329.2803592
51
344.7472793
0
ARC
8
DEFAULT_255_1_234
10
14.8470528
20
276.2290018
40
0.3336173
50
324.9352394
51
328.6160465
0
ARC
8
DEFAULT_255_1_234
10
14.8847636
20
276.2026427
40
0.2876076
50
280.580143
51
324.9173126
0
ARC
8
DEFAULT_255_1_234
10
14.8446429
20
276.3697099
40
0.4592847
50
269.5977311
51
281.6734359
0
ARC
8
DEFAULT_255_1_234
10
14.8374334
20
276.3577173
40
0.4472986
50
256.6228859
51
270.51044
0
ARC
8
DEFAULT_255_1_234
10
14.7972312
20
276.2028877
40
0.2873874
50
215.8618325
51
257.2788573
0
ARC
8
DEFAULT_255_1_234
10
14.8993344
20
276.2713977
40
0.4102928
50
197.9693508
51
215.2623606
0
ARC
8
DEFAULT_255_1_234
10
15.1478459
20
276.3552709
40
0.6725652
50
187.8816417
51
198.2346507
0
ARC
8
DEFAULT_255_1_234
10
15.5436668
20
276.4124079
40
1.0724845
50
180.8976217
51
188.0055519
0
ARC
8
DEFAULT_255_1_234
10
15.8236856
20
276.4227777
40
1.3526448
50
180.7449369
51
181.1510016
0
ARC
8
DEFAULT_255_1_234
10
15.6659585
20
276.6084042
40
1.1948131
50
173.7675579
51
180.231553
0
ARC
8
DEFAULT_255_1_234
10
15.2141732
20
276.6594666
40
0.7401564
50
164.3058563
51
173.9002247
0
ARC
8
DEFAULT_255_1_234
10
14.92298
20
276.7433656
40
0.4371288
50
148.7922025
51
164.568378
0
ARC
8
DEFAULT_255_1_234
10
14.8278253
20
276.7964929
40
0.3282386
50
144.5883898
51
148.1176286
0
ARC
8
DEFAULT_255_1_234
10
14.793515
20
276.8204315
40
0.2864044
50
101.6440918
51
144.514236
0
ARC
8
DEFAULT_255_1_234
10
14.8360217
20
276.6515069
40
0.4604934
50
89.5284041
51
102.5819763
0
ARC
8
DEFAULT_255_1_234
10
14.8439305
20
276.6476018
40
0.464401
50
77.0437873
51
90.5081339
0
ARC
8
DEFAULT_255_1_234
10
14.8841307
20
276.8118615
40
0.2953195
50
48.2778575
51
77.4994676
0
ARC
8
DEFAULT_255_1_234
10
14.8913938
20
276.8247746
40
0.2808655
50
36.3142134
51
47.6305865
0
ARC
8
DEFAULT_255_1_234
10
14.8045245
20
276.7662515
40
0.3855453
50
18.2931786
51
35.6769206
0
ARC
8
DEFAULT_255_1_234
10
14.5502004
20
276.6789593
40
0.654423
50
8.024666
51
18.5605216
0
ARC
8
DEFAULT_255_1_234
10
14.1338924
20
276.6174792
40
1.0752407
50
1.1274072
51
8.1718305
0
ARC
8
DEFAULT_255_1_234
10
13.8103114
20
276.6047885
40
1.3990231
50
0.5424119
51
1.3863029
0
ARC
8
DEFAULT_255_1_234
10
13.9924492
20
276.6320342
40
1.0682415
50
359.8090433
51
4.9407866
0
ARC
8
DEFAULT_255_1_234
10
14.4134506
20
276.6696113
40
0.6455691
50
4.8362157
51
12.2904523
0
ARC
8
DEFAULT_255_1_234
10
14.6889621
20
276.7309965
40
0.3633074
50
12.0805627
51
23.8173984
0
ARC
8
DEFAULT_255_1_234
10
14.8063326
20
276.7806919
40
0.2358723
50
24.2871213
51
31.3935614
0
ARC
8
DEFAULT_255_1_234
10
14.8588024
20
276.8150233
40
0.1732111
50
30.7407893
51
82.4657128
0
ARC
8
DEFAULT_255_1_234
10
14.8408158
20
276.7266691
40
0.263235
50
81.1060089
51
90.2184952
0
ARC
8
DEFAULT_255_1_234
10
14.8372457
20
276.7524924
40
0.2374236
50
89.3806855
51
105.6762551
0
ARC
8
DEFAULT_255_1_234
10
14.8189087
20
276.8191567
40
0.1682847
50
105.7981136
51
149.7388061
0
ARC
8
DEFAULT_255_1_234
10
14.9253166
20
276.755195
40
0.2924306
50
149.4208916
51
163.6286378
0
ARC
8
DEFAULT_255_1_234
10
15.1344054
20
276.691425
40
0.5110213
50
163.3763315
51
172.1410975
0
ARC
8
DEFAULT_255_1_234
10
15.4644773
20
276.6441518
40
0.8444586
50
172.0259487
51
178.0703232
0
ARC
8
DEFAULT_255_1_234
10
15.7674862
20
276.6297906
40
1.1477868
50
177.8631668
51
179.5044149
0
ARC
8
DEFAULT_255_1_234
10
15.6602267
20
276.3983389
40
1.0404907
50
179.7995573
51
185.2460446
0
ARC
8
DEFAULT_255_1_234
10
15.2559306
20
276.3600513
40
0.6343885
50
185.1411642
51
193.0079639
0
ARC
8
DEFAULT_255_1_234
10
14.9915779
20
276.2975641
40
0.3627568
50
192.7897626
51
205.2507664
0
ARC
8
DEFAULT_255_1_234
10
14.8869326
20
276.2508415
40
0.2481908
50
205.8005384
51
211.2537509
0
ARC
8
DEFAULT_255_1_234
10
14.8345766
20
276.215758
40
0.1852521
50
210.3789793
51
238.4008143
0
ARC
8
DEFAULT_255_1_234
10
14.8326288
20
276.2204376
40
0.1882621
50
239.6520629
51
265.9793761
0
ARC
8
DEFAULT_255_1_234
10
14.8411488
20
276.2876427
40
0.2559272
50
265.1315437
51
270.060332
0
ARC
8
DEFAULT_255_1_234
10
14.8440267
20
276.2552534
40
0.2235528
50
269.3314664
51
287.2178029
0
ARC
8
DEFAULT_255_1_234
10
14.8578119
20
276.2049279
40
0.1714108
50
287.7958004
51
329.080874
0
ARC
8
DEFAULT_255_1_234
10
14.7620576
20
276.264693
40
0.2842745
50
328.6634704
51
343.3325132
0
ARC
8
DEFAULT_255_1_234
10
14.5447596
20
276.3323863
40
0.5118644
50
343.0499468
51
351.9393422
0
ARC
8
DEFAULT_255_1_234
10
14.1980896
20
276.3834949
40
0.8622784
50
351.8069023
51
357.7959224
0
ARC
8
DEFAULT_255_1_234
10
13.8745452
20
276.4002721
40
1.1862365
50
357.5871873
51
359.2677531
0
ARC
8
DEFAULT_255_2_778
10
3.1928376
20
0.5439224
40
0.8001793
50
270.0038926
51
356.8621524
0
ARC
8
DEFAULT_255_2_778
10
3.1802252
20
0.5438059
40
0.8127669
50
356.9190192
51
0.0026177
0
LINE
8
DEFAULT_255_2_778
10
21.8004919
20
251.669143
11
21.7536919
21
251.669143
0
LINE
8
DEFAULT_255_2_778
10
21.7536919
20
251.669143
11
21.5898919
21
251.615943
0
LINE
8
DEFAULT_255_2_778
10
21.5898919
20
251.615943
11
21.4961919
21
251.509643
0
LINE
8
DEFAULT_255_2_778
10
21.4961919
20
251.509643
11
21.4057919
21
251.304043
0
LINE
8
DEFAULT_255_2_778
10
3.9929919
20
0.543843
11
3.9929919
21
17.783843
0
LINE
8
DEFAULT_255_2_778
10
3.9926919
20
6.083743
11
6.2927919
21
6.083743
0
LINE
8
DEFAULT_255_2_778
10
6.2927919
20
6.083743
11
6.2927919
21
2.483743
0
LINE
8
DEFAULT_255_2_778
10
6.2927919
20
2.483743
11
3.9926919
21
2.483743
0
LINE
8
DEFAULT_255_2_778
10
6.3927919
20
17.783843
11
6.3927919
21
274.813843
0
LINE
8
DEFAULT_255_2_778
10
8.8927919
20
264.143743
11
8.8927919
21
14.783743
0
LINE
8
DEFAULT_255_2_778
10
8.8927919
20
14.783743
11
6.8927919
21
14.783743
0
LINE
8
DEFAULT_255_2_778
10
6.8927919
20
14.783743
11
6.8927919
21
17.783843
0
LINE
8
DEFAULT_255_2_778
10
16.7926919
20
4.930043
11
16.7926919
21
5.783643
0
LINE
8
DEFAULT_255_2_778
10
16.7926919
20
5.783643
11
7.8926919
21
5.783643
0
LINE
8
DEFAULT_255_2_778
10
7.8926919
20
5.783643
11
7.8926919
21
0.783543
0
LINE
8
DEFAULT_255_2_778
10
7.8926919
20
0.783543
11
16.7926919
21
0.783543
0
LINE
8
DEFAULT_255_2_778
10
16.7926919
20
0.783543
11
16.7926919
21
1.237043
0
LINE
8
DEFAULT_255_2_778
10
21.4028156
20
255.0467916
11
21.3795156
21
254.8340916
0
LINE
8
DEFAULT_255_2_778
10
21.3795156
20
254.8340916
11
21.4965156
21
254.8340916
0
LINE
8
DEFAULT_255_2_778
10
21.4965156
20
254.8340916
11
21.5433156
21
254.9936916
0
LINE
8
DEFAULT_255_2_778
10
21.5433156
20
254.9936916
11
21.6134156
21
255.0999916
0
LINE
8
DEFAULT_255_2_778
10
21.6134156
20
255.0999916
11
21.7304156
21
255.1531916
0
LINE
8
DEFAULT_255_2_778
10
21.7304156
20
255.1531916
11
21.8240156
21
255.1531916
0
LINE
8
DEFAULT_255_2_778
10
21.8240156
20
255.1531916
11
21.9410156
21
255.0999916
0
LINE
8
DEFAULT_255_2_778
10
21.9410156
20
255.0999916
11
22.0111156
21
254.9936916
0
LINE
8
DEFAULT_255_2_778
10
22.0111156
20
254.9936916
11
22.0579156
21
254.8340916
0
LINE
8
DEFAULT_255_2_778
10
22.0579156
20
254.8340916
11
22.0579156
21
254.7276916
0
LINE
8
DEFAULT_255_2_778
10
22.0579156
20
254.7276916
11
22.0111156
21
254.5149916
0
LINE
8
DEFAULT_255_2_778
10
22.0111156
20
254.5149916
11
21.3560156
21
253.1851916
0
LINE
8
DEFAULT_255_2_778
10
21.3560156
20
253.1851916
11
21.3560156
21
252.9192916
0
LINE
8
DEFAULT_255_2_778
10
21.3560156
20
252.9192916
11
22.1982156
21
252.9192916
0
LINE
8
DEFAULT_255_2_778
10
22.1982156
20
252.9192916
11
22.1982156
21
253.1851916
0
LINE
8
DEFAULT_255_2_778
10
22.1982156
20
253.1851916
11
21.5431156
21
253.1851916
0
LINE
8
DEFAULT_255_2_778
10
21.5431156
20
253.1851916
11
22.1278156
21
254.3554916
0
LINE
8
DEFAULT_255_2_778
10
22.1278156
20
254.3554916
11
22.1746156
21
254.5149916
0
LINE
8
DEFAULT_255_2_778
10
22.1746156
20
254.5149916
11
22.1979156
21
254.7276916
0
LINE
8
DEFAULT_255_2_778
10
22.1979156
20
254.7276916
11
22.1979156
21
254.8340916
0
LINE
8
DEFAULT_255_2_778
10
22.1979156
20
254.8340916
11
22.1746156
21
255.0467916
0
LINE
8
DEFAULT_255_2_778
10
22.1746156
20
255.0467916
11
22.0810156
21
255.2595916
0
LINE
8
DEFAULT_255_2_778
10
22.0810156
20
255.2595916
11
21.9873156
21
255.3658916
0
LINE
8
DEFAULT_255_2_778
10
21.9873156
20
255.3658916
11
21.8471156
21
255.4190916
0
LINE
8
DEFAULT_255_2_778
10
21.8471156
20
255.4190916
11
21.7534156
21
255.4190916
0
LINE
8
DEFAULT_255_2_778
10
21.7534156
20
255.4190916
11
21.5896156
21
255.3658916
0
LINE
8
DEFAULT_255_2_778
10
21.5896156
20
255.3658916
11
21.4960156
21
255.2595916
0
LINE
8
DEFAULT_255_2_778
10
21.4960156
20
255.2595916
11
21.4055156
21
255.0539916
0
ARC
8
DEFAULT_255_2_778
10
21.4928442
20
0.5439345
40
0.8001809
50
183.1386179
51
269.9960242
0
ARC
8
DEFAULT_255_2_778
10
21.5055088
20
0.5438124
40
0.8128202
50
179.9970947
51
183.0811476
0
ARC
8
DEFAULT_255_2_778
10
21.4929353
20
16.9836335
40
0.8002466
50
93.0049991
51
179.991403
0
ARC
8
DEFAULT_255_2_778
10
21.4927518
20
16.9711404
40
0.8127132
50
89.997398
51
92.9459083
0
LINE
8
DEFAULT_255_2_778
10
21.4028887
20
251.2968536
11
21.3795887
21
251.0841536
0
LINE
8
DEFAULT_255_2_778
10
21.3795887
20
251.0841536
11
21.4964887
21
251.0841536
0
LINE
8
DEFAULT_255_2_778
10
21.4964887
20
251.0841536
11
21.5433887
21
251.2436536
0
LINE
8
DEFAULT_255_2_778
10
21.5433887
20
251.2436536
11
21.6134887
21
251.3500536
0
LINE
8
DEFAULT_255_2_778
10
21.6134887
20
251.3500536
11
21.7303887
21
251.4032536
0
LINE
8
DEFAULT_255_2_778
10
21.7303887
20
251.4032536
11
21.8240887
21
251.4032536
0
LINE
8
DEFAULT_255_2_778
10
21.8240887
20
251.4032536
11
21.9409887
21
251.3500536
0
LINE
8
DEFAULT_255_2_778
10
21.9409887
20
251.3500536
11
22.0110887
21
251.2436536
0
LINE
8
DEFAULT_255_2_778
10
22.0110887
20
251.2436536
11
22.0579887
21
251.0841536
0
LINE
8
DEFAULT_255_2_778
10
22.0579887
20
251.0841536
11
22.0579887
21
250.9777536
0
LINE
8
DEFAULT_255_2_778
10
22.0579887
20
250.9777536
11
22.0110887
21
250.7650536
0
LINE
8
DEFAULT_255_2_778
10
22.0110887
20
250.7650536
11
21.9642887
21
250.6586536
0
LINE
8
DEFAULT_255_2_778
10
21.9642887
20
250.6586536
11
21.8240887
21
250.5523536
0
LINE
8
DEFAULT_255_2_778
10
21.8240887
20
250.5523536
11
21.7303887
21
250.5523536
0
LINE
8
DEFAULT_255_2_778
10
21.7303887
20
250.5523536
11
21.7303887
21
250.3396536
0
LINE
8
DEFAULT_255_2_778
10
21.7303887
20
250.3396536
11
21.8240887
21
250.3396536
0
LINE
8
DEFAULT_255_2_778
10
21.8240887
20
250.3396536
11
21.9642887
21
250.2864536
0
LINE
8
DEFAULT_255_2_778
10
21.9642887
20
250.2864536
11
22.0343887
21
250.1800536
0
LINE
8
DEFAULT_255_2_778
10
22.0343887
20
250.1800536
11
22.0812887
21
249.9673536
0
LINE
8
DEFAULT_255_2_778
10
22.0812887
20
249.9673536
11
22.0812887
21
249.7546536
0
LINE
8
DEFAULT_255_2_778
10
22.0812887
20
249.7546536
11
22.0579887
21
249.6482536
0
LINE
8
DEFAULT_255_2_778
10
22.0579887
20
249.6482536
11
22.0110887
21
249.5418536
0
LINE
8
DEFAULT_255_2_778
10
22.0110887
20
249.5418536
11
21.9642887
21
249.4887536
0
LINE
8
DEFAULT_255_2_778
10
21.9642887
20
249.4887536
11
21.8473887
21
249.4355536
0
LINE
8
DEFAULT_255_2_778
10
21.8473887
20
249.4355536
11
21.7071887
21
249.4355536
0
LINE
8
DEFAULT_255_2_778
10
21.7071887
20
249.4355536
11
21.5901887
21
249.4887536
0
LINE
8
DEFAULT_255_2_778
10
21.5901887
20
249.4887536
11
21.5433887
21
249.5418536
0
LINE
8
DEFAULT_255_2_778
10
21.5433887
20
249.5418536
11
21.4964887
21
249.6482536
0
LINE
8
DEFAULT_255_2_778
10
21.4964887
20
249.6482536
11
21.4731887
21
249.7546536
0
LINE
8
DEFAULT_255_2_778
10
21.4731887
20
249.7546536
11
21.3795887
21
249.7546536
0
LINE
8
DEFAULT_255_2_778
10
21.9467887
20
145.2328536
11
21.5491887
21
145.2328536
0
LINE
8
DEFAULT_255_2_778
10
21.5491887
20
145.2328536
11
21.9467887
21
146.2435536
0
LINE
8
DEFAULT_255_2_778
10
21.9467887
20
146.2435536
11
21.9467887
21
145.2328536
0
LINE
8
DEFAULT_255_2_778
10
16.2926887
20
146.8838536
11
18.2926887
21
146.8838536
0
LINE
8
DEFAULT_255_2_778
10
18.2926887
20
146.8838536
11
18.2926887
21
143.6839536
0
LINE
8
DEFAULT_255_2_778
10
18.2926887
20
143.6839536
11
16.2926887
21
143.6839536
0
LINE
8
DEFAULT_255_2_778
10
16.2926887
20
143.6839536
11
16.2926887
21
146.8838536
0
LINE
8
DEFAULT_255_2_778
10
22.4926887
20
263.6436536
11
16.4926887
21
263.6436536
0
LINE
8
DEFAULT_255_2_778
10
16.4926887
20
263.6436536
11
16.4926887
21
255.6437536
0
LINE
8
DEFAULT_255_2_778
10
16.4926887
20
255.6437536
11
22.4926887
21
255.6437536
0
LINE
8
DEFAULT_255_2_778
10
22.4926887
20
255.6437536
11
22.4926887
21
263.6436536
0
LINE
8
DEFAULT_255_2_778
10
20.6926887
20
2.4837536
11
18.3926887
21
2.4837536
0
LINE
8
DEFAULT_255_2_778
10
18.3926887
20
2.4837536
11
18.3926887
21
6.0837536
0
LINE
8
DEFAULT_255_2_778
10
18.3926887
20
6.0837536
11
20.6926887
21
6.0837536
0
LINE
8
DEFAULT_255_2_778
10
20.6926887
20
0.5438536
11
20.6926887
21
16.9837536
0
LINE
8
DEFAULT_255_2_778
10
21.4927887
20
17.7838536
11
24.9426887
21
17.7838536
0
LINE
8
DEFAULT_255_2_778
10
21.5022887
20
26.0308536
11
21.5022887
21
25.8713536
0
LINE
8
DEFAULT_255_2_778
10
21.5022887
20
25.8713536
11
21.5491887
21
25.6586536
0
LINE
8
DEFAULT_255_2_778
10
21.5491887
20
25.6586536
11
21.6192887
21
25.4990536
0
LINE
8
DEFAULT_255_2_778
10
21.6192887
20
25.4990536
11
21.6660887
21
25.4458536
0
LINE
8
DEFAULT_255_2_778
10
21.6660887
20
25.4458536
11
21.6192887
21
25.3927536
0
LINE
8
DEFAULT_255_2_778
10
21.6192887
20
25.3927536
11
21.5255887
21
25.2331536
0
LINE
8
DEFAULT_255_2_778
10
21.5255887
20
25.2331536
11
21.4787887
21
24.9672536
0
LINE
8
DEFAULT_255_2_778
10
21.4787887
20
24.9672536
11
21.4787887
21
24.8077536
0
LINE
8
DEFAULT_255_2_778
10
21.4787887
20
24.8077536
11
21.5255887
21
24.5418536
0
LINE
8
DEFAULT_255_2_778
10
21.5255887
20
24.5418536
11
21.5956887
21
24.3822536
0
LINE
8
DEFAULT_255_2_778
10
21.5956887
20
24.3822536
11
21.6930887
21
24.2494536
0
LINE
8
DEFAULT_255_2_778
10
22.2039887
20
24.3817536
11
22.2741887
21
24.5412536
0
LINE
8
DEFAULT_255_2_778
10
22.2741887
20
24.5412536
11
22.3209887
21
24.8071536
0
LINE
8
DEFAULT_255_2_778
10
22.3209887
20
24.8071536
11
22.3209887
21
24.9667536
0
LINE
8
DEFAULT_255_2_778
10
22.3209887
20
24.9667536
11
22.2741887
21
25.2326536
0
LINE
8
DEFAULT_255_2_778
10
22.2741887
20
25.2326536
11
22.1804887
21
25.3921536
0
LINE
8
DEFAULT_255_2_778
10
22.1804887
20
25.3921536
11
22.1335887
21
25.4453536
0
LINE
8
DEFAULT_255_2_778
10
22.1335887
20
25.4453536
11
22.1804887
21
25.4985536
0
LINE
8
DEFAULT_255_2_778
10
22.1804887
20
25.4985536
11
22.2505887
21
25.6580536
0
LINE
8
DEFAULT_255_2_778
10
22.2505887
20
25.6580536
11
22.2973887
21
25.8708536
0
LINE
8
DEFAULT_255_2_778
10
22.2973887
20
25.8708536
11
22.2973887
21
26.0303536
0
LINE
8
DEFAULT_255_2_778
10
22.2973887
20
26.0303536
11
22.2505887
21
26.2962536
0
LINE
8
DEFAULT_255_2_778
10
22.2505887
20
26.2962536
11
22.1804887
21
26.4558536
0
LINE
8
DEFAULT_255_2_778
10
22.1804887
20
26.4558536
11
22.0634887
21
26.6153536
0
LINE
8
DEFAULT_255_2_778
10
22.0634887
20
26.6153536
11
21.9465887
21
26.6685536
0
LINE
8
DEFAULT_255_2_778
10
21.9465887
20
26.6685536
11
21.8528887
21
26.6685536
0
LINE
8
DEFAULT_255_2_778
10
21.8528887
20
26.6685536
11
21.7359887
21
26.6153536
0
LINE
8
DEFAULT_255_2_778
10
21.7359887
20
26.6153536
11
21.6189887
21
26.4558536
0
LINE
8
DEFAULT_255_2_778
10
21.6189887
20
26.4558536
11
21.5488887
21
26.2962536
0
LINE
8
DEFAULT_255_2_778
10
21.5488887
20
26.2962536
11
21.5054887
21
26.0502536
0
LINE
8
DEFAULT_255_2_778
10
21.3559887
20
249.7543536
11
21.3792887
21
249.5948536
0
LINE
8
DEFAULT_255_2_778
10
21.3792887
20
249.5948536
11
21.4247887
21
249.4400536
0
LINE
8
DEFAULT_255_2_778
10
21.712874
20
24.2221969
11
21.829774
21
24.1689969
0
LINE
8
DEFAULT_255_2_778
10
21.829774
20
24.1689969
11
21.970074
21
24.1689969
0
LINE
8
DEFAULT_255_2_778
10
21.970074
20
24.1689969
11
22.086974
21
24.2221969
0
LINE
8
DEFAULT_255_2_778
10
22.086974
20
24.2221969
11
22.197374
21
24.3729969
0
ARC
8
DEFAULT_255_2_778
10
23.4448895
20
1.2369461
40
1.4931507
50
269.9175555
51
299.8594812
0
ARC
8
DEFAULT_255_2_778
10
23.441869
20
1.244259
40
1.500997
50
299.820494
51
352.1202577
0
ARC
8
DEFAULT_255_2_778
10
23.4292976
20
1.2434685
40
1.5133435
50
352.2151554
51
0.0086523
0
ARC
8
DEFAULT_255_2_778
10
23.4494919
20
288.2460455
40
1.4931507
50
359.9175555
51
29.8594812
0
ARC
8
DEFAULT_255_2_778
10
23.442179
20
288.243025
40
1.500997
50
29.820494
51
82.1202577
0
ARC
8
DEFAULT_255_2_778
10
23.4429695
20
288.2304537
40
1.5133435
50
82.2151554
51
90.0086523
0
ARC
8
DEFAULT_255_2_778
10
1.6927128
20
288.2431897
40
1.5006073
50
90.0027412
51
134.9828428
0
ARC
8
DEFAULT_255_2_778
10
1.6933482
20
288.2438252
40
1.5006073
50
135.0171572
51
179.9972588
0
ARC
8
DEFAULT_255_2_778
10
1.6858901
20
1.2418485
40
1.4931507
50
179.9175555
51
209.8594812
0
ARC
8
DEFAULT_255_2_778
10
1.693203
20
1.244869
40
1.500997
50
209.820494
51
262.1202577
0
ARC
8
DEFAULT_255_2_778
10
1.6924124
20
1.2574403
40
1.5133435
50
262.2151554
51
270.0086523
0
LINE
8
DEFAULT_255_2_778
10
24.942641
20
1.243697
11
24.942641
21
288.243897
0
LINE
8
DEFAULT_255_2_778
10
23.442741
20
289.743797
11
1.692641
21
289.743797
0
LINE
8
DEFAULT_255_2_778
10
0.192741
20
288.243897
11
0.192741
21
1.243997
0
LINE
8
DEFAULT_255_2_778
10
1.692641
20
-0.255903
11
23.442741
21
-0.255903
0
ARC
8
DEFAULT_255_2_778
10
12.5002974
20
8.5536425
40
3.2622523
50
212.1889885
51
224.0912349
0
ARC
8
DEFAULT_255_2_778
10
12.4719854
20
8.5342871
40
3.2279814
50
195.9310681
51
212.1659469
0
ARC
8
DEFAULT_255_2_778
10
12.5030843
20
8.5429476
40
3.2602631
50
180.1302573
51
195.9274098
0
ARC
8
DEFAULT_255_2_778
10
12.433595
20
8.5434443
40
3.1907752
50
179.9985656
51
180.1420128
0
ARC
8
DEFAULT_255_2_778
10
12.4961849
20
8.5450853
40
3.2533655
50
154.9731365
51
180.0274928
0
ARC
8
DEFAULT_255_2_778
10
12.4748179
20
8.5524916
40
3.2308722
50
141.0612111
51
154.9318485
0
ARC
8
DEFAULT_255_2_778
10
12.5164678
20
8.5192773
40
3.2841432
50
134.6798269
51
141.0671756
0
ARC
8
DEFAULT_255_2_778
10
12.502229
20
8.5372654
40
3.2613418
50
122.6968124
51
134.7241654
0
ARC
8
DEFAULT_255_2_778
10
12.4830217
20
8.5646874
40
3.2278897
50
106.1094444
51
122.6728394
0
ARC
8
DEFAULT_255_2_778
10
12.4920531
20
8.532847
40
3.2609858
50
89.9907686
51
106.1066659
0
LINE
8
DEFAULT_255_2_778
10
12.4925785
20
11.7938327
11
12.4930598
21
11.7938327
0
ARC
8
DEFAULT_255_2_778
10
12.4941634
20
8.541669
40
3.2521639
50
65.3097929
51
90.0194422
0
ARC
8
DEFAULT_255_2_778
10
12.5008976
20
8.5618108
40
3.2310514
50
51.5929066
51
65.2690979
0
ARC
8
DEFAULT_255_2_778
10
12.4679236
20
8.5196434
40
3.2845795
50
45.3033976
51
51.5991401
0
ARC
8
DEFAULT_255_2_778
10
12.4851012
20
8.5336041
40
3.2625746
50
33.3300947
51
45.3453908
0
ARC
8
DEFAULT_255_2_778
10
12.5128086
20
8.5534548
40
3.2285176
50
16.4215725
51
33.3059331
0
ARC
8
DEFAULT_255_2_778
10
12.4810685
20
8.5442415
40
3.2615676
50
359.991189
51
16.419192
0
ARC
8
DEFAULT_255_2_778
10
12.4432721
20
8.5437399
40
3.299364
50
359.8507091
51
359.9999999
0
ARC
8
DEFAULT_255_2_778
10
12.4912067
20
8.5421638
40
3.2514257
50
335.9314035
51
359.876281
0
ARC
8
DEFAULT_255_2_778
10
12.509966
20
8.5361597
40
3.2318494
50
322.2219529
51
335.8929593
0
ARC
8
DEFAULT_255_2_778
10
12.4670415
20
8.5689665
40
3.2858742
50
315.9357608
51
322.2283285
0
LINE
8
DEFAULT_255_2_778
10
11.484341
20
6.2837577
11
10.157241
21
6.2837577
0
LINE
8
DEFAULT_255_2_778
10
14.828141
20
6.2837577
11
13.501241
21
6.2837577
0
LINE
8
DEFAULT_255_2_778
10
10.142641
20
6.2848577
11
14.857541
21
6.2848577
0
LINE
8
DEFAULT_255_2_778
10
0.192741
20
17.7838577
11
8.892741
21
17.7838577
0
LINE
8
DEFAULT_255_2_778
10
21.426041
20
249.4352577
11
21.496241
21
249.3289577
0
LINE
8
DEFAULT_255_2_778
10
21.496241
20
249.3289577
11
21.589841
21
249.2225577
0
LINE
8
DEFAULT_255_2_778
10
21.589841
20
249.2225577
11
21.683541
21
249.1693577
0
LINE
8
DEFAULT_255_2_778
10
21.683541
20
249.1693577
11
21.870541
21
249.1693577
0
LINE
8
DEFAULT_255_2_778
10
21.870541
20
249.1693577
11
21.964241
21
249.2225577
0
LINE
8
DEFAULT_255_2_778
10
21.964241
20
249.2225577
11
22.057941
21
249.3289577
0
LINE
8
DEFAULT_255_2_778
10
22.057941
20
249.3289577
11
22.128041
21
249.4352577
0
LINE
8
DEFAULT_255_2_778
10
22.128041
20
249.4352577
11
22.174841
21
249.5948577
0
LINE
8
DEFAULT_255_2_778
10
22.174841
20
249.5948577
11
22.198141
21
249.7543577
0
LINE
8
DEFAULT_255_2_778
10
22.198141
20
249.7543577
11
22.198141
21
249.9670577
0
LINE
8
DEFAULT_255_2_778
10
22.198141
20
249.9670577
11
22.174841
21
250.1798577
0
LINE
8
DEFAULT_255_2_778
10
22.174841
20
250.1798577
11
22.128041
21
250.3393577
0
LINE
8
DEFAULT_255_2_778
10
22.128041
20
250.3393577
11
22.011041
21
250.4457577
0
LINE
8
DEFAULT_255_2_778
10
22.011041
20
250.4457577
11
22.104741
21
250.6052577
0
LINE
8
DEFAULT_255_2_778
10
22.104741
20
250.6052577
11
22.151541
21
250.7648577
0
LINE
8
DEFAULT_255_2_778
10
22.151541
20
250.7648577
11
22.174841
21
250.9775577
0
LINE
8
DEFAULT_255_2_778
10
22.174841
20
250.9775577
11
22.174841
21
251.0839577
0
LINE
8
DEFAULT_255_2_778
10
22.174841
20
251.0839577
11
22.151541
21
251.2966577
0
LINE
8
DEFAULT_255_2_778
10
22.151541
20
251.2966577
11
22.059241
21
251.5064577
0
LINE
8
DEFAULT_255_2_778
10
22.057941
20
251.5096577
11
21.967641
21
251.6120577
0
LINE
8
DEFAULT_255_2_778
10
21.964241
20
251.6159577
11
21.815241
21
251.6643577
0
LINE
8
DEFAULT_255_2_778
10
8.892741
20
211.8837577
11
13.092741
21
211.8837577
0
LINE
8
DEFAULT_255_2_778
10
6.392741
20
264.1437577
11
24.942641
21
264.1437577
0
LINE
8
DEFAULT_255_2_778
10
0.192741
20
274.8138577
11
24.942641
21
274.8138577
0
ARC
8
DEFAULT_255_2_778
10
3.0916854
20
90.2654145
40
0.4989492
50
89.8676947
51
180.1322858
0
ARC
8
DEFAULT_255_2_778
10
3.0939114
20
90.2654361
40
0.4989275
50
359.8652243
51
90.1233177
0
ARC
8
DEFAULT_255_2_778
10
3.0939327
20
90.2631673
40
0.4989061
50
269.8742308
51
0.1257692
0
ARC
8
DEFAULT_255_2_778
10
3.0916639
20
90.2631886
40
0.4989275
50
179.8766742
51
270.1347757
0
LINE
8
DEFAULT_255_2_778
10
2.5927375
20
90.2642625
11
2.5927375
21
90.2642625
0
ARC
8
DEFAULT_255_2_778
10
3.0916854
20
30.2656145
40
0.4989492
50
89.8676947
51
180.1322858
0
ARC
8
DEFAULT_255_2_778
10
3.0939114
20
30.2656361
40
0.4989275
50
359.8652243
51
90.1233177
0
ARC
8
DEFAULT_255_2_778
10
3.0939327
20
30.2633673
40
0.4989061
50
269.8742308
51
0.1257692
0
ARC
8
DEFAULT_255_2_778
10
3.0916639
20
30.2633886
40
0.4989275
50
179.8766742
51
270.1347757
0
LINE
8
DEFAULT_255_2_778
10
2.5927375
20
30.2644625
11
2.5927375
21
30.2644625
0
ARC
8
DEFAULT_255_2_778
10
3.0916854
20
150.2655145
40
0.4989492
50
89.8676947
51
180.1322858
0
ARC
8
DEFAULT_255_2_778
10
3.0939114
20
150.2655361
40
0.4989275
50
359.8652243
51
90.1233177
0
ARC
8
DEFAULT_255_2_778
10
3.0939327
20
150.2632673
40
0.4989061
50
269.8742308
51
0.1257692
0
ARC
8
DEFAULT_255_2_778
10
3.0916639
20
150.2632886
40
0.4989275
50
179.8766742
51
270.1347757
0
LINE
8
DEFAULT_255_2_778
10
2.5927375
20
150.2643625
11
2.5927375
21
150.2643625
0
ARC
8
DEFAULT_255_2_778
10
3.0916854
20
210.2656145
40
0.4989492
50
89.8676947
51
180.1322858
0
ARC
8
DEFAULT_255_2_778
10
3.0939114
20
210.2656361
40
0.4989275
50
359.8652243
51
90.1233177
0
ARC
8
DEFAULT_255_2_778
10
3.0939327
20
210.2633673
40
0.4989061
50
269.8742308
51
0.1257692
0
ARC
8
DEFAULT_255_2_778
10
3.0916639
20
210.2633886
40
0.4989275
50
179.8766742
51
270.1347757
0
LINE
8
DEFAULT_255_2_778
10
2.5927375
20
210.2644625
11
2.5927375
21
210.2644625
0
ARC
8
DEFAULT_255_2_778
10
12.3927442
20
268.9838022
40
2.5000575
50
121.9154232
51
180.0002045
0
ARC
8
DEFAULT_255_2_778
10
12.3970176
20
268.9763968
40
2.5086027
50
120.0007804
51
121.9088542
0
ARC
8
DEFAULT_255_2_778
10
12.3919529
20
268.9862424
40
2.4975438
50
100.2064418
51
120.0130962
0
ARC
8
DEFAULT_255_2_778
10
12.3926546
20
268.9819942
40
2.5018491
50
89.9989799
51
100.2050175
0
LINE
8
DEFAULT_255_2_778
10
12.3926992
20
271.4838433
11
12.3930599
21
271.4838433
0
ARC
8
DEFAULT_255_2_778
10
12.3930657
20
268.985026
40
2.4988173
50
64.7644616
51
90.000133
0
ARC
8
DEFAULT_255_2_778
10
12.3900647
20
268.9791028
40
2.5054546
50
60.0001428
51
64.7601327
0
ARC
8
DEFAULT_255_2_778
10
12.3927317
20
268.9837921
40
2.5000602
50
1.9146849
51
59.9993419
0
ARC
8
DEFAULT_255_2_778
10
12.3838984
20
268.9838012
40
2.5088883
50
359.9998204
51
1.9077366
0
ARC
8
DEFAULT_255_2_778
10
12.3927292
20
268.9837844
40
2.5000575
50
301.9154232
51
0.0002045
0
ARC
8
DEFAULT_255_2_778
10
12.3884558
20
268.9911898
40
2.5086027
50
300.0007804
51
301.9088542
0
ARC
8
DEFAULT_255_2_778
10
12.3933631
20
268.981874
40
2.4980812
50
280.2117961
51
300.0101427
0
ARC
8
DEFAULT_255_2_778
10
12.392739
20
268.9857385
40
2.5019952
50
270.0073495
51
280.2101726
0
LINE
8
DEFAULT_255_2_778
10
12.3930599
20
266.4837433
11
12.3926992
21
266.4837433
0
ARC
8
DEFAULT_255_2_778
10
12.3923084
20
268.9822114
40
2.4984681
50
244.7639794
51
270.0089607
0
ARC
8
DEFAULT_255_2_778
10
12.3951924
20
268.9878317
40
2.5047818
50
239.9969666
51
244.7591175
0
ARC
8
DEFAULT_255_2_778
10
12.3927416
20
268.9837946
40
2.5000602
50
181.9146849
51
239.9993419
0
ARC
8
DEFAULT_255_2_778
10
12.4015749
20
268.9837855
40
2.5088883
50
179.9998204
51
181.9077366
0
ARC
8
DEFAULT_255_2_778
10
12.4905985
20
280.947207
40
3.2477135
50
162.1310287
51
180.0566956
0
ARC
8
DEFAULT_255_2_778
10
12.4976695
20
280.9388686
40
3.2570071
50
105.7689151
51
162.0295862
0
ARC
8
DEFAULT_255_2_778
10
12.4899881
20
280.9415082
40
3.252386
50
89.9524605
51
105.6513253
0
ARC
8
DEFAULT_255_2_778
10
12.4959022
20
280.946205
40
3.2476899
50
72.1309283
51
90.0567286
0
ARC
8
DEFAULT_255_2_778
10
12.4875434
20
280.9391146
40
3.2570082
50
15.7677879
51
72.0292494
0
ARC
8
DEFAULT_255_2_778
10
12.4899172
20
280.9466955
40
3.2526704
50
359.9524005
51
15.650638
0
ARC
8
DEFAULT_255_2_778
10
12.4950776
20
280.9407874
40
3.2475106
50
342.1304324
51
0.0565629
0
ARC
8
DEFAULT_255_2_778
10
12.4877048
20
280.9492368
40
3.2571256
50
285.7690898
51
342.0287655
0
ARC
8
DEFAULT_255_2_778
10
12.4953866
20
280.9465873
40
3.2524951
50
269.9524383
51
285.6515452
0
ARC
8
DEFAULT_255_2_778
10
12.48948
20
280.9413529
40
3.2472612
50
252.1292096
51
270.0565792
0
ARC
8
DEFAULT_255_2_778
10
12.4980485
20
280.9489616
40
3.2571374
50
195.7681407
51
252.0268278
0
ARC
8
DEFAULT_255_2_778
10
12.4953744
20
280.9412998
40
3.2524888
50
179.9525507
51
195.6510508
0
LINE
8
DEFAULT_255_2_778
10
9.8926867
20
268.9837933
11
9.8926867
21
268.9837933
0
LINE
8
DEFAULT_255_2_778
10
9.2428867
20
280.9439933
11
9.2428867
21
280.9439933
0
LINE
8
DEFAULT_255_2_778
10
0.1927867
20
28.6436933
11
4.2927867
21
28.6436933
0
LINE
8
DEFAULT_255_2_778
10
4.2927867
20
28.6436933
11
4.2927867
21
81.9437933
0
LINE
8
DEFAULT_255_2_778
10
4.2927867
20
81.9437933
11
0.1927867
21
81.9437933
0
LINE
8
DEFAULT_255_2_778
10
1.8926084
20
28.6436682
11
1.8926084
21
81.9436682
0
LINE
8
DEFAULT_255_2_778
10
0.1927084
20
88.6437682
11
4.2927084
21
88.6437682
0
LINE
8
DEFAULT_255_2_778
10
4.2927084
20
88.6437682
11
4.2927084
21
141.9437682
0
LINE
8
DEFAULT_255_2_778
10
4.2927084
20
141.9437682
11
0.1927084
21
141.9437682
0
LINE
8
DEFAULT_255_2_778
10
1.8926084
20
88.6437682
11
1.8926084
21
141.9437682
0
LINE
8
DEFAULT_255_2_778
10
0.1927084
20
148.6438682
11
4.2927084
21
148.6438682
0
LINE
8
DEFAULT_255_2_778
10
4.2927084
20
148.6438682
11
4.2927084
21
201.9438682
0
LINE
8
DEFAULT_255_2_778
10
4.2927084
20
201.9438682
11
0.1927084
21
201.9438682
0
LINE
8
DEFAULT_255_2_778
10
1.8926084
20
148.6438359
11
1.8926084
21
201.9439359
0
LINE
8
DEFAULT_255_2_778
10
0.1927084
20
208.6437359
11
4.2927084
21
208.6437359
0
LINE
8
DEFAULT_255_2_778
10
4.2927084
20
208.6437359
11
4.2927084
21
261.9437359
0
LINE
8
DEFAULT_255_2_778
10
4.2927084
20
261.9437359
11
0.1927084
21
261.9437359
0
ARC
8
DEFAULT_255_2_778
10
11.7928583
20
4.8837948
40
0.5000956
50
134.9958871
51
179.9946851
0
ARC
8
DEFAULT_255_2_778
10
11.7928368
20
4.8840201
40
0.499921
50
89.9970313
51
135.0124063
0
ARC
8
DEFAULT_255_2_778
10
16.2928163
20
4.8838455
40
0.5000956
50
44.9958871
51
89.9946851
0
ARC
8
DEFAULT_255_2_778
10
16.2928671
20
4.8837948
40
0.5000956
50
0.0053149
51
45.0041129
0
ARC
8
DEFAULT_255_2_778
10
16.2930415
20
1.2839154
40
0.4999212
50
314.9875994
51
0.0029524
0
ARC
8
DEFAULT_255_2_778
10
16.2928163
20
1.2839368
40
0.5000956
50
270.0053149
51
315.0041129
0
ARC
8
DEFAULT_255_2_778
10
11.7928368
20
1.2837622
40
0.499921
50
224.9875937
51
270.0029687
0
ARC
8
DEFAULT_255_2_778
10
11.7926839
20
1.2839154
40
0.4999213
50
179.9970476
51
225.0124006
0
LINE
8
DEFAULT_255_2_778
10
1.8926627
20
208.6437412
11
1.8926627
21
261.9437412
0
LINE
8
DEFAULT_255_2_778
10
16.7926627
20
3.5839412
11
11.2927627
21
3.5839412
0
LINE
8
DEFAULT_255_2_778
10
11.2927627
20
3.5839412
11
11.2927627
21
4.8838412
0
LINE
8
DEFAULT_255_2_778
10
11.7928627
20
5.3839412
11
16.2928627
21
5.3839412
0
LINE
8
DEFAULT_255_2_778
10
16.7929627
20
4.8838412
11
16.7929627
21
1.2839412
0
LINE
8
DEFAULT_255_2_778
10
11.2927627
20
1.2839412
11
11.2927627
21
2.5838412
0
LINE
8
DEFAULT_255_2_778
10
11.2927627
20
2.5838412
11
16.7926627
21
2.5838412
0
LINE
8
DEFAULT_255_2_778
10
12.9129
20
256.6838427
11
12.9129
21
253.8837427
0
LINE
8
DEFAULT_255_2_778
10
12.09265
20
256.6838427
11
12.89275
21
256.6838427
0
LINE
8
DEFAULT_255_2_778
10
12.89275
20
256.6838427
11
12.89275
21
253.8837427
0
LINE
8
DEFAULT_255_2_778
10
12.89275
20
253.8837427
11
12.09265
21
253.8837427
0
LINE
8
DEFAULT_255_2_778
10
12.09265
20
253.8837427
11
12.09265
21
256.6838427
0
LINE
8
DEFAULT_255_2_778
10
12.0728
20
253.8837427
11
12.0728
21
256.6838427
0
LINE
8
DEFAULT_255_2_778
10
12.9129
20
261.6836427
11
12.9129
21
258.8835427
0
LINE
8
DEFAULT_255_2_778
10
12.09265
20
261.6836427
11
12.89275
21
261.6836427
0
LINE
8
DEFAULT_255_2_778
10
12.89275
20
261.6836427
11
12.89275
21
258.8835427
0
LINE
8
DEFAULT_255_2_778
10
12.89275
20
258.8835427
11
12.09265
21
258.8835427
0
LINE
8
DEFAULT_255_2_778
10
12.09265
20
258.8835427
11
12.09265
21
261.6836427
0
LINE
8
DEFAULT_255_2_778
10
12.0728
20
258.8835427
11
12.0728
21
261.6836427
0
LINE
8
DEFAULT_255_2_778
10
12.9129
20
246.6838427
11
12.9129
21
243.8837427
0
LINE
8
DEFAULT_255_2_778
10
12.09265
20
246.6838427
11
12.89275
21
246.6838427
0
LINE
8
DEFAULT_255_2_778
10
12.89275
20
246.6838427
11
12.89275
21
243.8837427
0
LINE
8
DEFAULT_255_2_778
10
12.89275
20
243.8837427
11
12.09265
21
243.8837427
0
LINE
8
DEFAULT_255_2_778
10
12.09265
20
243.8837427
11
12.09265
21
246.6838427
0
LINE
8
DEFAULT_255_2_778
10
12.0728
20
243.8837427
11
12.0728
21
246.6838427
0
LINE
8
DEFAULT_255_2_778
10
12.9129
20
251.6837427
11
12.9129
21
248.8836427
0
LINE
8
DEFAULT_255_2_778
10
12.09265
20
251.6837427
11
12.89275
21
251.6837427
0
LINE
8
DEFAULT_255_2_778
10
12.89275
20
251.6837427
11
12.89275
21
248.8836427
0
LINE
8
DEFAULT_255_2_778
10
12.89275
20
248.8836427
11
12.09265
21
248.8836427
0
LINE
8
DEFAULT_255_2_778
10
12.09265
20
248.8836427
11
12.09265
21
251.6837427
0
LINE
8
DEFAULT_255_2_778
10
12.0728
20
248.8836427
11
12.0728
21
251.6837427
0
LINE
8
DEFAULT_255_2_778
10
12.9129
20
236.6836427
11
12.9129
21
233.8835427
0
LINE
8
DEFAULT_255_2_778
10
12.09265
20
236.6836427
11
12.89275
21
236.6836427
0
LINE
8
DEFAULT_255_2_778
10
12.89275
20
236.6836427
11
12.89275
21
233.8835427
0
LINE
8
DEFAULT_255_2_778
10
12.89275
20
233.8835427
11
12.09265
21
233.8835427
0
LINE
8
DEFAULT_255_2_778
10
12.09265
20
233.8835427
11
12.09265
21
236.6836427
0
LINE
8
DEFAULT_255_2_778
10
12.0728
20
233.8835427
11
12.0728
21
236.6836427
0
LINE
8
DEFAULT_255_2_778
10
12.9129
20
241.6837427
11
12.9129
21
238.8836427
0
LINE
8
DEFAULT_255_2_778
10
12.09265
20
241.6837427
11
12.89275
21
241.6837427
0
LINE
8
DEFAULT_255_2_778
10
12.89275
20
241.6837427
11
12.89275
21
238.8836427
0
LINE
8
DEFAULT_255_2_778
10
12.89275
20
238.8836427
11
12.09265
21
238.8836427
0
LINE
8
DEFAULT_255_2_778
10
12.09265
20
238.8836427
11
12.09265
21
241.6837427
0
LINE
8
DEFAULT_255_2_778
10
12.0728
20
238.8836427
11
12.0728
21
241.6837427
0
LINE
8
DEFAULT_255_2_778
10
12.9129
20
226.6837427
11
12.9129
21
223.8836427
0
LINE
8
DEFAULT_255_2_778
10
12.09265
20
226.6837427
11
12.89275
21
226.6837427
0
LINE
8
DEFAULT_255_2_778
10
12.89275
20
226.6837427
11
12.89275
21
223.8836427
0
LINE
8
DEFAULT_255_2_778
10
12.89275
20
223.8836427
11
12.09265
21
223.8836427
0
LINE
8
DEFAULT_255_2_778
10
12.09265
20
223.8836427
11
12.09265
21
226.6837427
0
LINE
8
DEFAULT_255_2_778
10
12.0728
20
223.8836427
11
12.0728
21
226.6837427
0
LINE
8
DEFAULT_255_2_778
10
12.9129
20
231.6838427
11
12.9129
21
228.8837427
0
LINE
8
DEFAULT_255_2_778
10
12.09265
20
231.6838427
11
12.89275
21
231.6838427
0
LINE
8
DEFAULT_255_2_778
10
12.89275
20
231.6838427
11
12.89275
21
228.8837427
0
LINE
8
DEFAULT_255_2_778
10
12.89275
20
228.8837427
11
12.09265
21
228.8837427
0
LINE
8
DEFAULT_255_2_778
10
12.09265
20
228.8837427
11
12.09265
21
231.6838427
0
LINE
8
DEFAULT_255_2_778
10
12.0728
20
228.8837427
11
12.0728
21
231.6838427
0
LINE
8
DEFAULT_255_2_778
10
12.9129
20
216.6838427
11
12.9129
21
213.8837427
0
LINE
8
DEFAULT_255_2_778
10
12.09265
20
216.6838427
11
12.89275
21
216.6838427
0
LINE
8
DEFAULT_255_2_778
10
12.89275
20
216.6838427
11
12.89275
21
213.8837427
0
LINE
8
DEFAULT_255_2_778
10
12.89275
20
213.8837427
11
12.09265
21
213.8837427
0
LINE
8
DEFAULT_255_2_778
10
12.09265
20
213.8837427
11
12.09265
21
216.6838427
0
LINE
8
DEFAULT_255_2_778
10
12.0728
20
213.8837427
11
12.0728
21
216.6838427
0
LINE
8
DEFAULT_255_2_778
10
12.9129
20
221.6836427
11
12.9129
21
218.8835427
0
LINE
8
DEFAULT_255_2_778
10
12.09265
20
221.6836427
11
12.89275
21
221.6836427
0
LINE
8
DEFAULT_255_2_778
10
12.89275
20
221.6836427
11
12.89275
21
218.8835427
0
LINE
8
DEFAULT_255_2_778
10
12.89275
20
218.8835427
11
12.09265
21
218.8835427
0
LINE
8
DEFAULT_255_2_778
10
12.09265
20
218.8835427
11
12.09265
21
221.6836427
0
LINE
8
DEFAULT_255_2_778
10
12.0728
20
218.8835427
11
12.0728
21
221.6836427
0
LINE
8
DEFAULT_255_2_778
10
12.9129
20
206.6839427
11
12.9129
21
203.8838427
0
LINE
8
DEFAULT_255_2_778
10
12.09265
20
206.6839427
11
12.89275
21
206.6839427
0
LINE
8
DEFAULT_255_2_778
10
12.89275
20
206.6839427
11
12.89275
21
203.8838427
0
LINE
8
DEFAULT_255_2_778
10
12.89275
20
203.8838427
11
12.09265
21
203.8838427
0
LINE
8
DEFAULT_255_2_778
10
12.09265
20
203.8838427
11
12.09265
21
206.6839427
0
LINE
8
DEFAULT_255_2_778
10
12.0728
20
203.8838427
11
12.0728
21
206.6839427
0
LINE
8
DEFAULT_255_2_778
10
12.912874
20
211.6837539
11
12.912874
21
208.8836539
0
LINE
8
DEFAULT_255_2_778
10
12.092574
20
211.6837539
11
12.892674
21
211.6837539
0
LINE
8
DEFAULT_255_2_778
10
12.892674
20
211.6837539
11
12.892674
21
208.8836539
0
LINE
8
DEFAULT_255_2_778
10
12.892674
20
208.8836539
11
12.092574
21
208.8836539
0
LINE
8
DEFAULT_255_2_778
10
12.092574
20
208.8836539
11
12.092574
21
211.6837539
0
LINE
8
DEFAULT_255_2_778
10
12.072774
20
208.8836539
11
12.072774
21
211.6837539
0
LINE
8
DEFAULT_255_2_778
10
12.912874
20
196.6837539
11
12.912874
21
193.8836539
0
LINE
8
DEFAULT_255_2_778
10
12.09265
20
196.6837427
11
12.89275
21
196.6837427
0
LINE
8
DEFAULT_255_2_778
10
12.89275
20
196.6837427
11
12.89275
21
193.8836427
0
LINE
8
DEFAULT_255_2_778
10
12.89275
20
193.8836427
11
12.09265
21
193.8836427
0
LINE
8
DEFAULT_255_2_778
10
12.09265
20
193.8836427
11
12.09265
21
196.6837427
0
LINE
8
DEFAULT_255_2_778
10
12.0728
20
193.8836427
11
12.0728
21
196.6837427
0
LINE
8
DEFAULT_255_2_778
10
12.9129
20
201.6838427
11
12.9129
21
198.8837427
0
LINE
8
DEFAULT_255_2_778
10
12.09265
20
201.6838427
11
12.89275
21
201.6838427
0
LINE
8
DEFAULT_255_2_778
10
12.89275
20
201.6838427
11
12.89275
21
198.8837427
0
LINE
8
DEFAULT_255_2_778
10
12.89275
20
198.8837427
11
12.09265
21
198.8837427
0
LINE
8
DEFAULT_255_2_778
10
12.09265
20
198.8837427
11
12.09265
21
201.6838427
0
LINE
8
DEFAULT_255_2_778
10
12.0728
20
198.8837427
11
12.0728
21
201.6838427
0
LINE
8
DEFAULT_255_2_778
10
12.9129
20
186.6837427
11
12.9129
21
183.8836427
0
LINE
8
DEFAULT_255_2_778
10
12.09265
20
186.6837427
11
12.89275
21
186.6837427
0
LINE
8
DEFAULT_255_2_778
10
12.89275
20
186.6837427
11
12.89275
21
183.8836427
0
LINE
8
DEFAULT_255_2_778
10
12.89275
20
183.8836427
11
12.09265
21
183.8836427
0
LINE
8
DEFAULT_255_2_778
10
12.09265
20
183.8836427
11
12.09265
21
186.6837427
0
LINE
8
DEFAULT_255_2_778
10
12.0728
20
183.8836427
11
12.0728
21
186.6837427
0
LINE
8
DEFAULT_255_2_778
10
12.912874
20
191.6838539
11
12.912874
21
188.8837539
0
LINE
8
DEFAULT_255_2_778
10
12.092574
20
191.6838539
11
12.892674
21
191.6838539
0
LINE
8
DEFAULT_255_2_778
10
12.892674
20
191.6838539
11
12.892674
21
188.8837539
0
LINE
8
DEFAULT_255_2_778
10
12.892674
20
188.8837539
11
12.092574
21
188.8837539
0
LINE
8
DEFAULT_255_2_778
10
12.092574
20
188.8837539
11
12.092574
21
191.6838539
0
LINE
8
DEFAULT_255_2_778
10
12.072774
20
188.8837539
11
12.072774
21
191.6838539
0
LINE
8
DEFAULT_255_2_778
10
12.912874
20
176.6838539
11
12.912874
21
173.8837539
0
LINE
8
DEFAULT_255_2_778
10
12.09265
20
176.6838427
11
12.89275
21
176.6838427
0
LINE
8
DEFAULT_255_2_778
10
12.89275
20
176.6838427
11
12.89275
21
173.8837427
0
LINE
8
DEFAULT_255_2_778
10
12.89275
20
173.8837427
11
12.09265
21
173.8837427
0
LINE
8
DEFAULT_255_2_778
10
12.09265
20
173.8837427
11
12.09265
21
176.6838427
0
LINE
8
DEFAULT_255_2_778
10
12.0728
20
173.8837427
11
12.0728
21
176.6838427
0
LINE
8
DEFAULT_255_2_778
10
12.9129
20
181.6836427
11
12.9129
21
178.8835427
0
LINE
8
DEFAULT_255_2_778
10
12.09265
20
181.6836427
11
12.89275
21
181.6836427
0
LINE
8
DEFAULT_255_2_778
10
12.89275
20
181.6836427
11
12.89275
21
178.8835427
0
LINE
8
DEFAULT_255_2_778
10
12.89275
20
178.8835427
11
12.09265
21
178.8835427
0
LINE
8
DEFAULT_255_2_778
10
12.09265
20
178.8835427
11
12.09265
21
181.6836427
0
LINE
8
DEFAULT_255_2_778
10
12.0728
20
178.8835427
11
12.0728
21
181.6836427
0
LINE
8
DEFAULT_255_2_778
10
12.9129
20
166.6836427
11
12.9129
21
163.8835427
0
LINE
8
DEFAULT_255_2_778
10
12.09265
20
166.6836427
11
12.89275
21
166.6836427
0
LINE
8
DEFAULT_255_2_778
10
12.89275
20
166.6836427
11
12.89275
21
163.8835427
0
LINE
8
DEFAULT_255_2_778
10
12.89275
20
163.8835427
11
12.09265
21
163.8835427
0
LINE
8
DEFAULT_255_2_778
10
12.09265
20
163.8835427
11
12.09265
21
166.6836427
0
LINE
8
DEFAULT_255_2_778
10
12.0728
20
163.8835427
11
12.0728
21
166.6836427
0
LINE
8
DEFAULT_255_2_778
10
12.9129
20
171.6837427
11
12.9129
21
168.8836427
0
LINE
8
DEFAULT_255_2_778
10
12.09265
20
171.6837427
11
12.89275
21
171.6837427
0
LINE
8
DEFAULT_255_2_778
10
12.89275
20
171.6837427
11
12.89275
21
168.8836427
0
LINE
8
DEFAULT_255_2_778
10
12.89275
20
168.8836427
11
12.09265
21
168.8836427
0
LINE
8
DEFAULT_255_2_778
10
12.09265
20
168.8836427
11
12.09265
21
171.6837427
0
LINE
8
DEFAULT_255_2_778
10
12.0728
20
168.8836427
11
12.0728
21
171.6837427
0
LINE
8
DEFAULT_255_2_778
10
12.9129
20
156.6837427
11
12.9129
21
153.8836427
0
LINE
8
DEFAULT_255_2_778
10
12.09265
20
156.6837427
11
12.89275
21
156.6837427
0
LINE
8
DEFAULT_255_2_778
10
12.89275
20
156.6837427
11
12.89275
21
153.8836427
0
LINE
8
DEFAULT_255_2_778
10
12.89275
20
153.8836427
11
12.09265
21
153.8836427
0
LINE
8
DEFAULT_255_2_778
10
12.09265
20
153.8836427
11
12.09265
21
156.6837427
0
LINE
8
DEFAULT_255_2_778
10
12.0728
20
153.8836427
11
12.0728
21
156.6837427
0
LINE
8
DEFAULT_255_2_778
10
12.9129
20
161.6838427
11
12.9129
21
158.8837427
0
LINE
8
DEFAULT_255_2_778
10
12.09265
20
161.6838427
11
12.89275
21
161.6838427
0
LINE
8
DEFAULT_255_2_778
10
12.89275
20
161.6838427
11
12.89275
21
158.8837427
0
LINE
8
DEFAULT_255_2_778
10
12.89275
20
158.8837427
11
12.09265
21
158.8837427
0
LINE
8
DEFAULT_255_2_778
10
12.09265
20
158.8837427
11
12.09265
21
161.6838427
0
LINE
8
DEFAULT_255_2_778
10
12.0728
20
158.8837427
11
12.0728
21
161.6838427
0
LINE
8
DEFAULT_255_2_778
10
12.9129
20
146.6838427
11
12.9129
21
143.8837427
0
LINE
8
DEFAULT_255_2_778
10
12.09265
20
146.6838427
11
12.89275
21
146.6838427
0
LINE
8
DEFAULT_255_2_778
10
12.89275
20
146.6838427
11
12.89275
21
143.8837427
0
LINE
8
DEFAULT_255_2_778
10
12.89275
20
143.8837427
11
12.09265
21
143.8837427
0
LINE
8
DEFAULT_255_2_778
10
12.09265
20
143.8837427
11
12.09265
21
146.6838427
0
LINE
8
DEFAULT_255_2_778
10
12.0728
20
143.8837427
11
12.0728
21
146.6838427
0
LINE
8
DEFAULT_255_2_778
10
12.9129
20
151.6836427
11
12.9129
21
148.8835427
0
LINE
8
DEFAULT_255_2_778
10
12.09265
20
151.6836427
11
12.89275
21
151.6836427
0
LINE
8
DEFAULT_255_2_778
10
12.89275
20
151.6836427
11
12.89275
21
148.8835427
0
LINE
8
DEFAULT_255_2_778
10
12.89275
20
148.8835427
11
12.09265
21
148.8835427
0
LINE
8
DEFAULT_255_2_778
10
12.09265
20
148.8835427
11
12.09265
21
151.6836427
0
LINE
8
DEFAULT_255_2_778
10
12.0728
20
148.8835427
11
12.0728
21
151.6836427
0
LINE
8
DEFAULT_255_2_778
10
12.9129
20
136.6838427
11
12.9129
21
133.8837427
0
LINE
8
DEFAULT_255_2_778
10
12.09265
20
136.6838427
11
12.89275
21
136.6838427
0
LINE
8
DEFAULT_255_2_778
10
12.89275
20
136.6838427
11
12.89275
21
133.8837427
0
LINE
8
DEFAULT_255_2_778
10
12.89275
20
133.8837427
11
12.09265
21
133.8837427
0
LINE
8
DEFAULT_255_2_778
10
12.09265
20
133.8837427
11
12.09265
21
136.6838427
0
LINE
8
DEFAULT_255_2_778
10
12.0728
20
133.8837427
11
12.0728
21
136.6838427
0
LINE
8
DEFAULT_255_2_778
10
12.9129
20
141.6837427
11
12.9129
21
138.8836427
0
LINE
8
DEFAULT_255_2_778
10
12.09265
20
141.6837427
11
12.89275
21
141.6837427
0
LINE
8
DEFAULT_255_2_778
10
12.89275
20
141.6837427
11
12.89275
21
138.8836427
0
LINE
8
DEFAULT_255_2_778
10
12.89275
20
138.8836427
11
12.09265
21
138.8836427
0
LINE
8
DEFAULT_255_2_778
10
12.09265
20
138.8836427
11
12.09265
21
141.6837427
0
LINE
8
DEFAULT_255_2_778
10
12.0728
20
138.8836427
11
12.0728
21
141.6837427
0
LINE
8
DEFAULT_255_2_778
10
12.912874
20
126.6836905
11
12.912874
21
123.8835905
0
LINE
8
DEFAULT_255_2_778
10
12.092574
20
126.6836905
11
12.892674
21
126.6836905
0
LINE
8
DEFAULT_255_2_778
10
12.892674
20
126.6836905
11
12.892674
21
123.8835905
0
LINE
8
DEFAULT_255_2_778
10
12.892674
20
123.8835905
11
12.092574
21
123.8835905
0
LINE
8
DEFAULT_255_2_778
10
12.092574
20
123.8835905
11
12.092574
21
126.6836905
0
LINE
8
DEFAULT_255_2_778
10
12.072774
20
123.8835905
11
12.072774
21
126.6836905
0
LINE
8
DEFAULT_255_2_778
10
12.912874
20
131.6837905
11
12.912874
21
128.8836905
0
LINE
8
DEFAULT_255_2_778
10
12.09265
20
131.6837427
11
12.89275
21
131.6837427
0
LINE
8
DEFAULT_255_2_778
10
12.89275
20
131.6837427
11
12.89275
21
128.8836427
0
LINE
8
DEFAULT_255_2_778
10
12.89275
20
128.8836427
11
12.09265
21
128.8836427
0
LINE
8
DEFAULT_255_2_778
10
12.09265
20
128.8836427
11
12.09265
21
131.6837427
0
LINE
8
DEFAULT_255_2_778
10
12.0728
20
128.8836427
11
12.0728
21
131.6837427
0
LINE
8
DEFAULT_255_2_778
10
12.9129
20
116.6837427
11
12.9129
21
113.8836427
0
LINE
8
DEFAULT_255_2_778
10
12.09265
20
116.6837427
11
12.89275
21
116.6837427
0
LINE
8
DEFAULT_255_2_778
10
12.89275
20
116.6837427
11
12.89275
21
113.8836427
0
LINE
8
DEFAULT_255_2_778
10
12.89275
20
113.8836427
11
12.09265
21
113.8836427
0
LINE
8
DEFAULT_255_2_778
10
12.09265
20
113.8836427
11
12.09265
21
116.6837427
0
LINE
8
DEFAULT_255_2_778
10
12.0728
20
113.8836427
11
12.0728
21
116.6837427
0
LINE
8
DEFAULT_255_2_778
10
12.9129
20
121.6838427
11
12.9129
21
118.8837427
0
LINE
8
DEFAULT_255_2_778
10
12.09265
20
121.6838427
11
12.89275
21
121.6838427
0
LINE
8
DEFAULT_255_2_778
10
12.89275
20
121.6838427
11
12.89275
21
118.8837427
0
LINE
8
DEFAULT_255_2_778
10
12.89275
20
118.8837427
11
12.09265
21
118.8837427
0
LINE
8
DEFAULT_255_2_778
10
12.09265
20
118.8837427
11
12.09265
21
121.6838427
0
LINE
8
DEFAULT_255_2_778
10
12.0728
20
118.8837427
11
12.0728
21
121.6838427
0
LINE
8
DEFAULT_255_2_778
10
12.912874
20
106.6838582
11
12.912874
21
103.8837582
0
LINE
8
DEFAULT_255_2_778
10
12.092574
20
106.6838582
11
12.892674
21
106.6838582
0
LINE
8
DEFAULT_255_2_778
10
12.892674
20
106.6838582
11
12.892674
21
103.8837582
0
LINE
8
DEFAULT_255_2_778
10
12.892674
20
103.8837582
11
12.092574
21
103.8837582
0
LINE
8
DEFAULT_255_2_778
10
12.092574
20
103.8837582
11
12.092574
21
106.6838582
0
LINE
8
DEFAULT_255_2_778
10
12.072774
20
103.8837582
11
12.072774
21
106.6838582
0
LINE
8
DEFAULT_255_2_778
10
12.912874
20
111.6836582
11
12.912874
21
108.8835582
0
LINE
8
DEFAULT_255_2_778
10
12.09265
20
111.6836427
11
12.89275
21
111.6836427
0
LINE
8
DEFAULT_255_2_778
10
12.89275
20
111.6836427
11
12.89275
21
108.8835427
0
LINE
8
DEFAULT_255_2_778
10
12.89275
20
108.8835427
11
12.09265
21
108.8835427
0
LINE
8
DEFAULT_255_2_778
10
12.09265
20
108.8835427
11
12.09265
21
111.6836427
0
LINE
8
DEFAULT_255_2_778
10
12.0728
20
108.8835427
11
12.0728
21
111.6836427
0
LINE
8
DEFAULT_255_2_778
10
12.9129
20
96.6836294
11
12.9129
21
93.8835294
0
LINE
8
DEFAULT_255_2_778
10
12.09265
20
96.6836427
11
12.89275
21
96.6836427
0
LINE
8
DEFAULT_255_2_778
10
12.89275
20
96.6836427
11
12.89275
21
93.8835427
0
LINE
8
DEFAULT_255_2_778
10
12.89275
20
93.8835427
11
12.09265
21
93.8835427
0
LINE
8
DEFAULT_255_2_778
10
12.09265
20
93.8835427
11
12.09265
21
96.6836427
0
LINE
8
DEFAULT_255_2_778
10
12.0728
20
93.8835427
11
12.0728
21
96.6836427
0
LINE
8
DEFAULT_255_2_778
10
12.9129
20
101.6837427
11
12.9129
21
98.8836427
0
LINE
8
DEFAULT_255_2_778
10
12.09265
20
101.6837427
11
12.89275
21
101.6837427
0
LINE
8
DEFAULT_255_2_778
10
12.89275
20
101.6837427
11
12.89275
21
98.8836427
0
LINE
8
DEFAULT_255_2_778
10
12.89275
20
98.8836427
11
12.09265
21
98.8836427
0
LINE
8
DEFAULT_255_2_778
10
12.09265
20
98.8836427
11
12.09265
21
101.6837427
0
LINE
8
DEFAULT_255_2_778
10
12.0728
20
98.8836427
11
12.0728
21
101.6837427
0
LINE
8
DEFAULT_255_2_778
10
12.9129
20
86.6837427
11
12.9129
21
83.8836427
0
LINE
8
DEFAULT_255_2_778
10
12.09265
20
86.6837427
11
12.89275
21
86.6837427
0
LINE
8
DEFAULT_255_2_778
10
12.89275
20
86.6837427
11
12.89275
21
83.8836427
0
LINE
8
DEFAULT_255_2_778
10
12.89275
20
83.8836427
11
12.09265
21
83.8836427
0
LINE
8
DEFAULT_255_2_778
10
12.09265
20
83.8836427
11
12.09265
21
86.6837427
0
LINE
8
DEFAULT_255_2_778
10
12.0728
20
83.8836427
11
12.0728
21
86.6837427
0
LINE
8
DEFAULT_255_2_778
10
12.9129
20
91.6838427
11
12.9129
21
88.8837427
0
LINE
8
DEFAULT_255_2_778
10
12.09265
20
91.6838427
11
12.89275
21
91.6838427
0
LINE
8
DEFAULT_255_2_778
10
12.89275
20
91.6838427
11
12.89275
21
88.8837427
0
LINE
8
DEFAULT_255_2_778
10
12.89275
20
88.8837427
11
12.09265
21
88.8837427
0
LINE
8
DEFAULT_255_2_778
10
12.09265
20
88.8837427
11
12.09265
21
91.6838427
0
LINE
8
DEFAULT_255_2_778
10
12.0728
20
88.8837427
11
12.0728
21
91.6838427
0
LINE
8
DEFAULT_255_2_778
10
12.9129
20
76.6838427
11
12.9129
21
73.8837427
0
LINE
8
DEFAULT_255_2_778
10
12.09265
20
76.6838427
11
12.89275
21
76.6838427
0
LINE
8
DEFAULT_255_2_778
10
12.89275
20
76.6838427
11
12.89275
21
73.8837427
0
LINE
8
DEFAULT_255_2_778
10
12.89275
20
73.8837427
11
12.09265
21
73.8837427
0
LINE
8
DEFAULT_255_2_778
10
12.09265
20
73.8837427
11
12.09265
21
76.6838427
0
LINE
8
DEFAULT_255_2_778
10
12.0728
20
73.8837427
11
12.0728
21
76.6838427
0
LINE
8
DEFAULT_255_2_778
10
12.9129
20
81.6838427
11
12.9129
21
78.8837427
0
LINE
8
DEFAULT_255_2_778
10
12.09265
20
81.6838427
11
12.89275
21
81.6838427
0
LINE
8
DEFAULT_255_2_778
10
12.89275
20
81.6838427
11
12.89275
21
78.8837427
0
LINE
8
DEFAULT_255_2_778
10
12.89275
20
78.8837427
11
12.09265
21
78.8837427
0
LINE
8
DEFAULT_255_2_778
10
12.09265
20
78.8837427
11
12.09265
21
81.6838427
0
LINE
8
DEFAULT_255_2_778
10
12.0728
20
78.8837427
11
12.0728
21
81.6838427
0
LINE
8
DEFAULT_255_2_778
10
12.9129
20
66.6838427
11
12.9129
21
63.8837427
0
LINE
8
DEFAULT_255_2_778
10
12.09265
20
66.6838427
11
12.89275
21
66.6838427
0
LINE
8
DEFAULT_255_2_778
10
12.89275
20
66.6838427
11
12.89275
21
63.8837427
0
LINE
8
DEFAULT_255_2_778
10
12.89275
20
63.8837427
11
12.09265
21
63.8837427
0
LINE
8
DEFAULT_255_2_778
10
12.09265
20
63.8837427
11
12.09265
21
66.6838427
0
LINE
8
DEFAULT_255_2_778
10
12.0728
20
63.8837427
11
12.0728
21
66.6838427
0
LINE
8
DEFAULT_255_2_778
10
12.9129
20
71.6837427
11
12.9129
21
68.8836427
0
LINE
8
DEFAULT_255_2_778
10
12.09265
20
71.6837427
11
12.89275
21
71.6837427
0
LINE
8
DEFAULT_255_2_778
10
12.89275
20
71.6837427
11
12.89275
21
68.8836427
0
LINE
8
DEFAULT_255_2_778
10
12.89275
20
68.8836427
11
12.09265
21
68.8836427
0
LINE
8
DEFAULT_255_2_778
10
12.09265
20
68.8836427
11
12.09265
21
71.6837427
0
LINE
8
DEFAULT_255_2_778
10
12.0728
20
68.8836427
11
12.0728
21
71.6837427
0
LINE
8
DEFAULT_255_2_778
10
12.9129
20
56.6836427
11
12.9129
21
53.8835427
0
LINE
8
DEFAULT_255_2_778
10
12.09265
20
56.6836427
11
12.89275
21
56.6836427
0
LINE
8
DEFAULT_255_2_778
10
12.89275
20
56.6836427
11
12.89275
21
53.8835427
0
LINE
8
DEFAULT_255_2_778
10
12.89275
20
53.8835427
11
12.09265
21
53.8835427
0
LINE
8
DEFAULT_255_2_778
10
12.09265
20
53.8835427
11
12.09265
21
56.6836427
0
LINE
8
DEFAULT_255_2_778
10
12.0728
20
53.8835427
11
12.0728
21
56.6836427
0
LINE
8
DEFAULT_255_2_778
10
12.9129
20
61.6837427
11
12.9129
21
58.8836427
0
LINE
8
DEFAULT_255_2_778
10
12.09265
20
61.6837427
11
12.89275
21
61.6837427
0
LINE
8
DEFAULT_255_2_778
10
12.89275
20
61.6837427
11
12.89275
21
58.8836427
0
LINE
8
DEFAULT_255_2_778
10
12.89275
20
58.8836427
11
12.09265
21
58.8836427
0
LINE
8
DEFAULT_255_2_778
10
12.09265
20
58.8836427
11
12.09265
21
61.6837427
0
LINE
8
DEFAULT_255_2_778
10
12.0728
20
58.8836427
11
12.0728
21
61.6837427
0
LINE
8
DEFAULT_255_2_778
10
12.9129
20
46.6837427
11
12.9129
21
43.8836427
0
LINE
8
DEFAULT_255_2_778
10
12.09265
20
46.6837427
11
12.89275
21
46.6837427
0
LINE
8
DEFAULT_255_2_778
10
12.89275
20
46.6837427
11
12.89275
21
43.8836427
0
LINE
8
DEFAULT_255_2_778
10
12.89275
20
43.8836427
11
12.09265
21
43.8836427
0
LINE
8
DEFAULT_255_2_778
10
12.09265
20
43.8836427
11
12.09265
21
46.6837427
0
LINE
8
DEFAULT_255_2_778
10
12.0728
20
43.8836427
11
12.0728
21
46.6837427
0
LINE
8
DEFAULT_255_2_778
10
12.9129
20
51.6838294
11
12.9129
21
48.8837294
0
LINE
8
DEFAULT_255_2_778
10
12.09265
20
51.6838427
11
12.89275
21
51.6838427
0
LINE
8
DEFAULT_255_2_778
10
12.89275
20
51.6838427
11
12.89275
21
48.8837427
0
LINE
8
DEFAULT_255_2_778
10
12.89275
20
48.8837427
11
12.09265
21
48.8837427
0
LINE
8
DEFAULT_255_2_778
10
12.09265
20
48.8837427
11
12.09265
21
51.6838427
0
LINE
8
DEFAULT_255_2_778
10
12.0728
20
48.8837427
11
12.0728
21
51.6838427
0
LINE
8
DEFAULT_255_2_778
10
12.9129
20
36.6838427
11
12.9129
21
33.8837427
0
LINE
8
DEFAULT_255_2_778
10
12.09265
20
36.6838427
11
12.89275
21
36.6838427
0
LINE
8
DEFAULT_255_2_778
10
12.89275
20
36.6838427
11
12.89275
21
33.8837427
0
LINE
8
DEFAULT_255_2_778
10
12.89275
20
33.8837427
11
12.09265
21
33.8837427
0
LINE
8
DEFAULT_255_2_778
10
12.09265
20
33.8837427
11
12.09265
21
36.6838427
0
LINE
8
DEFAULT_255_2_778
10
12.0728
20
33.8837427
11
12.0728
21
36.6838427
0
LINE
8
DEFAULT_255_2_778
10
12.912874
20
41.6836216
11
12.912874
21
38.8835216
0
LINE
8
DEFAULT_255_2_778
10
12.092574
20
41.6836216
11
12.892674
21
41.6836216
0
LINE
8
DEFAULT_255_2_778
10
12.892674
20
41.6836216
11
12.892674
21
38.8835216
0
LINE
8
DEFAULT_255_2_778
10
12.892674
20
38.8835216
11
12.092574
21
38.8835216
0
LINE
8
DEFAULT_255_2_778
10
12.092574
20
38.8835216
11
12.092574
21
41.6836216
0
LINE
8
DEFAULT_255_2_778
10
12.072774
20
38.8835216
11
12.072774
21
41.6836216
0
LINE
8
DEFAULT_255_2_778
10
12.912874
20
26.6838216
11
12.912874
21
23.8838216
0
LINE
8
DEFAULT_255_2_778
10
12.09265
20
26.6839427
11
12.89275
21
26.6839427
0
LINE
8
DEFAULT_255_2_778
10
12.89275
20
26.6839427
11
12.89275
21
23.8838427
0
LINE
8
DEFAULT_255_2_778
10
12.89275
20
23.8838427
11
12.09265
21
23.8838427
0
LINE
8
DEFAULT_255_2_778
10
12.09265
20
23.8838427
11
12.09265
21
26.6839427
0
LINE
8
DEFAULT_255_2_778
10
12.0728
20
23.8838427
11
12.0728
21
26.6839427
0
LINE
8
DEFAULT_255_2_778
10
12.9129
20
31.6837427
11
12.9129
21
28.8836427
0
LINE
8
DEFAULT_255_2_778
10
12.09265
20
31.6837427
11
12.89275
21
31.6837427
0
LINE
8
DEFAULT_255_2_778
10
12.89275
20
31.6837427
11
12.89275
21
28.8836427
0
LINE
8
DEFAULT_255_2_778
10
12.89275
20
28.8836427
11
12.09265
21
28.8836427
0
LINE
8
DEFAULT_255_2_778
10
12.09265
20
28.8836427
11
12.09265
21
31.6837427
0
LINE
8
DEFAULT_255_2_778
10
12.0728
20
28.8836427
11
12.0728
21
31.6837427
0
LINE
8
DEFAULT_255_2_778
10
22.0870167
20
146.6692239
11
21.9467167
21
146.6692239
0
LINE
8
DEFAULT_255_2_778
10
21.9467167
20
146.6692239
11
21.3853167
21
145.2330239
0
LINE
8
DEFAULT_255_2_778
10
21.3853167
20
145.2330239
11
21.3853167
21
144.9140239
0
LINE
8
DEFAULT_255_2_778
10
21.3853167
20
144.9140239
11
21.9467167
21
144.9140239
0
LINE
8
DEFAULT_255_2_778
10
21.9467167
20
144.9140239
11
21.9467167
21
144.1692239
0
LINE
8
DEFAULT_255_2_778
10
21.9467167
20
144.1692239
11
22.0870167
21
144.1692239
0
LINE
8
DEFAULT_255_2_778
10
22.0870167
20
144.1692239
11
22.0870167
21
144.9140239
0
LINE
8
DEFAULT_255_2_778
10
22.0870167
20
144.9140239
11
22.3209167
21
144.9140239
0
LINE
8
DEFAULT_255_2_778
10
22.3209167
20
144.9140239
11
22.3209167
21
145.2330239
0
LINE
8
DEFAULT_255_2_778
10
22.3209167
20
145.2330239
11
22.0870167
21
145.2330239
0
LINE
8
DEFAULT_255_2_778
10
22.0870167
20
145.2330239
11
22.0870167
21
146.6692239
0
LINE
8
DEFAULT_255_2_778
10
20.4029156
20
146.2969916
11
20.3796156
21
146.0842916
0
LINE
8
DEFAULT_255_2_778
10
20.3796156
20
146.0842916
11
20.4966156
21
146.0842916
0
LINE
8
DEFAULT_255_2_778
10
20.4966156
20
146.0842916
11
20.5434156
21
146.2438916
0
LINE
8
DEFAULT_255_2_778
10
20.5434156
20
146.2438916
11
20.6135156
21
146.3501916
0
LINE
8
DEFAULT_255_2_778
10
20.6135156
20
146.3501916
11
20.7305156
21
146.4033916
0
LINE
8
DEFAULT_255_2_778
10
20.7305156
20
146.4033916
11
20.8241156
21
146.4033916
0
LINE
8
DEFAULT_255_2_778
10
20.8241156
20
146.4033916
11
20.9411156
21
146.3501916
0
LINE
8
DEFAULT_255_2_778
10
20.9411156
20
146.3501916
11
21.0112156
21
146.2438916
0
LINE
8
DEFAULT_255_2_778
10
21.0112156
20
146.2438916
11
21.0580156
21
146.0842916
0
LINE
8
DEFAULT_255_2_778
10
21.0580156
20
146.0842916
11
21.0580156
21
145.9778916
0
LINE
8
DEFAULT_255_2_778
10
21.0580156
20
145.9778916
11
21.0112156
21
145.7651916
0
LINE
8
DEFAULT_255_2_778
10
21.0112156
20
145.7651916
11
20.3561156
21
144.4353916
0
LINE
8
DEFAULT_255_2_778
10
20.3561156
20
144.4353916
11
20.3561156
21
144.1694916
0
LINE
8
DEFAULT_255_2_778
10
20.3561156
20
144.1694916
11
21.1983156
21
144.1694916
0
LINE
8
DEFAULT_255_2_778
10
21.1983156
20
144.1694916
11
21.1983156
21
144.4353916
0
LINE
8
DEFAULT_255_2_778
10
21.1983156
20
144.4353916
11
20.5432156
21
144.4353916
0
LINE
8
DEFAULT_255_2_778
10
20.5432156
20
144.4353916
11
21.1279156
21
145.6056916
0
LINE
8
DEFAULT_255_2_778
10
21.1279156
20
145.6056916
11
21.1747156
21
145.7651916
0
LINE
8
DEFAULT_255_2_778
10
21.1747156
20
145.7651916
11
21.1980156
21
145.9778916
0
LINE
8
DEFAULT_255_2_778
10
21.1980156
20
145.9778916
11
21.1980156
21
146.0842916
0
LINE
8
DEFAULT_255_2_778
10
21.1980156
20
146.0842916
11
21.1747156
21
146.2969916
0
LINE
8
DEFAULT_255_2_778
10
21.1747156
20
146.2969916
11
21.0811156
21
146.5097916
0
LINE
8
DEFAULT_255_2_778
10
21.0811156
20
146.5097916
11
20.9874156
21
146.6160916
0
LINE
8
DEFAULT_255_2_778
10
20.9874156
20
146.6160916
11
20.8472156
21
146.6692916
0
LINE
8
DEFAULT_255_2_778
10
20.8472156
20
146.6692916
11
20.7535156
21
146.6692916
0
LINE
8
DEFAULT_255_2_778
10
20.7535156
20
146.6692916
11
20.5897156
21
146.6160916
0
LINE
8
DEFAULT_255_2_778
10
20.5897156
20
146.6160916
11
20.4961156
21
146.5097916
0
LINE
8
DEFAULT_255_2_778
10
20.4961156
20
146.5097916
11
20.4056156
21
146.3041916
0
LINE
8
DEFAULT_255_2_778
10
22.492622
20
271.983878
11
16.492622
21
271.983878
0
LINE
8
DEFAULT_255_2_778
10
16.492622
20
271.983878
11
16.492622
21
265.983878
0
LINE
8
DEFAULT_255_2_778
10
16.492622
20
265.983878
11
22.492622
21
265.983878
0
LINE
8
DEFAULT_255_2_778
10
22.492622
20
265.983878
11
22.492622
21
271.983878
0
LINE
8
DEFAULT_255_2_778
10
21.4303355
20
270.7336864
11
21.2115355
21
270.7336864
0
LINE
8
DEFAULT_255_2_778
10
21.2115355
20
270.7336864
11
20.9927355
21
270.2124864
0
LINE
8
DEFAULT_255_2_778
10
20.9927355
20
270.2124864
11
20.9927355
21
269.6165864
0
LINE
8
DEFAULT_255_2_778
10
20.9927355
20
269.6165864
11
21.2115355
21
270.1378864
0
LINE
8
DEFAULT_255_2_778
10
21.2115355
20
270.1378864
11
21.2115355
21
267.2334864
0
LINE
8
DEFAULT_255_2_778
10
21.2115355
20
267.2334864
11
21.4303355
21
267.2334864
0
LINE
8
DEFAULT_255_2_778
10
21.4303355
20
267.2334864
11
21.4303355
21
270.7336864
0
LINE
8
DEFAULT_255_2_778
10
17.7116355
20
270.7336864
11
17.4928355
21
270.7336864
0
LINE
8
DEFAULT_255_2_778
10
17.4928355
20
270.7336864
11
18.1127355
21
269.0210864
0
LINE
8
DEFAULT_255_2_778
10
18.1127355
20
269.0210864
11
17.4928355
21
267.2337864
0
LINE
8
DEFAULT_255_2_778
10
17.4928355
20
267.2337864
11
17.7116355
21
267.2337864
0
LINE
8
DEFAULT_255_2_778
10
17.7116355
20
267.2337864
11
18.2220355
21
268.6487864
0
LINE
8
DEFAULT_255_2_778
10
18.2220355
20
268.6487864
11
18.7324355
21
267.2337864
0
LINE
8
DEFAULT_255_2_778
10
18.7324355
20
267.2337864
11
18.9512355
21
267.2337864
0
LINE
8
DEFAULT_255_2_778
10
18.9512355
20
267.2337864
11
18.3313355
21
269.0210864
0
LINE
8
DEFAULT_255_2_778
10
18.3313355
20
269.0210864
11
18.9512355
21
270.7336864
0
LINE
8
DEFAULT_255_2_778
10
18.9512355
20
270.7336864
11
18.7324355
21
270.7336864
0
LINE
8
DEFAULT_255_2_778
10
18.7324355
20
270.7336864
11
18.2220355
21
269.3186864
0
LINE
8
DEFAULT_255_2_778
10
18.2220355
20
269.3186864
11
17.7116355
21
270.7336864
0
LINE
8
DEFAULT_255_2_778
10
21.0578167
20
26.6691239
11
20.9175167
21
26.6691239
0
LINE
8
DEFAULT_255_2_778
10
20.9175167
20
26.6691239
11
20.3561167
21
25.2329239
0
LINE
8
DEFAULT_255_2_778
10
20.3561167
20
25.2329239
11
20.3561167
21
24.9139239
0
LINE
8
DEFAULT_255_2_778
10
20.3561167
20
24.9139239
11
20.9175167
21
24.9139239
0
LINE
8
DEFAULT_255_2_778
10
20.9175167
20
24.9139239
11
20.9175167
21
24.1691239
0
LINE
8
DEFAULT_255_2_778
10
20.9175167
20
24.1691239
11
21.0578167
21
24.1691239
0
LINE
8
DEFAULT_255_2_778
10
21.0578167
20
24.1691239
11
21.0578167
21
24.9139239
0
LINE
8
DEFAULT_255_2_778
10
21.0578167
20
24.9139239
11
21.2917167
21
24.9139239
0
LINE
8
DEFAULT_255_2_778
10
21.2917167
20
24.9139239
11
21.2917167
21
25.2329239
0
LINE
8
DEFAULT_255_2_778
10
21.2917167
20
25.2329239
11
21.0578167
21
25.2329239
0
LINE
8
DEFAULT_255_2_778
10
21.0578167
20
25.2329239
11
21.0578167
21
26.6691239
0
LINE
8
DEFAULT_255_2_778
10
21.0578167
20
31.669127
11
20.9175167
21
31.669127
0
LINE
8
DEFAULT_255_2_778
10
20.9175167
20
31.669127
11
20.3561167
21
30.232927
0
LINE
8
DEFAULT_255_2_778
10
20.3561167
20
30.232927
11
20.3561167
21
29.913927
0
LINE
8
DEFAULT_255_2_778
10
20.3561167
20
29.913927
11
20.9175167
21
29.913927
0
LINE
8
DEFAULT_255_2_778
10
20.9175167
20
29.913927
11
20.9175167
21
29.169127
0
LINE
8
DEFAULT_255_2_778
10
20.9175167
20
29.169127
11
21.0578167
21
29.169127
0
LINE
8
DEFAULT_255_2_778
10
21.0578167
20
29.169127
11
21.0578167
21
29.913927
0
LINE
8
DEFAULT_255_2_778
10
21.0578167
20
29.913927
11
21.2917167
21
29.913927
0
LINE
8
DEFAULT_255_2_778
10
21.2917167
20
29.913927
11
21.2917167
21
30.232927
0
LINE
8
DEFAULT_255_2_778
10
21.2917167
20
30.232927
11
21.0578167
21
30.232927
0
LINE
8
DEFAULT_255_2_778
10
21.0578167
20
30.232927
11
21.0578167
21
31.669127
0
LINE
8
DEFAULT_255_2_778
10
20.9175167
20
25.232827
11
20.5199167
21
25.232827
0
LINE
8
DEFAULT_255_2_778
10
20.5199167
20
25.232827
11
20.9175167
21
26.243627
0
LINE
8
DEFAULT_255_2_778
10
20.9175167
20
26.243627
11
20.9175167
21
25.232827
0
LINE
8
DEFAULT_255_2_778
10
20.9175907
20
30.2329864
11
20.5198907
21
30.2329864
0
LINE
8
DEFAULT_255_2_778
10
20.5198907
20
30.2329864
11
20.9175907
21
31.2437864
0
LINE
8
DEFAULT_255_2_778
10
20.9175907
20
31.2437864
11
20.9175907
21
30.2329864
0
LINE
8
DEFAULT_255_2_778
10
21.7128907
20
29.1691864
11
21.8530907
21
29.1691864
0
LINE
8
DEFAULT_255_2_778
10
21.8530907
20
29.1691864
11
22.3208907
21
31.4032864
0
LINE
8
DEFAULT_255_2_778
10
22.3208907
20
31.4032864
11
22.3208907
21
31.6691864
0
LINE
8
DEFAULT_255_2_778
10
22.3208907
20
31.6691864
11
21.4786907
21
31.6691864
0
LINE
8
DEFAULT_255_2_778
10
21.4786907
20
31.6691864
11
21.4786907
21
31.4032864
0
LINE
8
DEFAULT_255_2_778
10
21.4786907
20
31.4032864
11
22.1803907
21
31.4032864
0
LINE
8
DEFAULT_255_2_778
10
22.1803907
20
31.4032864
11
21.7184907
21
29.1974864
0
LINE
8
DEFAULT_255_2_778
10
21.8533907
20
25.3392864
11
21.9470907
21
25.3392864
0
LINE
8
DEFAULT_255_2_778
10
21.9470907
20
25.3392864
11
22.0406907
21
25.2860864
0
LINE
8
DEFAULT_255_2_778
10
22.0406907
20
25.2860864
11
22.1343907
21
25.1797864
0
LINE
8
DEFAULT_255_2_778
10
22.1343907
20
25.1797864
11
22.2044907
21
24.9669864
0
LINE
8
DEFAULT_255_2_778
10
22.2044907
20
24.9669864
11
22.2044907
21
24.8074864
0
LINE
8
DEFAULT_255_2_778
10
22.2044907
20
24.8074864
11
22.1343907
21
24.5947864
0
LINE
8
DEFAULT_255_2_778
10
22.1343907
20
24.5947864
11
22.0406907
21
24.4883864
0
LINE
8
DEFAULT_255_2_778
10
22.0406907
20
24.4883864
11
21.9470907
21
24.4351864
0
LINE
8
DEFAULT_255_2_778
10
21.9470907
20
24.4351864
11
21.8533907
21
24.4351864
0
LINE
8
DEFAULT_255_2_778
10
21.8533907
20
24.4351864
11
21.7596907
21
24.4883864
0
LINE
8
DEFAULT_255_2_778
10
21.7596907
20
24.4883864
11
21.6660907
21
24.5947864
0
LINE
8
DEFAULT_255_2_778
10
21.6660907
20
24.5947864
11
21.5959907
21
24.8074864
0
LINE
8
DEFAULT_255_2_778
10
21.5959907
20
24.8074864
11
21.5959907
21
24.9669864
0
LINE
8
DEFAULT_255_2_778
10
21.5959907
20
24.9669864
11
21.6660907
21
25.1797864
0
LINE
8
DEFAULT_255_2_778
10
21.6660907
20
25.1797864
11
21.7596907
21
25.2860864
0
LINE
8
DEFAULT_255_2_778
10
21.7596907
20
25.2860864
11
21.8533907
21
25.3392864
0
LINE
8
DEFAULT_255_2_778
10
21.8530907
20
26.4031864
11
21.9467907
21
26.4031864
0
LINE
8
DEFAULT_255_2_778
10
21.9467907
20
26.4031864
11
22.0403907
21
26.3499864
0
LINE
8
DEFAULT_255_2_778
10
22.0403907
20
26.3499864
11
22.1340907
21
26.1904864
0
LINE
8
DEFAULT_255_2_778
10
22.1340907
20
26.1904864
11
22.1809907
21
26.0308864
0
LINE
8
DEFAULT_255_2_778
10
22.1809907
20
26.0308864
11
22.1809907
21
25.9245864
0
LINE
8
DEFAULT_255_2_778
10
22.1809907
20
25.9245864
11
22.1340907
21
25.7649864
0
LINE
8
DEFAULT_255_2_778
10
22.1340907
20
25.7649864
11
22.0403907
21
25.6054864
0
LINE
8
DEFAULT_255_2_778
10
22.0403907
20
25.6054864
11
21.9467907
21
25.5522864
0
LINE
8
DEFAULT_255_2_778
10
21.9467907
20
25.5522864
11
21.8530907
21
25.5522864
0
LINE
8
DEFAULT_255_2_778
10
21.8530907
20
25.5522864
11
21.7594907
21
25.6054864
0
LINE
8
DEFAULT_255_2_778
10
21.7594907
20
25.6054864
11
21.6657907
21
25.7649864
0
LINE
8
DEFAULT_255_2_778
10
21.6657907
20
25.7649864
11
21.6189907
21
25.9245864
0
LINE
8
DEFAULT_255_2_778
10
21.6189907
20
25.9245864
11
21.6189907
21
26.0308864
0
LINE
8
DEFAULT_255_2_778
10
21.6189907
20
26.0308864
11
21.6657907
21
26.1904864
0
LINE
8
DEFAULT_255_2_778
10
21.6657907
20
26.1904864
11
21.7594907
21
26.3499864
0
LINE
8
DEFAULT_255_2_778
10
21.7594907
20
26.3499864
11
21.8530907
21
26.4031864
0
ARC
8
DEFAULT_255_2_778
10
13.092674
20
31.5836582
40
0.3001094
50
0.0208901
51
89.9791099
0
ARC
8
DEFAULT_255_2_778
10
13.092674
20
28.9837771
40
0.3001094
50
270.0208901
51
359.9791099
0
LINE
8
DEFAULT_255_2_778
10
8.8927834
20
31.8837677
11
13.0927834
21
31.8837677
0
LINE
8
DEFAULT_255_2_778
10
13.3927834
20
31.5837677
11
13.3927834
21
28.9836677
0
LINE
8
DEFAULT_255_2_778
10
13.0927834
20
28.6836677
11
8.8927834
21
28.6836677
0
ARC
8
DEFAULT_255_2_778
10
13.092674
20
26.5835582
40
0.3001094
50
0.0208901
51
89.9791099
0
ARC
8
DEFAULT_255_2_778
10
13.092674
20
23.9836771
40
0.3001094
50
270.0208901
51
359.9791099
0
LINE
8
DEFAULT_255_2_778
10
8.8927834
20
26.8836677
11
13.0927834
21
26.8836677
0
LINE
8
DEFAULT_255_2_778
10
13.3927834
20
26.5836677
11
13.3927834
21
23.9835677
0
LINE
8
DEFAULT_255_2_778
10
13.0927834
20
23.6835677
11
8.8927834
21
23.6835677
0
ARC
8
DEFAULT_255_2_778
10
13.092674
20
41.5835582
40
0.3001094
50
0.0208901
51
89.9791099
0
ARC
8
DEFAULT_255_2_778
10
13.092674
20
38.9836771
40
0.3001094
50
270.0208901
51
359.9791099
0
LINE
8
DEFAULT_255_2_778
10
8.8927834
20
41.8836677
11
13.0927834
21
41.8836677
0
LINE
8
DEFAULT_255_2_778
10
13.3927834
20
41.5836677
11
13.3927834
21
38.9835677
0
LINE
8
DEFAULT_255_2_778
10
13.0927834
20
38.6835677
11
8.8927834
21
38.6835677
0
ARC
8
DEFAULT_255_2_778
10
13.092674
20
36.5837582
40
0.3001094
50
0.0208901
51
89.9791099
0
ARC
8
DEFAULT_255_2_778
10
13.092674
20
33.9838771
40
0.3001094
50
270.0208901
51
359.9791099
0
LINE
8
DEFAULT_255_2_778
10
8.8927834
20
36.8838677
11
13.0927834
21
36.8838677
0
LINE
8
DEFAULT_255_2_778
10
13.3927834
20
36.5838677
11
13.3927834
21
33.9837677
0
LINE
8
DEFAULT_255_2_778
10
13.0927834
20
33.6837677
11
8.8927834
21
33.6837677
0
ARC
8
DEFAULT_255_2_778
10
13.092674
20
51.5837582
40
0.3001094
50
0.0208901
51
89.9791099
0
ARC
8
DEFAULT_255_2_778
10
13.092674
20
48.9838771
40
0.3001094
50
270.0208901
51
359.9791099
0
LINE
8
DEFAULT_255_2_778
10
8.8927834
20
51.8838677
11
13.0927834
21
51.8838677
0
LINE
8
DEFAULT_255_2_778
10
13.3927834
20
51.5838677
11
13.3927834
21
48.9837677
0
LINE
8
DEFAULT_255_2_778
10
13.0927834
20
48.6837677
11
8.8927834
21
48.6837677
0
ARC
8
DEFAULT_255_2_778
10
13.092674
20
46.5836582
40
0.3001094
50
0.0208901
51
89.9791099
0
ARC
8
DEFAULT_255_2_778
10
13.092674
20
43.9837771
40
0.3001094
50
270.0208901
51
359.9791099
0
LINE
8
DEFAULT_255_2_778
10
8.8927834
20
46.8837677
11
13.0927834
21
46.8837677
0
LINE
8
DEFAULT_255_2_778
10
13.3927834
20
46.5837677
11
13.3927834
21
43.9836677
0
LINE
8
DEFAULT_255_2_778
10
13.0927834
20
43.6836677
11
8.8927834
21
43.6836677
0
ARC
8
DEFAULT_255_2_778
10
13.092674
20
61.5836582
40
0.3001094
50
0.0208901
51
89.9791099
0
ARC
8
DEFAULT_255_2_778
10
13.092674
20
58.9837771
40
0.3001094
50
270.0208901
51
359.9791099
0
LINE
8
DEFAULT_255_2_778
10
8.8927834
20
61.8837677
11
13.0927834
21
61.8837677
0
LINE
8
DEFAULT_255_2_778
10
13.3927834
20
61.5837677
11
13.3927834
21
58.9836677
0
LINE
8
DEFAULT_255_2_778
10
13.0927834
20
58.6836677
11
8.8927834
21
58.6836677
0
ARC
8
DEFAULT_255_2_778
10
13.092674
20
56.5835582
40
0.3001094
50
0.0208901
51
89.9791099
0
ARC
8
DEFAULT_255_2_778
10
13.092674
20
53.9836771
40
0.3001094
50
270.0208901
51
359.9791099
0
LINE
8
DEFAULT_255_2_778
10
8.8927834
20
56.8836677
11
13.0927834
21
56.8836677
0
LINE
8
DEFAULT_255_2_778
10
13.3927834
20
56.5836677
11
13.3927834
21
53.9835677
0
LINE
8
DEFAULT_255_2_778
10
13.0927834
20
53.6835677
11
8.8927834
21
53.6835677
0
ARC
8
DEFAULT_255_2_778
10
13.092674
20
71.5836715
40
0.3001094
50
0.0208901
51
89.9791099
0
ARC
8
DEFAULT_255_2_778
10
13.0925886
20
68.9837757
40
0.3001949
50
270.0371877
51
359.9819077
0
LINE
8
DEFAULT_255_2_778
10
8.8927834
20
71.8837809
11
13.0927834
21
71.8837809
0
LINE
8
DEFAULT_255_2_778
10
13.3927834
20
71.5837809
11
13.3927834
21
68.9836809
0
LINE
8
DEFAULT_255_2_778
10
13.0927834
20
68.6835809
11
8.8927834
21
68.6835809
0
ARC
8
DEFAULT_255_2_778
10
13.092674
20
66.5837582
40
0.3001094
50
0.0208901
51
89.9791099
0
ARC
8
DEFAULT_255_2_778
10
13.092674
20
63.9838771
40
0.3001094
50
270.0208901
51
359.9791099
0
LINE
8
DEFAULT_255_2_778
10
8.8927834
20
66.8838677
11
13.0927834
21
66.8838677
0
LINE
8
DEFAULT_255_2_778
10
13.3927834
20
66.5838677
11
13.3927834
21
63.9837677
0
LINE
8
DEFAULT_255_2_778
10
13.0927834
20
63.6837677
11
8.8927834
21
63.6837677
0
ARC
8
DEFAULT_255_2_778
10
13.092674
20
81.5835582
40
0.3001094
50
0.0208901
51
89.9791099
0
ARC
8
DEFAULT_255_2_778
10
13.092674
20
78.9836771
40
0.3001094
50
270.0208901
51
359.9791099
0
LINE
8
DEFAULT_255_2_778
10
8.8927834
20
81.8836677
11
13.0927834
21
81.8836677
0
LINE
8
DEFAULT_255_2_778
10
13.3927834
20
81.5836677
11
13.3927834
21
78.9835677
0
LINE
8
DEFAULT_255_2_778
10
13.0927834
20
78.6835677
11
8.8927834
21
78.6835677
0
ARC
8
DEFAULT_255_2_778
10
13.092674
20
76.5837582
40
0.3001094
50
0.0208901
51
89.9791099
0
ARC
8
DEFAULT_255_2_778
10
13.092674
20
73.9838771
40
0.3001094
50
270.0208901
51
359.9791099
0
LINE
8
DEFAULT_255_2_778
10
8.8927834
20
76.8838677
11
13.0927834
21
76.8838677
0
LINE
8
DEFAULT_255_2_778
10
13.3927834
20
76.5838677
11
13.3927834
21
73.9837677
0
LINE
8
DEFAULT_255_2_778
10
13.0927834
20
73.6837677
11
8.8927834
21
73.6837677
0
ARC
8
DEFAULT_255_2_778
10
13.092674
20
91.5837582
40
0.3001094
50
0.0208901
51
89.9791099
0
ARC
8
DEFAULT_255_2_778
10
13.092674
20
88.9838771
40
0.3001094
50
270.0208901
51
359.9791099
0
LINE
8
DEFAULT_255_2_778
10
8.8927834
20
91.8838677
11
13.0927834
21
91.8838677
0
LINE
8
DEFAULT_255_2_778
10
13.3927834
20
91.5838677
11
13.3927834
21
88.9837677
0
LINE
8
DEFAULT_255_2_778
10
13.0927834
20
88.6837677
11
8.8927834
21
88.6837677
0
ARC
8
DEFAULT_255_2_778
10
13.092674
20
86.5836715
40
0.3001094
50
0.0208901
51
89.9791099
0
ARC
8
DEFAULT_255_2_778
10
13.0925886
20
83.9837757
40
0.3001949
50
270.0371877
51
359.9819077
0
LINE
8
DEFAULT_255_2_778
10
8.8927834
20
86.8837809
11
13.0927834
21
86.8837809
0
LINE
8
DEFAULT_255_2_778
10
13.3927834
20
86.5837809
11
13.3927834
21
83.9836809
0
LINE
8
DEFAULT_255_2_778
10
13.0927834
20
83.6835809
11
8.8927834
21
83.6835809
0
ARC
8
DEFAULT_255_2_778
10
13.092674
20
101.5836715
40
0.3001094
50
0.0208901
51
89.9791099
0
ARC
8
DEFAULT_255_2_778
10
13.0925886
20
98.9837757
40
0.3001949
50
270.0371877
51
359.9819077
0
LINE
8
DEFAULT_255_2_778
10
8.8927834
20
101.8837809
11
13.0927834
21
101.8837809
0
LINE
8
DEFAULT_255_2_778
10
13.3927834
20
101.5837809
11
13.3927834
21
98.9836809
0
LINE
8
DEFAULT_255_2_778
10
13.0927834
20
98.6835809
11
8.8927834
21
98.6835809
0
ARC
8
DEFAULT_255_2_778
10
13.092674
20
96.5835582
40
0.3001094
50
0.0208901
51
89.9791099
0
ARC
8
DEFAULT_255_2_778
10
13.092674
20
93.9836771
40
0.3001094
50
270.0208901
51
359.9791099
0
LINE
8
DEFAULT_255_2_778
10
8.8927834
20
96.8836677
11
13.0927834
21
96.8836677
0
LINE
8
DEFAULT_255_2_778
10
13.3927834
20
96.5836677
11
13.3927834
21
93.9835677
0
LINE
8
DEFAULT_255_2_778
10
13.0927834
20
93.6835677
11
8.8927834
21
93.6835677
0
ARC
8
DEFAULT_255_2_778
10
13.092674
20
111.5835582
40
0.3001094
50
0.0208901
51
89.9791099
0
ARC
8
DEFAULT_255_2_778
10
13.092674
20
108.9836771
40
0.3001094
50
270.0208901
51
359.9791099
0
LINE
8
DEFAULT_255_2_778
10
8.8927834
20
111.8836677
11
13.0927834
21
111.8836677
0
LINE
8
DEFAULT_255_2_778
10
13.3927834
20
111.5836677
11
13.3927834
21
108.9835677
0
LINE
8
DEFAULT_255_2_778
10
13.0927834
20
108.6835677
11
8.8927834
21
108.6835677
0
ARC
8
DEFAULT_255_2_778
10
13.092674
20
106.5837582
40
0.3001094
50
0.0208901
51
89.9791099
0
ARC
8
DEFAULT_255_2_778
10
13.092674
20
103.9838771
40
0.3001094
50
270.0208901
51
359.9791099
0
LINE
8
DEFAULT_255_2_778
10
8.8927834
20
106.8838677
11
13.0927834
21
106.8838677
0
LINE
8
DEFAULT_255_2_778
10
13.3927834
20
106.5838677
11
13.3927834
21
103.9837677
0
LINE
8
DEFAULT_255_2_778
10
13.0927834
20
103.6837677
11
8.8927834
21
103.6837677
0
ARC
8
DEFAULT_255_2_778
10
13.092674
20
121.5837582
40
0.3001094
50
0.0208901
51
89.9791099
0
ARC
8
DEFAULT_255_2_778
10
13.092674
20
118.9838771
40
0.3001094
50
270.0208901
51
359.9791099
0
LINE
8
DEFAULT_255_2_778
10
8.8927834
20
121.8838677
11
13.0927834
21
121.8838677
0
LINE
8
DEFAULT_255_2_778
10
13.3927834
20
121.5838677
11
13.3927834
21
118.9837677
0
LINE
8
DEFAULT_255_2_778
10
13.0927834
20
118.6837677
11
8.8927834
21
118.6837677
0
ARC
8
DEFAULT_255_2_778
10
13.092674
20
116.5836582
40
0.3001094
50
0.0208901
51
89.9791099
0
ARC
8
DEFAULT_255_2_778
10
13.092674
20
113.9837771
40
0.3001094
50
270.0208901
51
359.9791099
0
LINE
8
DEFAULT_255_2_778
10
8.8927834
20
116.8837677
11
13.0927834
21
116.8837677
0
LINE
8
DEFAULT_255_2_778
10
13.3927834
20
116.5837677
11
13.3927834
21
113.9836677
0
LINE
8
DEFAULT_255_2_778
10
13.0927834
20
113.6836677
11
8.8927834
21
113.6836677
0
ARC
8
DEFAULT_255_2_778
10
13.092674
20
131.5836582
40
0.3001094
50
0.0208901
51
89.9791099
0
ARC
8
DEFAULT_255_2_778
10
13.092674
20
128.9837771
40
0.3001094
50
270.0208901
51
359.9791099
0
LINE
8
DEFAULT_255_2_778
10
8.8927834
20
131.8837677
11
13.0927834
21
131.8837677
0
LINE
8
DEFAULT_255_2_778
10
13.3927834
20
131.5837677
11
13.3927834
21
128.9836677
0
LINE
8
DEFAULT_255_2_778
10
13.0927834
20
128.6836677
11
8.8927834
21
128.6836677
0
ARC
8
DEFAULT_255_2_778
10
13.092674
20
126.5836582
40
0.3001094
50
0.0208901
51
89.9791099
0
ARC
8
DEFAULT_255_2_778
10
13.092674
20
123.9837771
40
0.3001094
50
270.0208901
51
359.9791099
0
LINE
8
DEFAULT_255_2_778
10
8.8927834
20
126.8837677
11
13.0927834
21
126.8837677
0
LINE
8
DEFAULT_255_2_778
10
13.3927834
20
126.5837677
11
13.3927834
21
123.9836677
0
LINE
8
DEFAULT_255_2_778
10
13.0927834
20
123.6836677
11
8.8927834
21
123.6836677
0
ARC
8
DEFAULT_255_2_778
10
13.092674
20
141.5836582
40
0.3001094
50
0.0208901
51
89.9791099
0
ARC
8
DEFAULT_255_2_778
10
13.092674
20
138.9837771
40
0.3001094
50
270.0208901
51
359.9791099
0
LINE
8
DEFAULT_255_2_778
10
8.8927834
20
141.8837677
11
13.0927834
21
141.8837677
0
LINE
8
DEFAULT_255_2_778
10
13.3927834
20
141.5837677
11
13.3927834
21
138.9836677
0
LINE
8
DEFAULT_255_2_778
10
13.0927834
20
138.6836677
11
8.8927834
21
138.6836677
0
ARC
8
DEFAULT_255_2_778
10
13.092674
20
136.5835582
40
0.3001094
50
0.0208901
51
89.9791099
0
ARC
8
DEFAULT_255_2_778
10
13.092674
20
133.9836771
40
0.3001094
50
270.0208901
51
359.9791099
0
LINE
8
DEFAULT_255_2_778
10
8.8927834
20
136.8836677
11
13.0927834
21
136.8836677
0
LINE
8
DEFAULT_255_2_778
10
13.3927834
20
136.5836677
11
13.3927834
21
133.9835677
0
LINE
8
DEFAULT_255_2_778
10
13.0927834
20
133.6835677
11
8.8927834
21
133.6835677
0
ARC
8
DEFAULT_255_2_778
10
13.092674
20
151.5835582
40
0.3001094
50
0.0208901
51
89.9791099
0
ARC
8
DEFAULT_255_2_778
10
13.092674
20
148.9836771
40
0.3001094
50
270.0208901
51
359.9791099
0
LINE
8
DEFAULT_255_2_778
10
8.8927834
20
151.8836677
11
13.0927834
21
151.8836677
0
LINE
8
DEFAULT_255_2_778
10
13.3927834
20
151.5836677
11
13.3927834
21
148.9835677
0
LINE
8
DEFAULT_255_2_778
10
13.0927834
20
148.6835677
11
8.8927834
21
148.6835677
0
ARC
8
DEFAULT_255_2_778
10
13.092674
20
146.5837582
40
0.3001094
50
0.0208901
51
89.9791099
0
ARC
8
DEFAULT_255_2_778
10
13.092674
20
143.9838771
40
0.3001094
50
270.0208901
51
359.9791099
0
LINE
8
DEFAULT_255_2_778
10
8.8927834
20
146.8838677
11
13.0927834
21
146.8838677
0
LINE
8
DEFAULT_255_2_778
10
13.3927834
20
146.5838677
11
13.3927834
21
143.9837677
0
LINE
8
DEFAULT_255_2_778
10
13.0927834
20
143.6837677
11
8.8927834
21
143.6837677
0
ARC
8
DEFAULT_255_2_778
10
13.092674
20
161.5837582
40
0.3001094
50
0.0208901
51
89.9791099
0
ARC
8
DEFAULT_255_2_778
10
13.092674
20
158.9838771
40
0.3001094
50
270.0208901
51
359.9791099
0
LINE
8
DEFAULT_255_2_778
10
8.8927834
20
161.8838677
11
13.0927834
21
161.8838677
0
LINE
8
DEFAULT_255_2_778
10
13.3927834
20
161.5838677
11
13.3927834
21
158.9837677
0
LINE
8
DEFAULT_255_2_778
10
13.0927834
20
158.6837677
11
8.8927834
21
158.6837677
0
ARC
8
DEFAULT_255_2_778
10
13.092674
20
156.5836715
40
0.3001094
50
0.0208901
51
89.9791099
0
ARC
8
DEFAULT_255_2_778
10
13.0925886
20
153.9837757
40
0.3001949
50
270.0371877
51
359.9819077
0
LINE
8
DEFAULT_255_2_778
10
8.8927834
20
156.8837809
11
13.0927834
21
156.8837809
0
LINE
8
DEFAULT_255_2_778
10
13.3927834
20
156.5837809
11
13.3927834
21
153.9836809
0
LINE
8
DEFAULT_255_2_778
10
13.0927834
20
153.6835809
11
8.8927834
21
153.6835809
0
ARC
8
DEFAULT_255_2_778
10
13.092674
20
171.5836582
40
0.3001094
50
0.0208901
51
89.9791099
0
ARC
8
DEFAULT_255_2_778
10
13.092674
20
168.9837771
40
0.3001094
50
270.0208901
51
359.9791099
0
LINE
8
DEFAULT_255_2_778
10
8.8927834
20
171.8837677
11
13.0927834
21
171.8837677
0
LINE
8
DEFAULT_255_2_778
10
13.3927834
20
171.5837677
11
13.3927834
21
168.9836677
0
LINE
8
DEFAULT_255_2_778
10
13.0927834
20
168.6836677
11
8.8927834
21
168.6836677
0
ARC
8
DEFAULT_255_2_778
10
13.092674
20
166.5835582
40
0.3001094
50
0.0208901
51
89.9791099
0
ARC
8
DEFAULT_255_2_778
10
13.092674
20
163.9836771
40
0.3001094
50
270.0208901
51
359.9791099
0
LINE
8
DEFAULT_255_2_778
10
8.8927834
20
166.8836677
11
13.0927834
21
166.8836677
0
LINE
8
DEFAULT_255_2_778
10
13.3927834
20
166.5836677
11
13.3927834
21
163.9835677
0
LINE
8
DEFAULT_255_2_778
10
13.0927834
20
163.6835677
11
8.8927834
21
163.6835677
0
ARC
8
DEFAULT_255_2_778
10
13.092674
20
181.5835582
40
0.3001094
50
0.0208901
51
89.9791099
0
ARC
8
DEFAULT_255_2_778
10
13.092674
20
178.9836771
40
0.3001094
50
270.0208901
51
359.9791099
0
LINE
8
DEFAULT_255_2_778
10
8.8927834
20
181.8836677
11
13.0927834
21
181.8836677
0
LINE
8
DEFAULT_255_2_778
10
13.3927834
20
181.5836677
11
13.3927834
21
178.9835677
0
LINE
8
DEFAULT_255_2_778
10
13.0927834
20
178.6835677
11
8.8927834
21
178.6835677
0
ARC
8
DEFAULT_255_2_778
10
13.092674
20
176.5837582
40
0.3001094
50
0.0208901
51
89.9791099
0
ARC
8
DEFAULT_255_2_778
10
13.092674
20
173.9838771
40
0.3001094
50
270.0208901
51
359.9791099
0
LINE
8
DEFAULT_255_2_778
10
8.8927834
20
176.8838677
11
13.0927834
21
176.8838677
0
LINE
8
DEFAULT_255_2_778
10
13.3927834
20
176.5838677
11
13.3927834
21
173.9837677
0
LINE
8
DEFAULT_255_2_778
10
13.0927834
20
173.6837677
11
8.8927834
21
173.6837677
0
ARC
8
DEFAULT_255_2_778
10
13.092674
20
191.5835582
40
0.3001094
50
0.0208901
51
89.9791099
0
ARC
8
DEFAULT_255_2_778
10
13.092674
20
188.9836771
40
0.3001094
50
270.0208901
51
359.9791099
0
LINE
8
DEFAULT_255_2_778
10
8.8927834
20
191.8836677
11
13.0927834
21
191.8836677
0
LINE
8
DEFAULT_255_2_778
10
13.3927834
20
191.5836677
11
13.3927834
21
188.9835677
0
LINE
8
DEFAULT_255_2_778
10
13.0927834
20
188.6835677
11
8.8927834
21
188.6835677
0
ARC
8
DEFAULT_255_2_778
10
13.092674
20
186.5836582
40
0.3001094
50
0.0208901
51
89.9791099
0
ARC
8
DEFAULT_255_2_778
10
13.092674
20
183.9837771
40
0.3001094
50
270.0208901
51
359.9791099
0
LINE
8
DEFAULT_255_2_778
10
8.8927834
20
186.8837677
11
13.0927834
21
186.8837677
0
LINE
8
DEFAULT_255_2_778
10
13.3927834
20
186.5837677
11
13.3927834
21
183.9836677
0
LINE
8
DEFAULT_255_2_778
10
13.0927834
20
183.6836677
11
8.8927834
21
183.6836677
0
ARC
8
DEFAULT_255_2_778
10
13.092674
20
201.5837582
40
0.3001094
50
0.0208901
51
89.9791099
0
ARC
8
DEFAULT_255_2_778
10
13.092674
20
198.9838771
40
0.3001094
50
270.0208901
51
359.9791099
0
LINE
8
DEFAULT_255_2_778
10
8.8927834
20
201.8838677
11
13.0927834
21
201.8838677
0
LINE
8
DEFAULT_255_2_778
10
13.3927834
20
201.5838677
11
13.3927834
21
198.9837677
0
LINE
8
DEFAULT_255_2_778
10
13.0927834
20
198.6837677
11
8.8927834
21
198.6837677
0
ARC
8
DEFAULT_255_2_778
10
13.092674
20
196.5836582
40
0.3001094
50
0.0208901
51
89.9791099
0
ARC
8
DEFAULT_255_2_778
10
13.092674
20
193.9837771
40
0.3001094
50
270.0208901
51
359.9791099
0
LINE
8
DEFAULT_255_2_778
10
8.8927834
20
196.8837677
11
13.0927834
21
196.8837677
0
LINE
8
DEFAULT_255_2_778
10
13.3927834
20
196.5837677
11
13.3927834
21
193.9836677
0
LINE
8
DEFAULT_255_2_778
10
13.0927834
20
193.6836677
11
8.8927834
21
193.6836677
0
ARC
8
DEFAULT_255_2_778
10
13.092674
20
208.9840771
40
0.3001094
50
270.0208901
51
359.9791099
0
ARC
8
DEFAULT_255_2_778
10
13.092674
20
211.5839582
40
0.3001094
50
0.0208901
51
89.9791099
0
LINE
8
DEFAULT_255_2_778
10
8.8927834
20
208.6839677
11
13.0927834
21
208.6839677
0
LINE
8
DEFAULT_255_2_778
10
13.3927834
20
208.9839677
11
13.3927834
21
211.5840677
0
ARC
8
DEFAULT_255_2_778
10
13.092674
20
206.5835582
40
0.3001094
50
0.0208901
51
89.9791099
0
ARC
8
DEFAULT_255_2_778
10
13.092674
20
203.9836771
40
0.3001094
50
270.0208901
51
359.9791099
0
LINE
8
DEFAULT_255_2_778
10
8.8927834
20
206.8836677
11
13.0927834
21
206.8836677
0
LINE
8
DEFAULT_255_2_778
10
13.3927834
20
206.5836677
11
13.3927834
21
203.9835677
0
LINE
8
DEFAULT_255_2_778
10
13.0927834
20
203.6835677
11
8.8927834
21
203.6835677
0
ARC
8
DEFAULT_255_2_778
10
13.092674
20
221.5835582
40
0.3001094
50
0.0208901
51
89.9791099
0
ARC
8
DEFAULT_255_2_778
10
13.092674
20
218.9836771
40
0.3001094
50
270.0208901
51
359.9791099
0
LINE
8
DEFAULT_255_2_778
10
8.8927834
20
221.8836677
11
13.0927834
21
221.8836677
0
LINE
8
DEFAULT_255_2_778
10
13.3927834
20
221.5836677
11
13.3927834
21
218.9835677
0
LINE
8
DEFAULT_255_2_778
10
13.0927834
20
218.6835677
11
8.8927834
21
218.6835677
0
ARC
8
DEFAULT_255_2_778
10
13.092674
20
216.5837582
40
0.3001094
50
0.0208901
51
89.9791099
0
ARC
8
DEFAULT_255_2_778
10
13.092674
20
213.9838771
40
0.3001094
50
270.0208901
51
359.9791099
0
LINE
8
DEFAULT_255_2_778
10
8.8927834
20
216.8838677
11
13.0927834
21
216.8838677
0
LINE
8
DEFAULT_255_2_778
10
13.3927834
20
216.5838677
11
13.3927834
21
213.9837677
0
LINE
8
DEFAULT_255_2_778
10
13.0927834
20
213.6837677
11
8.8927834
21
213.6837677
0
ARC
8
DEFAULT_255_2_778
10
13.092674
20
231.5837582
40
0.3001094
50
0.0208901
51
89.9791099
0
ARC
8
DEFAULT_255_2_778
10
13.092674
20
228.9838771
40
0.3001094
50
270.0208901
51
359.9791099
0
LINE
8
DEFAULT_255_2_778
10
8.8927834
20
231.8838677
11
13.0927834
21
231.8838677
0
LINE
8
DEFAULT_255_2_778
10
13.3927834
20
231.5838677
11
13.3927834
21
228.9837677
0
LINE
8
DEFAULT_255_2_778
10
13.0927834
20
228.6837677
11
8.8927834
21
228.6837677
0
ARC
8
DEFAULT_255_2_778
10
13.092674
20
226.5836582
40
0.3001094
50
0.0208901
51
89.9791099
0
ARC
8
DEFAULT_255_2_778
10
13.092674
20
223.9837771
40
0.3001094
50
270.0208901
51
359.9791099
0
LINE
8
DEFAULT_255_2_778
10
8.8927834
20
226.8837677
11
13.0927834
21
226.8837677
0
LINE
8
DEFAULT_255_2_778
10
13.3927834
20
226.5837677
11
13.3927834
21
223.9836677
0
LINE
8
DEFAULT_255_2_778
10
13.0927834
20
223.6836677
11
8.8927834
21
223.6836677
0
ARC
8
DEFAULT_255_2_778
10
13.092674
20
241.5836582
40
0.3001094
50
0.0208901
51
89.9791099
0
ARC
8
DEFAULT_255_2_778
10
13.092674
20
238.9837771
40
0.3001094
50
270.0208901
51
359.9791099
0
LINE
8
DEFAULT_255_2_778
10
8.8927834
20
241.8837677
11
13.0927834
21
241.8837677
0
LINE
8
DEFAULT_255_2_778
10
13.3927834
20
241.5837677
11
13.3927834
21
238.9836677
0
LINE
8
DEFAULT_255_2_778
10
13.0927834
20
238.6836677
11
8.8927834
21
238.6836677
0
ARC
8
DEFAULT_255_2_778
10
13.092674
20
236.5835582
40
0.3001094
50
0.0208901
51
89.9791099
0
ARC
8
DEFAULT_255_2_778
10
13.092674
20
233.9836771
40
0.3001094
50
270.0208901
51
359.9791099
0
LINE
8
DEFAULT_255_2_778
10
8.8927834
20
236.8836677
11
13.0927834
21
236.8836677
0
LINE
8
DEFAULT_255_2_778
10
13.3927834
20
236.5836677
11
13.3927834
21
233.9835677
0
LINE
8
DEFAULT_255_2_778
10
13.0927834
20
233.6835677
11
8.8927834
21
233.6835677
0
ARC
8
DEFAULT_255_2_778
10
13.092674
20
251.5836582
40
0.3001094
50
0.0208901
51
89.9791099
0
ARC
8
DEFAULT_255_2_778
10
13.092674
20
248.9837771
40
0.3001094
50
270.0208901
51
359.9791099
0
LINE
8
DEFAULT_255_2_778
10
8.8927834
20
251.8837677
11
13.0927834
21
251.8837677
0
LINE
8
DEFAULT_255_2_778
10
13.3927834
20
251.5837677
11
13.3927834
21
248.9836677
0
LINE
8
DEFAULT_255_2_778
10
13.0927834
20
248.6836677
11
8.8927834
21
248.6836677
0
ARC
8
DEFAULT_255_2_778
10
13.092674
20
246.5837582
40
0.3001094
50
0.0208901
51
89.9791099
0
ARC
8
DEFAULT_255_2_778
10
13.092674
20
243.9838771
40
0.3001094
50
270.0208901
51
359.9791099
0
LINE
8
DEFAULT_255_2_778
10
8.8927834
20
246.8838677
11
13.0927834
21
246.8838677
0
LINE
8
DEFAULT_255_2_778
10
13.3927834
20
246.5838677
11
13.3927834
21
243.9837677
0
LINE
8
DEFAULT_255_2_778
10
13.0927834
20
243.6837677
11
8.8927834
21
243.6837677
0
ARC
8
DEFAULT_255_2_778
10
13.092674
20
261.5835582
40
0.3001094
50
0.0208901
51
89.9791099
0
ARC
8
DEFAULT_255_2_778
10
13.092674
20
258.9836771
40
0.3001094
50
270.0208901
51
359.9791099
0
LINE
8
DEFAULT_255_2_778
10
8.8927834
20
261.8836677
11
13.0927834
21
261.8836677
0
LINE
8
DEFAULT_255_2_778
10
13.3927834
20
261.5836677
11
13.3927834
21
258.9835677
0
LINE
8
DEFAULT_255_2_778
10
13.0927834
20
258.6835677
11
8.8927834
21
258.6835677
0
ARC
8
DEFAULT_255_2_778
10
13.092674
20
256.5837582
40
0.3001094
50
0.0208901
51
89.9791099
0
ARC
8
DEFAULT_255_2_778
10
13.092674
20
253.9838771
40
0.3001094
50
270.0208901
51
359.9791099
0
LINE
8
DEFAULT_255_2_778
10
8.8927834
20
256.8838677
11
13.0927834
21
256.8838677
0
LINE
8
DEFAULT_255_2_778
10
13.3927834
20
256.5838677
11
13.3927834
21
253.9837677
0
LINE
8
DEFAULT_255_2_778
10
13.0927834
20
253.6837677
11
8.8927834
21
253.6837677
0
ARC
8
DEFAULT_255_2_778
10
3.0916854
20
135.2655145
40
0.4989492
50
89.8676947
51
180.1322858
0
ARC
8
DEFAULT_255_2_778
10
3.0939114
20
135.2655361
40
0.4989275
50
359.8652243
51
90.1233177
0
ARC
8
DEFAULT_255_2_778
10
3.0939327
20
135.2632673
40
0.4989061
50
269.8742308
51
0.1257692
0
ARC
8
DEFAULT_255_2_778
10
3.0916639
20
135.2632886
40
0.4989275
50
179.8766742
51
270.1347757
0
LINE
8
DEFAULT_255_2_778
10
2.5927375
20
135.2643625
11
2.5927375
21
135.2643625
0
ARC
8
DEFAULT_255_2_778
10
3.0916854
20
140.2656145
40
0.4989492
50
89.8676947
51
180.1322858
0
ARC
8
DEFAULT_255_2_778
10
3.0939114
20
140.2656361
40
0.4989275
50
359.8652243
51
90.1233177
0
ARC
8
DEFAULT_255_2_778
10
3.0939327
20
140.2633673
40
0.4989061
50
269.8742308
51
0.1257692
0
ARC
8
DEFAULT_255_2_778
10
3.0916639
20
140.2633886
40
0.4989275
50
179.8766742
51
270.1347757
0
LINE
8
DEFAULT_255_2_778
10
2.5927375
20
140.2644625
11
2.5927375
21
140.2644625
0
LINE
8
DEFAULT_255_2_778
10
1.8926823
20
138.7645405
11
4.2926823
21
138.7645405
0
LINE
8
DEFAULT_255_2_778
10
4.2926823
20
136.7645405
11
1.8926823
21
136.7645405
0
LINE
8
DEFAULT_255_2_778
10
1.8926823
20
133.7644405
11
4.2926823
21
133.7644405
0
LINE
8
DEFAULT_255_2_778
10
4.2926823
20
131.7644405
11
1.8926823
21
131.7644405
0
ARC
8
DEFAULT_255_2_778
10
3.0916854
20
125.2656145
40
0.4989492
50
89.8676947
51
180.1322858
0
ARC
8
DEFAULT_255_2_778
10
3.0939114
20
125.2656361
40
0.4989275
50
359.8652243
51
90.1233177
0
ARC
8
DEFAULT_255_2_778
10
3.0939327
20
125.2633673
40
0.4989061
50
269.8742308
51
0.1257692
0
ARC
8
DEFAULT_255_2_778
10
3.0916639
20
125.2633886
40
0.4989275
50
179.8766742
51
270.1347757
0
LINE
8
DEFAULT_255_2_778
10
2.5927375
20
125.2644625
11
2.5927375
21
125.2644625
0
ARC
8
DEFAULT_255_2_778
10
3.0916854
20
130.2654145
40
0.4989492
50
89.8676947
51
180.1322858
0
ARC
8
DEFAULT_255_2_778
10
3.0939114
20
130.2654361
40
0.4989275
50
359.8652243
51
90.1233177
0
ARC
8
DEFAULT_255_2_778
10
3.0939327
20
130.2631673
40
0.4989061
50
269.8742308
51
0.1257692
0
ARC
8
DEFAULT_255_2_778
10
3.0916639
20
130.2631886
40
0.4989275
50
179.8766742
51
270.1347757
0
LINE
8
DEFAULT_255_2_778
10
2.5927375
20
130.2642625
11
2.5927375
21
130.2642625
0
LINE
8
DEFAULT_255_2_778
10
1.8926823
20
128.7644082
11
4.2926823
21
128.7644082
0
LINE
8
DEFAULT_255_2_778
10
4.2926823
20
126.7644082
11
1.8926823
21
126.7644082
0
LINE
8
DEFAULT_255_2_778
10
1.8926823
20
123.7646082
11
4.2926823
21
123.7646082
0
LINE
8
DEFAULT_255_2_778
10
4.2926823
20
121.7646082
11
1.8926823
21
121.7646082
0
ARC
8
DEFAULT_255_2_778
10
3.0916854
20
115.2654145
40
0.4989492
50
89.8676947
51
180.1322858
0
ARC
8
DEFAULT_255_2_778
10
3.0939114
20
115.2654361
40
0.4989275
50
359.8652243
51
90.1233177
0
ARC
8
DEFAULT_255_2_778
10
3.0939327
20
115.2631673
40
0.4989061
50
269.8742308
51
0.1257692
0
ARC
8
DEFAULT_255_2_778
10
3.0916639
20
115.2631886
40
0.4989275
50
179.8766742
51
270.1347757
0
LINE
8
DEFAULT_255_2_778
10
2.5927375
20
115.2642625
11
2.5927375
21
115.2642625
0
ARC
8
DEFAULT_255_2_778
10
3.0916854
20
120.2655145
40
0.4989492
50
89.8676947
51
180.1322858
0
ARC
8
DEFAULT_255_2_778
10
3.0939114
20
120.2655361
40
0.4989275
50
359.8652243
51
90.1233177
0
ARC
8
DEFAULT_255_2_778
10
3.0939327
20
120.2632673
40
0.4989061
50
269.8742308
51
0.1257692
0
ARC
8
DEFAULT_255_2_778
10
3.0916639
20
120.2632886
40
0.4989275
50
179.8766742
51
270.1347757
0
LINE
8
DEFAULT_255_2_778
10
2.5927375
20
120.2643625
11
2.5927375
21
120.2643625
0
LINE
8
DEFAULT_255_2_778
10
1.8926823
20
118.7644405
11
4.2926823
21
118.7644405
0
LINE
8
DEFAULT_255_2_778
10
4.2926823
20
116.7644405
11
1.8926823
21
116.7644405
0
LINE
8
DEFAULT_255_2_778
10
1.8926823
20
113.7643405
11
4.2926823
21
113.7643405
0
LINE
8
DEFAULT_255_2_778
10
4.2926823
20
111.7643405
11
1.8926823
21
111.7643405
0
ARC
8
DEFAULT_255_2_778
10
3.0916854
20
105.2654145
40
0.4989492
50
89.8676947
51
180.1322858
0
ARC
8
DEFAULT_255_2_778
10
3.0939114
20
105.2654361
40
0.4989275
50
359.8652243
51
90.1233177
0
ARC
8
DEFAULT_255_2_778
10
3.0939327
20
105.2631673
40
0.4989061
50
269.8742308
51
0.1257692
0
ARC
8
DEFAULT_255_2_778
10
3.0916639
20
105.2631886
40
0.4989275
50
179.8766742
51
270.1347757
0
LINE
8
DEFAULT_255_2_778
10
2.5927375
20
105.2642625
11
2.5927375
21
105.2642625
0
ARC
8
DEFAULT_255_2_778
10
3.0916854
20
110.2655145
40
0.4989492
50
89.8676947
51
180.1322858
0
ARC
8
DEFAULT_255_2_778
10
3.0939114
20
110.2655361
40
0.4989275
50
359.8652243
51
90.1233177
0
ARC
8
DEFAULT_255_2_778
10
3.0939327
20
110.2632673
40
0.4989061
50
269.8742308
51
0.1257692
0
ARC
8
DEFAULT_255_2_778
10
3.0916639
20
110.2632886
40
0.4989275
50
179.8766742
51
270.1347757
0
LINE
8
DEFAULT_255_2_778
10
2.5927375
20
110.2643625
11
2.5927375
21
110.2643625
0
LINE
8
DEFAULT_255_2_778
10
1.8926823
20
108.7645405
11
4.2926823
21
108.7645405
0
LINE
8
DEFAULT_255_2_778
10
4.2926823
20
106.7645405
11
1.8926823
21
106.7645405
0
LINE
8
DEFAULT_255_2_778
10
1.8926823
20
103.7644405
11
4.2926823
21
103.7644405
0
LINE
8
DEFAULT_255_2_778
10
4.2926823
20
101.7644405
11
1.8926823
21
101.7644405
0
ARC
8
DEFAULT_255_2_778
10
3.0916854
20
95.2655145
40
0.4989492
50
89.8676947
51
180.1322858
0
ARC
8
DEFAULT_255_2_778
10
3.0939114
20
95.2655361
40
0.4989275
50
359.8652243
51
90.1233177
0
ARC
8
DEFAULT_255_2_778
10
3.0939327
20
95.2632673
40
0.4989061
50
269.8742308
51
0.1257692
0
ARC
8
DEFAULT_255_2_778
10
3.0916639
20
95.2632886
40
0.4989275
50
179.8766742
51
270.1347757
0
LINE
8
DEFAULT_255_2_778
10
2.5927375
20
95.2643625
11
2.5927375
21
95.2643625
0
ARC
8
DEFAULT_255_2_778
10
3.0916854
20
100.2656145
40
0.4989492
50
89.8676947
51
180.1322858
0
ARC
8
DEFAULT_255_2_778
10
3.0939114
20
100.2656361
40
0.4989275
50
359.8652243
51
90.1233177
0
ARC
8
DEFAULT_255_2_778
10
3.0939327
20
100.2633673
40
0.4989061
50
269.8742308
51
0.1257692
0
ARC
8
DEFAULT_255_2_778
10
3.0916639
20
100.2633886
40
0.4989275
50
179.8766742
51
270.1347757
0
LINE
8
DEFAULT_255_2_778
10
2.5927375
20
100.2644625
11
2.5927375
21
100.2644625
0
LINE
8
DEFAULT_255_2_778
10
1.8926823
20
98.7646405
11
4.2926823
21
98.7646405
0
LINE
8
DEFAULT_255_2_778
10
4.2926823
20
96.7644405
11
1.8926823
21
96.7644405
0
LINE
8
DEFAULT_255_2_778
10
1.8926823
20
93.7645405
11
4.2926823
21
93.7645405
0
LINE
8
DEFAULT_255_2_778
10
4.2926823
20
91.7645405
11
1.8926823
21
91.7645405
0
ARC
8
DEFAULT_255_2_778
10
3.0916854
20
75.2654145
40
0.4989492
50
89.8676947
51
180.1322858
0
ARC
8
DEFAULT_255_2_778
10
3.0939114
20
75.2654361
40
0.4989275
50
359.8652243
51
90.1233177
0
ARC
8
DEFAULT_255_2_778
10
3.0939327
20
75.2631673
40
0.4989061
50
269.8742308
51
0.1257692
0
ARC
8
DEFAULT_255_2_778
10
3.0916639
20
75.2631886
40
0.4989275
50
179.8766742
51
270.1347757
0
LINE
8
DEFAULT_255_2_778
10
2.5927375
20
75.2642625
11
2.5927375
21
75.2642625
0
ARC
8
DEFAULT_255_2_778
10
3.0916854
20
80.2655145
40
0.4989492
50
89.8676947
51
180.1322858
0
ARC
8
DEFAULT_255_2_778
10
3.0939114
20
80.2655361
40
0.4989275
50
359.8652243
51
90.1233177
0
ARC
8
DEFAULT_255_2_778
10
3.0939327
20
80.2632673
40
0.4989061
50
269.8742308
51
0.1257692
0
ARC
8
DEFAULT_255_2_778
10
3.0916639
20
80.2632886
40
0.4989275
50
179.8766742
51
270.1347757
0
LINE
8
DEFAULT_255_2_778
10
2.5927375
20
80.2643625
11
2.5927375
21
80.2643625
0
LINE
8
DEFAULT_255_2_778
10
1.8926823
20
78.7644405
11
4.2926823
21
78.7644405
0
LINE
8
DEFAULT_255_2_778
10
4.2926823
20
76.7644405
11
1.8926823
21
76.7644405
0
LINE
8
DEFAULT_255_2_778
10
1.8926823
20
73.7643405
11
4.2926823
21
73.7643405
0
LINE
8
DEFAULT_255_2_778
10
4.2926823
20
71.7643405
11
1.8926823
21
71.7643405
0
ARC
8
DEFAULT_255_2_778
10
3.0916854
20
65.2655145
40
0.4989492
50
89.8676947
51
180.1322858
0
ARC
8
DEFAULT_255_2_778
10
3.0939114
20
65.2655361
40
0.4989275
50
359.8652243
51
90.1233177
0
ARC
8
DEFAULT_255_2_778
10
3.0939327
20
65.2632673
40
0.4989061
50
269.8742308
51
0.1257692
0
ARC
8
DEFAULT_255_2_778
10
3.0916639
20
65.2632886
40
0.4989275
50
179.8766742
51
270.1347757
0
LINE
8
DEFAULT_255_2_778
10
2.5927375
20
65.2643625
11
2.5927375
21
65.2643625
0
ARC
8
DEFAULT_255_2_778
10
3.0916854
20
70.2656145
40
0.4989492
50
89.8676947
51
180.1322858
0
ARC
8
DEFAULT_255_2_778
10
3.0939114
20
70.2656361
40
0.4989275
50
359.8652243
51
90.1233177
0
ARC
8
DEFAULT_255_2_778
10
3.0939327
20
70.2633673
40
0.4989061
50
269.8742308
51
0.1257692
0
ARC
8
DEFAULT_255_2_778
10
3.0916639
20
70.2633886
40
0.4989275
50
179.8766742
51
270.1347757
0
LINE
8
DEFAULT_255_2_778
10
2.5927375
20
70.2644625
11
2.5927375
21
70.2644625
0
LINE
8
DEFAULT_255_2_778
10
1.8926823
20
68.7645405
11
4.2926823
21
68.7645405
0
LINE
8
DEFAULT_255_2_778
10
4.2926823
20
66.7645405
11
1.8926823
21
66.7645405
0
LINE
8
DEFAULT_255_2_778
10
1.8926823
20
63.7644405
11
4.2926823
21
63.7644405
0
LINE
8
DEFAULT_255_2_778
10
4.2926823
20
61.7644405
11
1.8926823
21
61.7644405
0
ARC
8
DEFAULT_255_2_778
10
3.0916854
20
55.2656145
40
0.4989492
50
89.8676947
51
180.1322858
0
ARC
8
DEFAULT_255_2_778
10
3.0939114
20
55.2656361
40
0.4989275
50
359.8652243
51
90.1233177
0
ARC
8
DEFAULT_255_2_778
10
3.0939327
20
55.2633673
40
0.4989061
50
269.8742308
51
0.1257692
0
ARC
8
DEFAULT_255_2_778
10
3.0916639
20
55.2633886
40
0.4989275
50
179.8766742
51
270.1347757
0
LINE
8
DEFAULT_255_2_778
10
2.5927375
20
55.2644625
11
2.5927375
21
55.2644625
0
ARC
8
DEFAULT_255_2_778
10
3.0916854
20
60.2654145
40
0.4989492
50
89.8676947
51
180.1322858
0
ARC
8
DEFAULT_255_2_778
10
3.0939114
20
60.2654361
40
0.4989275
50
359.8652243
51
90.1233177
0
ARC
8
DEFAULT_255_2_778
10
3.0939327
20
60.2631673
40
0.4989061
50
269.8742308
51
0.1257692
0
ARC
8
DEFAULT_255_2_778
10
3.0916639
20
60.2631886
40
0.4989275
50
179.8766742
51
270.1347757
0
LINE
8
DEFAULT_255_2_778
10
2.5927375
20
60.2642625
11
2.5927375
21
60.2642625
0
LINE
8
DEFAULT_255_2_778
10
1.8926823
20
58.7644082
11
4.2926823
21
58.7644082
0
LINE
8
DEFAULT_255_2_778
10
4.2926823
20
56.7644082
11
1.8926823
21
56.7644082
0
LINE
8
DEFAULT_255_2_778
10
1.8926823
20
53.7646082
11
4.2926823
21
53.7646082
0
LINE
8
DEFAULT_255_2_778
10
4.2926823
20
51.7646082
11
1.8926823
21
51.7646082
0
ARC
8
DEFAULT_255_2_778
10
3.0916854
20
45.2656145
40
0.4989492
50
89.8676947
51
180.1322858
0
ARC
8
DEFAULT_255_2_778
10
3.0939114
20
45.2656361
40
0.4989275
50
359.8652243
51
90.1233177
0
ARC
8
DEFAULT_255_2_778
10
3.0939327
20
45.2633673
40
0.4989061
50
269.8742308
51
0.1257692
0
ARC
8
DEFAULT_255_2_778
10
3.0916639
20
45.2633886
40
0.4989275
50
179.8766742
51
270.1347757
0
LINE
8
DEFAULT_255_2_778
10
2.5927375
20
45.2644625
11
2.5927375
21
45.2644625
0
ARC
8
DEFAULT_255_2_778
10
3.0916854
20
50.2655145
40
0.4989492
50
89.8676947
51
180.1322858
0
ARC
8
DEFAULT_255_2_778
10
3.0939114
20
50.2655361
40
0.4989275
50
359.8652243
51
90.1233177
0
ARC
8
DEFAULT_255_2_778
10
3.0939327
20
50.2632673
40
0.4989061
50
269.8742308
51
0.1257692
0
ARC
8
DEFAULT_255_2_778
10
3.0916639
20
50.2632886
40
0.4989275
50
179.8766742
51
270.1347757
0
LINE
8
DEFAULT_255_2_778
10
2.5927375
20
50.2643625
11
2.5927375
21
50.2643625
0
LINE
8
DEFAULT_255_2_778
10
1.8926823
20
48.7644405
11
4.2926823
21
48.7644405
0
LINE
8
DEFAULT_255_2_778
10
4.2926823
20
46.7644405
11
1.8926823
21
46.7644405
0
LINE
8
DEFAULT_255_2_778
10
1.8926823
20
43.7643405
11
4.2926823
21
43.7643405
0
LINE
8
DEFAULT_255_2_778
10
4.2926823
20
41.7643405
11
1.8926823
21
41.7643405
0
ARC
8
DEFAULT_255_2_778
10
3.0916854
20
35.2654145
40
0.4989492
50
89.8676947
51
180.1322858
0
ARC
8
DEFAULT_255_2_778
10
3.0939114
20
35.2654361
40
0.4989275
50
359.8652243
51
90.1233177
0
ARC
8
DEFAULT_255_2_778
10
3.0939327
20
35.2631673
40
0.4989061
50
269.8742308
51
0.1257692
0
ARC
8
DEFAULT_255_2_778
10
3.0916639
20
35.2631886
40
0.4989275
50
179.8766742
51
270.1347757
0
LINE
8
DEFAULT_255_2_778
10
2.5927375
20
35.2642625
11
2.5927375
21
35.2642625
0
ARC
8
DEFAULT_255_2_778
10
3.0916854
20
40.2655145
40
0.4989492
50
89.8676947
51
180.1322858
0
ARC
8
DEFAULT_255_2_778
10
3.0939114
20
40.2655361
40
0.4989275
50
359.8652243
51
90.1233177
0
ARC
8
DEFAULT_255_2_778
10
3.0939327
20
40.2632673
40
0.4989061
50
269.8742308
51
0.1257692
0
ARC
8
DEFAULT_255_2_778
10
3.0916639
20
40.2632886
40
0.4989275
50
179.8766742
51
270.1347757
0
LINE
8
DEFAULT_255_2_778
10
2.5927375
20
40.2643625
11
2.5927375
21
40.2643625
0
LINE
8
DEFAULT_255_2_778
10
1.8926823
20
38.7645405
11
4.2926823
21
38.7645405
0
LINE
8
DEFAULT_255_2_778
10
4.2926823
20
36.7645405
11
1.8926823
21
36.7645405
0
LINE
8
DEFAULT_255_2_778
10
1.8926823
20
33.7644405
11
4.2926823
21
33.7644405
0
LINE
8
DEFAULT_255_2_778
10
4.2926823
20
31.7644405
11
1.8926823
21
31.7644405
0
ARC
8
DEFAULT_255_2_778
10
3.0916854
20
195.2656145
40
0.4989492
50
89.8676947
51
180.1322858
0
ARC
8
DEFAULT_255_2_778
10
3.0939114
20
195.2656361
40
0.4989275
50
359.8652243
51
90.1233177
0
ARC
8
DEFAULT_255_2_778
10
3.0939327
20
195.2633673
40
0.4989061
50
269.8742308
51
0.1257692
0
ARC
8
DEFAULT_255_2_778
10
3.0916639
20
195.2633886
40
0.4989275
50
179.8766742
51
270.1347757
0
LINE
8
DEFAULT_255_2_778
10
2.5927375
20
195.2644625
11
2.5927375
21
195.2644625
0
ARC
8
DEFAULT_255_2_778
10
3.0916854
20
200.2654145
40
0.4989492
50
89.8676947
51
180.1322858
0
ARC
8
DEFAULT_255_2_778
10
3.0939114
20
200.2654361
40
0.4989275
50
359.8652243
51
90.1233177
0
ARC
8
DEFAULT_255_2_778
10
3.0939327
20
200.2631673
40
0.4989061
50
269.8742308
51
0.1257692
0
ARC
8
DEFAULT_255_2_778
10
3.0916639
20
200.2631886
40
0.4989275
50
179.8766742
51
270.1347757
0
LINE
8
DEFAULT_255_2_778
10
2.5927375
20
200.2642625
11
2.5927375
21
200.2642625
0
LINE
8
DEFAULT_255_2_778
10
1.8926823
20
198.7644082
11
4.2926823
21
198.7644082
0
LINE
8
DEFAULT_255_2_778
10
4.2926823
20
196.7644082
11
1.8926823
21
196.7644082
0
LINE
8
DEFAULT_255_2_778
10
1.8926823
20
193.7646082
11
4.2926823
21
193.7646082
0
LINE
8
DEFAULT_255_2_778
10
4.2926823
20
191.7646082
11
1.8926823
21
191.7646082
0
ARC
8
DEFAULT_255_2_778
10
3.0916854
20
185.2654145
40
0.4989492
50
89.8676947
51
180.1322858
0
ARC
8
DEFAULT_255_2_778
10
3.0939114
20
185.2654361
40
0.4989275
50
359.8652243
51
90.1233177
0
ARC
8
DEFAULT_255_2_778
10
3.0939327
20
185.2631673
40
0.4989061
50
269.8742308
51
0.1257692
0
ARC
8
DEFAULT_255_2_778
10
3.0916639
20
185.2631886
40
0.4989275
50
179.8766742
51
270.1347757
0
LINE
8
DEFAULT_255_2_778
10
2.5927375
20
185.2642625
11
2.5927375
21
185.2642625
0
ARC
8
DEFAULT_255_2_778
10
3.0916854
20
190.2655145
40
0.4989492
50
89.8676947
51
180.1322858
0
ARC
8
DEFAULT_255_2_778
10
3.0939114
20
190.2655361
40
0.4989275
50
359.8652243
51
90.1233177
0
ARC
8
DEFAULT_255_2_778
10
3.0939327
20
190.2632673
40
0.4989061
50
269.8742308
51
0.1257692
0
ARC
8
DEFAULT_255_2_778
10
3.0916639
20
190.2632886
40
0.4989275
50
179.8766742
51
270.1347757
0
LINE
8
DEFAULT_255_2_778
10
2.5927375
20
190.2643625
11
2.5927375
21
190.2643625
0
LINE
8
DEFAULT_255_2_778
10
1.8926823
20
188.7644405
11
4.2926823
21
188.7644405
0
LINE
8
DEFAULT_255_2_778
10
4.2926823
20
186.7644405
11
1.8926823
21
186.7644405
0
LINE
8
DEFAULT_255_2_778
10
1.8926823
20
183.7643405
11
4.2926823
21
183.7643405
0
LINE
8
DEFAULT_255_2_778
10
4.2926823
20
181.7643405
11
1.8926823
21
181.7643405
0
ARC
8
DEFAULT_255_2_778
10
3.0916854
20
175.2655145
40
0.4989492
50
89.8676947
51
180.1322858
0
ARC
8
DEFAULT_255_2_778
10
3.0939114
20
175.2655361
40
0.4989275
50
359.8652243
51
90.1233177
0
ARC
8
DEFAULT_255_2_778
10
3.0939327
20
175.2632673
40
0.4989061
50
269.8742308
51
0.1257692
0
ARC
8
DEFAULT_255_2_778
10
3.0916639
20
175.2632886
40
0.4989275
50
179.8766742
51
270.1347757
0
LINE
8
DEFAULT_255_2_778
10
2.5927375
20
175.2643625
11
2.5927375
21
175.2643625
0
ARC
8
DEFAULT_255_2_778
10
3.0916854
20
180.2656145
40
0.4989492
50
89.8676947
51
180.1322858
0
ARC
8
DEFAULT_255_2_778
10
3.0939114
20
180.2656361
40
0.4989275
50
359.8652243
51
90.1233177
0
ARC
8
DEFAULT_255_2_778
10
3.0939327
20
180.2633673
40
0.4989061
50
269.8742308
51
0.1257692
0
ARC
8
DEFAULT_255_2_778
10
3.0916639
20
180.2633886
40
0.4989275
50
179.8766742
51
270.1347757
0
LINE
8
DEFAULT_255_2_778
10
2.5927375
20
180.2644625
11
2.5927375
21
180.2644625
0
LINE
8
DEFAULT_255_2_778
10
1.8926823
20
178.7645405
11
4.2926823
21
178.7645405
0
LINE
8
DEFAULT_255_2_778
10
4.2926823
20
176.7645405
11
1.8926823
21
176.7645405
0
LINE
8
DEFAULT_255_2_778
10
1.8926823
20
173.7644405
11
4.2926823
21
173.7644405
0
LINE
8
DEFAULT_255_2_778
10
4.2926823
20
171.7644405
11
1.8926823
21
171.7644405
0
ARC
8
DEFAULT_255_2_778
10
3.0916854
20
165.2655145
40
0.4989492
50
89.8676947
51
180.1322858
0
ARC
8
DEFAULT_255_2_778
10
3.0939114
20
165.2655361
40
0.4989275
50
359.8652243
51
90.1233177
0
ARC
8
DEFAULT_255_2_778
10
3.0939327
20
165.2632673
40
0.4989061
50
269.8742308
51
0.1257692
0
ARC
8
DEFAULT_255_2_778
10
3.0916639
20
165.2632886
40
0.4989275
50
179.8766742
51
270.1347757
0
LINE
8
DEFAULT_255_2_778
10
2.5927375
20
165.2643625
11
2.5927375
21
165.2643625
0
ARC
8
DEFAULT_255_2_778
10
3.0916854
20
170.2654145
40
0.4989492
50
89.8676947
51
180.1322858
0
ARC
8
DEFAULT_255_2_778
10
3.0939114
20
170.2654361
40
0.4989275
50
359.8652243
51
90.1233177
0
ARC
8
DEFAULT_255_2_778
10
3.0939327
20
170.2631673
40
0.4989061
50
269.8742308
51
0.1257692
0
ARC
8
DEFAULT_255_2_778
10
3.0916639
20
170.2631886
40
0.4989275
50
179.8766742
51
270.1347757
0
LINE
8
DEFAULT_255_2_778
10
2.5927375
20
170.2642625
11
2.5927375
21
170.2642625
0
LINE
8
DEFAULT_255_2_778
10
1.8926823
20
168.7643082
11
4.2926823
21
168.7643082
0
LINE
8
DEFAULT_255_2_778
10
4.2926823
20
166.7643082
11
1.8926823
21
166.7643082
0
LINE
8
DEFAULT_255_2_778
10
1.8926823
20
163.7645082
11
4.2926823
21
163.7645082
0
LINE
8
DEFAULT_255_2_778
10
4.2926823
20
161.7645082
11
1.8926823
21
161.7645082
0
ARC
8
DEFAULT_255_2_778
10
3.0916854
20
155.2656145
40
0.4989492
50
89.8676947
51
180.1322858
0
ARC
8
DEFAULT_255_2_778
10
3.0939114
20
155.2656361
40
0.4989275
50
359.8652243
51
90.1233177
0
ARC
8
DEFAULT_255_2_778
10
3.0939327
20
155.2633673
40
0.4989061
50
269.8742308
51
0.1257692
0
ARC
8
DEFAULT_255_2_778
10
3.0916639
20
155.2633886
40
0.4989275
50
179.8766742
51
270.1347757
0
LINE
8
DEFAULT_255_2_778
10
2.5927375
20
155.2644625
11
2.5927375
21
155.2644625
0
ARC
8
DEFAULT_255_2_778
10
3.0916854
20
160.2654145
40
0.4989492
50
89.8676947
51
180.1322858
0
ARC
8
DEFAULT_255_2_778
10
3.0939114
20
160.2654361
40
0.4989275
50
359.8652243
51
90.1233177
0
ARC
8
DEFAULT_255_2_778
10
3.0939327
20
160.2631673
40
0.4989061
50
269.8742308
51
0.1257692
0
ARC
8
DEFAULT_255_2_778
10
3.0916639
20
160.2631886
40
0.4989275
50
179.8766742
51
270.1347757
0
LINE
8
DEFAULT_255_2_778
10
2.5927375
20
160.2642625
11
2.5927375
21
160.2642625
0
LINE
8
DEFAULT_255_2_778
10
1.8926823
20
158.7644405
11
4.2926823
21
158.7644405
0
LINE
8
DEFAULT_255_2_778
10
4.2926823
20
156.7644405
11
1.8926823
21
156.7644405
0
LINE
8
DEFAULT_255_2_778
10
1.8926823
20
153.7643405
11
4.2926823
21
153.7643405
0
LINE
8
DEFAULT_255_2_778
10
4.2926823
20
151.7643405
11
1.8926823
21
151.7643405
0
ARC
8
DEFAULT_255_2_778
10
3.0916854
20
255.2654145
40
0.4989492
50
89.8676947
51
180.1322858
0
ARC
8
DEFAULT_255_2_778
10
3.0939114
20
255.2654361
40
0.4989275
50
359.8652243
51
90.1233177
0
ARC
8
DEFAULT_255_2_778
10
3.0939327
20
255.2631673
40
0.4989061
50
269.8742308
51
0.1257692
0
ARC
8
DEFAULT_255_2_778
10
3.0916639
20
255.2631886
40
0.4989275
50
179.8766742
51
270.1347757
0
LINE
8
DEFAULT_255_2_778
10
2.5927375
20
255.2642625
11
2.5927375
21
255.2642625
0
ARC
8
DEFAULT_255_2_778
10
3.0916854
20
260.2655145
40
0.4989492
50
89.8676947
51
180.1322858
0
ARC
8
DEFAULT_255_2_778
10
3.0939114
20
260.2655361
40
0.4989275
50
359.8652243
51
90.1233177
0
ARC
8
DEFAULT_255_2_778
10
3.0939327
20
260.2632673
40
0.4989061
50
269.8742308
51
0.1257692
0
ARC
8
DEFAULT_255_2_778
10
3.0916639
20
260.2632886
40
0.4989275
50
179.8766742
51
270.1347757
0
LINE
8
DEFAULT_255_2_778
10
2.5927375
20
260.2643625
11
2.5927375
21
260.2643625
0
LINE
8
DEFAULT_255_2_778
10
1.8926823
20
258.7644405
11
4.2926823
21
258.7644405
0
LINE
8
DEFAULT_255_2_778
10
4.2926823
20
256.7644405
11
1.8926823
21
256.7644405
0
LINE
8
DEFAULT_255_2_778
10
1.8926823
20
253.7643405
11
4.2926823
21
253.7643405
0
LINE
8
DEFAULT_255_2_778
10
4.2926823
20
251.7643405
11
1.8926823
21
251.7643405
0
ARC
8
DEFAULT_255_2_778
10
3.0916854
20
245.2655145
40
0.4989492
50
89.8676947
51
180.1322858
0
ARC
8
DEFAULT_255_2_778
10
3.0939114
20
245.2655361
40
0.4989275
50
359.8652243
51
90.1233177
0
ARC
8
DEFAULT_255_2_778
10
3.0939327
20
245.2632673
40
0.4989061
50
269.8742308
51
0.1257692
0
ARC
8
DEFAULT_255_2_778
10
3.0916639
20
245.2632886
40
0.4989275
50
179.8766742
51
270.1347757
0
LINE
8
DEFAULT_255_2_778
10
2.5927375
20
245.2643625
11
2.5927375
21
245.2643625
0
ARC
8
DEFAULT_255_2_778
10
3.0916854
20
250.2656145
40
0.4989492
50
89.8676947
51
180.1322858
0
ARC
8
DEFAULT_255_2_778
10
3.0939114
20
250.2656361
40
0.4989275
50
359.8652243
51
90.1233177
0
ARC
8
DEFAULT_255_2_778
10
3.0939327
20
250.2633673
40
0.4989061
50
269.8742308
51
0.1257692
0
ARC
8
DEFAULT_255_2_778
10
3.0916639
20
250.2633886
40
0.4989275
50
179.8766742
51
270.1347757
0
LINE
8
DEFAULT_255_2_778
10
2.5927375
20
250.2644625
11
2.5927375
21
250.2644625
0
LINE
8
DEFAULT_255_2_778
10
1.8926823
20
248.7645405
11
4.2926823
21
248.7645405
0
LINE
8
DEFAULT_255_2_778
10
4.2926823
20
246.7645405
11
1.8926823
21
246.7645405
0
LINE
8
DEFAULT_255_2_778
10
1.8926823
20
243.7644405
11
4.2926823
21
243.7644405
0
LINE
8
DEFAULT_255_2_778
10
4.2926823
20
241.7644405
11
1.8926823
21
241.7644405
0
ARC
8
DEFAULT_255_2_778
10
3.0916854
20
235.2656145
40
0.4989492
50
89.8676947
51
180.1322858
0
ARC
8
DEFAULT_255_2_778
10
3.0939114
20
235.2656361
40
0.4989275
50
359.8652243
51
90.1233177
0
ARC
8
DEFAULT_255_2_778
10
3.0939327
20
235.2633673
40
0.4989061
50
269.8742308
51
0.1257692
0
ARC
8
DEFAULT_255_2_778
10
3.0916639
20
235.2633886
40
0.4989275
50
179.8766742
51
270.1347757
0
LINE
8
DEFAULT_255_2_778
10
2.5927375
20
235.2644625
11
2.5927375
21
235.2644625
0
ARC
8
DEFAULT_255_2_778
10
3.0916854
20
240.2654145
40
0.4989492
50
89.8676947
51
180.1322858
0
ARC
8
DEFAULT_255_2_778
10
3.0939114
20
240.2654361
40
0.4989275
50
359.8652243
51
90.1233177
0
ARC
8
DEFAULT_255_2_778
10
3.0939327
20
240.2631673
40
0.4989061
50
269.8742308
51
0.1257692
0
ARC
8
DEFAULT_255_2_778
10
3.0916639
20
240.2631886
40
0.4989275
50
179.8766742
51
270.1347757
0
LINE
8
DEFAULT_255_2_778
10
2.5927375
20
240.2642625
11
2.5927375
21
240.2642625
0
LINE
8
DEFAULT_255_2_778
10
1.8926823
20
238.7644082
11
4.2926823
21
238.7644082
0
LINE
8
DEFAULT_255_2_778
10
4.2926823
20
236.7644082
11
1.8926823
21
236.7644082
0
LINE
8
DEFAULT_255_2_778
10
1.8926823
20
233.7646082
11
4.2926823
21
233.7646082
0
LINE
8
DEFAULT_255_2_778
10
4.2926823
20
231.7646082
11
1.8926823
21
231.7646082
0
ARC
8
DEFAULT_255_2_778
10
3.0916854
20
225.2656145
40
0.4989492
50
89.8676947
51
180.1322858
0
ARC
8
DEFAULT_255_2_778
10
3.0939114
20
225.2656361
40
0.4989275
50
359.8652243
51
90.1233177
0
ARC
8
DEFAULT_255_2_778
10
3.0939327
20
225.2633673
40
0.4989061
50
269.8742308
51
0.1257692
0
ARC
8
DEFAULT_255_2_778
10
3.0916639
20
225.2633886
40
0.4989275
50
179.8766742
51
270.1347757
0
LINE
8
DEFAULT_255_2_778
10
2.5927375
20
225.2644625
11
2.5927375
21
225.2644625
0
ARC
8
DEFAULT_255_2_778
10
3.0916854
20
230.2655145
40
0.4989492
50
89.8676947
51
180.1322858
0
ARC
8
DEFAULT_255_2_778
10
3.0939114
20
230.2655361
40
0.4989275
50
359.8652243
51
90.1233177
0
ARC
8
DEFAULT_255_2_778
10
3.0939327
20
230.2632673
40
0.4989061
50
269.8742308
51
0.1257692
0
ARC
8
DEFAULT_255_2_778
10
3.0916639
20
230.2632886
40
0.4989275
50
179.8766742
51
270.1347757
0
LINE
8
DEFAULT_255_2_778
10
2.5927375
20
230.2643625
11
2.5927375
21
230.2643625
0
LINE
8
DEFAULT_255_2_778
10
1.8926823
20
228.7644405
11
4.2926823
21
228.7644405
0
LINE
8
DEFAULT_255_2_778
10
4.2926823
20
226.7644405
11
1.8926823
21
226.7644405
0
LINE
8
DEFAULT_255_2_778
10
1.8926823
20
223.7643405
11
4.2926823
21
223.7643405
0
LINE
8
DEFAULT_255_2_778
10
4.2926823
20
221.7643405
11
1.8926823
21
221.7643405
0
ARC
8
DEFAULT_255_2_778
10
3.0916854
20
215.2654145
40
0.4989492
50
89.8676947
51
180.1322858
0
ARC
8
DEFAULT_255_2_778
10
3.0939114
20
215.2654361
40
0.4989275
50
359.8652243
51
90.1233177
0
ARC
8
DEFAULT_255_2_778
10
3.0939327
20
215.2631673
40
0.4989061
50
269.8742308
51
0.1257692
0
ARC
8
DEFAULT_255_2_778
10
3.0916639
20
215.2631886
40
0.4989275
50
179.8766742
51
270.1347757
0
LINE
8
DEFAULT_255_2_778
10
2.5927375
20
215.2642625
11
2.5927375
21
215.2642625
0
ARC
8
DEFAULT_255_2_778
10
3.0916854
20
220.2655145
40
0.4989492
50
89.8676947
51
180.1322858
0
ARC
8
DEFAULT_255_2_778
10
3.0939114
20
220.2655361
40
0.4989275
50
359.8652243
51
90.1233177
0
ARC
8
DEFAULT_255_2_778
10
3.0939327
20
220.2632673
40
0.4989061
50
269.8742308
51
0.1257692
0
ARC
8
DEFAULT_255_2_778
10
3.0916639
20
220.2632886
40
0.4989275
50
179.8766742
51
270.1347757
0
LINE
8
DEFAULT_255_2_778
10
2.5927375
20
220.2643625
11
2.5927375
21
220.2643625
0
ARC
8
DEFAULT_255_2_778
10
4.6891884
20
280.9466712
40
1.1466416
50
145.317694
51
180.1378979
0
ARC
8
DEFAULT_255_2_778
10
4.6893915
20
280.9470927
40
1.1465689
50
95.312679
51
145.3407914
0
ARC
8
DEFAULT_255_2_778
10
4.6922645
20
280.9200298
40
1.1737817
50
89.9909445
51
95.330003
0
ARC
8
DEFAULT_255_2_778
10
4.6942768
20
280.9489989
40
1.1448141
50
53.2171205
51
90.0914248
0
ARC
8
DEFAULT_255_2_778
10
4.6938824
20
280.9447391
40
1.1484642
50
4.3484931
51
53.3286148
0
ARC
8
DEFAULT_255_2_778
10
4.6761351
20
280.9440208
40
1.166215
50
359.9946299
51
4.3175665
0
ARC
8
DEFAULT_255_2_778
10
4.6975591
20
280.9421197
40
1.1447923
50
323.1735579
51
0.0896771
0
ARC
8
DEFAULT_255_2_778
10
4.6932299
20
280.9425009
40
1.1484886
50
274.3345008
51
323.2877942
0
ARC
8
DEFAULT_255_2_778
10
4.6925584
20
280.9599923
40
1.165981
50
269.9946772
51
274.3024407
0
ARC
8
DEFAULT_255_2_778
10
4.6913189
20
280.5047686
40
0.7107579
50
269.9696175
51
270.0911839
0
ARC
8
DEFAULT_255_2_778
10
4.690865
20
280.9420029
40
1.1479924
50
224.9885811
51
270.0038427
0
ARC
8
DEFAULT_255_2_778
10
4.6905415
20
280.9423265
40
1.1479924
50
179.9961573
51
225.0114189
0
ARC
8
DEFAULT_255_2_778
10
4.4901007
20
280.9425291
40
0.9475516
50
179.9164113
51
180.0075981
0
LINE
8
DEFAULT_255_2_778
10
1.8926501
20
218.7645115
11
4.2926501
21
218.7645115
0
LINE
8
DEFAULT_255_2_778
10
4.2926501
20
216.7645115
11
1.8926501
21
216.7645115
0
LINE
8
DEFAULT_255_2_778
10
1.8926501
20
213.7644115
11
4.2926501
21
213.7644115
0
LINE
8
DEFAULT_255_2_778
10
4.2926501
20
211.7644115
11
1.8926501
21
211.7644115
0
LINE
8
DEFAULT_255_2_778
10
3.5425501
20
280.9439115
11
3.5425501
21
280.9439115
0
LINE
8
DEFAULT_255_2_778
10
7.2428459
20
283.4937541
11
2.1427459
21
283.4937541
0
LINE
8
DEFAULT_255_2_778
10
2.1427459
20
283.4937541
11
2.1427459
21
278.3936541
0
LINE
8
DEFAULT_255_2_778
10
2.1427459
20
278.3936541
11
7.2428459
21
278.3936541
0
LINE
8
DEFAULT_255_2_778
10
7.2428459
20
278.3936541
11
7.2428459
21
283.4937541
0
ENDSEC
0
EOF