0
SECTION
2
HEADER
9
$MEASUREMENT
70
1
0
ENDSEC
0
SECTION
2
TABLES
0
TABLE
2
LTYPE
0
LTYPE
72
65
70
64
2
CONTINUOUS
3
______
73
0
40
0
0
ENDTAB
0
TABLE
2
LAYER
0
LAYER
2
DEFAULT_255_2_778
70
0
62
255
6
CONTINUOUS
0
LAYER
2
DEFAULT_255_1_234
70
0
62
255
6
CONTINUOUS
0
ENDTAB
0
ENDSEC
0
SECTION
2
ENTITIES
0
ARC
8
DEFAULT_255_2_778
10
3.5695693
20
51.9926534
40
0.7914215
50
129.1312896
51
180.1450914
0
ARC
8
DEFAULT_255_2_778
10
3.5698345
20
51.9931405
40
0.7912112
50
89.854026
51
129.1684493
0
ARC
8
DEFAULT_255_2_778
10
25.7988937
20
51.992827
40
0.7915249
50
39.4792447
51
90.147911
0
ARC
8
DEFAULT_255_2_778
10
25.7994935
20
51.9926737
40
0.7911595
50
359.8533901
51
39.5154338
0
ARC
8
DEFAULT_255_2_778
10
25.7991693
20
-1.9863989
40
0.7914836
50
309.4761667
51
0.1482649
0
ARC
8
DEFAULT_255_2_778
10
25.798898
20
-1.98683
40
0.7913235
50
269.8517415
51
309.511178
0
ARC
8
DEFAULT_255_2_778
10
3.569842
20
-1.9867718
40
0.7913815
50
219.1282118
51
270.1454017
0
ARC
8
DEFAULT_255_2_778
10
3.5695247
20
-1.9863893
40
0.7913769
50
179.8524075
51
219.1641908
0
LINE
8
DEFAULT_255_2_778
10
3.5718503
20
52.7843492
11
25.7968503
21
52.7843492
0
LINE
8
DEFAULT_255_2_778
10
26.5906503
20
51.9906492
11
26.5906503
21
-1.9843508
0
LINE
8
DEFAULT_255_2_778
10
25.7968503
20
-2.7781508
11
3.5718503
21
-2.7781508
0
LINE
8
DEFAULT_255_2_778
10
2.7781503
20
-1.9843508
11
2.7781503
21
51.9906492
0
LINE
8
DEFAULT_255_1_234
10
6.7060835
20
0.5189243
11
6.7325882
21
0.5189243
0
LINE
8
DEFAULT_255_1_234
10
6.7325882
20
0.5189243
11
6.7325882
21
0.392826
0
LINE
8
DEFAULT_255_1_234
10
6.7325882
20
0.392826
11
6.7052803
21
0.392826
0
LINE
8
DEFAULT_255_1_234
10
6.1583189
20
-0.2063417
11
6.1583189
21
-0.1493164
0
LINE
8
DEFAULT_255_1_234
10
6.3077093
20
-0.1685925
11
6.3077093
21
-0.2232083
0
ARC
8
DEFAULT_255_1_234
10
6.7105151
20
-0.1069545
40
0.4998079
50
90.6001036
51
104.514704
0
ARC
8
DEFAULT_255_1_234
10
6.6716667
20
0.0375131
40
0.3502176
50
104.2855254
51
133.862935
0
ARC
8
DEFAULT_255_1_234
10
6.6880424
20
0.026683
40
0.3693984
50
134.5302688
51
161.6210873
0
ARC
8
DEFAULT_255_1_234
10
6.8533613
20
-0.0316105
40
0.5446739
50
161.2849839
51
174.2076652
0
ARC
8
DEFAULT_255_1_234
10
6.994055
20
-0.0510213
40
0.6866274
50
173.7810589
51
174.9254635
0
ARC
8
DEFAULT_255_1_234
10
6.5390382
20
-0.1893161
40
0.3033419
50
95.8330959
51
138.9954921
0
ARC
8
DEFAULT_255_1_234
10
6.5613738
20
-0.3171625
40
0.4328947
50
89.8753725
51
97.0544009
0
ARC
8
DEFAULT_255_1_234
10
6.5661204
20
-0.2336252
40
0.3493769
50
71.6407809
51
90.6240094
0
ARC
8
DEFAULT_255_1_234
10
6.5811777
20
-0.1781918
40
0.2920396
50
39.6367836
51
71.019018
0
ARC
8
DEFAULT_255_1_234
10
6.517525
20
-0.2332002
40
0.3761538
50
10.658731
51
39.9043955
0
ARC
8
DEFAULT_255_1_234
10
6.3627333
20
-0.2668314
40
0.5345136
50
359.682601
51
11.132623
0
ARC
8
DEFAULT_255_1_234
10
6.3587464
20
-0.273899
40
0.5385081
50
347.2486944
51
0.4369317
0
ARC
8
DEFAULT_255_1_234
10
6.5254941
20
-0.3140193
40
0.3670249
50
318.1409698
51
347.6118597
0
ARC
8
DEFAULT_255_1_234
10
6.5579934
20
-0.3407298
40
0.3250007
50
275.6342139
51
317.8248465
0
ARC
8
DEFAULT_255_1_234
10
6.5359045
20
-0.2107781
40
0.4565864
50
269.8874292
51
276.7917694
0
ARC
8
DEFAULT_255_1_234
10
6.5304116
20
-0.3133257
40
0.3540676
50
246.9140195
51
270.7437342
0
ARC
8
DEFAULT_255_1_234
10
6.5310506
20
-0.3275616
40
0.3412781
50
218.1665114
51
245.878116
0
ARC
8
DEFAULT_255_1_234
10
6.6189967
20
-0.2539721
40
0.455911
50
191.4115814
51
218.6077802
0
ARC
8
DEFAULT_255_1_234
10
6.8128056
20
-0.2105167
40
0.6545001
50
179.6345085
51
191.7836486
0
ARC
8
DEFAULT_255_1_234
10
7.3710393
20
-0.1426303
40
1.2127388
50
171.4525249
51
180.3158839
0
ARC
8
DEFAULT_255_1_234
10
6.9315269
20
-0.0742392
40
0.7679464
50
157.9802646
51
171.6246686
0
ARC
8
DEFAULT_255_1_234
10
6.710129
20
0.0140421
40
0.5296008
50
141.4298019
51
157.854097
0
ARC
8
DEFAULT_255_1_234
10
6.645961
20
0.0594381
40
0.4511509
50
102.8715806
51
140.8564722
0
ARC
8
DEFAULT_255_1_234
10
6.7107226
20
-0.1845448
40
0.7034845
50
90.3778349
51
103.5869322
0
ARC
8
DEFAULT_255_1_234
10
6.5369002
20
-0.245027
40
0.2370698
50
89.8751008
51
126.2071704
0
ARC
8
DEFAULT_255_1_234
10
6.5414792
20
-0.2604697
40
0.2522934
50
124.9745049
51
144.895901
0
ARC
8
DEFAULT_255_1_234
10
6.5238982
20
-0.246144
40
0.2296779
50
145.2974905
51
160.2660252
0
ARC
8
DEFAULT_255_1_234
10
6.8311521
20
-0.2263929
40
0.5234525
50
179.6514266
51
190.2855912
0
ARC
8
DEFAULT_255_1_234
10
6.6617658
20
-0.2583214
40
0.3510893
50
190.0945431
51
207.5098196
0
ARC
8
DEFAULT_255_1_234
10
6.6051928
20
-0.2852377
40
0.288489
50
207.9583163
51
216.3251085
0
ARC
8
DEFAULT_255_1_234
10
6.5712036
20
-0.3131895
40
0.2445587
50
215.7661442
51
232.5456785
0
ARC
8
DEFAULT_255_1_234
10
6.5329019
20
-0.3618518
40
0.1826382
50
232.8005391
51
270.6605633
0
ARC
8
DEFAULT_255_1_234
10
6.537472
20
-0.3254388
40
0.2190529
50
269.35537
51
288.4744281
0
ARC
8
DEFAULT_255_1_234
10
6.5467617
20
-0.3603882
40
0.1829749
50
289.1833337
51
322.9683818
0
ARC
8
DEFAULT_255_1_234
10
6.4856139
20
-0.3121609
40
0.2608399
50
322.6007884
51
346.5182367
0
ARC
8
DEFAULT_255_1_234
10
6.3698735
20
-0.2826384
40
0.3802777
50
346.2582162
51
358.7741648
0
ARC
8
DEFAULT_255_1_234
10
6.2680404
20
-0.2771035
40
0.4822176
50
358.3755224
51
0.0098023
0
ARC
8
DEFAULT_255_1_234
10
6.3436591
20
-0.2743343
40
0.4066078
50
359.6214041
51
11.2839074
0
ARC
8
DEFAULT_255_1_234
10
6.4713738
20
-0.2476934
40
0.2761514
50
11.0482309
51
31.8146458
0
ARC
8
DEFAULT_255_1_234
10
6.5022781
20
-0.2309416
40
0.2410679
50
32.3035391
51
38.082671
0
ARC
8
DEFAULT_255_1_234
10
6.5443441
20
-0.1928338
40
0.1844966
50
36.825067
51
85.7415724
0
ARC
8
DEFAULT_255_1_234
10
6.5376274
20
-0.2428699
40
0.2349122
50
85.0140713
51
90.0513278
0
LINE
8
DEFAULT_255_1_234
10
7.7726983
20
0.0153343
11
7.7726983
21
-0.110764
0
LINE
8
DEFAULT_255_1_234
10
7.7726983
20
-0.110764
11
7.2658957
21
-0.110764
0
LINE
8
DEFAULT_255_1_234
10
7.2658957
20
-0.110764
11
7.2658957
21
-0.5252017
0
LINE
8
DEFAULT_255_1_234
10
7.2658957
20
-0.5252017
11
7.8546221
21
-0.5252017
0
LINE
8
DEFAULT_255_1_234
10
7.8546221
20
-0.5252017
11
7.8546221
21
-0.6513
0
LINE
8
DEFAULT_255_1_234
10
7.8546221
20
-0.6513
11
7.1116863
21
-0.6513
0
LINE
8
DEFAULT_255_1_234
10
7.1116863
20
-0.6513
11
7.1116863
21
0.5181211
0
LINE
8
DEFAULT_255_1_234
10
7.1116863
20
0.5181211
11
7.8465903
21
0.5181211
0
LINE
8
DEFAULT_255_1_234
10
7.8465903
20
0.5181211
11
7.8465903
21
0.3912196
0
LINE
8
DEFAULT_255_1_234
10
7.8465903
20
0.3912196
11
7.2658957
21
0.3912196
0
LINE
8
DEFAULT_255_1_234
10
7.2658957
20
0.3912196
11
7.2658957
21
0.0153343
0
LINE
8
DEFAULT_255_1_234
10
7.2658957
20
0.0153343
11
7.7726983
21
0.0153343
0
LINE
8
DEFAULT_255_1_234
10
8.8224465
20
0.1799849
11
8.667434
21
0.1799849
0
LINE
8
DEFAULT_255_1_234
10
7.9750981
20
-0.3123606
11
8.1301107
21
-0.3123606
0
ARC
8
DEFAULT_255_1_234
10
8.7333153
20
1.0746768
40
1.252368
50
248.9199003
51
254.1439814
0
ARC
8
DEFAULT_255_1_234
10
8.5652648
20
0.6420234
40
0.788226
50
241.633709
51
249.0064503
0
ARC
8
DEFAULT_255_1_234
10
8.4124042
20
0.3619317
40
0.4691427
50
230.498225
51
241.8087113
0
ARC
8
DEFAULT_255_1_234
10
8.3339616
20
0.2619906
40
0.3421437
50
227.4064532
51
229.9881192
0
ARC
8
DEFAULT_255_1_234
10
8.2852137
20
0.2144088
40
0.2741476
50
200.6781896
51
228.1763934
0
ARC
8
DEFAULT_255_1_234
10
8.2924447
20
0.2129077
40
0.2804109
50
179.5061581
51
199.8694617
0
ARC
8
DEFAULT_255_1_234
10
8.2915199
20
0.220321
40
0.2795204
50
132.4834203
51
181.0242172
0
ARC
8
DEFAULT_255_1_234
10
8.3510782
20
0.1640704
40
0.3612768
50
129.2532479
51
133.4242687
0
ARC
8
DEFAULT_255_1_234
10
8.3657231
20
0.1420965
40
0.3875675
50
101.98776
51
128.8742646
0
ARC
8
DEFAULT_255_1_234
10
8.4055842
20
-0.0300259
40
0.5642249
50
89.5906553
51
102.3169264
0
ARC
8
DEFAULT_255_1_234
10
8.4126334
20
0.0018148
40
0.5323783
50
77.2360837
51
90.3248275
0
ARC
8
DEFAULT_255_1_234
10
8.4333413
20
0.09854
40
0.4334697
50
63.837784
51
77.0809408
0
ARC
8
DEFAULT_255_1_234
10
8.4611175
20
0.1502911
40
0.3747796
50
45.9864267
51
64.1607727
0
ARC
8
DEFAULT_255_1_234
10
8.4872056
20
0.1800866
40
0.3352302
50
32.2747395
51
45.6547121
0
ARC
8
DEFAULT_255_1_234
10
8.4938497
20
0.181988
40
0.328603
50
359.6507365
51
32.6130309
0
ARC
8
DEFAULT_255_1_234
10
8.3995592
20
0.182466
40
0.2678863
50
359.469343
51
14.9832209
0
ARC
8
DEFAULT_255_1_234
10
8.4700654
20
0.2013539
40
0.1948938
50
14.9781179
51
48.2004265
0
ARC
8
DEFAULT_255_1_234
10
8.4536299
20
0.1806983
40
0.2212521
50
48.5927837
51
74.1241538
0
ARC
8
DEFAULT_255_1_234
10
8.4202788
20
0.0706248
40
0.3362561
50
73.7888341
51
86.6652678
0
ARC
8
DEFAULT_255_1_234
10
8.4100354
20
-0.0501119
40
0.4573953
50
86.2640471
51
90.0526343
0
ARC
8
DEFAULT_255_1_234
10
8.4072066
20
-0.0105808
40
0.4178709
50
89.6697524
51
99.2309573
0
ARC
8
DEFAULT_255_1_234
10
8.3829517
20
0.1338964
40
0.2713749
50
99.069534
51
113.7658566
0
ARC
8
DEFAULT_255_1_234
10
8.3555708
20
0.1984677
40
0.2012469
50
114.0401004
51
127.9850673
0
ARC
8
DEFAULT_255_1_234
10
8.3315272
20
0.228073
40
0.1631167
50
127.7287463
51
176.7105154
0
ARC
8
DEFAULT_255_1_234
10
8.399399
20
0.2179693
40
0.2315392
50
175.1779447
51
180.0581938
0
ARC
8
DEFAULT_255_1_234
10
8.3150836
20
0.2167428
40
0.1472271
50
179.6142195
51
228.1246017
0
ARC
8
DEFAULT_255_1_234
10
8.3592505
20
0.2576308
40
0.2072299
50
226.5779593
51
230.8800004
0
ARC
8
DEFAULT_255_1_234
10
8.4063584
20
0.3201636
40
0.2854818
50
231.4635071
51
241.9260842
0
ARC
8
DEFAULT_255_1_234
10
8.5260762
20
0.54048
40
0.53622
50
241.7178533
51
248.3259551
0
ARC
8
DEFAULT_255_1_234
10
8.6646134
20
0.8837064
40
0.9063478
50
248.2007737
51
252.4528373
0
ARC
8
DEFAULT_255_1_234
10
8.7849858
20
1.2558441
40
1.2974635
50
252.3391078
51
254.3469452
0
ARC
8
DEFAULT_255_1_234
10
8.0307561
20
-1.4418852
40
1.5037162
50
71.0197183
51
74.4087047
0
ARC
8
DEFAULT_255_1_234
10
8.2002246
20
-0.9526889
40
0.9859993
50
66.1847285
51
71.086374
0
ARC
8
DEFAULT_255_1_234
10
8.3558559
20
-0.60228
40
0.6025855
50
59.3536294
51
66.2691831
0
ARC
8
DEFAULT_255_1_234
10
8.4447211
20
-0.4519391
40
0.4279449
50
49.1020879
51
59.3293958
0
ARC
8
DEFAULT_255_1_234
10
8.5265951
20
-0.3586166
40
0.3038015
50
32.7919921
51
49.2505539
0
ARC
8
DEFAULT_255_1_234
10
8.5587041
20
-0.3357809
40
0.264448
50
31.1181161
51
32.4005348
0
ARC
8
DEFAULT_255_1_234
10
8.5498579
20
-0.3393221
40
0.2738556
50
8.1116974
51
30.7958831
0
ARC
8
DEFAULT_255_1_234
10
8.4688247
20
-0.3531247
40
0.3560327
50
359.8389159
51
8.4706516
0
ARC
8
DEFAULT_255_1_234
10
8.5314038
20
-0.3579863
40
0.2934776
50
337.4731098
51
0.7537279
0
ARC
8
DEFAULT_255_1_234
10
8.5492733
20
-0.3599613
40
0.2762607
50
307.5917067
51
336.4315538
0
ARC
8
DEFAULT_255_1_234
10
8.5032561
20
-0.3086898
40
0.3449979
50
307.6551545
51
308.4529766
0
ARC
8
DEFAULT_255_1_234
10
8.480228
20
-0.273175
40
0.3871988
50
284.3734338
51
307.1424381
0
ARC
8
DEFAULT_255_1_234
10
8.430711
20
-0.0910068
40
0.5759636
50
272.4382747
51
284.646547
0
ARC
8
DEFAULT_255_1_234
10
8.4180319
20
0.0889893
40
0.7563528
50
269.9708387
51
272.8178037
0
ARC
8
DEFAULT_255_1_234
10
8.4137358
20
-0.1148284
40
0.5525489
50
248.2707594
51
270.4055579
0
ARC
8
DEFAULT_255_1_234
10
8.40831
20
-0.1338808
40
0.5328452
50
246.1383403
51
248.0542782
0
ARC
8
DEFAULT_255_1_234
10
8.3664478
20
-0.2218157
40
0.4355005
50
233.1670131
51
246.4950969
0
ARC
8
DEFAULT_255_1_234
10
8.3110383
20
-0.2966188
40
0.3424126
50
215.3403242
51
233.0843104
0
ARC
8
DEFAULT_255_1_234
10
8.2837815
20
-0.3164451
40
0.3087104
50
179.2419209
51
215.2648451
0
ARC
8
DEFAULT_255_1_234
10
8.3605409
20
-0.3150334
40
0.2304457
50
179.335461
51
199.1045811
0
ARC
8
DEFAULT_255_1_234
10
8.3273085
20
-0.3237234
40
0.1962176
50
199.8828939
51
232.7063202
0
ARC
8
DEFAULT_255_1_234
10
8.3745353
20
-0.2643212
40
0.2720938
50
232.3738199
51
255.5136649
0
ARC
8
DEFAULT_255_1_234
10
8.408622
20
-0.1399165
40
0.4010747
50
255.2446292
51
267.5320849
0
ARC
8
DEFAULT_255_1_234
10
8.4173843
20
-0.0166298
40
0.5246356
50
267.1557994
51
270.0286766
0
ARC
8
DEFAULT_255_1_234
10
8.4201616
20
-0.061005
40
0.4802668
50
269.7000017
51
278.1660162
0
ARC
8
DEFAULT_255_1_234
10
8.445762
20
-0.2340485
40
0.3053425
50
278.0231263
51
290.625471
0
ARC
8
DEFAULT_255_1_234
10
8.4805308
20
-0.3267975
40
0.206291
50
290.6619762
51
307.0370976
0
ARC
8
DEFAULT_255_1_234
10
8.5105697
20
-0.3636496
40
0.1587906
50
306.3943566
51
355.3030547
0
ARC
8
DEFAULT_255_1_234
10
8.4593628
20
-0.3559887
40
0.2104809
50
354.3660432
51
0.0698737
0
ARC
8
DEFAULT_255_1_234
10
8.4735973
20
-0.3537383
40
0.1962563
50
359.417946
51
16.1971788
0
ARC
8
DEFAULT_255_1_234
10
8.5191284
20
-0.3412582
40
0.149053
50
16.4723299
51
52.6262157
0
ARC
8
DEFAULT_255_1_234
10
8.4370338
20
-0.4496567
40
0.2850296
50
52.7386432
51
62.4979148
0
ARC
8
DEFAULT_255_1_234
10
8.2985415
20
-0.7102717
40
0.5801521
50
62.2515216
51
68.1220564
0
ARC
8
DEFAULT_255_1_234
10
8.1265325
20
-1.1330128
40
1.0365451
50
68.0062803
51
71.8053402
0
ARC
8
DEFAULT_255_1_234
10
7.9469697
20
-1.6715242
40
1.6042013
50
71.7183119
51
73.9258742
0
LINE
8
DEFAULT_255_1_234
10
9.7388679
20
0.5181211
11
9.7388679
21
0.434591
0
LINE
8
DEFAULT_255_1_234
10
9.7388679
20
0.434591
11
9.2545541
21
-0.6513
0
LINE
8
DEFAULT_255_1_234
10
9.2545541
20
-0.6513
11
9.0987383
21
-0.6513
0
LINE
8
DEFAULT_255_1_234
10
9.0987383
20
-0.6513
11
9.5814458
21
0.3960387
0
LINE
8
DEFAULT_255_1_234
10
9.5814458
20
0.3960387
11
8.9485448
21
0.3960387
0
LINE
8
DEFAULT_255_1_234
10
8.9485448
20
0.3960387
11
8.9485448
21
0.5181211
0
LINE
8
DEFAULT_255_1_234
10
8.9485448
20
0.5181211
11
9.7388679
21
0.5181211
0
LINE
8
DEFAULT_255_1_234
10
10.5348131
20
0.5181211
11
10.5348131
21
-0.258548
0
LINE
8
DEFAULT_255_1_234
10
10.5348131
20
-0.258548
11
10.6970542
21
-0.258548
0
LINE
8
DEFAULT_255_1_234
10
10.6970542
20
-0.258548
11
10.6970542
21
-0.3798272
0
LINE
8
DEFAULT_255_1_234
10
10.6970542
20
-0.3798272
11
10.5348131
21
-0.3798272
0
LINE
8
DEFAULT_255_1_234
10
10.5348131
20
-0.3798272
11
10.5348131
21
-0.6513
0
LINE
8
DEFAULT_255_1_234
10
10.5348131
20
-0.6513
11
10.3854228
21
-0.6513
0
LINE
8
DEFAULT_255_1_234
10
10.3854228
20
-0.6513
11
10.3854228
21
-0.3798272
0
LINE
8
DEFAULT_255_1_234
10
10.3854228
20
-0.3798272
11
9.8529186
21
-0.3798272
0
LINE
8
DEFAULT_255_1_234
10
9.8529186
20
-0.3798272
11
9.8529186
21
-0.2922813
0
LINE
8
DEFAULT_255_1_234
10
9.8529186
20
-0.2922813
11
10.3765879
21
0.5181211
0
LINE
8
DEFAULT_255_1_234
10
10.3765879
20
0.5181211
11
10.5348131
21
0.5181211
0
LINE
8
DEFAULT_255_1_234
10
10.367753
20
0.2827912
11
10.0215851
21
-0.258548
0
LINE
8
DEFAULT_255_1_234
10
10.0215851
20
-0.258548
11
10.3854228
21
-0.258548
0
LINE
8
DEFAULT_255_1_234
10
10.3854228
20
-0.258548
11
10.3854228
21
0.3149181
0
LINE
8
DEFAULT_255_1_234
10
10.3854228
20
0.3149181
11
10.367753
21
0.2827912
0
LINE
8
DEFAULT_255_1_234
10
11.458463
20
0.5181211
11
11.458463
21
-0.258548
0
LINE
8
DEFAULT_255_1_234
10
11.458463
20
-0.258548
11
11.6207042
21
-0.258548
0
LINE
8
DEFAULT_255_1_234
10
11.6207042
20
-0.258548
11
11.6207042
21
-0.3798272
0
LINE
8
DEFAULT_255_1_234
10
11.6207042
20
-0.3798272
11
11.458463
21
-0.3798272
0
LINE
8
DEFAULT_255_1_234
10
11.458463
20
-0.3798272
11
11.458463
21
-0.6513
0
LINE
8
DEFAULT_255_1_234
10
11.458463
20
-0.6513
11
11.3090727
21
-0.6513
0
LINE
8
DEFAULT_255_1_234
10
11.3090727
20
-0.6513
11
11.3090727
21
-0.3798272
0
LINE
8
DEFAULT_255_1_234
10
11.3090727
20
-0.3798272
11
10.7765685
21
-0.3798272
0
LINE
8
DEFAULT_255_1_234
10
10.7765685
20
-0.3798272
11
10.7765685
21
-0.2922813
0
LINE
8
DEFAULT_255_1_234
10
10.7765685
20
-0.2922813
11
11.3002378
21
0.5181211
0
LINE
8
DEFAULT_255_1_234
10
11.3002378
20
0.5181211
11
11.458463
21
0.5181211
0
LINE
8
DEFAULT_255_1_234
10
11.2914029
20
0.2827912
11
10.945235
21
-0.258548
0
LINE
8
DEFAULT_255_1_234
10
10.945235
20
-0.258548
11
11.3090727
21
-0.258548
0
LINE
8
DEFAULT_255_1_234
10
11.3090727
20
-0.258548
11
11.3090727
21
0.3149181
0
LINE
8
DEFAULT_255_1_234
10
11.3090727
20
0.3149181
11
11.2914029
21
0.2827912
0
LINE
8
DEFAULT_255_1_234
10
12.2431639
20
0.5237433
11
12.2431639
21
-0.6513
0
LINE
8
DEFAULT_255_1_234
10
12.2431639
20
-0.6513
11
12.0937735
21
-0.6513
0
LINE
8
DEFAULT_255_1_234
10
12.0937735
20
-0.6513
11
12.0937735
21
0.3390133
0
LINE
8
DEFAULT_255_1_234
10
12.0937735
20
0.3390133
11
11.7941897
21
0.2289785
0
LINE
8
DEFAULT_255_1_234
10
11.7941897
20
0.2289785
11
11.7941897
21
0.3639117
0
LINE
8
DEFAULT_255_1_234
10
11.7941897
20
0.3639117
11
12.2198718
21
0.5237433
0
LINE
8
DEFAULT_255_1_234
10
12.2198718
20
0.5237433
11
12.2431639
21
0.5237433
0
LINE
8
DEFAULT_255_1_234
10
13.0029663
20
-0.0938974
11
13.0029663
21
-0.2151766
0
LINE
8
DEFAULT_255_1_234
10
13.0029663
20
-0.2151766
11
12.6110175
21
-0.2151766
0
LINE
8
DEFAULT_255_1_234
10
12.6110175
20
-0.2151766
11
12.6110175
21
-0.0938974
0
LINE
8
DEFAULT_255_1_234
10
12.6110175
20
-0.0938974
11
13.0029663
21
-0.0938974
0
LINE
8
DEFAULT_255_1_234
10
13.620607
20
0.5237433
11
13.620607
21
-0.6513
0
LINE
8
DEFAULT_255_1_234
10
13.620607
20
-0.6513
11
13.4712167
21
-0.6513
0
LINE
8
DEFAULT_255_1_234
10
13.4712167
20
-0.6513
11
13.4712167
21
0.3390133
0
LINE
8
DEFAULT_255_1_234
10
13.4712167
20
0.3390133
11
13.1716328
21
0.2289785
0
LINE
8
DEFAULT_255_1_234
10
13.1716328
20
0.2289785
11
13.1716328
21
0.3639117
0
LINE
8
DEFAULT_255_1_234
10
13.1716328
20
0.3639117
11
13.5973149
21
0.5237433
0
LINE
8
DEFAULT_255_1_234
10
13.5973149
20
0.5237433
11
13.620607
21
0.5237433
0
LINE
8
DEFAULT_255_1_234
10
14.8518725
20
-0.6513
11
14.7402313
21
-0.3460939
0
LINE
8
DEFAULT_255_1_234
10
14.7402313
20
-0.3460939
11
14.2502953
21
-0.3460939
0
LINE
8
DEFAULT_255_1_234
10
14.2502953
20
-0.3460939
11
14.1402604
21
-0.6513
0
LINE
8
DEFAULT_255_1_234
10
14.1402604
20
-0.6513
11
13.981232
21
-0.6513
0
LINE
8
DEFAULT_255_1_234
10
13.981232
20
-0.6513
11
14.4277967
21
0.5181211
0
LINE
8
DEFAULT_255_1_234
10
14.4277967
20
0.5181211
11
14.5627299
21
0.5181211
0
LINE
8
DEFAULT_255_1_234
10
14.5627299
20
0.5181211
11
15.0100977
21
-0.6513
0
LINE
8
DEFAULT_255_1_234
10
15.0100977
20
-0.6513
11
14.8518725
21
-0.6513
0
LINE
8
DEFAULT_255_1_234
10
14.4952633
20
0.3277689
11
14.2968793
21
-0.2191925
0
LINE
8
DEFAULT_255_1_234
10
14.2968793
20
-0.2191925
11
14.6944504
21
-0.2191925
0
LINE
8
DEFAULT_255_1_234
10
14.6944504
20
-0.2191925
11
14.4952633
21
0.3277689
0
LINE
8
DEFAULT_255_1_234
10
15.9249127
20
-0.6513
11
15.8132715
21
-0.3460939
0
LINE
8
DEFAULT_255_1_234
10
15.8132715
20
-0.3460939
11
15.3233355
21
-0.3460939
0
LINE
8
DEFAULT_255_1_234
10
15.3233355
20
-0.3460939
11
15.2133007
21
-0.6513
0
LINE
8
DEFAULT_255_1_234
10
15.2133007
20
-0.6513
11
15.0542723
21
-0.6513
0
LINE
8
DEFAULT_255_1_234
10
15.0542723
20
-0.6513
11
15.5008369
21
0.5181211
0
LINE
8
DEFAULT_255_1_234
10
15.5008369
20
0.5181211
11
15.6357701
21
0.5181211
0
LINE
8
DEFAULT_255_1_234
10
15.6357701
20
0.5181211
11
16.0831379
21
-0.6513
0
LINE
8
DEFAULT_255_1_234
10
16.0831379
20
-0.6513
11
15.9249127
21
-0.6513
0
LINE
8
DEFAULT_255_1_234
10
15.5683035
20
0.3277689
11
15.3699196
21
-0.2191925
0
LINE
8
DEFAULT_255_1_234
10
15.3699196
20
-0.2191925
11
15.7674906
21
-0.2191925
0
LINE
8
DEFAULT_255_1_234
10
15.7674906
20
-0.2191925
11
15.5683035
21
0.3277689
0
LINE
8
DEFAULT_255_1_234
10
16.9353054
20
0.0402327
11
16.9353054
21
-0.1525291
0
LINE
8
DEFAULT_255_1_234
10
16.1971886
20
-0.1726084
11
16.1971886
21
0.0257755
0
LINE
8
DEFAULT_255_1_234
10
16.7867182
20
-0.1926877
11
16.7867182
21
0.0506739
0
LINE
8
DEFAULT_255_1_234
10
16.3457758
20
0.0619184
11
16.3457758
21
-0.1758211
0
ARC
8
DEFAULT_255_1_234
10
15.7105943
20
-0.1574195
40
1.2247208
50
353.8441951
51
0.2287902
0
ARC
8
DEFAULT_255_1_234
10
16.1745447
20
-0.2092194
40
0.7578929
50
344.4934747
51
353.9765454
0
ARC
8
DEFAULT_255_1_234
10
16.4738037
20
-0.2943019
40
0.4467846
50
329.2803592
51
344.7472793
0
ARC
8
DEFAULT_255_1_234
10
16.5730862
20
-0.3487982
40
0.3336173
50
324.9352394
51
328.6160465
0
ARC
8
DEFAULT_255_1_234
10
16.6107971
20
-0.3751573
40
0.2876076
50
280.580143
51
324.9173126
0
ARC
8
DEFAULT_255_1_234
10
16.5706763
20
-0.2080901
40
0.4592847
50
269.5977311
51
281.6734359
0
ARC
8
DEFAULT_255_1_234
10
16.5634669
20
-0.2200827
40
0.4472986
50
256.6228859
51
270.51044
0
ARC
8
DEFAULT_255_1_234
10
16.5232647
20
-0.3749123
40
0.2873874
50
215.8618325
51
257.2788573
0
ARC
8
DEFAULT_255_1_234
10
16.6253678
20
-0.3064023
40
0.4102928
50
197.9693508
51
215.2623606
0
ARC
8
DEFAULT_255_1_234
10
16.8738794
20
-0.2225291
40
0.6725652
50
187.8816417
51
198.2346507
0
ARC
8
DEFAULT_255_1_234
10
17.2697002
20
-0.1653921
40
1.0724845
50
180.8976217
51
188.0055519
0
ARC
8
DEFAULT_255_1_234
10
17.549719
20
-0.1550223
40
1.3526448
50
180.7449369
51
181.1510016
0
ARC
8
DEFAULT_255_1_234
10
17.3919919
20
0.0306042
40
1.1948131
50
173.7675579
51
180.231553
0
ARC
8
DEFAULT_255_1_234
10
16.9402066
20
0.0816666
40
0.7401564
50
164.3058563
51
173.9002247
0
ARC
8
DEFAULT_255_1_234
10
16.6490135
20
0.1655656
40
0.4371288
50
148.7922025
51
164.568378
0
ARC
8
DEFAULT_255_1_234
10
16.5538587
20
0.2186929
40
0.3282386
50
144.5883898
51
148.1176286
0
ARC
8
DEFAULT_255_1_234
10
16.5195485
20
0.2426315
40
0.2864044
50
101.6440918
51
144.514236
0
ARC
8
DEFAULT_255_1_234
10
16.5620552
20
0.0737069
40
0.4604934
50
89.5284041
51
102.5819763
0
ARC
8
DEFAULT_255_1_234
10
16.5699639
20
0.0698018
40
0.464401
50
77.0437873
51
90.5081339
0
ARC
8
DEFAULT_255_1_234
10
16.6101641
20
0.2340615
40
0.2953195
50
48.2778575
51
77.4994676
0
ARC
8
DEFAULT_255_1_234
10
16.6174273
20
0.2469746
40
0.2808655
50
36.3142134
51
47.6305865
0
ARC
8
DEFAULT_255_1_234
10
16.530558
20
0.1884515
40
0.3855453
50
18.2931786
51
35.6769206
0
ARC
8
DEFAULT_255_1_234
10
16.2762338
20
0.1011593
40
0.654423
50
8.024666
51
18.5605216
0
ARC
8
DEFAULT_255_1_234
10
15.8599258
20
0.0396792
40
1.0752407
50
1.1274072
51
8.1718305
0
ARC
8
DEFAULT_255_1_234
10
15.5363449
20
0.0269885
40
1.3990231
50
0.5424119
51
1.3863029
0
ARC
8
DEFAULT_255_1_234
10
15.7184827
20
0.0542342
40
1.0682415
50
359.8090433
51
4.9407866
0
ARC
8
DEFAULT_255_1_234
10
16.1394841
20
0.0918113
40
0.6455691
50
4.8362157
51
12.2904523
0
ARC
8
DEFAULT_255_1_234
10
16.4149956
20
0.1531965
40
0.3633074
50
12.0805627
51
23.8173984
0
ARC
8
DEFAULT_255_1_234
10
16.5323661
20
0.2028919
40
0.2358723
50
24.2871213
51
31.3935614
0
ARC
8
DEFAULT_255_1_234
10
16.5848358
20
0.2372233
40
0.1732111
50
30.7407893
51
82.4657128
0
ARC
8
DEFAULT_255_1_234
10
16.5668492
20
0.1488691
40
0.263235
50
81.1060089
51
90.2184952
0
ARC
8
DEFAULT_255_1_234
10
16.5632791
20
0.1746924
40
0.2374236
50
89.3806855
51
105.6762551
0
ARC
8
DEFAULT_255_1_234
10
16.5449422
20
0.2413567
40
0.1682847
50
105.7981136
51
149.7388061
0
ARC
8
DEFAULT_255_1_234
10
16.65135
20
0.177395
40
0.2924306
50
149.4208916
51
163.6286378
0
ARC
8
DEFAULT_255_1_234
10
16.8604388
20
0.113625
40
0.5110213
50
163.3763315
51
172.1410975
0
ARC
8
DEFAULT_255_1_234
10
17.1905107
20
0.0663518
40
0.8444586
50
172.0259487
51
178.0703232
0
ARC
8
DEFAULT_255_1_234
10
17.4935197
20
0.0519906
40
1.1477868
50
177.8631668
51
179.5044149
0
ARC
8
DEFAULT_255_1_234
10
17.3862601
20
-0.1794611
40
1.0404907
50
179.7995573
51
185.2460446
0
ARC
8
DEFAULT_255_1_234
10
16.9819641
20
-0.2177487
40
0.6343885
50
185.1411642
51
193.0079639
0
ARC
8
DEFAULT_255_1_234
10
16.7176113
20
-0.2802359
40
0.3627568
50
192.7897626
51
205.2507664
0
ARC
8
DEFAULT_255_1_234
10
16.612966
20
-0.3269585
40
0.2481908
50
205.8005384
51
211.2537509
0
ARC
8
DEFAULT_255_1_234
10
16.5606101
20
-0.362042
40
0.1852521
50
210.3789793
51
238.4008143
0
ARC
8
DEFAULT_255_1_234
10
16.5586622
20
-0.3573624
40
0.1882621
50
239.6520629
51
265.9793761
0
ARC
8
DEFAULT_255_1_234
10
16.5671823
20
-0.2901573
40
0.2559272
50
265.1315437
51
270.060332
0
ARC
8
DEFAULT_255_1_234
10
16.5700601
20
-0.3225466
40
0.2235528
50
269.3314664
51
287.2178029
0
ARC
8
DEFAULT_255_1_234
10
16.5838453
20
-0.3728721
40
0.1714108
50
287.7958004
51
329.080874
0
ARC
8
DEFAULT_255_1_234
10
16.488091
20
-0.313107
40
0.2842745
50
328.6634704
51
343.3325132
0
ARC
8
DEFAULT_255_1_234
10
16.270793
20
-0.2454137
40
0.5118644
50
343.0499468
51
351.9393422
0
ARC
8
DEFAULT_255_1_234
10
15.924123
20
-0.1943051
40
0.8622784
50
351.8069023
51
357.7959224
0
ARC
8
DEFAULT_255_1_234
10
15.6005786
20
-0.1775279
40
1.1862365
50
357.5871873
51
359.2677531
0
LINE
8
DEFAULT_255_1_234
10
17.3127971
20
-0.0955037
11
17.1939273
21
-0.0649831
0
LINE
8
DEFAULT_255_1_234
10
17.1939273
20
-0.0649831
11
17.2533622
21
0.5181211
0
LINE
8
DEFAULT_255_1_234
10
17.2533622
20
0.5181211
11
17.8525299
21
0.5181211
0
LINE
8
DEFAULT_255_1_234
10
17.8525299
20
0.5181211
11
17.8525299
21
0.3807784
0
LINE
8
DEFAULT_255_1_234
10
17.8525299
20
0.3807784
11
17.3794605
21
0.3807784
0
LINE
8
DEFAULT_255_1_234
10
17.3794605
20
0.3807784
11
17.3441208
21
0.0619184
0
LINE
8
DEFAULT_255_1_234
10
17.1521623
20
-0.3436844
11
17.2927177
21
-0.3436844
0
LINE
8
DEFAULT_255_1_234
10
17.3521526
20
-0.0633768
11
17.3127971
21
-0.0955037
0
ARC
8
DEFAULT_255_1_234
10
17.5295992
20
-0.256077
40
0.3681349
50
93.7182161
51
120.2538958
0
ARC
8
DEFAULT_255_1_234
10
17.5390255
20
-0.3368606
40
0.449379
50
89.9660152
51
94.2496022
0
ARC
8
DEFAULT_255_1_234
10
17.5430989
20
-0.2779451
40
0.390482
50
73.8043271
51
90.5585896
0
ARC
8
DEFAULT_255_1_234
10
17.5665886
20
-0.1921398
40
0.3015334
50
41.3071453
51
73.5430202
0
ARC
8
DEFAULT_255_1_234
10
17.5249714
20
-0.2279676
40
0.3564457
50
13.5075983
51
41.2174222
0
ARC
8
DEFAULT_255_1_234
10
17.3607917
20
-0.2709514
40
0.5261351
50
1.1331335
51
13.8829381
0
ARC
8
DEFAULT_255_1_234
10
17.2196286
20
-0.2785335
40
0.6674378
50
359.9919444
51
1.544251
0
ARC
8
DEFAULT_255_1_234
10
17.3473113
20
-0.282672
40
0.5397702
50
347.8572367
51
0.4293338
0
ARC
8
DEFAULT_255_1_234
10
17.522343
20
-0.3223264
40
0.3603188
50
323.673004
51
348.1672506
0
ARC
8
DEFAULT_255_1_234
10
17.5517938
20
-0.3402832
40
0.3259678
50
316.8171152
51
323.1492751
0
ARC
8
DEFAULT_255_1_234
10
17.5579127
20
-0.343954
40
0.3189975
50
281.8396411
51
316.5457803
0
ARC
8
DEFAULT_255_1_234
10
17.5203391
20
-0.1884238
40
0.4789527
50
269.5770101
51
282.4214771
0
ARC
8
DEFAULT_255_1_234
10
17.5132203
20
-0.2097875
40
0.45759
50
256.2427136
51
270.4486331
0
ARC
8
DEFAULT_255_1_234
10
17.4833105
20
-0.3297771
40
0.3339303
50
228.9023911
51
256.3314342
0
ARC
8
DEFAULT_255_1_234
10
17.4759338
20
-0.3414254
40
0.32031
50
193.753695
51
228.5271154
0
ARC
8
DEFAULT_255_1_234
10
17.5997292
20
-0.30512
40
0.4492253
50
184.924711
51
194.497588
0
ARC
8
DEFAULT_255_1_234
10
17.6189858
20
-0.3015409
40
0.3289787
50
187.3600538
51
198.6732863
0
ARC
8
DEFAULT_255_1_234
10
17.5140152
20
-0.3379326
40
0.217884
50
198.4451669
51
217.794479
0
ARC
8
DEFAULT_255_1_234
10
17.4844328
20
-0.3588915
40
0.1816698
50
218.2887171
51
228.5612368
0
ARC
8
DEFAULT_255_1_234
10
17.4942115
20
-0.3457037
40
0.1980329
50
228.9654866
51
258.1234728
0
ARC
8
DEFAULT_255_1_234
10
17.5147825
20
-0.2576167
40
0.2884748
50
257.7258293
51
270.401361
0
ARC
8
DEFAULT_255_1_234
10
17.5192711
20
-0.3021179
40
0.2439788
50
269.4204404
51
286.4209037
0
ARC
8
DEFAULT_255_1_234
10
17.5341198
20
-0.3560343
40
0.1880666
50
286.7251356
51
320.600362
0
ARC
8
DEFAULT_255_1_234
10
17.4958023
20
-0.3249405
40
0.2374121
50
320.6712579
51
344.5441685
0
ARC
8
DEFAULT_255_1_234
10
17.380135
20
-0.2909955
40
0.3579479
50
344.2412205
51
356.7357071
0
ARC
8
DEFAULT_255_1_234
10
17.2552498
20
-0.2806556
40
0.4832297
50
356.3548756
51
0.0500261
0
ARC
8
DEFAULT_255_1_234
10
17.3889007
20
-0.277535
40
0.3495889
50
359.5576869
51
12.953486
0
ARC
8
DEFAULT_255_1_234
10
17.4943905
20
-0.2519566
40
0.2410532
50
12.6490276
51
41.6081334
0
ARC
8
DEFAULT_255_1_234
10
17.5174276
20
-0.2323679
40
0.2108218
50
41.7850273
51
85.9892764
0
ARC
8
DEFAULT_255_1_234
10
17.5051012
20
-0.3136538
40
0.2928454
50
84.6957577
51
90.0676183
0
ARC
8
DEFAULT_255_1_234
10
17.5027496
20
-0.3805284
40
0.3597255
50
89.6804936
51
99.1614436
0
ARC
8
DEFAULT_255_1_234
10
17.4822128
20
-0.2577869
40
0.235281
50
98.9830931
51
113.8908934
0
ARC
8
DEFAULT_255_1_234
10
17.4592538
20
-0.2036413
40
0.176479
50
114.1950727
51
127.3641004
0
LINE
8
DEFAULT_255_1_234
10
18.3737897
20
-0.0938974
11
18.3737897
21
-0.2151766
0
LINE
8
DEFAULT_255_1_234
10
18.3737897
20
-0.2151766
11
17.9818409
21
-0.2151766
0
LINE
8
DEFAULT_255_1_234
10
17.9818409
20
-0.2151766
11
17.9818409
21
-0.0938974
0
LINE
8
DEFAULT_255_1_234
10
17.9818409
20
-0.0938974
11
18.3737897
21
-0.0938974
0
LINE
8
DEFAULT_255_1_234
10
19.2363984
20
0.0402327
11
19.2363984
21
-0.1525291
0
LINE
8
DEFAULT_255_1_234
10
18.4982816
20
-0.1726084
11
18.4982816
21
0.0257755
0
LINE
8
DEFAULT_255_1_234
10
19.0878112
20
-0.1926877
11
19.0878112
21
0.0506739
0
LINE
8
DEFAULT_255_1_234
10
18.6468688
20
0.0619184
11
18.6468688
21
-0.1758211
0
ARC
8
DEFAULT_255_1_234
10
18.0116873
20
-0.1574195
40
1.2247208
50
353.8441951
51
0.2287902
0
ARC
8
DEFAULT_255_1_234
10
18.4756377
20
-0.2092194
40
0.7578929
50
344.4934747
51
353.9765454
0
ARC
8
DEFAULT_255_1_234
10
18.7748967
20
-0.2943019
40
0.4467846
50
329.2803592
51
344.7472793
0
ARC
8
DEFAULT_255_1_234
10
18.8741792
20
-0.3487982
40
0.3336173
50
324.9352394
51
328.6160465
0
ARC
8
DEFAULT_255_1_234
10
18.9118901
20
-0.3751573
40
0.2876076
50
280.580143
51
324.9173126
0
ARC
8
DEFAULT_255_1_234
10
18.8717693
20
-0.2080901
40
0.4592847
50
269.5977311
51
281.6734359
0
ARC
8
DEFAULT_255_1_234
10
18.8645599
20
-0.2200827
40
0.4472986
50
256.6228859
51
270.51044
0
ARC
8
DEFAULT_255_1_234
10
18.8243577
20
-0.3749123
40
0.2873874
50
215.8618325
51
257.2788573
0
ARC
8
DEFAULT_255_1_234
10
18.9264609
20
-0.3064023
40
0.4102928
50
197.9693508
51
215.2623606
0
ARC
8
DEFAULT_255_1_234
10
19.1749724
20
-0.2225291
40
0.6725652
50
187.8816417
51
198.2346507
0
ARC
8
DEFAULT_255_1_234
10
19.5707932
20
-0.1653921
40
1.0724845
50
180.8976217
51
188.0055519
0
ARC
8
DEFAULT_255_1_234
10
19.8508121
20
-0.1550223
40
1.3526448
50
180.7449369
51
181.1510016
0
ARC
8
DEFAULT_255_1_234
10
19.693085
20
0.0306042
40
1.1948131
50
173.7675579
51
180.231553
0
ARC
8
DEFAULT_255_1_234
10
19.2412996
20
0.0816666
40
0.7401564
50
164.3058563
51
173.9002247
0
ARC
8
DEFAULT_255_1_234
10
18.9501065
20
0.1655656
40
0.4371288
50
148.7922025
51
164.568378
0
ARC
8
DEFAULT_255_1_234
10
18.8549517
20
0.2186929
40
0.3282386
50
144.5883898
51
148.1176286
0
ARC
8
DEFAULT_255_1_234
10
18.8206415
20
0.2426315
40
0.2864044
50
101.6440918
51
144.514236
0
ARC
8
DEFAULT_255_1_234
10
18.8631482
20
0.0737069
40
0.4604934
50
89.5284041
51
102.5819763
0
ARC
8
DEFAULT_255_1_234
10
18.871057
20
0.0698018
40
0.464401
50
77.0437873
51
90.5081339
0
ARC
8
DEFAULT_255_1_234
10
18.9112571
20
0.2340615
40
0.2953195
50
48.2778575
51
77.4994676
0
ARC
8
DEFAULT_255_1_234
10
18.9185203
20
0.2469746
40
0.2808655
50
36.3142134
51
47.6305865
0
ARC
8
DEFAULT_255_1_234
10
18.831651
20
0.1884515
40
0.3855453
50
18.2931786
51
35.6769206
0
ARC
8
DEFAULT_255_1_234
10
18.5773268
20
0.1011593
40
0.654423
50
8.024666
51
18.5605216
0
ARC
8
DEFAULT_255_1_234
10
18.1610189
20
0.0396792
40
1.0752407
50
1.1274072
51
8.1718305
0
ARC
8
DEFAULT_255_1_234
10
17.8374379
20
0.0269885
40
1.3990231
50
0.5424119
51
1.3863029
0
ARC
8
DEFAULT_255_1_234
10
18.0195757
20
0.0542342
40
1.0682415
50
359.8090433
51
4.9407866
0
ARC
8
DEFAULT_255_1_234
10
18.4405771
20
0.0918113
40
0.6455691
50
4.8362157
51
12.2904523
0
ARC
8
DEFAULT_255_1_234
10
18.7160886
20
0.1531965
40
0.3633074
50
12.0805627
51
23.8173984
0
ARC
8
DEFAULT_255_1_234
10
18.8334591
20
0.2028919
40
0.2358723
50
24.2871213
51
31.3935614
0
ARC
8
DEFAULT_255_1_234
10
18.8859288
20
0.2372233
40
0.1732111
50
30.7407893
51
82.4657128
0
ARC
8
DEFAULT_255_1_234
10
18.8679423
20
0.1488691
40
0.263235
50
81.1060089
51
90.2184952
0
ARC
8
DEFAULT_255_1_234
10
18.8643721
20
0.1746924
40
0.2374236
50
89.3806855
51
105.6762551
0
ARC
8
DEFAULT_255_1_234
10
18.8460352
20
0.2413567
40
0.1682847
50
105.7981136
51
149.7388061
0
ARC
8
DEFAULT_255_1_234
10
18.952443
20
0.177395
40
0.2924306
50
149.4208916
51
163.6286378
0
ARC
8
DEFAULT_255_1_234
10
19.1615318
20
0.113625
40
0.5110213
50
163.3763315
51
172.1410975
0
ARC
8
DEFAULT_255_1_234
10
19.4916037
20
0.0663518
40
0.8444586
50
172.0259487
51
178.0703232
0
ARC
8
DEFAULT_255_1_234
10
19.7946127
20
0.0519906
40
1.1477868
50
177.8631668
51
179.5044149
0
ARC
8
DEFAULT_255_1_234
10
19.6873531
20
-0.1794611
40
1.0404907
50
179.7995573
51
185.2460446
0
ARC
8
DEFAULT_255_1_234
10
19.2830571
20
-0.2177487
40
0.6343885
50
185.1411642
51
193.0079639
0
ARC
8
DEFAULT_255_1_234
10
19.0187043
20
-0.2802359
40
0.3627568
50
192.7897626
51
205.2507664
0
ARC
8
DEFAULT_255_1_234
10
18.914059
20
-0.3269585
40
0.2481908
50
205.8005384
51
211.2537509
0
ARC
8
DEFAULT_255_1_234
10
18.8617031
20
-0.362042
40
0.1852521
50
210.3789793
51
238.4008143
0
ARC
8
DEFAULT_255_1_234
10
18.8597553
20
-0.3573624
40
0.1882621
50
239.6520629
51
265.9793761
0
ARC
8
DEFAULT_255_1_234
10
18.8682753
20
-0.2901573
40
0.2559272
50
265.1315437
51
270.060332
0
ARC
8
DEFAULT_255_1_234
10
18.8711532
20
-0.3225466
40
0.2235528
50
269.3314664
51
287.2178029
0
ARC
8
DEFAULT_255_1_234
10
18.8849384
20
-0.3728721
40
0.1714108
50
287.7958004
51
329.080874
0
ARC
8
DEFAULT_255_1_234
10
18.789184
20
-0.313107
40
0.2842745
50
328.6634704
51
343.3325132
0
ARC
8
DEFAULT_255_1_234
10
18.571886
20
-0.2454137
40
0.5118644
50
343.0499468
51
351.9393422
0
ARC
8
DEFAULT_255_1_234
10
18.225216
20
-0.1943051
40
0.8622784
50
351.8069023
51
357.7959224
0
ARC
8
DEFAULT_255_1_234
10
17.9016716
20
-0.1775279
40
1.1862365
50
357.5871873
51
359.2677531
0
LINE
8
DEFAULT_255_1_234
10
20.2226958
20
-0.6513
11
20.1110547
21
-0.3460939
0
LINE
8
DEFAULT_255_1_234
10
20.1110547
20
-0.3460939
11
19.6211187
21
-0.3460939
0
LINE
8
DEFAULT_255_1_234
10
19.6211187
20
-0.3460939
11
19.5110838
21
-0.6513
0
LINE
8
DEFAULT_255_1_234
10
19.5110838
20
-0.6513
11
19.3520554
21
-0.6513
0
LINE
8
DEFAULT_255_1_234
10
19.3520554
20
-0.6513
11
19.7986201
21
0.5181211
0
LINE
8
DEFAULT_255_1_234
10
19.7986201
20
0.5181211
11
19.9335533
21
0.5181211
0
LINE
8
DEFAULT_255_1_234
10
19.9335533
20
0.5181211
11
20.3809211
21
-0.6513
0
LINE
8
DEFAULT_255_1_234
10
20.3809211
20
-0.6513
11
20.2226958
21
-0.6513
0
LINE
8
DEFAULT_255_1_234
10
19.8660867
20
0.3277689
11
19.6677027
21
-0.2191925
0
LINE
8
DEFAULT_255_1_234
10
19.6677027
20
-0.2191925
11
20.0652738
21
-0.2191925
0
LINE
8
DEFAULT_255_1_234
10
20.0652738
20
-0.2191925
11
19.8660867
21
0.3277689
0
LINE
8
DEFAULT_255_1_234
10
21.1993552
20
0.0153343
11
21.1993552
21
-0.110764
0
LINE
8
DEFAULT_255_1_234
10
21.1993552
20
-0.110764
11
20.6925525
21
-0.110764
0
LINE
8
DEFAULT_255_1_234
10
20.6925525
20
-0.110764
11
20.6925525
21
-0.5252017
0
LINE
8
DEFAULT_255_1_234
10
20.6925525
20
-0.5252017
11
21.281279
21
-0.5252017
0
LINE
8
DEFAULT_255_1_234
10
21.281279
20
-0.5252017
11
21.281279
21
-0.6513
0
LINE
8
DEFAULT_255_1_234
10
21.281279
20
-0.6513
11
20.5383432
21
-0.6513
0
LINE
8
DEFAULT_255_1_234
10
20.5383432
20
-0.6513
11
20.5383432
21
0.5181211
0
LINE
8
DEFAULT_255_1_234
10
20.5383432
20
0.5181211
11
21.2732472
21
0.5181211
0
LINE
8
DEFAULT_255_1_234
10
21.2732472
20
0.5181211
11
21.2732472
21
0.3912196
0
LINE
8
DEFAULT_255_1_234
10
21.2732472
20
0.3912196
11
20.6925525
21
0.3912196
0
LINE
8
DEFAULT_255_1_234
10
20.6925525
20
0.3912196
11
20.6925525
21
0.0153343
0
LINE
8
DEFAULT_255_1_234
10
20.6925525
20
0.0153343
11
21.1993552
21
0.0153343
0
LINE
8
DEFAULT_255_1_234
10
22.1679829
20
0.0402327
11
22.1679829
21
-0.1525291
0
LINE
8
DEFAULT_255_1_234
10
21.4298661
20
-0.1726084
11
21.4298661
21
0.0257755
0
LINE
8
DEFAULT_255_1_234
10
22.0193957
20
-0.1926877
11
22.0193957
21
0.0506739
0
LINE
8
DEFAULT_255_1_234
10
21.5784533
20
0.0619184
11
21.5784533
21
-0.1758211
0
ARC
8
DEFAULT_255_1_234
10
20.9432718
20
-0.1574195
40
1.2247208
50
353.8441951
51
0.2287902
0
ARC
8
DEFAULT_255_1_234
10
21.4072222
20
-0.2092194
40
0.7578929
50
344.4934747
51
353.9765454
0
ARC
8
DEFAULT_255_1_234
10
21.7064812
20
-0.2943019
40
0.4467846
50
329.2803592
51
344.7472793
0
ARC
8
DEFAULT_255_1_234
10
21.8057637
20
-0.3487982
40
0.3336173
50
324.9352394
51
328.6160465
0
ARC
8
DEFAULT_255_1_234
10
21.8434746
20
-0.3751573
40
0.2876076
50
280.580143
51
324.9173126
0
ARC
8
DEFAULT_255_1_234
10
21.8033538
20
-0.2080901
40
0.4592847
50
269.5977311
51
281.6734359
0
ARC
8
DEFAULT_255_1_234
10
21.7961444
20
-0.2200827
40
0.4472986
50
256.6228859
51
270.51044
0
ARC
8
DEFAULT_255_1_234
10
21.7559422
20
-0.3749123
40
0.2873874
50
215.8618325
51
257.2788573
0
ARC
8
DEFAULT_255_1_234
10
21.8580453
20
-0.3064023
40
0.4102928
50
197.9693508
51
215.2623606
0
ARC
8
DEFAULT_255_1_234
10
22.1065569
20
-0.2225291
40
0.6725652
50
187.8816417
51
198.2346507
0
ARC
8
DEFAULT_255_1_234
10
22.5023777
20
-0.1653921
40
1.0724845
50
180.8976217
51
188.0055519
0
ARC
8
DEFAULT_255_1_234
10
22.7823965
20
-0.1550223
40
1.3526448
50
180.7449369
51
181.1510016
0
ARC
8
DEFAULT_255_1_234
10
22.6246694
20
0.0306042
40
1.1948131
50
173.7675579
51
180.231553
0
ARC
8
DEFAULT_255_1_234
10
22.1728841
20
0.0816666
40
0.7401564
50
164.3058563
51
173.9002247
0
ARC
8
DEFAULT_255_1_234
10
21.881691
20
0.1655656
40
0.4371288
50
148.7922025
51
164.568378
0
ARC
8
DEFAULT_255_1_234
10
21.7865362
20
0.2186929
40
0.3282386
50
144.5883898
51
148.1176286
0
ARC
8
DEFAULT_255_1_234
10
21.752226
20
0.2426315
40
0.2864044
50
101.6440918
51
144.514236
0
ARC
8
DEFAULT_255_1_234
10
21.7947327
20
0.0737069
40
0.4604934
50
89.5284041
51
102.5819763
0
ARC
8
DEFAULT_255_1_234
10
21.8026414
20
0.0698018
40
0.464401
50
77.0437873
51
90.5081339
0
ARC
8
DEFAULT_255_1_234
10
21.8428416
20
0.2340615
40
0.2953195
50
48.2778575
51
77.4994676
0
ARC
8
DEFAULT_255_1_234
10
21.8501047
20
0.2469746
40
0.2808655
50
36.3142134
51
47.6305865
0
ARC
8
DEFAULT_255_1_234
10
21.7632354
20
0.1884515
40
0.3855453
50
18.2931786
51
35.6769206
0
ARC
8
DEFAULT_255_1_234
10
21.5089113
20
0.1011593
40
0.654423
50
8.024666
51
18.5605216
0
ARC
8
DEFAULT_255_1_234
10
21.0926033
20
0.0396792
40
1.0752407
50
1.1274072
51
8.1718305
0
ARC
8
DEFAULT_255_1_234
10
20.7690224
20
0.0269885
40
1.3990231
50
0.5424119
51
1.3863029
0
ARC
8
DEFAULT_255_1_234
10
20.9511602
20
0.0542342
40
1.0682415
50
359.8090433
51
4.9407866
0
ARC
8
DEFAULT_255_1_234
10
21.3721616
20
0.0918113
40
0.6455691
50
4.8362157
51
12.2904523
0
ARC
8
DEFAULT_255_1_234
10
21.6476731
20
0.1531965
40
0.3633074
50
12.0805627
51
23.8173984
0
ARC
8
DEFAULT_255_1_234
10
21.7650436
20
0.2028919
40
0.2358723
50
24.2871213
51
31.3935614
0
ARC
8
DEFAULT_255_1_234
10
21.8175133
20
0.2372233
40
0.1732111
50
30.7407893
51
82.4657128
0
ARC
8
DEFAULT_255_1_234
10
21.7995267
20
0.1488691
40
0.263235
50
81.1060089
51
90.2184952
0
ARC
8
DEFAULT_255_1_234
10
21.7959566
20
0.1746924
40
0.2374236
50
89.3806855
51
105.6762551
0
ARC
8
DEFAULT_255_1_234
10
21.7776197
20
0.2413567
40
0.1682847
50
105.7981136
51
149.7388061
0
ARC
8
DEFAULT_255_1_234
10
21.8840275
20
0.177395
40
0.2924306
50
149.4208916
51
163.6286378
0
ARC
8
DEFAULT_255_1_234
10
22.0931163
20
0.113625
40
0.5110213
50
163.3763315
51
172.1410975
0
ARC
8
DEFAULT_255_1_234
10
22.4231882
20
0.0663518
40
0.8444586
50
172.0259487
51
178.0703232
0
ARC
8
DEFAULT_255_1_234
10
22.7261972
20
0.0519906
40
1.1477868
50
177.8631668
51
179.5044149
0
ARC
8
DEFAULT_255_1_234
10
22.6189376
20
-0.1794611
40
1.0404907
50
179.7995573
51
185.2460446
0
ARC
8
DEFAULT_255_1_234
10
22.2146416
20
-0.2177487
40
0.6343885
50
185.1411642
51
193.0079639
0
ARC
8
DEFAULT_255_1_234
10
21.9502888
20
-0.2802359
40
0.3627568
50
192.7897626
51
205.2507664
0
ARC
8
DEFAULT_255_1_234
10
21.8456435
20
-0.3269585
40
0.2481908
50
205.8005384
51
211.2537509
0
ARC
8
DEFAULT_255_1_234
10
21.7932876
20
-0.362042
40
0.1852521
50
210.3789793
51
238.4008143
0
ARC
8
DEFAULT_255_1_234
10
21.7913397
20
-0.3573624
40
0.1882621
50
239.6520629
51
265.9793761
0
ARC
8
DEFAULT_255_1_234
10
21.7998598
20
-0.2901573
40
0.2559272
50
265.1315437
51
270.060332
0
ARC
8
DEFAULT_255_1_234
10
21.8027376
20
-0.3225466
40
0.2235528
50
269.3314664
51
287.2178029
0
ARC
8
DEFAULT_255_1_234
10
21.8165228
20
-0.3728721
40
0.1714108
50
287.7958004
51
329.080874
0
ARC
8
DEFAULT_255_1_234
10
21.7207685
20
-0.313107
40
0.2842745
50
328.6634704
51
343.3325132
0
ARC
8
DEFAULT_255_1_234
10
21.5034705
20
-0.2454137
40
0.5118644
50
343.0499468
51
351.9393422
0
ARC
8
DEFAULT_255_1_234
10
21.1568005
20
-0.1943051
40
0.8622784
50
351.8069023
51
357.7959224
0
ARC
8
DEFAULT_255_1_234
10
20.8332561
20
-0.1775279
40
1.1862365
50
357.5871873
51
359.2677531
0
ARC
8
DEFAULT_255_2_778
10
7.7537338
20
52.3387992
40
3.0484709
50
251.6854144
51
258.6071955
0
ARC
8
DEFAULT_255_2_778
10
7.539521
20
51.2571738
40
1.9458471
50
258.4992492
51
268.3986479
0
ARC
8
DEFAULT_255_2_778
10
7.5172314
20
50.8269206
40
1.5151737
50
268.7865272
51
269.9950384
0
ARC
8
DEFAULT_255_2_778
10
7.5277432
20
50.3757355
40
1.0640417
50
269.426895
51
279.6711067
0
ARC
8
DEFAULT_255_2_778
10
7.6417753
20
49.7461746
40
0.4243233
50
278.7731084
51
300.3324923
0
ARC
8
DEFAULT_255_2_778
10
7.760746
20
49.5435552
40
0.1893587
50
300.2240287
51
1.9041213
0
ARC
8
DEFAULT_255_2_778
10
7.7452705
20
49.5527089
40
0.2047497
50
359.1991369
51
359.99965
0
ARC
8
DEFAULT_255_2_778
10
7.7523233
20
49.5535378
40
0.1976988
50
359.7594145
51
47.1793976
0
ARC
8
DEFAULT_255_2_778
10
7.6187277
20
49.404931
40
0.3975169
50
47.6144502
51
60.8366176
0
ARC
8
DEFAULT_255_2_778
10
7.0190958
20
48.3889865
40
1.5771337
50
59.799464
51
64.8885807
0
ARC
8
DEFAULT_255_2_778
10
6.0948833
20
46.4599682
40
3.7160912
50
64.6076081
51
66.8386974
0
ARC
8
DEFAULT_255_2_778
10
9.6419609
20
54.8230052
40
5.368109
50
244.3032309
51
247.1393781
0
ARC
8
DEFAULT_255_2_778
10
8.5507088
20
52.563018
40
2.8584574
50
240.2323579
51
244.3709759
0
ARC
8
DEFAULT_255_2_778
10
7.7800475
20
51.2261591
40
1.315392
50
233.2209971
51
240.4606284
0
ARC
8
DEFAULT_255_2_778
10
7.3561477
20
50.6550187
40
0.6041399
50
225.6990744
51
232.9899679
0
ARC
8
DEFAULT_255_2_778
10
7.3965073
20
50.6794214
40
0.6499005
50
178.2783416
51
224.6550883
0
ARC
8
DEFAULT_255_2_778
10
7.5059624
20
50.7127974
40
0.7591885
50
157.033673
51
181.0453383
0
ARC
8
DEFAULT_255_2_778
10
7.378439
20
50.7536396
40
0.6259551
50
124.9113017
51
155.9211516
0
ARC
8
DEFAULT_255_2_778
10
7.5960466
20
50.4450681
40
1.0035357
50
100.4079723
51
125.0168617
0
ARC
8
DEFAULT_255_2_778
10
7.6991199
20
49.9510046
40
1.5081396
50
89.6483922
51
100.8684975
0
ARC
8
DEFAULT_255_2_778
10
7.7083242
20
49.5987988
40
1.8603169
50
89.5079487
51
89.9984402
0
ARC
8
DEFAULT_255_2_778
10
7.7099573
20
49.5335694
40
1.9255311
50
83.9170631
51
89.5732113
0
ARC
8
DEFAULT_255_2_778
10
7.5071517
20
47.5259957
40
3.9433074
50
80.7325723
51
84.0779772
0
ARC
8
DEFAULT_255_2_778
10
7.0208457
20
44.503082
40
7.0050837
50
78.5086351
51
80.7886813
0
ARC
8
DEFAULT_255_2_778
10
7.6620177
20
49.1025544
40
1.9415426
50
67.135818
51
78.0934208
0
ARC
8
DEFAULT_255_2_778
10
7.7851814
20
49.6729809
40
1.3579807
50
78.2126325
51
89.7333975
0
ARC
8
DEFAULT_255_2_778
10
7.7793853
20
50.0881211
40
0.9429038
50
89.2638155
51
100.5666868
0
ARC
8
DEFAULT_255_2_778
10
7.6660949
20
50.6579419
40
0.362036
50
99.4784875
51
124.329414
0
ARC
8
DEFAULT_255_2_778
10
7.5705593
20
50.806051
40
0.1859067
50
125.7571195
51
182.2824883
0
ARC
8
DEFAULT_255_2_778
10
7.5493239
20
50.7993629
40
0.1645253
50
180.2492993
51
239.8144161
0
ARC
8
DEFAULT_255_2_778
10
7.932718
20
51.3994128
40
0.876484
50
237.8725734
51
242.8068846
0
ARC
8
DEFAULT_255_2_778
10
9.4175857
20
54.2159958
40
4.0604642
50
242.3328458
51
244.031083
0
ARC
8
DEFAULT_255_2_778
10
12.3804066
20
60.2644314
40
10.7955807
50
243.950624
51
244.8024316
0
ARC
8
DEFAULT_255_2_778
10
15.4009918
20
66.6484175
40
17.8580926
50
244.7535425
51
244.9563234
0
ARC
8
DEFAULT_255_2_778
10
5.8652927
20
46.1468264
40
4.7527588
50
62.2505456
51
65.4301556
0
ARC
8
DEFAULT_255_2_778
10
6.9275435
20
48.1549172
40
2.4810291
50
57.2951304
51
62.3684211
0
ARC
8
DEFAULT_255_2_778
10
7.6807233
20
49.3182235
40
1.0952081
50
48.7345704
51
57.5685367
0
ARC
8
DEFAULT_255_2_778
10
8.0117486
20
49.7057722
40
0.5856147
50
44.3236031
51
48.0704418
0
ARC
8
DEFAULT_255_2_778
10
7.9783002
20
49.6857468
40
0.6236013
50
1.3523843
51
43.4925744
0
ARC
8
DEFAULT_255_2_778
10
7.7103531
20
49.6528151
40
0.8926473
50
359.9763756
51
3.0599076
0
ARC
8
DEFAULT_255_2_778
10
7.8645343
20
49.6377407
40
0.7386124
50
333.0361889
51
1.1408766
0
ARC
8
DEFAULT_255_2_778
10
7.8947908
20
49.6446919
40
0.7150741
50
300.8430083
51
331.4403095
0
ARC
8
DEFAULT_255_2_778
10
7.694568
20
49.9582162
40
1.0869673
50
281.4258583
51
301.4316118
0
ARC
8
DEFAULT_255_2_778
10
7.5632666
20
50.5664414
40
1.7091691
50
270.2273513
51
281.7010805
0
ARC
8
DEFAULT_255_2_778
10
7.5453797
20
51.0431043
40
2.1859577
50
269.9983113
51
270.6466065
0
LINE
8
DEFAULT_255_2_778
10
7.5453153
20
48.8571465
11
7.5438002
21
48.857147
0
ARC
8
DEFAULT_255_2_778
10
7.5509161
20
52.0400969
40
3.1829579
50
256.2431122
51
269.871909
0
ARC
8
DEFAULT_255_2_778
10
21.7538511
20
52.2646629
40
2.9720345
50
251.5709223
51
258.7508181
0
ARC
8
DEFAULT_255_2_778
10
21.5538128
20
51.2414385
40
1.9294488
50
258.6495077
51
268.8281511
0
ARC
8
DEFAULT_255_2_778
10
21.5355488
20
50.8466193
40
1.5343723
50
269.2085037
51
269.9981866
0
ARC
8
DEFAULT_255_2_778
10
21.5473849
20
50.3782184
40
1.0660376
50
269.3612297
51
279.5899087
0
ARC
8
DEFAULT_255_2_778
10
21.6608439
20
49.7467324
40
0.424527
50
278.6895227
51
300.2363944
0
ARC
8
DEFAULT_255_2_778
10
21.7799083
20
49.5432793
40
0.188796
50
300.1108484
51
1.9024905
0
ARC
8
DEFAULT_255_2_778
10
21.7439577
20
49.5539221
40
0.2246851
50
358.8842611
51
0.0019649
0
ARC
8
DEFAULT_255_2_778
10
21.7769791
20
49.5578385
40
0.1917038
50
358.831716
51
47.0900458
0
ARC
8
DEFAULT_255_2_778
10
21.6364654
20
49.398484
40
0.4041259
50
47.8812665
51
61.174665
0
ARC
8
DEFAULT_255_2_778
10
21.0418848
20
48.3785117
40
1.5846568
50
60.1210877
51
65.1917015
0
ARC
8
DEFAULT_255_2_778
10
20.1415278
20
46.4729122
40
3.6922188
50
64.9168629
51
67.1565628
0
ARC
8
DEFAULT_255_2_778
10
23.6275467
20
54.7444888
40
5.2839333
50
244.2656926
51
247.1407051
0
ARC
8
DEFAULT_255_2_778
10
22.5594997
20
52.536265
40
2.8309849
50
240.1545061
51
244.3326325
0
ARC
8
DEFAULT_255_2_778
10
21.7856548
20
51.2002346
40
1.2870531
50
232.697515
51
240.4357497
0
ARC
8
DEFAULT_255_2_778
10
21.3705506
20
50.6492218
40
0.5972006
50
225.5850892
51
232.3393736
0
ARC
8
DEFAULT_255_2_778
10
21.4133941
20
50.6787933
40
0.6483829
50
178.7795739
51
224.7095916
0
ARC
8
DEFAULT_255_2_778
10
21.6669319
20
50.7028135
40
0.9018316
50
179.997867
51
180.6487041
0
ARC
8
DEFAULT_255_2_778
10
21.5167738
20
50.7166249
40
0.7517998
50
156.9195758
51
181.050088
0
ARC
8
DEFAULT_255_2_778
10
21.3928482
20
50.7560712
40
0.6224513
50
124.7111133
51
155.7879672
0
ARC
8
DEFAULT_255_2_778
10
21.6055459
20
50.4641942
40
0.9835402
50
101.7934503
51
125.2143527
0
ARC
8
DEFAULT_255_2_778
10
21.729848
20
49.9116326
40
1.5498677
50
89.5248728
51
102.1166783
0
ARC
8
DEFAULT_255_2_778
10
21.7283109
20
49.3580834
40
2.1034129
50
83.2889725
51
89.6080411
0
ARC
8
DEFAULT_255_2_778
10
21.529975
20
47.5902668
40
3.8823067
50
79.4764054
51
83.4308492
0
ARC
8
DEFAULT_255_2_778
10
21.2186357
20
45.8370673
40
5.6628977
50
78.2224868
51
79.6190915
0
ARC
8
DEFAULT_255_2_778
10
21.6838473
20
49.1145715
40
1.9311543
50
67.1323814
51
78.3148813
0
ARC
8
DEFAULT_255_2_778
10
21.801359
20
49.6660614
40
1.3672981
50
78.4565774
51
89.7552271
0
ARC
8
DEFAULT_255_2_778
10
21.7951366
20
50.096947
40
0.9364778
50
89.2619009
51
100.5950934
0
ARC
8
DEFAULT_255_2_778
10
21.6824182
20
50.6624169
40
0.3599879
50
99.5087086
51
124.406715
0
ARC
8
DEFAULT_255_2_778
10
21.5878565
20
50.808843
40
0.1858061
50
125.8630185
51
182.2986975
0
ARC
8
DEFAULT_255_2_778
10
21.5497296
20
50.8013047
40
0.1475296
50
179.9666559
51
180.100057
0
ARC
8
DEFAULT_255_2_778
10
21.566185
20
50.801293
40
0.163985
50
180.0859454
51
239.8819968
0
ARC
8
DEFAULT_255_2_778
10
21.9379018
20
51.3880619
40
0.8584853
50
238.072871
51
243.0442008
0
ARC
8
DEFAULT_255_2_778
10
23.4872034
20
54.3530845
40
4.2038426
50
242.5409111
51
244.1884903
0
ARC
8
DEFAULT_255_2_778
10
26.6463384
20
60.847696
40
11.4260319
50
244.1076525
51
244.9219574
0
ARC
8
DEFAULT_255_2_778
10
29.9038827
20
67.771355
40
19.0777309
50
244.8743531
51
245.066969
0
ARC
8
DEFAULT_255_2_778
10
19.8865272
20
46.1791274
40
4.7250654
50
62.0340028
51
65.293009
0
ARC
8
DEFAULT_255_2_778
10
20.9507744
20
48.1740758
40
2.464003
50
57.1127289
51
62.13736
0
ARC
8
DEFAULT_255_2_778
10
21.7037139
20
49.3277906
40
1.0863604
50
48.3695509
51
57.4197129
0
ARC
8
DEFAULT_255_2_778
10
22.0286268
20
49.7045419
40
0.5889589
50
44.472493
51
47.6467012
0
ARC
8
DEFAULT_255_2_778
10
21.9979457
20
49.6874032
40
0.6229283
50
1.2061613
51
43.6203607
0
ARC
8
DEFAULT_255_2_778
10
21.7312413
20
49.6549903
40
0.890659
50
359.9779196
51
2.9299178
0
ARC
8
DEFAULT_255_2_778
10
21.8802547
20
49.6398837
40
0.7417924
50
333.172934
51
1.140392
0
ARC
8
DEFAULT_255_2_778
10
21.9146167
20
49.6445736
40
0.7135172
50
300.9808035
51
331.5913995
0
ARC
8
DEFAULT_255_2_778
10
21.7182603
20
49.9544862
40
1.0803281
50
281.9040909
51
301.4483918
0
ARC
8
DEFAULT_255_2_778
10
21.5848425
20
50.5530518
40
1.6935565
50
270.5796874
51
282.1436175
0
ARC
8
DEFAULT_255_2_778
10
21.5636722
20
51.0479735
40
2.1887267
50
269.9959074
51
271.0027751
0
LINE
8
DEFAULT_255_2_778
10
21.5635158
20
48.8592468
11
21.5625002
21
48.859247
0
ARC
8
DEFAULT_255_2_778
10
21.5700221
20
52.0480174
40
3.1887792
50
256.2556596
51
269.8648469
0
LINE
8
DEFAULT_255_2_778
10
6.7958002
20
48.950047
11
6.7958002
21
49.444747
0
LINE
8
DEFAULT_255_2_778
10
8.4164002
20
51.367747
11
8.4164002
21
50.891547
0
LINE
8
DEFAULT_255_2_778
10
6.7940002
20
48.948447
11
6.7958002
21
48.950047
0
LINE
8
DEFAULT_255_2_778
10
8.9866002
20
51.417247
11
9.6629002
21
51.417247
0
LINE
8
DEFAULT_255_2_778
10
9.6629002
20
51.417247
11
9.6629002
21
48.909847
0
LINE
8
DEFAULT_255_2_778
10
9.6629002
20
48.909847
11
8.9866002
21
48.909847
0
LINE
8
DEFAULT_255_2_778
10
8.9866002
20
48.909847
11
8.9866002
21
51.417247
0
LINE
8
DEFAULT_255_2_778
10
10.2809002
20
48.909847
11
10.2809002
21
51.417247
0
LINE
8
DEFAULT_255_2_778
10
10.2809002
20
51.417247
11
12.0132002
21
51.417247
0
LINE
8
DEFAULT_255_2_778
10
12.0132002
20
51.417247
11
12.0132002
21
50.963547
0
LINE
8
DEFAULT_255_2_778
10
12.0132002
20
50.963547
11
10.9321002
21
50.963547
0
LINE
8
DEFAULT_255_2_778
10
10.9321002
20
50.963547
11
10.9321002
21
50.397247
0
LINE
8
DEFAULT_255_2_778
10
10.9321002
20
50.397247
11
11.8735002
21
50.397247
0
LINE
8
DEFAULT_255_2_778
10
11.8735002
20
50.397247
11
11.8735002
21
49.983747
0
LINE
8
DEFAULT_255_2_778
10
11.8735002
20
49.983747
11
10.9321002
21
49.983747
0
LINE
8
DEFAULT_255_2_778
10
10.9321002
20
49.983747
11
10.9321002
21
49.388447
0
LINE
8
DEFAULT_255_2_778
10
10.9321002
20
49.388447
11
12.0412002
21
49.388447
0
LINE
8
DEFAULT_255_2_778
10
12.0412002
20
49.388447
11
12.0412002
21
48.908247
0
LINE
8
DEFAULT_255_2_778
10
12.0412002
20
48.908247
11
10.2809002
21
48.909847
0
LINE
8
DEFAULT_255_2_778
10
12.4817002
20
48.909847
11
12.4817002
21
51.417247
0
LINE
8
DEFAULT_255_2_778
10
12.4817002
20
51.417247
11
13.3575002
21
51.417247
0
LINE
8
DEFAULT_255_2_778
10
13.3575002
20
51.417247
11
13.9671002
21
49.814947
0
LINE
8
DEFAULT_255_2_778
10
13.9671002
20
49.814947
11
14.5897002
21
51.417247
0
LINE
8
DEFAULT_255_2_778
10
14.5897002
20
51.417247
11
15.4215002
21
51.417247
0
LINE
8
DEFAULT_255_2_778
10
15.4215002
20
51.417247
11
15.4215002
21
48.909847
0
LINE
8
DEFAULT_255_2_778
10
15.4215002
20
48.909847
11
14.7812002
21
48.909847
0
LINE
8
DEFAULT_255_2_778
10
14.7812002
20
48.909847
11
14.7812002
21
50.685647
0
LINE
8
DEFAULT_255_2_778
10
14.7812002
20
50.685647
11
14.0724002
21
48.885447
0
LINE
8
DEFAULT_255_2_778
10
14.0724002
20
48.885447
11
13.6515002
21
48.885447
0
LINE
8
DEFAULT_255_2_778
10
13.6515002
20
48.885447
11
12.9559002
21
50.685647
0
LINE
8
DEFAULT_255_2_778
10
12.9559002
20
50.685647
11
12.9559002
21
48.909547
0
LINE
8
DEFAULT_255_2_778
10
12.9559002
20
48.909547
11
12.4817002
21
48.909847
0
LINE
8
DEFAULT_255_2_778
10
16.0409002
20
48.909847
11
16.0409002
21
51.417247
0
LINE
8
DEFAULT_255_2_778
10
16.0409002
20
51.417247
11
17.7731002
21
51.417247
0
LINE
8
DEFAULT_255_2_778
10
17.7731002
20
51.417247
11
17.7731002
21
50.963547
0
LINE
8
DEFAULT_255_2_778
10
17.7731002
20
50.963547
11
16.6921002
21
50.963547
0
LINE
8
DEFAULT_255_2_778
10
16.6921002
20
50.963547
11
16.6921002
21
50.397247
0
LINE
8
DEFAULT_255_2_778
10
16.6921002
20
50.397247
11
17.6334002
21
50.397247
0
LINE
8
DEFAULT_255_2_778
10
17.6334002
20
50.397247
11
17.6334002
21
49.983747
0
LINE
8
DEFAULT_255_2_778
10
17.6334002
20
49.983747
11
16.6921002
21
49.983747
0
LINE
8
DEFAULT_255_2_778
10
16.6921002
20
49.983747
11
16.6921002
21
49.388447
0
LINE
8
DEFAULT_255_2_778
10
16.6921002
20
49.388447
11
17.8030002
21
49.388447
0
LINE
8
DEFAULT_255_2_778
10
17.8030002
20
49.388447
11
17.8030002
21
48.908247
0
LINE
8
DEFAULT_255_2_778
10
17.8030002
20
48.908247
11
16.0409002
21
48.909847
0
LINE
8
DEFAULT_255_2_778
10
18.2454002
20
48.909847
11
18.2454002
21
51.417247
0
LINE
8
DEFAULT_255_2_778
10
18.2454002
20
51.417247
11
19.0283002
21
51.417247
0
LINE
8
DEFAULT_255_2_778
10
19.0283002
20
51.417247
11
19.8586002
21
49.738447
0
LINE
8
DEFAULT_255_2_778
10
19.8586002
20
49.738447
11
19.8586002
21
51.417247
0
LINE
8
DEFAULT_255_2_778
10
19.8586002
20
51.417247
11
20.3343002
21
51.417247
0
LINE
8
DEFAULT_255_2_778
10
20.3343002
20
51.417247
11
20.3343002
21
48.909847
0
LINE
8
DEFAULT_255_2_778
10
20.3343002
20
48.909847
11
19.5739002
21
48.909847
0
LINE
8
DEFAULT_255_2_778
10
19.5739002
20
48.909847
11
18.7214002
21
50.611047
0
LINE
8
DEFAULT_255_2_778
10
18.7214002
20
50.611047
11
18.7214002
21
48.909847
0
LINE
8
DEFAULT_255_2_778
10
18.7214002
20
48.909847
11
18.2454002
21
48.909847
0
LINE
8
DEFAULT_255_2_778
10
20.8143002
20
48.950247
11
20.8143002
21
49.445047
0
LINE
8
DEFAULT_255_2_778
10
22.3745002
20
51.380747
11
22.4343002
21
51.370147
0
LINE
8
DEFAULT_255_2_778
10
22.4343002
20
51.370147
11
22.4343002
21
50.893947
0
LINE
8
DEFAULT_255_2_778
10
20.8124002
20
48.950547
11
20.8143002
21
48.950247
0
LINE
8
DEFAULT_255_1_234
10
9.1313023
20
47.1434849
11
8.9762897
21
47.1434849
0
LINE
8
DEFAULT_255_1_234
10
8.2839539
20
46.6511394
11
8.4389665
21
46.6511394
0
ARC
8
DEFAULT_255_1_234
10
9.042171
20
48.0381768
40
1.252368
50
248.9199003
51
254.1439814
0
ARC
8
DEFAULT_255_1_234
10
8.8741205
20
47.6055234
40
0.788226
50
241.633709
51
249.0064503
0
ARC
8
DEFAULT_255_1_234
10
8.72126
20
47.3254317
40
0.4691427
50
230.498225
51
241.8087113
0
ARC
8
DEFAULT_255_1_234
10
8.6428174
20
47.2254906
40
0.3421437
50
227.4064532
51
229.9881192
0
ARC
8
DEFAULT_255_1_234
10
8.5940694
20
47.1779088
40
0.2741476
50
200.6781896
51
228.1763934
0
ARC
8
DEFAULT_255_1_234
10
8.6013005
20
47.1764077
40
0.2804109
50
179.5061581
51
199.8694617
0
ARC
8
DEFAULT_255_1_234
10
8.6003757
20
47.183821
40
0.2795204
50
132.4834203
51
181.0242172
0
ARC
8
DEFAULT_255_1_234
10
8.6599339
20
47.1275704
40
0.3612768
50
129.2532479
51
133.4242687
0
ARC
8
DEFAULT_255_1_234
10
8.6745789
20
47.1055965
40
0.3875675
50
101.98776
51
128.8742646
0
ARC
8
DEFAULT_255_1_234
10
8.7144399
20
46.9334741
40
0.5642249
50
89.5906553
51
102.3169264
0
ARC
8
DEFAULT_255_1_234
10
8.7214891
20
46.9653148
40
0.5323783
50
77.2360837
51
90.3248275
0
ARC
8
DEFAULT_255_1_234
10
8.7421971
20
47.06204
40
0.4334697
50
63.837784
51
77.0809408
0
ARC
8
DEFAULT_255_1_234
10
8.7699732
20
47.1137911
40
0.3747796
50
45.9864267
51
64.1607727
0
ARC
8
DEFAULT_255_1_234
10
8.7960614
20
47.1435866
40
0.3352302
50
32.2747395
51
45.6547121
0
ARC
8
DEFAULT_255_1_234
10
8.8027054
20
47.145488
40
0.328603
50
359.6507365
51
32.6130309
0
ARC
8
DEFAULT_255_1_234
10
8.708415
20
47.145966
40
0.2678863
50
359.469343
51
14.9832209
0
ARC
8
DEFAULT_255_1_234
10
8.7789212
20
47.1648539
40
0.1948938
50
14.9781179
51
48.2004265
0
ARC
8
DEFAULT_255_1_234
10
8.7624856
20
47.1441983
40
0.2212521
50
48.5927837
51
74.1241538
0
ARC
8
DEFAULT_255_1_234
10
8.7291346
20
47.0341248
40
0.3362561
50
73.7888341
51
86.6652678
0
ARC
8
DEFAULT_255_1_234
10
8.7188911
20
46.9133881
40
0.4573953
50
86.2640471
51
90.0526343
0
ARC
8
DEFAULT_255_1_234
10
8.7160624
20
46.9529192
40
0.4178709
50
89.6697524
51
99.2309573
0
ARC
8
DEFAULT_255_1_234
10
8.6918075
20
47.0973964
40
0.2713749
50
99.069534
51
113.7658566
0
ARC
8
DEFAULT_255_1_234
10
8.6644266
20
47.1619677
40
0.2012469
50
114.0401004
51
127.9850673
0
ARC
8
DEFAULT_255_1_234
10
8.640383
20
47.191573
40
0.1631167
50
127.7287463
51
176.7105154
0
ARC
8
DEFAULT_255_1_234
10
8.7082547
20
47.1814693
40
0.2315392
50
175.1779447
51
180.0581938
0
ARC
8
DEFAULT_255_1_234
10
8.6239394
20
47.1802428
40
0.1472271
50
179.6142195
51
228.1246017
0
ARC
8
DEFAULT_255_1_234
10
8.6681063
20
47.2211308
40
0.2072299
50
226.5779593
51
230.8800004
0
ARC
8
DEFAULT_255_1_234
10
8.7152141
20
47.2836636
40
0.2854818
50
231.4635071
51
241.9260842
0
ARC
8
DEFAULT_255_1_234
10
8.8349319
20
47.50398
40
0.53622
50
241.7178533
51
248.3259551
0
ARC
8
DEFAULT_255_1_234
10
8.9734691
20
47.8472064
40
0.9063478
50
248.2007737
51
252.4528373
0
ARC
8
DEFAULT_255_1_234
10
9.0938416
20
48.2193441
40
1.2974635
50
252.3391078
51
254.3469452
0
ARC
8
DEFAULT_255_1_234
10
8.3396119
20
45.5216148
40
1.5037162
50
71.0197183
51
74.4087047
0
ARC
8
DEFAULT_255_1_234
10
8.5090804
20
46.0108111
40
0.9859993
50
66.1847285
51
71.086374
0
ARC
8
DEFAULT_255_1_234
10
8.6647116
20
46.36122
40
0.6025855
50
59.3536294
51
66.2691831
0
ARC
8
DEFAULT_255_1_234
10
8.7535769
20
46.5115609
40
0.4279449
50
49.1020879
51
59.3293958
0
ARC
8
DEFAULT_255_1_234
10
8.8354509
20
46.6048834
40
0.3038015
50
32.7919921
51
49.2505539
0
ARC
8
DEFAULT_255_1_234
10
8.8675599
20
46.6277191
40
0.264448
50
31.1181161
51
32.4005348
0
ARC
8
DEFAULT_255_1_234
10
8.8587136
20
46.6241779
40
0.2738556
50
8.1116974
51
30.7958831
0
ARC
8
DEFAULT_255_1_234
10
8.7776804
20
46.6103753
40
0.3560327
50
359.8389159
51
8.4706516
0
ARC
8
DEFAULT_255_1_234
10
8.8402596
20
46.6055137
40
0.2934776
50
337.4731098
51
0.7537279
0
ARC
8
DEFAULT_255_1_234
10
8.8581291
20
46.6035387
40
0.2762607
50
307.5917067
51
336.4315538
0
ARC
8
DEFAULT_255_1_234
10
8.8121119
20
46.6548102
40
0.3449979
50
307.6551545
51
308.4529766
0
ARC
8
DEFAULT_255_1_234
10
8.7890838
20
46.690325
40
0.3871988
50
284.3734338
51
307.1424381
0
ARC
8
DEFAULT_255_1_234
10
8.7395668
20
46.8724932
40
0.5759636
50
272.4382747
51
284.646547
0
ARC
8
DEFAULT_255_1_234
10
8.7268876
20
47.0524893
40
0.7563528
50
269.9708387
51
272.8178037
0
ARC
8
DEFAULT_255_1_234
10
8.7225916
20
46.8486716
40
0.5525489
50
248.2707594
51
270.4055579
0
ARC
8
DEFAULT_255_1_234
10
8.7171657
20
46.8296192
40
0.5328452
50
246.1383403
51
248.0542782
0
ARC
8
DEFAULT_255_1_234
10
8.6753036
20
46.7416843
40
0.4355005
50
233.1670131
51
246.4950969
0
ARC
8
DEFAULT_255_1_234
10
8.6198941
20
46.6668812
40
0.3424126
50
215.3403242
51
233.0843104
0
ARC
8
DEFAULT_255_1_234
10
8.5926372
20
46.6470549
40
0.3087104
50
179.2419209
51
215.2648451
0
ARC
8
DEFAULT_255_1_234
10
8.6693966
20
46.6484666
40
0.2304457
50
179.335461
51
199.1045811
0
ARC
8
DEFAULT_255_1_234
10
8.6361643
20
46.6397766
40
0.1962176
50
199.8828939
51
232.7063202
0
ARC
8
DEFAULT_255_1_234
10
8.6833911
20
46.6991788
40
0.2720938
50
232.3738199
51
255.5136649
0
ARC
8
DEFAULT_255_1_234
10
8.7174778
20
46.8235835
40
0.4010747
50
255.2446292
51
267.5320849
0
ARC
8
DEFAULT_255_1_234
10
8.7262401
20
46.9468702
40
0.5246356
50
267.1557994
51
270.0286766
0
ARC
8
DEFAULT_255_1_234
10
8.7290173
20
46.902495
40
0.4802668
50
269.7000017
51
278.1660162
0
ARC
8
DEFAULT_255_1_234
10
8.7546178
20
46.7294515
40
0.3053425
50
278.0231263
51
290.625471
0
ARC
8
DEFAULT_255_1_234
10
8.7893865
20
46.6367025
40
0.206291
50
290.6619762
51
307.0370976
0
ARC
8
DEFAULT_255_1_234
10
8.8194254
20
46.5998504
40
0.1587906
50
306.3943566
51
355.3030547
0
ARC
8
DEFAULT_255_1_234
10
8.7682186
20
46.6075113
40
0.2104809
50
354.3660432
51
0.0698737
0
ARC
8
DEFAULT_255_1_234
10
8.7824531
20
46.6097617
40
0.1962563
50
359.417946
51
16.1971788
0
ARC
8
DEFAULT_255_1_234
10
8.8279841
20
46.6222418
40
0.149053
50
16.4723299
51
52.6262157
0
ARC
8
DEFAULT_255_1_234
10
8.7458895
20
46.5138433
40
0.2850296
50
52.7386432
51
62.4979148
0
ARC
8
DEFAULT_255_1_234
10
8.6073972
20
46.2532283
40
0.5801521
50
62.2515216
51
68.1220564
0
ARC
8
DEFAULT_255_1_234
10
8.4353883
20
45.8304872
40
1.0365451
50
68.0062803
51
71.8053402
0
ARC
8
DEFAULT_255_1_234
10
8.2558255
20
45.2919758
40
1.6042013
50
71.7183119
51
73.9258742
0
LINE
8
DEFAULT_255_1_234
10
9.4967464
20
47.4816211
11
9.4967464
21
46.3122
0
LINE
8
DEFAULT_255_1_234
10
9.4967464
20
46.3122
11
9.342537
21
46.3122
0
LINE
8
DEFAULT_255_1_234
10
9.342537
20
46.3122
11
9.342537
21
47.4816211
0
LINE
8
DEFAULT_255_1_234
10
9.342537
20
47.4816211
11
9.4967464
21
47.4816211
0
LINE
8
DEFAULT_255_1_234
10
9.7786604
20
47.4816211
11
9.9778475
21
47.4816211
0
LINE
8
DEFAULT_255_1_234
10
9.9778475
20
47.4816211
11
10.3601583
21
46.5274506
0
LINE
8
DEFAULT_255_1_234
10
10.3601583
20
46.5274506
11
10.742469
21
47.4816211
0
LINE
8
DEFAULT_255_1_234
10
10.742469
20
47.4816211
11
10.9424593
21
47.4816211
0
LINE
8
DEFAULT_255_1_234
10
10.9424593
20
47.4816211
11
10.9424593
21
46.3122
0
LINE
8
DEFAULT_255_1_234
10
10.9424593
20
46.3122
11
10.7882499
21
46.3122
0
LINE
8
DEFAULT_255_1_234
10
10.7882499
20
46.3122
11
10.7882499
21
46.7675996
0
LINE
8
DEFAULT_255_1_234
10
10.7882499
20
46.7675996
11
10.802707
21
47.2591419
0
LINE
8
DEFAULT_255_1_234
10
10.802707
20
47.2591419
11
10.4187899
21
46.3122
0
LINE
8
DEFAULT_255_1_234
10
10.4187899
20
46.3122
11
10.3007234
21
46.3122
0
LINE
8
DEFAULT_255_1_234
10
10.3007234
20
46.3122
11
9.9176095
21
47.2567324
0
LINE
8
DEFAULT_255_1_234
10
9.9176095
20
47.2567324
11
9.9328698
21
46.7675996
0
LINE
8
DEFAULT_255_1_234
10
9.9328698
20
46.7675996
11
9.9328698
21
46.3122
0
LINE
8
DEFAULT_255_1_234
10
9.9328698
20
46.3122
11
9.7786604
21
46.3122
0
LINE
8
DEFAULT_255_1_234
10
9.7786604
20
46.3122
11
9.7786604
21
47.4816211
0
LINE
8
DEFAULT_255_1_234
10
11.9865853
20
46.3122
11
11.8749441
21
46.6174061
0
LINE
8
DEFAULT_255_1_234
10
11.8749441
20
46.6174061
11
11.3850081
21
46.6174061
0
LINE
8
DEFAULT_255_1_234
10
11.3850081
20
46.6174061
11
11.2749732
21
46.3122
0
LINE
8
DEFAULT_255_1_234
10
11.2749732
20
46.3122
11
11.1159448
21
46.3122
0
LINE
8
DEFAULT_255_1_234
10
11.1159448
20
46.3122
11
11.5625095
21
47.4816211
0
LINE
8
DEFAULT_255_1_234
10
11.5625095
20
47.4816211
11
11.6974427
21
47.4816211
0
LINE
8
DEFAULT_255_1_234
10
11.6974427
20
47.4816211
11
12.1448105
21
46.3122
0
LINE
8
DEFAULT_255_1_234
10
12.1448105
20
46.3122
11
11.9865853
21
46.3122
0
LINE
8
DEFAULT_255_1_234
10
11.6299761
20
47.2912689
11
11.4315921
21
46.7443075
0
LINE
8
DEFAULT_255_1_234
10
11.4315921
20
46.7443075
11
11.8291632
21
46.7443075
0
LINE
8
DEFAULT_255_1_234
10
11.8291632
20
46.7443075
11
11.6299761
21
47.2912689
0
LINE
8
DEFAULT_255_1_234
10
13.006616
20
47.4816211
11
13.006616
21
47.3547196
0
LINE
8
DEFAULT_255_1_234
10
13.006616
20
47.3547196
11
12.6307307
21
47.3547196
0
LINE
8
DEFAULT_255_1_234
10
12.6307307
20
47.3547196
11
12.6307307
21
46.3122
0
LINE
8
DEFAULT_255_1_234
10
12.6307307
20
46.3122
11
12.4773245
21
46.3122
0
LINE
8
DEFAULT_255_1_234
10
12.4773245
20
46.3122
11
12.4773245
21
47.3547196
0
LINE
8
DEFAULT_255_1_234
10
12.4773245
20
47.3547196
11
12.1022423
21
47.3547196
0
LINE
8
DEFAULT_255_1_234
10
12.1022423
20
47.3547196
11
12.1022423
21
47.4816211
0
LINE
8
DEFAULT_255_1_234
10
12.1022423
20
47.4816211
11
13.006616
21
47.4816211
0
LINE
8
DEFAULT_255_1_234
10
13.3455554
20
47.4816211
11
13.3455554
21
46.3122
0
LINE
8
DEFAULT_255_1_234
10
13.3455554
20
46.3122
11
13.191346
21
46.3122
0
LINE
8
DEFAULT_255_1_234
10
13.191346
20
46.3122
11
13.191346
21
47.4816211
0
LINE
8
DEFAULT_255_1_234
10
13.191346
20
47.4816211
11
13.3455554
21
47.4816211
0
LINE
8
DEFAULT_255_1_234
10
14.332656
20
46.6832663
11
14.4876686
21
46.6832663
0
LINE
8
DEFAULT_255_1_234
10
13.5873107
20
46.8422947
11
13.5873107
21
46.9547391
0
LINE
8
DEFAULT_255_1_234
10
14.4876686
20
47.1057357
11
14.332656
21
47.1057357
0
LINE
8
DEFAULT_255_1_234
10
13.7423232
20
46.9507232
11
13.7423232
21
46.8374757
0
ARC
8
DEFAULT_255_1_234
10
13.9396072
20
46.7429846
40
0.5513052
50
340.1774281
51
353.7814284
0
ARC
8
DEFAULT_255_1_234
10
14.0967425
20
46.6844582
40
0.3836379
50
311.4558989
51
340.4421614
0
ARC
8
DEFAULT_255_1_234
10
14.0934093
20
46.6955528
40
0.3941894
50
282.4333181
51
310.7513653
0
ARC
8
DEFAULT_255_1_234
10
14.0494832
20
46.8770679
40
0.5809175
50
269.9358511
51
282.809604
0
ARC
8
DEFAULT_255_1_234
10
14.0442899
20
47.0228212
40
0.7266847
50
270.0021091
51
270.3581957
0
ARC
8
DEFAULT_255_1_234
10
14.0390315
20
46.7627585
40
0.4666519
50
250.7884749
51
270.6489167
0
ARC
8
DEFAULT_255_1_234
10
14.022215
20
46.6990319
40
0.4009729
50
219.3627325
51
250.0611886
0
ARC
8
DEFAULT_255_1_234
10
14.1051361
20
46.7695042
40
0.5097822
50
193.5479632
51
219.5756669
0
ARC
8
DEFAULT_255_1_234
10
14.3422982
20
46.8310919
40
0.7547848
50
181.1218675
51
193.87563
0
ARC
8
DEFAULT_255_1_234
10
14.5493163
20
46.842158
40
0.9620055
50
179.9918545
51
181.5394234
0
ARC
8
DEFAULT_255_1_234
10
14.3642265
20
46.9584788
40
0.7769248
50
169.5837241
51
180.2757934
0
ARC
8
DEFAULT_255_1_234
10
14.1805203
20
46.9924229
40
0.590109
50
155.0365899
51
169.6003176
0
ARC
8
DEFAULT_255_1_234
10
14.0669667
20
47.0471677
40
0.4640625
50
136.783148
51
155.2472683
0
ARC
8
DEFAULT_255_1_234
10
14.0280144
20
47.0802562
40
0.4130255
50
121.7633186
51
136.428115
0
ARC
8
DEFAULT_255_1_234
10
14.0415106
20
47.0553227
40
0.4413323
50
95.6459699
51
121.5490577
0
ARC
8
DEFAULT_255_1_234
10
14.0572388
20
46.9444949
40
0.55319
50
89.924208
51
96.1377933
0
ARC
8
DEFAULT_255_1_234
10
14.0622821
20
46.9563542
40
0.5413475
50
76.6779277
51
90.4563316
0
ARC
8
DEFAULT_255_1_234
10
14.1016444
20
47.1154114
40
0.3775041
50
47.485847
51
76.9287264
0
ARC
8
DEFAULT_255_1_234
10
14.0869417
20
47.1054159
40
0.3948286
50
16.5424086
51
46.8933463
0
ARC
8
DEFAULT_255_1_234
10
13.9261574
20
47.0525861
40
0.564021
50
5.4072051
51
17.0365086
0
ARC
8
DEFAULT_255_1_234
10
13.7822591
20
47.0294679
40
0.5556559
50
7.8891745
51
15.9239216
0
ARC
8
DEFAULT_255_1_234
10
13.9809605
20
47.0871631
40
0.3487515
50
15.7653144
51
27.9410532
0
ARC
8
DEFAULT_255_1_234
10
14.0913822
20
47.146279
40
0.2235026
50
27.8166557
51
46.4008329
0
ARC
8
DEFAULT_255_1_234
10
14.0963465
20
47.1457082
40
0.2205286
50
47.4371857
51
75.0698205
0
ARC
8
DEFAULT_255_1_234
10
14.065486
20
47.0382765
40
0.3322915
50
74.7008593
51
87.8124495
0
ARC
8
DEFAULT_255_1_234
10
14.0581547
20
46.9326844
40
0.4380987
50
87.3814673
51
90.0240855
0
ARC
8
DEFAULT_255_1_234
10
14.0543091
20
47.0504291
40
0.3203749
50
89.3451631
51
108.5745436
0
ARC
8
DEFAULT_255_1_234
10
14.0406196
20
47.1017908
40
0.2673494
50
109.2998449
51
143.3037509
0
ARC
8
DEFAULT_255_1_234
10
14.1168268
20
47.0431881
40
0.3634757
50
143.0753173
51
163.1916937
0
ARC
8
DEFAULT_255_1_234
10
14.3119996
20
46.9815967
40
0.5681262
50
162.9373603
51
174.6208611
0
ARC
8
DEFAULT_255_1_234
10
14.5746038
20
46.952801
40
0.8322832
50
174.3419979
51
180.1430411
0
ARC
8
DEFAULT_255_1_234
10
14.4815194
20
46.8333698
40
0.7392076
50
179.6817502
51
189.150529
0
ARC
8
DEFAULT_255_1_234
10
14.2314443
20
46.791719
40
0.4856932
50
188.9910863
51
203.5773039
0
ARC
8
DEFAULT_255_1_234
10
14.1234775
20
46.7469211
40
0.3688271
50
203.9077269
51
215.1312379
0
ARC
8
DEFAULT_255_1_234
10
14.0311869
20
46.6753941
40
0.2522457
50
213.9071664
51
263.8849284
0
ARC
8
DEFAULT_255_1_234
10
14.0437198
20
46.7538518
40
0.3316174
50
263.1758525
51
270.1031083
0
ARC
8
DEFAULT_255_1_234
10
14.046929
20
46.8785365
40
0.4563091
50
269.6719807
51
279.0609165
0
ARC
8
DEFAULT_255_1_234
10
14.0736058
20
46.7172907
40
0.2928759
50
278.8750225
51
293.6346586
0
ARC
8
DEFAULT_255_1_234
10
14.1056266
20
46.64209
40
0.2111472
50
293.8553404
51
310.0518804
0
ARC
8
DEFAULT_255_1_234
10
14.106112
20
46.6358516
40
0.2060917
50
311.0646779
51
332.0108348
0
ARC
8
DEFAULT_255_1_234
10
13.9868847
20
46.7015978
40
0.3422352
50
331.6588543
51
343.2878891
0
ARC
8
DEFAULT_255_1_234
10
13.7806362
20
46.7649798
40
0.5580003
50
343.1446044
51
351.010618
0
ARC
8
DEFAULT_255_1_234
10
13.6265008
20
46.7930871
40
0.7146438
50
350.7157277
51
351.1602153
0
LINE
8
DEFAULT_255_1_234
10
15.8811751
20
47.1434849
11
15.7261626
21
47.1434849
0
LINE
8
DEFAULT_255_1_234
10
15.0338268
20
46.6511394
11
15.1888393
21
46.6511394
0
ARC
8
DEFAULT_255_1_234
10
15.7920439
20
48.0381768
40
1.252368
50
248.9199003
51
254.1439814
0
ARC
8
DEFAULT_255_1_234
10
15.6239934
20
47.6055234
40
0.788226
50
241.633709
51
249.0064503
0
ARC
8
DEFAULT_255_1_234
10
15.4711328
20
47.3254317
40
0.4691427
50
230.498225
51
241.8087113
0
ARC
8
DEFAULT_255_1_234
10
15.3926902
20
47.2254906
40
0.3421437
50
227.4064532
51
229.9881192
0
ARC
8
DEFAULT_255_1_234
10
15.3439423
20
47.1779088
40
0.2741476
50
200.6781896
51
228.1763934
0
ARC
8
DEFAULT_255_1_234
10
15.3511734
20
47.1764077
40
0.2804109
50
179.5061581
51
199.8694617
0
ARC
8
DEFAULT_255_1_234
10
15.3502485
20
47.183821
40
0.2795204
50
132.4834203
51
181.0242172
0
ARC
8
DEFAULT_255_1_234
10
15.4098068
20
47.1275704
40
0.3612768
50
129.2532479
51
133.4242687
0
ARC
8
DEFAULT_255_1_234
10
15.4244517
20
47.1055965
40
0.3875675
50
101.98776
51
128.8742646
0
ARC
8
DEFAULT_255_1_234
10
15.4643128
20
46.9334741
40
0.5642249
50
89.5906553
51
102.3169264
0
ARC
8
DEFAULT_255_1_234
10
15.471362
20
46.9653148
40
0.5323783
50
77.2360837
51
90.3248275
0
ARC
8
DEFAULT_255_1_234
10
15.4920699
20
47.06204
40
0.4334697
50
63.837784
51
77.0809408
0
ARC
8
DEFAULT_255_1_234
10
15.5198461
20
47.1137911
40
0.3747796
50
45.9864267
51
64.1607727
0
ARC
8
DEFAULT_255_1_234
10
15.5459342
20
47.1435866
40
0.3352302
50
32.2747395
51
45.6547121
0
ARC
8
DEFAULT_255_1_234
10
15.5525783
20
47.145488
40
0.328603
50
359.6507365
51
32.6130309
0
ARC
8
DEFAULT_255_1_234
10
15.4582878
20
47.145966
40
0.2678863
50
359.469343
51
14.9832209
0
ARC
8
DEFAULT_255_1_234
10
15.5287941
20
47.1648539
40
0.1948938
50
14.9781179
51
48.2004265
0
ARC
8
DEFAULT_255_1_234
10
15.5123585
20
47.1441983
40
0.2212521
50
48.5927837
51
74.1241538
0
ARC
8
DEFAULT_255_1_234
10
15.4790074
20
47.0341248
40
0.3362561
50
73.7888341
51
86.6652678
0
ARC
8
DEFAULT_255_1_234
10
15.468764
20
46.9133881
40
0.4573953
50
86.2640471
51
90.0526343
0
ARC
8
DEFAULT_255_1_234
10
15.4659352
20
46.9529192
40
0.4178709
50
89.6697524
51
99.2309573
0
ARC
8
DEFAULT_255_1_234
10
15.4416803
20
47.0973964
40
0.2713749
50
99.069534
51
113.7658566
0
ARC
8
DEFAULT_255_1_234
10
15.4142994
20
47.1619677
40
0.2012469
50
114.0401004
51
127.9850673
0
ARC
8
DEFAULT_255_1_234
10
15.3902558
20
47.191573
40
0.1631167
50
127.7287463
51
176.7105154
0
ARC
8
DEFAULT_255_1_234
10
15.4581276
20
47.1814693
40
0.2315392
50
175.1779447
51
180.0581938
0
ARC
8
DEFAULT_255_1_234
10
15.3738123
20
47.1802428
40
0.1472271
50
179.6142195
51
228.1246017
0
ARC
8
DEFAULT_255_1_234
10
15.4179791
20
47.2211308
40
0.2072299
50
226.5779593
51
230.8800004
0
ARC
8
DEFAULT_255_1_234
10
15.465087
20
47.2836636
40
0.2854818
50
231.4635071
51
241.9260842
0
ARC
8
DEFAULT_255_1_234
10
15.5848048
20
47.50398
40
0.53622
50
241.7178533
51
248.3259551
0
ARC
8
DEFAULT_255_1_234
10
15.723342
20
47.8472064
40
0.9063478
50
248.2007737
51
252.4528373
0
ARC
8
DEFAULT_255_1_234
10
15.8437145
20
48.2193441
40
1.2974635
50
252.3391078
51
254.3469452
0
ARC
8
DEFAULT_255_1_234
10
15.0894847
20
45.5216148
40
1.5037162
50
71.0197183
51
74.4087047
0
ARC
8
DEFAULT_255_1_234
10
15.2589532
20
46.0108111
40
0.9859993
50
66.1847285
51
71.086374
0
ARC
8
DEFAULT_255_1_234
10
15.4145845
20
46.36122
40
0.6025855
50
59.3536294
51
66.2691831
0
ARC
8
DEFAULT_255_1_234
10
15.5034497
20
46.5115609
40
0.4279449
50
49.1020879
51
59.3293958
0
ARC
8
DEFAULT_255_1_234
10
15.5853237
20
46.6048834
40
0.3038015
50
32.7919921
51
49.2505539
0
ARC
8
DEFAULT_255_1_234
10
15.6174327
20
46.6277191
40
0.264448
50
31.1181161
51
32.4005348
0
ARC
8
DEFAULT_255_1_234
10
15.6085865
20
46.6241779
40
0.2738556
50
8.1116974
51
30.7958831
0
ARC
8
DEFAULT_255_1_234
10
15.5275533
20
46.6103753
40
0.3560327
50
359.8389159
51
8.4706516
0
ARC
8
DEFAULT_255_1_234
10
15.5901324
20
46.6055137
40
0.2934776
50
337.4731098
51
0.7537279
0
ARC
8
DEFAULT_255_1_234
10
15.6080019
20
46.6035387
40
0.2762607
50
307.5917067
51
336.4315538
0
ARC
8
DEFAULT_255_1_234
10
15.5619847
20
46.6548102
40
0.3449979
50
307.6551545
51
308.4529766
0
ARC
8
DEFAULT_255_1_234
10
15.5389566
20
46.690325
40
0.3871988
50
284.3734338
51
307.1424381
0
ARC
8
DEFAULT_255_1_234
10
15.4894396
20
46.8724932
40
0.5759636
50
272.4382747
51
284.646547
0
ARC
8
DEFAULT_255_1_234
10
15.4767605
20
47.0524893
40
0.7563528
50
269.9708387
51
272.8178037
0
ARC
8
DEFAULT_255_1_234
10
15.4724645
20
46.8486716
40
0.5525489
50
248.2707594
51
270.4055579
0
ARC
8
DEFAULT_255_1_234
10
15.4670386
20
46.8296192
40
0.5328452
50
246.1383403
51
248.0542782
0
ARC
8
DEFAULT_255_1_234
10
15.4251765
20
46.7416843
40
0.4355005
50
233.1670131
51
246.4950969
0
ARC
8
DEFAULT_255_1_234
10
15.369767
20
46.6668812
40
0.3424126
50
215.3403242
51
233.0843104
0
ARC
8
DEFAULT_255_1_234
10
15.3425101
20
46.6470549
40
0.3087104
50
179.2419209
51
215.2648451
0
ARC
8
DEFAULT_255_1_234
10
15.4192695
20
46.6484666
40
0.2304457
50
179.335461
51
199.1045811
0
ARC
8
DEFAULT_255_1_234
10
15.3860371
20
46.6397766
40
0.1962176
50
199.8828939
51
232.7063202
0
ARC
8
DEFAULT_255_1_234
10
15.433264
20
46.6991788
40
0.2720938
50
232.3738199
51
255.5136649
0
ARC
8
DEFAULT_255_1_234
10
15.4673506
20
46.8235835
40
0.4010747
50
255.2446292
51
267.5320849
0
ARC
8
DEFAULT_255_1_234
10
15.476113
20
46.9468702
40
0.5246356
50
267.1557994
51
270.0286766
0
ARC
8
DEFAULT_255_1_234
10
15.4788902
20
46.902495
40
0.4802668
50
269.7000017
51
278.1660162
0
ARC
8
DEFAULT_255_1_234
10
15.5044907
20
46.7294515
40
0.3053425
50
278.0231263
51
290.625471
0
ARC
8
DEFAULT_255_1_234
10
15.5392594
20
46.6367025
40
0.206291
50
290.6619762
51
307.0370976
0
ARC
8
DEFAULT_255_1_234
10
15.5692983
20
46.5998504
40
0.1587906
50
306.3943566
51
355.3030547
0
ARC
8
DEFAULT_255_1_234
10
15.5180914
20
46.6075113
40
0.2104809
50
354.3660432
51
0.0698737
0
ARC
8
DEFAULT_255_1_234
10
15.532326
20
46.6097617
40
0.1962563
50
359.417946
51
16.1971788
0
ARC
8
DEFAULT_255_1_234
10
15.577857
20
46.6222418
40
0.149053
50
16.4723299
51
52.6262157
0
ARC
8
DEFAULT_255_1_234
10
15.4957624
20
46.5138433
40
0.2850296
50
52.7386432
51
62.4979148
0
ARC
8
DEFAULT_255_1_234
10
15.3572701
20
46.2532283
40
0.5801521
50
62.2515216
51
68.1220564
0
ARC
8
DEFAULT_255_1_234
10
15.1852612
20
45.8304872
40
1.0365451
50
68.0062803
51
71.8053402
0
ARC
8
DEFAULT_255_1_234
10
15.0056983
20
45.2919758
40
1.6042013
50
71.7183119
51
73.9258742
0
LINE
8
DEFAULT_255_1_234
10
16.7975965
20
47.4816211
11
16.7975965
21
47.398091
0
LINE
8
DEFAULT_255_1_234
10
16.7975965
20
47.398091
11
16.3132827
21
46.3122
0
LINE
8
DEFAULT_255_1_234
10
16.3132827
20
46.3122
11
16.1574669
21
46.3122
0
LINE
8
DEFAULT_255_1_234
10
16.1574669
20
46.3122
11
16.6401744
21
47.3595387
0
LINE
8
DEFAULT_255_1_234
10
16.6401744
20
47.3595387
11
16.0072734
21
47.3595387
0
LINE
8
DEFAULT_255_1_234
10
16.0072734
20
47.3595387
11
16.0072734
21
47.4816211
0
LINE
8
DEFAULT_255_1_234
10
16.0072734
20
47.4816211
11
16.7975965
21
47.4816211
0
LINE
8
DEFAULT_255_1_234
10
17.2907452
20
46.8696026
11
17.2907452
21
46.7483234
0
LINE
8
DEFAULT_255_1_234
10
17.2907452
20
46.7483234
11
16.8987964
21
46.7483234
0
LINE
8
DEFAULT_255_1_234
10
16.8987964
20
46.7483234
11
16.8987964
21
46.8696026
0
LINE
8
DEFAULT_255_1_234
10
16.8987964
20
46.8696026
11
17.2907452
21
46.8696026
0
LINE
8
DEFAULT_255_1_234
10
18.047335
20
47.4816211
11
18.047335
21
46.704952
0
LINE
8
DEFAULT_255_1_234
10
18.047335
20
46.704952
11
18.2095761
21
46.704952
0
LINE
8
DEFAULT_255_1_234
10
18.2095761
20
46.704952
11
18.2095761
21
46.5836728
0
LINE
8
DEFAULT_255_1_234
10
18.2095761
20
46.5836728
11
18.047335
21
46.5836728
0
LINE
8
DEFAULT_255_1_234
10
18.047335
20
46.5836728
11
18.047335
21
46.3122
0
LINE
8
DEFAULT_255_1_234
10
18.047335
20
46.3122
11
17.8979446
21
46.3122
0
LINE
8
DEFAULT_255_1_234
10
17.8979446
20
46.3122
11
17.8979446
21
46.5836728
0
LINE
8
DEFAULT_255_1_234
10
17.8979446
20
46.5836728
11
17.3654404
21
46.5836728
0
LINE
8
DEFAULT_255_1_234
10
17.3654404
20
46.5836728
11
17.3654404
21
46.6712187
0
LINE
8
DEFAULT_255_1_234
10
17.3654404
20
46.6712187
11
17.8891097
21
47.4816211
0
LINE
8
DEFAULT_255_1_234
10
17.8891097
20
47.4816211
11
18.047335
21
47.4816211
0
LINE
8
DEFAULT_255_1_234
10
17.8802748
20
47.2462912
11
17.5341069
21
46.704952
0
LINE
8
DEFAULT_255_1_234
10
17.5341069
20
46.704952
11
17.8979446
21
46.704952
0
LINE
8
DEFAULT_255_1_234
10
17.8979446
20
46.704952
11
17.8979446
21
47.2784181
0
LINE
8
DEFAULT_255_1_234
10
17.8979446
20
47.2784181
11
17.8802748
21
47.2462912
0
LINE
8
DEFAULT_255_1_234
10
19.0770038
20
47.0037327
11
19.0770038
21
46.8109709
0
LINE
8
DEFAULT_255_1_234
10
18.3388871
20
46.7908916
11
18.3388871
21
46.9892755
0
LINE
8
DEFAULT_255_1_234
10
18.9284167
20
46.7708123
11
18.9284167
21
47.0141739
0
LINE
8
DEFAULT_255_1_234
10
18.4874742
20
47.0254184
11
18.4874742
21
46.7876789
0
ARC
8
DEFAULT_255_1_234
10
17.8522928
20
46.8060805
40
1.2247208
50
353.8441951
51
0.2287902
0
ARC
8
DEFAULT_255_1_234
10
18.3162431
20
46.7542806
40
0.7578929
50
344.4934747
51
353.9765454
0
ARC
8
DEFAULT_255_1_234
10
18.6155022
20
46.6691981
40
0.4467846
50
329.2803592
51
344.7472793
0
ARC
8
DEFAULT_255_1_234
10
18.7147846
20
46.6147018
40
0.3336173
50
324.9352394
51
328.6160465
0
ARC
8
DEFAULT_255_1_234
10
18.7524955
20
46.5883427
40
0.2876076
50
280.580143
51
324.9173126
0
ARC
8
DEFAULT_255_1_234
10
18.7123748
20
46.7554099
40
0.4592847
50
269.5977311
51
281.6734359
0
ARC
8
DEFAULT_255_1_234
10
18.7051653
20
46.7434173
40
0.4472986
50
256.6228859
51
270.51044
0
ARC
8
DEFAULT_255_1_234
10
18.6649631
20
46.5885877
40
0.2873874
50
215.8618325
51
257.2788573
0
ARC
8
DEFAULT_255_1_234
10
18.7670663
20
46.6570977
40
0.4102928
50
197.9693508
51
215.2623606
0
ARC
8
DEFAULT_255_1_234
10
19.0155778
20
46.7409709
40
0.6725652
50
187.8816417
51
198.2346507
0
ARC
8
DEFAULT_255_1_234
10
19.4113987
20
46.7981079
40
1.0724845
50
180.8976217
51
188.0055519
0
ARC
8
DEFAULT_255_1_234
10
19.6914175
20
46.8084777
40
1.3526448
50
180.7449369
51
181.1510016
0
ARC
8
DEFAULT_255_1_234
10
19.5336904
20
46.9941042
40
1.1948131
50
173.7675579
51
180.231553
0
ARC
8
DEFAULT_255_1_234
10
19.081905
20
47.0451666
40
0.7401564
50
164.3058563
51
173.9002247
0
ARC
8
DEFAULT_255_1_234
10
18.7907119
20
47.1290656
40
0.4371288
50
148.7922025
51
164.568378
0
ARC
8
DEFAULT_255_1_234
10
18.6955571
20
47.1821929
40
0.3282386
50
144.5883898
51
148.1176286
0
ARC
8
DEFAULT_255_1_234
10
18.6612469
20
47.2061315
40
0.2864044
50
101.6440918
51
144.514236
0
ARC
8
DEFAULT_255_1_234
10
18.7037536
20
47.0372069
40
0.4604934
50
89.5284041
51
102.5819763
0
ARC
8
DEFAULT_255_1_234
10
18.7116624
20
47.0333018
40
0.464401
50
77.0437873
51
90.5081339
0
ARC
8
DEFAULT_255_1_234
10
18.7518626
20
47.1975615
40
0.2953195
50
48.2778575
51
77.4994676
0
ARC
8
DEFAULT_255_1_234
10
18.7591257
20
47.2104746
40
0.2808655
50
36.3142134
51
47.6305865
0
ARC
8
DEFAULT_255_1_234
10
18.6722564
20
47.1519515
40
0.3855453
50
18.2931786
51
35.6769206
0
ARC
8
DEFAULT_255_1_234
10
18.4179323
20
47.0646593
40
0.654423
50
8.024666
51
18.5605216
0
ARC
8
DEFAULT_255_1_234
10
18.0016243
20
47.0031792
40
1.0752407
50
1.1274072
51
8.1718305
0
ARC
8
DEFAULT_255_1_234
10
17.6780433
20
46.9904885
40
1.3990231
50
0.5424119
51
1.3863029
0
ARC
8
DEFAULT_255_1_234
10
17.8601811
20
47.0177342
40
1.0682415
50
359.8090433
51
4.9407866
0
ARC
8
DEFAULT_255_1_234
10
18.2811825
20
47.0553113
40
0.6455691
50
4.8362157
51
12.2904523
0
ARC
8
DEFAULT_255_1_234
10
18.556694
20
47.1166965
40
0.3633074
50
12.0805627
51
23.8173984
0
ARC
8
DEFAULT_255_1_234
10
18.6740645
20
47.1663919
40
0.2358723
50
24.2871213
51
31.3935614
0
ARC
8
DEFAULT_255_1_234
10
18.7265342
20
47.2007233
40
0.1732111
50
30.7407893
51
82.4657128
0
ARC
8
DEFAULT_255_1_234
10
18.7085477
20
47.1123691
40
0.263235
50
81.1060089
51
90.2184952
0
ARC
8
DEFAULT_255_1_234
10
18.7049776
20
47.1381924
40
0.2374236
50
89.3806855
51
105.6762551
0
ARC
8
DEFAULT_255_1_234
10
18.6866406
20
47.2048567
40
0.1682847
50
105.7981136
51
149.7388061
0
ARC
8
DEFAULT_255_1_234
10
18.7930485
20
47.140895
40
0.2924306
50
149.4208916
51
163.6286378
0
ARC
8
DEFAULT_255_1_234
10
19.0021373
20
47.077125
40
0.5110213
50
163.3763315
51
172.1410975
0
ARC
8
DEFAULT_255_1_234
10
19.3322092
20
47.0298518
40
0.8444586
50
172.0259487
51
178.0703232
0
ARC
8
DEFAULT_255_1_234
10
19.6352181
20
47.0154906
40
1.1477868
50
177.8631668
51
179.5044149
0
ARC
8
DEFAULT_255_1_234
10
19.5279586
20
46.7840389
40
1.0404907
50
179.7995573
51
185.2460446
0
ARC
8
DEFAULT_255_1_234
10
19.1236625
20
46.7457513
40
0.6343885
50
185.1411642
51
193.0079639
0
ARC
8
DEFAULT_255_1_234
10
18.8593097
20
46.6832641
40
0.3627568
50
192.7897626
51
205.2507664
0
ARC
8
DEFAULT_255_1_234
10
18.7546644
20
46.6365415
40
0.2481908
50
205.8005384
51
211.2537509
0
ARC
8
DEFAULT_255_1_234
10
18.7023085
20
46.601458
40
0.1852521
50
210.3789793
51
238.4008143
0
ARC
8
DEFAULT_255_1_234
10
18.7003607
20
46.6061376
40
0.1882621
50
239.6520629
51
265.9793761
0
ARC
8
DEFAULT_255_1_234
10
18.7088807
20
46.6733427
40
0.2559272
50
265.1315437
51
270.060332
0
ARC
8
DEFAULT_255_1_234
10
18.7117586
20
46.6409534
40
0.2235528
50
269.3314664
51
287.2178029
0
ARC
8
DEFAULT_255_1_234
10
18.7255438
20
46.5906279
40
0.1714108
50
287.7958004
51
329.080874
0
ARC
8
DEFAULT_255_1_234
10
18.6297894
20
46.650393
40
0.2842745
50
328.6634704
51
343.3325132
0
ARC
8
DEFAULT_255_1_234
10
18.4124915
20
46.7180863
40
0.5118644
50
343.0499468
51
351.9393422
0
ARC
8
DEFAULT_255_1_234
10
18.0658215
20
46.7691949
40
0.8622784
50
351.8069023
51
357.7959224
0
ARC
8
DEFAULT_255_1_234
10
17.7422771
20
46.7859721
40
1.1862365
50
357.5871873
51
359.2677531
0
LINE
8
DEFAULT_255_1_234
10
20.0006537
20
47.0037327
11
20.0006537
21
46.8109709
0
LINE
8
DEFAULT_255_1_234
10
19.262537
20
46.7908916
11
19.262537
21
46.9892755
0
LINE
8
DEFAULT_255_1_234
10
19.8520666
20
46.7708123
11
19.8520666
21
47.0141739
0
LINE
8
DEFAULT_255_1_234
10
19.4111241
20
47.0254184
11
19.4111241
21
46.7876789
0
ARC
8
DEFAULT_255_1_234
10
18.7759427
20
46.8060805
40
1.2247208
50
353.8441951
51
0.2287902
0
ARC
8
DEFAULT_255_1_234
10
19.239893
20
46.7542806
40
0.7578929
50
344.4934747
51
353.9765454
0
ARC
8
DEFAULT_255_1_234
10
19.5391521
20
46.6691981
40
0.4467846
50
329.2803592
51
344.7472793
0
ARC
8
DEFAULT_255_1_234
10
19.6384345
20
46.6147018
40
0.3336173
50
324.9352394
51
328.6160465
0
ARC
8
DEFAULT_255_1_234
10
19.6761454
20
46.5883427
40
0.2876076
50
280.580143
51
324.9173126
0
ARC
8
DEFAULT_255_1_234
10
19.6360247
20
46.7554099
40
0.4592847
50
269.5977311
51
281.6734359
0
ARC
8
DEFAULT_255_1_234
10
19.6288152
20
46.7434173
40
0.4472986
50
256.6228859
51
270.51044
0
ARC
8
DEFAULT_255_1_234
10
19.588613
20
46.5885877
40
0.2873874
50
215.8618325
51
257.2788573
0
ARC
8
DEFAULT_255_1_234
10
19.6907162
20
46.6570977
40
0.4102928
50
197.9693508
51
215.2623606
0
ARC
8
DEFAULT_255_1_234
10
19.9392277
20
46.7409709
40
0.6725652
50
187.8816417
51
198.2346507
0
ARC
8
DEFAULT_255_1_234
10
20.3350486
20
46.7981079
40
1.0724845
50
180.8976217
51
188.0055519
0
ARC
8
DEFAULT_255_1_234
10
20.6150674
20
46.8084777
40
1.3526448
50
180.7449369
51
181.1510016
0
ARC
8
DEFAULT_255_1_234
10
20.4573403
20
46.9941042
40
1.1948131
50
173.7675579
51
180.231553
0
ARC
8
DEFAULT_255_1_234
10
20.0055549
20
47.0451666
40
0.7401564
50
164.3058563
51
173.9002247
0
ARC
8
DEFAULT_255_1_234
10
19.7143618
20
47.1290656
40
0.4371288
50
148.7922025
51
164.568378
0
ARC
8
DEFAULT_255_1_234
10
19.619207
20
47.1821929
40
0.3282386
50
144.5883898
51
148.1176286
0
ARC
8
DEFAULT_255_1_234
10
19.5848968
20
47.2061315
40
0.2864044
50
101.6440918
51
144.514236
0
ARC
8
DEFAULT_255_1_234
10
19.6274035
20
47.0372069
40
0.4604934
50
89.5284041
51
102.5819763
0
ARC
8
DEFAULT_255_1_234
10
19.6353123
20
47.0333018
40
0.464401
50
77.0437873
51
90.5081339
0
ARC
8
DEFAULT_255_1_234
10
19.6755125
20
47.1975615
40
0.2953195
50
48.2778575
51
77.4994676
0
ARC
8
DEFAULT_255_1_234
10
19.6827756
20
47.2104746
40
0.2808655
50
36.3142134
51
47.6305865
0
ARC
8
DEFAULT_255_1_234
10
19.5959063
20
47.1519515
40
0.3855453
50
18.2931786
51
35.6769206
0
ARC
8
DEFAULT_255_1_234
10
19.3415822
20
47.0646593
40
0.654423
50
8.024666
51
18.5605216
0
ARC
8
DEFAULT_255_1_234
10
18.9252742
20
47.0031792
40
1.0752407
50
1.1274072
51
8.1718305
0
ARC
8
DEFAULT_255_1_234
10
18.6016932
20
46.9904885
40
1.3990231
50
0.5424119
51
1.3863029
0
ARC
8
DEFAULT_255_1_234
10
18.783831
20
47.0177342
40
1.0682415
50
359.8090433
51
4.9407866
0
ARC
8
DEFAULT_255_1_234
10
19.2048324
20
47.0553113
40
0.6455691
50
4.8362157
51
12.2904523
0
ARC
8
DEFAULT_255_1_234
10
19.4803439
20
47.1166965
40
0.3633074
50
12.0805627
51
23.8173984
0
ARC
8
DEFAULT_255_1_234
10
19.5977144
20
47.1663919
40
0.2358723
50
24.2871213
51
31.3935614
0
ARC
8
DEFAULT_255_1_234
10
19.6501841
20
47.2007233
40
0.1732111
50
30.7407893
51
82.4657128
0
ARC
8
DEFAULT_255_1_234
10
19.6321976
20
47.1123691
40
0.263235
50
81.1060089
51
90.2184952
0
ARC
8
DEFAULT_255_1_234
10
19.6286275
20
47.1381924
40
0.2374236
50
89.3806855
51
105.6762551
0
ARC
8
DEFAULT_255_1_234
10
19.6102905
20
47.2048567
40
0.1682847
50
105.7981136
51
149.7388061
0
ARC
8
DEFAULT_255_1_234
10
19.7166984
20
47.140895
40
0.2924306
50
149.4208916
51
163.6286378
0
ARC
8
DEFAULT_255_1_234
10
19.9257872
20
47.077125
40
0.5110213
50
163.3763315
51
172.1410975
0
ARC
8
DEFAULT_255_1_234
10
20.2558591
20
47.0298518
40
0.8444586
50
172.0259487
51
178.0703232
0
ARC
8
DEFAULT_255_1_234
10
20.558868
20
47.0154906
40
1.1477868
50
177.8631668
51
179.5044149
0
ARC
8
DEFAULT_255_1_234
10
20.4516085
20
46.7840389
40
1.0404907
50
179.7995573
51
185.2460446
0
ARC
8
DEFAULT_255_1_234
10
20.0473124
20
46.7457513
40
0.6343885
50
185.1411642
51
193.0079639
0
ARC
8
DEFAULT_255_1_234
10
19.7829596
20
46.6832641
40
0.3627568
50
192.7897626
51
205.2507664
0
ARC
8
DEFAULT_255_1_234
10
19.6783143
20
46.6365415
40
0.2481908
50
205.8005384
51
211.2537509
0
ARC
8
DEFAULT_255_1_234
10
19.6259584
20
46.601458
40
0.1852521
50
210.3789793
51
238.4008143
0
ARC
8
DEFAULT_255_1_234
10
19.6240106
20
46.6061376
40
0.1882621
50
239.6520629
51
265.9793761
0
ARC
8
DEFAULT_255_1_234
10
19.6325306
20
46.6733427
40
0.2559272
50
265.1315437
51
270.060332
0
ARC
8
DEFAULT_255_1_234
10
19.6354085
20
46.6409534
40
0.2235528
50
269.3314664
51
287.2178029
0
ARC
8
DEFAULT_255_1_234
10
19.6491937
20
46.5906279
40
0.1714108
50
287.7958004
51
329.080874
0
ARC
8
DEFAULT_255_1_234
10
19.5534394
20
46.650393
40
0.2842745
50
328.6634704
51
343.3325132
0
ARC
8
DEFAULT_255_1_234
10
19.3361414
20
46.7180863
40
0.5118644
50
343.0499468
51
351.9393422
0
ARC
8
DEFAULT_255_1_234
10
18.9894714
20
46.7691949
40
0.8622784
50
351.8069023
51
357.7959224
0
ARC
8
DEFAULT_255_1_234
10
18.665927
20
46.7859721
40
1.1862365
50
357.5871873
51
359.2677531
0
LINE
8
DEFAULT_255_1_234
10
4.2454489
20
45.4973211
11
4.2454489
21
44.4539983
0
LINE
8
DEFAULT_255_1_234
10
4.2454489
20
44.4539983
11
4.7996389
21
44.4539983
0
LINE
8
DEFAULT_255_1_234
10
4.7996389
20
44.4539983
11
4.7996389
21
44.3279
0
LINE
8
DEFAULT_255_1_234
10
4.7996389
20
44.3279
11
4.0904364
21
44.3279
0
LINE
8
DEFAULT_255_1_234
10
4.0904364
20
44.3279
11
4.0904364
21
45.4973211
0
LINE
8
DEFAULT_255_1_234
10
4.0904364
20
45.4973211
11
4.2454489
21
45.4973211
0
LINE
8
DEFAULT_255_1_234
10
5.377924
20
45.2965276
11
5.377924
21
44.9551788
0
LINE
8
DEFAULT_255_1_234
10
5.377924
20
44.9551788
11
5.7040126
21
44.9551788
0
LINE
8
DEFAULT_255_1_234
10
5.7040126
20
44.9551788
11
5.7040126
21
44.8146233
0
LINE
8
DEFAULT_255_1_234
10
5.7040126
20
44.8146233
11
5.377924
21
44.8146233
0
LINE
8
DEFAULT_255_1_234
10
5.377924
20
44.8146233
11
5.377924
21
44.4451634
0
LINE
8
DEFAULT_255_1_234
10
5.377924
20
44.4451634
11
5.2285337
21
44.4451634
0
LINE
8
DEFAULT_255_1_234
10
5.2285337
20
44.4451634
11
5.2285337
21
44.8146233
0
LINE
8
DEFAULT_255_1_234
10
5.2285337
20
44.8146233
11
4.9024451
21
44.8146233
0
LINE
8
DEFAULT_255_1_234
10
4.9024451
20
44.8146233
11
4.9024451
21
44.9551788
0
LINE
8
DEFAULT_255_1_234
10
4.9024451
20
44.9551788
11
5.2285337
21
44.9551788
0
LINE
8
DEFAULT_255_1_234
10
5.2285337
20
44.9551788
11
5.2285337
21
45.2965276
0
LINE
8
DEFAULT_255_1_234
10
5.2285337
20
45.2965276
11
5.377924
21
45.2965276
0
LINE
8
DEFAULT_255_1_234
10
4.8792341
20
4.6404
11
4.6254312
21
5.1134694
0
LINE
8
DEFAULT_255_1_234
10
4.6254312
20
5.1134694
11
4.3507458
21
5.1134694
0
LINE
8
DEFAULT_255_1_234
10
4.3507458
20
5.1134694
11
4.3507458
21
4.6404
0
LINE
8
DEFAULT_255_1_234
10
4.3507458
20
4.6404
11
4.1957332
21
4.6404
0
LINE
8
DEFAULT_255_1_234
10
4.1957332
20
4.6404
11
4.1957332
21
5.8098211
0
LINE
8
DEFAULT_255_1_234
10
4.1957332
20
5.8098211
11
4.582863
21
5.8098211
0
LINE
8
DEFAULT_255_1_234
10
4.7700025
20
5.1463995
11
5.0446879
21
4.6500381
0
LINE
8
DEFAULT_255_1_234
10
5.0446879
20
4.6500381
11
5.0446879
21
4.6404
0
LINE
8
DEFAULT_255_1_234
10
5.0446879
20
4.6404
11
4.8792341
21
4.6404
0
LINE
8
DEFAULT_255_1_234
10
4.3507458
20
5.6829196
11
4.3507458
21
5.2395677
0
LINE
8
DEFAULT_255_1_234
10
4.3507458
20
5.2395677
11
4.587682
21
5.2395677
0
LINE
8
DEFAULT_255_1_234
10
4.5868789
20
5.6829196
11
4.3507458
21
5.6829196
0
ARC
8
DEFAULT_255_1_234
10
4.5870269
20
5.1136761
40
0.6961575
50
80.653586
51
90.3427061
0
ARC
8
DEFAULT_255_1_234
10
4.6289744
20
5.3599348
40
0.4463577
50
65.6987447
51
80.8329603
0
ARC
8
DEFAULT_255_1_234
10
4.6767385
20
5.4694322
40
0.3269094
50
50.0017161
51
65.4305835
0
ARC
8
DEFAULT_255_1_234
10
4.6985849
20
5.4989482
40
0.2902647
50
11.628416
51
49.5603263
0
ARC
8
DEFAULT_255_1_234
10
4.5450185
20
5.4614299
40
0.4482792
50
359.5655735
51
12.3691
0
ARC
8
DEFAULT_255_1_234
10
4.6527045
20
5.4551644
40
0.3405924
50
341.9983148
51
0.4822259
0
ARC
8
DEFAULT_255_1_234
10
4.6921885
20
5.4444471
40
0.2997359
50
323.8609373
51
341.61416
0
ARC
8
DEFAULT_255_1_234
10
4.6620129
20
5.4677484
40
0.3378487
50
296.7018614
51
323.6876402
0
ARC
8
DEFAULT_255_1_234
10
4.6179024
20
5.5466235
40
0.4281516
50
290.8086567
51
297.2323311
0
ARC
8
DEFAULT_255_1_234
10
4.5902554
20
5.5989351
40
0.3593766
50
269.589728
51
281.8058135
0
ARC
8
DEFAULT_255_1_234
10
4.6153453
20
5.4841743
40
0.2419125
50
281.5501019
51
303.9357432
0
ARC
8
DEFAULT_255_1_234
10
4.6290641
20
5.4603936
40
0.2145323
50
304.4415616
51
311.2106213
0
ARC
8
DEFAULT_255_1_234
10
4.6422746
20
5.4464632
40
0.1953505
50
310.9875673
51
356.2715578
0
ARC
8
DEFAULT_255_1_234
10
4.5666395
20
5.4577422
40
0.2716331
50
354.9348262
51
0.0609027
0
ARC
8
DEFAULT_255_1_234
10
4.5479269
20
5.4604435
40
0.2903554
50
359.5239371
51
12.8808918
0
ARC
8
DEFAULT_255_1_234
10
4.6456824
20
5.4843728
40
0.1897315
50
12.4173452
51
43.1022135
0
ARC
8
DEFAULT_255_1_234
10
4.6518429
20
5.4880724
40
0.1827118
50
43.5751728
51
48.203944
0
ARC
8
DEFAULT_255_1_234
10
4.6348921
20
5.4659302
40
0.2105272
50
48.7809703
51
72.6969569
0
ARC
8
DEFAULT_255_1_234
10
4.5994546
20
5.358382
40
0.3237537
50
72.3702241
51
84.8791103
0
ARC
8
DEFAULT_255_1_234
10
4.5847022
20
5.2241769
40
0.4587478
50
84.5400526
51
89.7281406
0
LINE
8
DEFAULT_255_1_234
10
5.3089321
20
5.8098211
11
5.5908461
21
5.3616501
0
LINE
8
DEFAULT_255_1_234
10
5.5908461
20
5.3616501
11
5.8711538
21
5.8098211
0
LINE
8
DEFAULT_255_1_234
10
5.8711538
20
5.8098211
11
6.0526711
21
5.8098211
0
LINE
8
DEFAULT_255_1_234
10
6.0526711
20
5.8098211
11
5.6832111
21
5.2299296
0
LINE
8
DEFAULT_255_1_234
10
5.6832111
20
5.2299296
11
6.061506
21
4.6404
0
LINE
8
DEFAULT_255_1_234
10
6.061506
20
4.6404
11
5.8783824
21
4.6404
0
LINE
8
DEFAULT_255_1_234
10
5.8783824
20
4.6404
11
5.5908461
21
5.0966027
0
LINE
8
DEFAULT_255_1_234
10
5.5908461
20
5.0966027
11
5.3017036
21
4.6404
0
LINE
8
DEFAULT_255_1_234
10
5.3017036
20
4.6404
11
5.1193831
21
4.6404
0
LINE
8
DEFAULT_255_1_234
10
5.1193831
20
4.6404
11
5.4984812
21
5.2299296
0
LINE
8
DEFAULT_255_1_234
10
5.4984812
20
5.2299296
11
5.128218
21
5.8098211
0
LINE
8
DEFAULT_255_1_234
10
5.128218
20
5.8098211
11
5.3089321
21
5.8098211
0
LINE
8
DEFAULT_255_1_234
10
6.5642928
20
4.6404
11
6.2406138
21
4.6404
0
LINE
8
DEFAULT_255_1_234
10
6.2406138
20
4.6404
11
6.2406138
21
5.8098211
0
LINE
8
DEFAULT_255_1_234
10
6.2406138
20
5.8098211
11
6.5707182
21
5.8098211
0
LINE
8
DEFAULT_255_1_234
10
7.0863558
20
5.2644661
11
7.0863558
21
5.1897709
0
LINE
8
DEFAULT_255_1_234
10
6.5747341
20
5.6829196
11
6.3948231
21
5.6829196
0
LINE
8
DEFAULT_255_1_234
10
6.3948231
20
5.6829196
11
6.3948231
21
4.7664983
0
LINE
8
DEFAULT_255_1_234
10
6.3948231
20
4.7664983
11
6.5570643
21
4.7664983
0
LINE
8
DEFAULT_255_1_234
10
6.9337528
20
5.1929836
11
6.9337528
21
5.2612534
0
ARC
8
DEFAULT_255_1_234
10
6.5746125
20
5.2232894
40
0.5865446
50
75.4101064
51
90.3804066
0
ARC
8
DEFAULT_255_1_234
10
6.5975638
20
5.3189492
40
0.4881916
50
60.145586
51
75.1888407
0
ARC
8
DEFAULT_255_1_234
10
6.6134414
20
5.3466199
40
0.4562893
50
26.5253612
51
60.1450928
0
ARC
8
DEFAULT_255_1_234
10
6.5014163
20
5.2872158
40
0.5830602
50
7.4030428
51
26.8320788
0
ARC
8
DEFAULT_255_1_234
10
6.341992
20
5.2623804
40
0.7443669
50
0.1605367
51
7.7176192
0
ARC
8
DEFAULT_255_1_234
10
6.3583824
20
5.1859434
40
0.7279835
50
348.7289388
51
0.3012466
0
ARC
8
DEFAULT_255_1_234
10
6.5240255
20
5.1530386
40
0.559104
50
333.0706509
51
348.7181832
0
ARC
8
DEFAULT_255_1_234
10
6.6207012
20
5.1005319
40
0.4491417
50
299.2531685
51
333.4571258
0
ARC
8
DEFAULT_255_1_234
10
6.5846152
20
5.1690828
40
0.5265881
50
278.107187
51
299.0339503
0
ARC
8
DEFAULT_255_1_234
10
6.5590231
20
5.3198216
40
0.679442
50
270.4443897
51
278.4511052
0
ARC
8
DEFAULT_255_1_234
10
6.5611061
20
5.2269213
40
0.4604407
50
269.4970433
51
284.0205042
0
ARC
8
DEFAULT_255_1_234
10
6.5966362
20
5.0903978
40
0.3193797
50
283.7700273
51
318.1555492
0
ARC
8
DEFAULT_255_1_234
10
6.562912
20
5.1156367
40
0.3613588
50
318.7415601
51
343.6873628
0
ARC
8
DEFAULT_255_1_234
10
6.3825143
20
5.1719832
40
0.5503313
50
343.3325091
51
355.8548958
0
ARC
8
DEFAULT_255_1_234
10
6.1726827
20
5.1919319
40
0.7610708
50
355.4988528
51
0.0791727
0
ARC
8
DEFAULT_255_1_234
10
6.250945
20
5.265478
40
0.6828208
50
359.6455037
51
9.8607896
0
ARC
8
DEFAULT_255_1_234
10
6.4870148
20
5.3081099
40
0.4429406
50
9.6571907
51
26.1932807
0
ARC
8
DEFAULT_255_1_234
10
6.5798137
20
5.3512118
40
0.3406537
50
26.5777228
51
40.1532208
0
ARC
8
DEFAULT_255_1_234
10
6.6053863
20
5.3711619
40
0.308246
50
40.3840491
51
80.1431104
0
ARC
8
DEFAULT_255_1_234
10
6.5726981
20
5.2262333
40
0.4566909
50
79.2152159
51
89.7445637
0
LINE
8
DEFAULT_255_1_234
10
5.1082292
20
13.7473211
11
5.1082292
21
13.6204196
0
LINE
8
DEFAULT_255_1_234
10
5.1082292
20
13.6204196
11
4.7323439
21
13.6204196
0
LINE
8
DEFAULT_255_1_234
10
4.7323439
20
13.6204196
11
4.7323439
21
12.5779
0
LINE
8
DEFAULT_255_1_234
10
4.7323439
20
12.5779
11
4.5789377
21
12.5779
0
LINE
8
DEFAULT_255_1_234
10
4.5789377
20
12.5779
11
4.5789377
21
13.6204196
0
LINE
8
DEFAULT_255_1_234
10
4.5789377
20
13.6204196
11
4.2038555
21
13.6204196
0
LINE
8
DEFAULT_255_1_234
10
4.2038555
20
13.6204196
11
4.2038555
21
13.7473211
0
LINE
8
DEFAULT_255_1_234
10
4.2038555
20
13.7473211
11
5.1082292
21
13.7473211
0
LINE
8
DEFAULT_255_1_234
10
5.3813083
20
13.7473211
11
5.6632224
21
13.2991501
0
LINE
8
DEFAULT_255_1_234
10
5.6632224
20
13.2991501
11
5.94353
21
13.7473211
0
LINE
8
DEFAULT_255_1_234
10
5.94353
20
13.7473211
11
6.1250473
21
13.7473211
0
LINE
8
DEFAULT_255_1_234
10
6.1250473
20
13.7473211
11
5.7555874
21
13.1674296
0
LINE
8
DEFAULT_255_1_234
10
5.7555874
20
13.1674296
11
6.1338822
21
12.5779
0
LINE
8
DEFAULT_255_1_234
10
6.1338822
20
12.5779
11
5.9507586
21
12.5779
0
LINE
8
DEFAULT_255_1_234
10
5.9507586
20
12.5779
11
5.6632224
21
13.0341027
0
LINE
8
DEFAULT_255_1_234
10
5.6632224
20
13.0341027
11
5.3740798
21
12.5779
0
LINE
8
DEFAULT_255_1_234
10
5.3740798
20
12.5779
11
5.1917593
21
12.5779
0
LINE
8
DEFAULT_255_1_234
10
5.1917593
20
12.5779
11
5.5708574
21
13.1674296
0
LINE
8
DEFAULT_255_1_234
10
5.5708574
20
13.1674296
11
5.2005942
21
13.7473211
0
LINE
8
DEFAULT_255_1_234
10
5.2005942
20
13.7473211
11
5.3813083
21
13.7473211
0
LINE
8
DEFAULT_255_1_234
10
6.636669
20
12.5779
11
6.31299
21
12.5779
0
LINE
8
DEFAULT_255_1_234
10
6.31299
20
12.5779
11
6.31299
21
13.7473211
0
LINE
8
DEFAULT_255_1_234
10
6.31299
20
13.7473211
11
6.6430944
21
13.7473211
0
LINE
8
DEFAULT_255_1_234
10
7.158732
20
13.2019661
11
7.158732
21
13.1272709
0
LINE
8
DEFAULT_255_1_234
10
6.6471103
20
13.6204196
11
6.4671994
21
13.6204196
0
LINE
8
DEFAULT_255_1_234
10
6.4671994
20
13.6204196
11
6.4671994
21
12.7039983
0
LINE
8
DEFAULT_255_1_234
10
6.4671994
20
12.7039983
11
6.6294405
21
12.7039983
0
LINE
8
DEFAULT_255_1_234
10
7.006129
20
13.1304836
11
7.006129
21
13.1987534
0
ARC
8
DEFAULT_255_1_234
10
6.6469887
20
13.1607894
40
0.5865446
50
75.4101064
51
90.3804066
0
ARC
8
DEFAULT_255_1_234
10
6.6699401
20
13.2564492
40
0.4881916
50
60.145586
51
75.1888407
0
ARC
8
DEFAULT_255_1_234
10
6.6858176
20
13.2841199
40
0.4562893
50
26.5253612
51
60.1450928
0
ARC
8
DEFAULT_255_1_234
10
6.5737925
20
13.2247158
40
0.5830602
50
7.4030428
51
26.8320788
0
ARC
8
DEFAULT_255_1_234
10
6.4143682
20
13.1998804
40
0.7443669
50
0.1605367
51
7.7176192
0
ARC
8
DEFAULT_255_1_234
10
6.4307586
20
13.1234434
40
0.7279835
50
348.7289388
51
0.3012466
0
ARC
8
DEFAULT_255_1_234
10
6.5964017
20
13.0905386
40
0.559104
50
333.0706509
51
348.7181832
0
ARC
8
DEFAULT_255_1_234
10
6.6930774
20
13.0380319
40
0.4491417
50
299.2531685
51
333.4571258
0
ARC
8
DEFAULT_255_1_234
10
6.6569914
20
13.1065828
40
0.5265881
50
278.107187
51
299.0339503
0
ARC
8
DEFAULT_255_1_234
10
6.6313993
20
13.2573216
40
0.679442
50
270.4443897
51
278.4511052
0
ARC
8
DEFAULT_255_1_234
10
6.6334823
20
13.1644213
40
0.4604407
50
269.4970433
51
284.0205042
0
ARC
8
DEFAULT_255_1_234
10
6.6690124
20
13.0278978
40
0.3193797
50
283.7700273
51
318.1555492
0
ARC
8
DEFAULT_255_1_234
10
6.6352882
20
13.0531367
40
0.3613588
50
318.7415601
51
343.6873628
0
ARC
8
DEFAULT_255_1_234
10
6.4548906
20
13.1094832
40
0.5503313
50
343.3325091
51
355.8548958
0
ARC
8
DEFAULT_255_1_234
10
6.245059
20
13.1294319
40
0.7610708
50
355.4988528
51
0.0791727
0
ARC
8
DEFAULT_255_1_234
10
6.3233213
20
13.202978
40
0.6828208
50
359.6455037
51
9.8607896
0
ARC
8
DEFAULT_255_1_234
10
6.559391
20
13.2456099
40
0.4429406
50
9.6571907
51
26.1932807
0
ARC
8
DEFAULT_255_1_234
10
6.6521899
20
13.2887118
40
0.3406537
50
26.5777228
51
40.1532208
0
ARC
8
DEFAULT_255_1_234
10
6.6777625
20
13.3086619
40
0.308246
50
40.3840491
51
80.1431104
0
ARC
8
DEFAULT_255_1_234
10
6.6450743
20
13.1637333
40
0.4566909
50
79.2152159
51
89.7445637
0
LINE
8
DEFAULT_255_1_234
10
4.986585
20
21.1579391
11
4.986585
21
21.0318408
0
LINE
8
DEFAULT_255_1_234
10
4.986585
20
21.0318408
11
4.4958458
21
21.0318408
0
LINE
8
DEFAULT_255_1_234
10
4.4958458
20
21.0318408
11
4.4958458
21
20.5154
0
LINE
8
DEFAULT_255_1_234
10
4.4958458
20
20.5154
11
4.3416364
21
20.5154
0
LINE
8
DEFAULT_255_1_234
10
4.3416364
20
20.5154
11
4.3416364
21
21.6848211
0
LINE
8
DEFAULT_255_1_234
10
4.3416364
20
21.6848211
11
5.0660992
21
21.6848211
0
LINE
8
DEFAULT_255_1_234
10
5.0660992
20
21.6848211
11
5.0660992
21
21.5579196
0
LINE
8
DEFAULT_255_1_234
10
5.0660992
20
21.5579196
11
4.4958458
21
21.5579196
0
LINE
8
DEFAULT_255_1_234
10
4.4958458
20
21.5579196
11
4.4958458
21
21.1579391
0
LINE
8
DEFAULT_255_1_234
10
4.4958458
20
21.1579391
11
4.986585
21
21.1579391
0
LINE
8
DEFAULT_255_1_234
10
5.8716825
20
20.5154
11
5.7600414
21
20.8206061
0
LINE
8
DEFAULT_255_1_234
10
5.7600414
20
20.8206061
11
5.2701053
21
20.8206061
0
LINE
8
DEFAULT_255_1_234
10
5.2701053
20
20.8206061
11
5.1600705
21
20.5154
0
LINE
8
DEFAULT_255_1_234
10
5.1600705
20
20.5154
11
5.0010421
21
20.5154
0
LINE
8
DEFAULT_255_1_234
10
5.0010421
20
20.5154
11
5.4476067
21
21.6848211
0
LINE
8
DEFAULT_255_1_234
10
5.4476067
20
21.6848211
11
5.5825399
21
21.6848211
0
LINE
8
DEFAULT_255_1_234
10
5.5825399
20
21.6848211
11
6.0299078
21
20.5154
0
LINE
8
DEFAULT_255_1_234
10
6.0299078
20
20.5154
11
5.8716825
21
20.5154
0
LINE
8
DEFAULT_255_1_234
10
5.5150733
20
21.4944689
11
5.3166894
21
20.9475075
0
LINE
8
DEFAULT_255_1_234
10
5.3166894
20
20.9475075
11
5.7142604
21
20.9475075
0
LINE
8
DEFAULT_255_1_234
10
5.7142604
20
20.9475075
11
5.5150733
21
21.4944689
0
LINE
8
DEFAULT_255_1_234
10
6.8419165
20
21.6848211
11
6.9969291
21
21.6848211
0
LINE
8
DEFAULT_255_1_234
10
6.9969291
20
21.6848211
11
6.9969291
21
20.889679
0
LINE
8
DEFAULT_255_1_234
10
6.613012
20
20.5009429
11
6.5720501
21
20.4993365
0
LINE
8
DEFAULT_255_1_234
10
6.1503838
20
20.8880727
11
6.1503838
21
21.6848211
0
LINE
8
DEFAULT_255_1_234
10
6.1503838
20
21.6848211
11
6.3029869
21
21.6848211
0
LINE
8
DEFAULT_255_1_234
10
6.3029869
20
21.6848211
11
6.3029869
21
20.8928917
0
LINE
8
DEFAULT_255_1_234
10
6.8419165
20
20.8920885
11
6.8419165
21
21.6848211
0
ARC
8
DEFAULT_255_1_234
10
6.5616189
20
20.8876928
40
0.4353147
50
343.0898354
51
0.2614217
0
ARC
8
DEFAULT_255_1_234
10
6.644459
20
20.8645837
40
0.3493402
50
315.3345598
51
342.7641223
0
ARC
8
DEFAULT_255_1_234
10
6.6221039
20
20.8877682
40
0.3815385
50
284.6606969
51
315.2182466
0
ARC
8
DEFAULT_255_1_234
10
6.5765752
20
21.0423755
40
0.5426573
50
273.8500273
51
285.1797701
0
ARC
8
DEFAULT_255_1_234
10
6.5677803
20
21.0765475
40
0.5772268
50
257.6317484
51
270.4238298
0
ARC
8
DEFAULT_255_1_234
10
6.5253001
20
20.8944198
40
0.3902347
50
230.6087562
51
257.9964012
0
ARC
8
DEFAULT_255_1_234
10
6.5121003
20
20.8737802
40
0.3659186
50
227.7440991
51
230.1551448
0
ARC
8
DEFAULT_255_1_234
10
6.4986834
20
20.8576471
40
0.3449568
50
189.2524587
51
227.5916061
0
ARC
8
DEFAULT_255_1_234
10
6.6508521
20
20.8904013
40
0.5004737
50
180.2665968
51
190.1525252
0
ARC
8
DEFAULT_255_1_234
10
6.6730541
20
20.8900918
40
0.3700778
50
179.5665184
51
191.9952995
0
ARC
8
DEFAULT_255_1_234
10
6.5502647
20
20.8627043
40
0.2442808
50
191.6974072
51
215.1404042
0
ARC
8
DEFAULT_255_1_234
10
6.5264562
20
20.8485108
40
0.2166522
50
215.6950207
51
224.8513522
0
ARC
8
DEFAULT_255_1_234
10
6.5320305
20
20.8564697
40
0.2262237
50
225.2846858
51
255.0111758
0
ARC
8
DEFAULT_255_1_234
10
6.5644265
20
20.9678455
40
0.3421979
50
254.5944985
51
267.9129803
0
ARC
8
DEFAULT_255_1_234
10
6.5718746
20
21.0762903
40
0.4508556
50
267.4689655
51
270.0223026
0
ARC
8
DEFAULT_255_1_234
10
6.5748891
20
21.0173849
40
0.3919604
50
269.5849941
51
281.1843768
0
ARC
8
DEFAULT_255_1_234
10
6.6027656
20
20.8821059
40
0.2538457
50
280.9344262
51
300.9743589
0
ARC
8
DEFAULT_255_1_234
10
6.6240261
20
20.8429688
40
0.2093566
50
301.4980046
51
315.1466847
0
ARC
8
DEFAULT_255_1_234
10
6.60958
20
20.8548236
40
0.2279656
50
315.5952539
51
345.6678731
0
ARC
8
DEFAULT_255_1_234
10
6.4976316
20
20.8860009
40
0.3441564
50
345.2524969
51
358.6304371
0
ARC
8
DEFAULT_255_1_234
10
6.395867
20
20.8919916
40
0.4460494
50
358.1735671
51
0.0124524
0
LINE
8
DEFAULT_255_1_234
10
7.3953033
20
21.6848211
11
7.3953033
21
20.6414983
0
LINE
8
DEFAULT_255_1_234
10
7.3953033
20
20.6414983
11
7.9494932
21
20.6414983
0
LINE
8
DEFAULT_255_1_234
10
7.9494932
20
20.6414983
11
7.9494932
21
20.5154
0
LINE
8
DEFAULT_255_1_234
10
7.9494932
20
20.5154
11
7.2402907
21
20.5154
0
LINE
8
DEFAULT_255_1_234
10
7.2402907
20
20.5154
11
7.2402907
21
21.6848211
0
LINE
8
DEFAULT_255_1_234
10
7.2402907
20
21.6848211
11
7.3953033
21
21.6848211
0
LINE
8
DEFAULT_255_1_234
10
8.7125083
20
21.6848211
11
8.7125083
21
21.5579196
0
LINE
8
DEFAULT_255_1_234
10
8.7125083
20
21.5579196
11
8.336623
21
21.5579196
0
LINE
8
DEFAULT_255_1_234
10
8.336623
20
21.5579196
11
8.336623
21
20.5154
0
LINE
8
DEFAULT_255_1_234
10
8.336623
20
20.5154
11
8.1832168
21
20.5154
0
LINE
8
DEFAULT_255_1_234
10
8.1832168
20
20.5154
11
8.1832168
21
21.5579196
0
LINE
8
DEFAULT_255_1_234
10
8.1832168
20
21.5579196
11
7.8081346
21
21.5579196
0
LINE
8
DEFAULT_255_1_234
10
7.8081346
20
21.5579196
11
7.8081346
21
21.6848211
0
LINE
8
DEFAULT_255_1_234
10
7.8081346
20
21.6848211
11
8.7125083
21
21.6848211
0
LINE
8
DEFAULT_255_1_234
10
4.8935484
20
29.1195343
11
4.8935484
21
28.993436
0
LINE
8
DEFAULT_255_1_234
10
4.8935484
20
28.993436
11
4.3867458
21
28.993436
0
LINE
8
DEFAULT_255_1_234
10
4.3867458
20
28.993436
11
4.3867458
21
28.5789983
0
LINE
8
DEFAULT_255_1_234
10
4.3867458
20
28.5789983
11
4.9754722
21
28.5789983
0
LINE
8
DEFAULT_255_1_234
10
4.9754722
20
28.5789983
11
4.9754722
21
28.4529
0
LINE
8
DEFAULT_255_1_234
10
4.9754722
20
28.4529
11
4.2325364
21
28.4529
0
LINE
8
DEFAULT_255_1_234
10
4.2325364
20
28.4529
11
4.2325364
21
29.6223211
0
LINE
8
DEFAULT_255_1_234
10
4.2325364
20
29.6223211
11
4.9674404
21
29.6223211
0
LINE
8
DEFAULT_255_1_234
10
4.9674404
20
29.6223211
11
4.9674404
21
29.4954196
0
LINE
8
DEFAULT_255_1_234
10
4.9674404
20
29.4954196
11
4.3867458
21
29.4954196
0
LINE
8
DEFAULT_255_1_234
10
4.3867458
20
29.4954196
11
4.3867458
21
29.1195343
0
LINE
8
DEFAULT_255_1_234
10
4.3867458
20
29.1195343
11
4.8935484
21
29.1195343
0
LINE
8
DEFAULT_255_1_234
10
5.2670243
20
29.6223211
11
5.5489383
21
29.1741501
0
LINE
8
DEFAULT_255_1_234
10
5.5489383
20
29.1741501
11
5.8292459
21
29.6223211
0
LINE
8
DEFAULT_255_1_234
10
5.8292459
20
29.6223211
11
6.0107632
21
29.6223211
0
LINE
8
DEFAULT_255_1_234
10
6.0107632
20
29.6223211
11
5.6413033
21
29.0424296
0
LINE
8
DEFAULT_255_1_234
10
5.6413033
20
29.0424296
11
6.0195981
21
28.4529
0
LINE
8
DEFAULT_255_1_234
10
6.0195981
20
28.4529
11
5.8364745
21
28.4529
0
LINE
8
DEFAULT_255_1_234
10
5.8364745
20
28.4529
11
5.5489383
21
28.9091027
0
LINE
8
DEFAULT_255_1_234
10
5.5489383
20
28.9091027
11
5.2597957
21
28.4529
0
LINE
8
DEFAULT_255_1_234
10
5.2597957
20
28.4529
11
5.0774752
21
28.4529
0
LINE
8
DEFAULT_255_1_234
10
5.0774752
20
28.4529
11
5.4565733
21
29.0424296
0
LINE
8
DEFAULT_255_1_234
10
5.4565733
20
29.0424296
11
5.0863102
21
29.6223211
0
LINE
8
DEFAULT_255_1_234
10
5.0863102
20
29.6223211
11
5.2670243
21
29.6223211
0
LINE
8
DEFAULT_255_1_234
10
7.0066988
20
29.6223211
11
7.0066988
21
29.4954196
0
LINE
8
DEFAULT_255_1_234
10
7.0066988
20
29.4954196
11
6.6308134
21
29.4954196
0
LINE
8
DEFAULT_255_1_234
10
6.6308134
20
29.4954196
11
6.6308134
21
28.4529
0
LINE
8
DEFAULT_255_1_234
10
6.6308134
20
28.4529
11
6.4774072
21
28.4529
0
LINE
8
DEFAULT_255_1_234
10
6.4774072
20
28.4529
11
6.4774072
21
29.4954196
0
LINE
8
DEFAULT_255_1_234
10
6.4774072
20
29.4954196
11
6.102325
21
29.4954196
0
LINE
8
DEFAULT_255_1_234
10
6.102325
20
29.4954196
11
6.102325
21
29.6223211
0
LINE
8
DEFAULT_255_1_234
10
6.102325
20
29.6223211
11
7.0066988
21
29.6223211
0
LINE
8
DEFAULT_255_1_234
10
7.8251329
20
29.0954391
11
7.8251329
21
28.9693408
0
LINE
8
DEFAULT_255_1_234
10
7.8251329
20
28.9693408
11
7.3343937
21
28.9693408
0
LINE
8
DEFAULT_255_1_234
10
7.3343937
20
28.9693408
11
7.3343937
21
28.4529
0
LINE
8
DEFAULT_255_1_234
10
7.3343937
20
28.4529
11
7.1801843
21
28.4529
0
LINE
8
DEFAULT_255_1_234
10
7.1801843
20
28.4529
11
7.1801843
21
29.6223211
0
LINE
8
DEFAULT_255_1_234
10
7.1801843
20
29.6223211
11
7.9046471
21
29.6223211
0
LINE
8
DEFAULT_255_1_234
10
7.9046471
20
29.6223211
11
7.9046471
21
29.4954196
0
LINE
8
DEFAULT_255_1_234
10
7.9046471
20
29.4954196
11
7.3343937
21
29.4954196
0
LINE
8
DEFAULT_255_1_234
10
7.3343937
20
29.4954196
11
7.3343937
21
29.0954391
0
LINE
8
DEFAULT_255_1_234
10
7.3343937
20
29.0954391
11
7.8251329
21
29.0954391
0
LINE
8
DEFAULT_255_1_234
10
4.3749902
20
37.5598211
11
4.3749902
21
36.3904
0
LINE
8
DEFAULT_255_1_234
10
4.3749902
20
36.3904
11
4.2207808
21
36.3904
0
LINE
8
DEFAULT_255_1_234
10
4.2207808
20
36.3904
11
4.2207808
21
37.5598211
0
LINE
8
DEFAULT_255_1_234
10
4.2207808
20
37.5598211
11
4.3749902
21
37.5598211
0
LINE
8
DEFAULT_255_1_234
10
5.5556557
20
37.5598211
11
5.5556557
21
36.3904
0
LINE
8
DEFAULT_255_1_234
10
5.5556557
20
36.3904
11
5.4006432
21
36.3904
0
LINE
8
DEFAULT_255_1_234
10
5.4006432
20
36.3904
11
4.8119167
21
37.291561
0
LINE
8
DEFAULT_255_1_234
10
4.8119167
20
37.291561
11
4.8119167
21
36.3904
0
LINE
8
DEFAULT_255_1_234
10
4.8119167
20
36.3904
11
4.6569042
21
36.3904
0
LINE
8
DEFAULT_255_1_234
10
4.6569042
20
36.3904
11
4.6569042
21
37.5598211
0
LINE
8
DEFAULT_255_1_234
10
4.6569042
20
37.5598211
11
4.8119167
21
37.5598211
0
LINE
8
DEFAULT_255_1_234
10
4.8119167
20
37.5598211
11
5.4022495
21
36.6546442
0
LINE
8
DEFAULT_255_1_234
10
5.4022495
20
36.6546442
11
5.4022495
21
37.5598211
0
LINE
8
DEFAULT_255_1_234
10
5.4022495
20
37.5598211
11
5.5556557
21
37.5598211
0
LINE
8
DEFAULT_255_1_234
10
6.6142388
20
37.5598211
11
6.6142388
21
37.4329196
0
LINE
8
DEFAULT_255_1_234
10
6.6142388
20
37.4329196
11
6.2383535
21
37.4329196
0
LINE
8
DEFAULT_255_1_234
10
6.2383535
20
37.4329196
11
6.2383535
21
36.3904
0
LINE
8
DEFAULT_255_1_234
10
6.2383535
20
36.3904
11
6.0849473
21
36.3904
0
LINE
8
DEFAULT_255_1_234
10
6.0849473
20
36.3904
11
6.0849473
21
37.4329196
0
LINE
8
DEFAULT_255_1_234
10
6.0849473
20
37.4329196
11
5.7098651
21
37.4329196
0
LINE
8
DEFAULT_255_1_234
10
5.7098651
20
37.4329196
11
5.7098651
21
37.5598211
0
LINE
8
DEFAULT_255_1_234
10
5.7098651
20
37.5598211
11
6.6142388
21
37.5598211
0
LINE
8
DEFAULT_255_1_234
10
7.4326729
20
37.0329391
11
7.4326729
21
36.9068408
0
LINE
8
DEFAULT_255_1_234
10
7.4326729
20
36.9068408
11
6.9419337
21
36.9068408
0
LINE
8
DEFAULT_255_1_234
10
6.9419337
20
36.9068408
11
6.9419337
21
36.3904
0
LINE
8
DEFAULT_255_1_234
10
6.9419337
20
36.3904
11
6.7877244
21
36.3904
0
LINE
8
DEFAULT_255_1_234
10
6.7877244
20
36.3904
11
6.7877244
21
37.5598211
0
LINE
8
DEFAULT_255_1_234
10
6.7877244
20
37.5598211
11
7.5121872
21
37.5598211
0
LINE
8
DEFAULT_255_1_234
10
7.5121872
20
37.5598211
11
7.5121872
21
37.4329196
0
LINE
8
DEFAULT_255_1_234
10
7.5121872
20
37.4329196
11
6.9419337
21
37.4329196
0
LINE
8
DEFAULT_255_1_234
10
6.9419337
20
37.4329196
11
6.9419337
21
37.0329391
0
LINE
8
DEFAULT_255_1_234
10
6.9419337
20
37.0329391
11
7.4326729
21
37.0329391
0
LINE
8
DEFAULT_255_1_234
10
23.0444364
20
45.4973211
11
23.2436235
21
45.4973211
0
LINE
8
DEFAULT_255_1_234
10
23.2436235
20
45.4973211
11
23.6259342
21
44.5431506
0
LINE
8
DEFAULT_255_1_234
10
23.6259342
20
44.5431506
11
24.008245
21
45.4973211
0
LINE
8
DEFAULT_255_1_234
10
24.008245
20
45.4973211
11
24.2082353
21
45.4973211
0
LINE
8
DEFAULT_255_1_234
10
24.2082353
20
45.4973211
11
24.2082353
21
44.3279
0
LINE
8
DEFAULT_255_1_234
10
24.2082353
20
44.3279
11
24.0540259
21
44.3279
0
LINE
8
DEFAULT_255_1_234
10
24.0540259
20
44.3279
11
24.0540259
21
44.7832996
0
LINE
8
DEFAULT_255_1_234
10
24.0540259
20
44.7832996
11
24.068483
21
45.2748419
0
LINE
8
DEFAULT_255_1_234
10
24.068483
20
45.2748419
11
23.6845659
21
44.3279
0
LINE
8
DEFAULT_255_1_234
10
23.6845659
20
44.3279
11
23.5664994
21
44.3279
0
LINE
8
DEFAULT_255_1_234
10
23.5664994
20
44.3279
11
23.1833854
21
45.2724324
0
LINE
8
DEFAULT_255_1_234
10
23.1833854
20
45.2724324
11
23.1986458
21
44.7832996
0
LINE
8
DEFAULT_255_1_234
10
23.1986458
20
44.7832996
11
23.1986458
21
44.3279
0
LINE
8
DEFAULT_255_1_234
10
23.1986458
20
44.3279
11
23.0444364
21
44.3279
0
LINE
8
DEFAULT_255_1_234
10
23.0444364
20
44.3279
11
23.0444364
21
45.4973211
0
ENDSEC
0
EOF