0
SECTION
2
HEADER
9
$MEASUREMENT
70
1
0
ENDSEC
0
SECTION
2
TABLES
0
TABLE
2
LTYPE
0
LTYPE
72
65
70
64
2
CONTINUOUS
3
______
73
0
40
0
0
ENDTAB
0
TABLE
2
LAYER
0
LAYER
2
DEFAULT_255_2_778
70
0
62
255
6
CONTINUOUS
0
LAYER
2
DEFAULT_255_1_234
70
0
62
255
6
CONTINUOUS
0
ENDTAB
0
ENDSEC
0
SECTION
2
ENTITIES
0
ARC
8
DEFAULT_255_2_778
10
3.5695693
20
59.9302032
40
0.7914215
50
129.1312896
51
180.1450914
0
ARC
8
DEFAULT_255_2_778
10
3.5698345
20
59.9306904
40
0.7912112
50
89.854026
51
129.1684493
0
ARC
8
DEFAULT_255_2_778
10
25.7988937
20
59.9303769
40
0.7915249
50
39.4792447
51
90.147911
0
ARC
8
DEFAULT_255_2_778
10
25.7994935
20
59.9302236
40
0.7911595
50
359.8533901
51
39.5154338
0
ARC
8
DEFAULT_255_2_778
10
25.7991693
20
-1.986349
40
0.7914836
50
309.4761667
51
0.1482649
0
ARC
8
DEFAULT_255_2_778
10
25.798898
20
-1.9867801
40
0.7913235
50
269.8517415
51
309.511178
0
ARC
8
DEFAULT_255_2_778
10
3.569842
20
-1.9867219
40
0.7913815
50
219.1282118
51
270.1454017
0
ARC
8
DEFAULT_255_2_778
10
3.5695247
20
-1.9863394
40
0.7913769
50
179.8524075
51
219.1641908
0
LINE
8
DEFAULT_255_2_778
10
3.5718503
20
60.7218991
11
25.7968503
21
60.7218991
0
LINE
8
DEFAULT_255_2_778
10
26.5906503
20
59.9281991
11
26.5906503
21
-1.9843009
0
LINE
8
DEFAULT_255_2_778
10
25.7968503
20
-2.7781009
11
3.5718503
21
-2.7781009
0
LINE
8
DEFAULT_255_2_778
10
2.7781503
20
-1.9843009
11
2.7781503
21
59.9281991
0
LINE
8
DEFAULT_255_1_234
10
6.6037835
20
0.5189243
11
6.6302882
21
0.5189243
0
LINE
8
DEFAULT_255_1_234
10
6.6302882
20
0.5189243
11
6.6302882
21
0.392826
0
LINE
8
DEFAULT_255_1_234
10
6.6302882
20
0.392826
11
6.6029803
21
0.392826
0
LINE
8
DEFAULT_255_1_234
10
6.0560189
20
-0.2063417
11
6.0560189
21
-0.1493164
0
LINE
8
DEFAULT_255_1_234
10
6.2054093
20
-0.1685925
11
6.2054093
21
-0.2232083
0
ARC
8
DEFAULT_255_1_234
10
6.6082151
20
-0.1069545
40
0.4998079
50
90.6001036
51
104.514704
0
ARC
8
DEFAULT_255_1_234
10
6.5693667
20
0.0375131
40
0.3502176
50
104.2855254
51
133.862935
0
ARC
8
DEFAULT_255_1_234
10
6.5857424
20
0.026683
40
0.3693984
50
134.5302688
51
161.6210873
0
ARC
8
DEFAULT_255_1_234
10
6.7510613
20
-0.0316105
40
0.5446739
50
161.2849839
51
174.2076652
0
ARC
8
DEFAULT_255_1_234
10
6.891755
20
-0.0510213
40
0.6866274
50
173.7810589
51
174.9254635
0
ARC
8
DEFAULT_255_1_234
10
6.4367382
20
-0.1893161
40
0.3033419
50
95.8330959
51
138.9954921
0
ARC
8
DEFAULT_255_1_234
10
6.4590738
20
-0.3171625
40
0.4328947
50
89.8753725
51
97.0544009
0
ARC
8
DEFAULT_255_1_234
10
6.4638204
20
-0.2336252
40
0.3493769
50
71.6407809
51
90.6240094
0
ARC
8
DEFAULT_255_1_234
10
6.4788777
20
-0.1781918
40
0.2920396
50
39.6367836
51
71.019018
0
ARC
8
DEFAULT_255_1_234
10
6.415225
20
-0.2332002
40
0.3761538
50
10.658731
51
39.9043955
0
ARC
8
DEFAULT_255_1_234
10
6.2604333
20
-0.2668314
40
0.5345136
50
359.682601
51
11.132623
0
ARC
8
DEFAULT_255_1_234
10
6.2564464
20
-0.273899
40
0.5385081
50
347.2486944
51
0.4369317
0
ARC
8
DEFAULT_255_1_234
10
6.4231941
20
-0.3140193
40
0.3670249
50
318.1409698
51
347.6118597
0
ARC
8
DEFAULT_255_1_234
10
6.4556934
20
-0.3407298
40
0.3250007
50
275.6342139
51
317.8248465
0
ARC
8
DEFAULT_255_1_234
10
6.4336045
20
-0.2107781
40
0.4565864
50
269.8874292
51
276.7917694
0
ARC
8
DEFAULT_255_1_234
10
6.4281116
20
-0.3133257
40
0.3540676
50
246.9140195
51
270.7437342
0
ARC
8
DEFAULT_255_1_234
10
6.4287506
20
-0.3275616
40
0.3412781
50
218.1665114
51
245.878116
0
ARC
8
DEFAULT_255_1_234
10
6.5166967
20
-0.2539721
40
0.455911
50
191.4115814
51
218.6077802
0
ARC
8
DEFAULT_255_1_234
10
6.7105056
20
-0.2105167
40
0.6545001
50
179.6345085
51
191.7836486
0
ARC
8
DEFAULT_255_1_234
10
7.2687393
20
-0.1426303
40
1.2127388
50
171.4525249
51
180.3158839
0
ARC
8
DEFAULT_255_1_234
10
6.8292269
20
-0.0742392
40
0.7679464
50
157.9802646
51
171.6246686
0
ARC
8
DEFAULT_255_1_234
10
6.607829
20
0.0140421
40
0.5296008
50
141.4298019
51
157.854097
0
ARC
8
DEFAULT_255_1_234
10
6.543661
20
0.0594381
40
0.4511509
50
102.8715806
51
140.8564722
0
ARC
8
DEFAULT_255_1_234
10
6.6084226
20
-0.1845448
40
0.7034845
50
90.3778349
51
103.5869322
0
ARC
8
DEFAULT_255_1_234
10
6.4346002
20
-0.245027
40
0.2370698
50
89.8751008
51
126.2071704
0
ARC
8
DEFAULT_255_1_234
10
6.4391792
20
-0.2604697
40
0.2522934
50
124.9745049
51
144.895901
0
ARC
8
DEFAULT_255_1_234
10
6.4215982
20
-0.246144
40
0.2296779
50
145.2974905
51
160.2660252
0
ARC
8
DEFAULT_255_1_234
10
6.7288521
20
-0.2263929
40
0.5234525
50
179.6514266
51
190.2855912
0
ARC
8
DEFAULT_255_1_234
10
6.5594658
20
-0.2583214
40
0.3510893
50
190.0945431
51
207.5098196
0
ARC
8
DEFAULT_255_1_234
10
6.5028928
20
-0.2852377
40
0.288489
50
207.9583163
51
216.3251085
0
ARC
8
DEFAULT_255_1_234
10
6.4689036
20
-0.3131895
40
0.2445587
50
215.7661442
51
232.5456785
0
ARC
8
DEFAULT_255_1_234
10
6.4306019
20
-0.3618518
40
0.1826382
50
232.8005391
51
270.6605633
0
ARC
8
DEFAULT_255_1_234
10
6.435172
20
-0.3254388
40
0.2190529
50
269.35537
51
288.4744281
0
ARC
8
DEFAULT_255_1_234
10
6.4444617
20
-0.3603882
40
0.1829749
50
289.1833337
51
322.9683818
0
ARC
8
DEFAULT_255_1_234
10
6.3833139
20
-0.3121609
40
0.2608399
50
322.6007884
51
346.5182367
0
ARC
8
DEFAULT_255_1_234
10
6.2675735
20
-0.2826384
40
0.3802777
50
346.2582162
51
358.7741648
0
ARC
8
DEFAULT_255_1_234
10
6.1657404
20
-0.2771035
40
0.4822176
50
358.3755224
51
0.0098023
0
ARC
8
DEFAULT_255_1_234
10
6.2413591
20
-0.2743343
40
0.4066078
50
359.6214041
51
11.2839074
0
ARC
8
DEFAULT_255_1_234
10
6.3690738
20
-0.2476934
40
0.2761514
50
11.0482309
51
31.8146458
0
ARC
8
DEFAULT_255_1_234
10
6.3999781
20
-0.2309416
40
0.2410679
50
32.3035391
51
38.082671
0
ARC
8
DEFAULT_255_1_234
10
6.4420441
20
-0.1928338
40
0.1844966
50
36.825067
51
85.7415724
0
ARC
8
DEFAULT_255_1_234
10
6.4353274
20
-0.2428699
40
0.2349122
50
85.0140713
51
90.0513278
0
LINE
8
DEFAULT_255_1_234
10
7.8727981
20
-0.068999
11
7.8727981
21
-0.4978938
0
LINE
8
DEFAULT_255_1_234
10
6.9716371
20
-0.1228116
11
6.9716371
21
-0.0208085
0
LINE
8
DEFAULT_255_1_234
10
7.8727981
20
0.1751659
11
7.7185888
21
0.1751659
0
LINE
8
DEFAULT_255_1_234
10
7.1266497
20
-0.0167927
11
7.1266497
21
-0.1123704
0
LINE
8
DEFAULT_255_1_234
10
7.7193919
20
-0.4569319
11
7.7193919
21
-0.1942941
0
LINE
8
DEFAULT_255_1_234
10
7.7193919
20
-0.1942941
11
7.4487224
21
-0.1942941
0
LINE
8
DEFAULT_255_1_234
10
7.4487224
20
-0.1942941
11
7.4487224
21
-0.068999
0
LINE
8
DEFAULT_255_1_234
10
7.4487224
20
-0.068999
11
7.8727981
21
-0.068999
0
ARC
8
DEFAULT_255_1_234
10
7.5896488
20
-0.2985604
40
0.3462765
50
295.8437914
51
324.8549609
0
ARC
8
DEFAULT_255_1_234
10
7.5480455
20
-0.2232433
40
0.4322211
50
291.5695085
51
296.4549398
0
ARC
8
DEFAULT_255_1_234
10
7.4969706
20
-0.0867725
40
0.5779178
50
278.6622409
51
291.3045483
0
ARC
8
DEFAULT_255_1_234
10
7.4630198
20
0.1280408
40
0.7953952
50
270.020006
51
278.7494541
0
ARC
8
DEFAULT_255_1_234
10
7.4592122
20
0.2597036
40
0.927067
50
269.9969998
51
270.2524872
0
ARC
8
DEFAULT_255_1_234
10
7.4553835
20
-0.1486411
40
0.5187361
50
253.5786322
51
270.4175299
0
ARC
8
DEFAULT_255_1_234
10
7.4380491
20
-0.2157764
40
0.4494451
50
238.8203306
51
253.2788235
0
ARC
8
DEFAULT_255_1_234
10
7.4360864
20
-0.2208769
40
0.4440665
50
206.7883783
51
238.6962764
0
ARC
8
DEFAULT_255_1_234
10
7.5134774
20
-0.1744595
40
0.5341121
50
206.1129412
51
207.4916643
0
ARC
8
DEFAULT_255_1_234
10
7.5731689
20
-0.1490512
40
0.5989041
50
188.6921119
51
205.7821245
0
ARC
8
DEFAULT_255_1_234
10
7.7588051
20
-0.117477
40
0.7871862
50
180.3882829
51
188.9219216
0
ARC
8
DEFAULT_255_1_234
10
7.8815865
20
-0.0151536
40
0.909967
50
170.2024264
51
180.3560651
0
ARC
8
DEFAULT_255_1_234
10
7.5652383
20
0.0414237
40
0.5886083
50
154.2857445
51
170.3893044
0
ARC
8
DEFAULT_255_1_234
10
7.4370586
20
0.100095
40
0.4476743
50
139.8401567
51
153.9332699
0
ARC
8
DEFAULT_255_1_234
10
7.4011322
20
0.1288577
40
0.4016697
50
98.4190291
51
139.6707122
0
ARC
8
DEFAULT_255_1_234
10
7.439084
20
-0.0556672
40
0.5898566
50
89.7659205
51
99.4415478
0
ARC
8
DEFAULT_255_1_234
10
7.4456089
20
-0.0491156
40
0.5833147
50
78.0551672
51
90.4042112
0
ARC
8
DEFAULT_255_1_234
10
7.4860599
20
0.1327644
40
0.3970055
50
54.6380464
51
78.3339173
0
ARC
8
DEFAULT_255_1_234
10
7.5050655
20
0.1647795
40
0.3599102
50
50.031736
51
54.1558201
0
ARC
8
DEFAULT_255_1_234
10
7.4943443
20
0.1551766
40
0.3741624
50
18.1092409
51
49.7180913
0
ARC
8
DEFAULT_255_1_234
10
7.3486643
20
0.1018089
40
0.5292424
50
7.9672797
51
18.6984571
0
ARC
8
DEFAULT_255_1_234
10
7.3637121
20
0.1141504
40
0.3600838
50
9.7557294
51
27.3215714
0
ARC
8
DEFAULT_255_1_234
10
7.4764593
20
0.1704912
40
0.2340608
50
27.7361077
51
84.5257964
0
ARC
8
DEFAULT_255_1_234
10
7.443698
20
0.006164
40
0.4011215
50
82.106034
51
90.2001166
0
ARC
8
DEFAULT_255_1_234
10
7.4387197
20
0.0569215
40
0.3503799
50
89.4150119
51
105.5823402
0
ARC
8
DEFAULT_255_1_234
10
7.4130195
20
0.1504867
40
0.2533503
50
105.6678618
51
144.2648758
0
ARC
8
DEFAULT_255_1_234
10
7.502345
20
0.0869289
40
0.3629787
50
144.3561283
51
162.8564086
0
ARC
8
DEFAULT_255_1_234
10
7.7107359
20
0.0200017
40
0.5818441
50
162.6076014
51
173.6780284
0
ARC
8
DEFAULT_255_1_234
10
8.0168503
20
-0.017211
40
0.8902007
50
173.4670142
51
179.9730753
0
ARC
8
DEFAULT_255_1_234
10
7.8260174
20
-0.116574
40
0.6993804
50
179.6556203
51
190.0080463
0
ARC
8
DEFAULT_255_1_234
10
7.5944003
20
-0.1590625
40
0.4639066
50
189.8116607
51
206.6796816
0
ARC
8
DEFAULT_255_1_234
10
7.5099155
20
-0.1984497
40
0.3707421
50
207.1031645
51
217.7074368
0
ARC
8
DEFAULT_255_1_234
10
7.4464844
20
-0.2536441
40
0.2868417
50
216.7345547
51
265.6812148
0
ARC
8
DEFAULT_255_1_234
10
7.4595635
20
-0.1632145
40
0.3780509
50
264.7366618
51
270.0611241
0
ARC
8
DEFAULT_255_1_234
10
7.4618898
20
0.1208111
40
0.662079
50
269.8335834
51
276.0539546
0
ARC
8
DEFAULT_255_1_234
10
7.4825903
20
-0.069344
40
0.4708016
50
275.9894168
51
284.4615085
0
ARC
8
DEFAULT_255_1_234
10
7.502391
20
-0.1526337
40
0.3852094
50
284.7034461
51
286.4953897
0
ARC
8
DEFAULT_255_1_234
10
7.5430923
20
-0.2837035
40
0.2479842
50
286.0770838
51
304.2625829
0
ARC
8
DEFAULT_255_1_234
10
7.5564337
20
-0.3055406
40
0.2224291
50
304.5891602
51
317.1073298
0
LINE
8
DEFAULT_255_1_234
10
8.8414258
20
-0.6513
11
8.4269881
21
-0.1075513
0
LINE
8
DEFAULT_255_1_234
10
8.4269881
20
-0.1075513
11
8.2840231
21
-0.2561385
0
LINE
8
DEFAULT_255_1_234
10
8.2840231
20
-0.2561385
11
8.2840231
21
-0.6513
0
LINE
8
DEFAULT_255_1_234
10
8.2840231
20
-0.6513
11
8.1298138
21
-0.6513
0
LINE
8
DEFAULT_255_1_234
10
8.1298138
20
-0.6513
11
8.1298138
21
0.5181211
0
LINE
8
DEFAULT_255_1_234
10
8.1298138
20
0.5181211
11
8.2840231
21
0.5181211
0
LINE
8
DEFAULT_255_1_234
10
8.2840231
20
0.5181211
11
8.2840231
21
-0.0601641
0
LINE
8
DEFAULT_255_1_234
10
8.2840231
20
-0.0601641
11
8.8036766
21
0.5181211
0
LINE
8
DEFAULT_255_1_234
10
8.8036766
20
0.5181211
11
8.9900129
21
0.5181211
0
LINE
8
DEFAULT_255_1_234
10
8.9900129
20
0.5181211
11
8.5297943
21
0.0016803
0
LINE
8
DEFAULT_255_1_234
10
8.5297943
20
0.0016803
11
9.0261558
21
-0.6513
0
LINE
8
DEFAULT_255_1_234
10
9.0261558
20
-0.6513
11
8.8414258
21
-0.6513
0
LINE
8
DEFAULT_255_1_234
10
9.87752
20
0.5181211
11
9.87752
21
0.434591
0
LINE
8
DEFAULT_255_1_234
10
9.87752
20
0.434591
11
9.3932062
21
-0.6513
0
LINE
8
DEFAULT_255_1_234
10
9.3932062
20
-0.6513
11
9.2373905
21
-0.6513
0
LINE
8
DEFAULT_255_1_234
10
9.2373905
20
-0.6513
11
9.7200979
21
0.3960387
0
LINE
8
DEFAULT_255_1_234
10
9.7200979
20
0.3960387
11
9.087197
21
0.3960387
0
LINE
8
DEFAULT_255_1_234
10
9.087197
20
0.3960387
11
9.087197
21
0.5181211
0
LINE
8
DEFAULT_255_1_234
10
9.087197
20
0.5181211
11
9.87752
21
0.5181211
0
LINE
8
DEFAULT_255_1_234
10
10.6734653
20
0.5181211
11
10.6734653
21
-0.258548
0
LINE
8
DEFAULT_255_1_234
10
10.6734653
20
-0.258548
11
10.8357064
21
-0.258548
0
LINE
8
DEFAULT_255_1_234
10
10.8357064
20
-0.258548
11
10.8357064
21
-0.3798272
0
LINE
8
DEFAULT_255_1_234
10
10.8357064
20
-0.3798272
11
10.6734653
21
-0.3798272
0
LINE
8
DEFAULT_255_1_234
10
10.6734653
20
-0.3798272
11
10.6734653
21
-0.6513
0
LINE
8
DEFAULT_255_1_234
10
10.6734653
20
-0.6513
11
10.524075
21
-0.6513
0
LINE
8
DEFAULT_255_1_234
10
10.524075
20
-0.6513
11
10.524075
21
-0.3798272
0
LINE
8
DEFAULT_255_1_234
10
10.524075
20
-0.3798272
11
9.9915707
21
-0.3798272
0
LINE
8
DEFAULT_255_1_234
10
9.9915707
20
-0.3798272
11
9.9915707
21
-0.2922813
0
LINE
8
DEFAULT_255_1_234
10
9.9915707
20
-0.2922813
11
10.51524
21
0.5181211
0
LINE
8
DEFAULT_255_1_234
10
10.51524
20
0.5181211
11
10.6734653
21
0.5181211
0
LINE
8
DEFAULT_255_1_234
10
10.5064051
20
0.2827912
11
10.1602372
21
-0.258548
0
LINE
8
DEFAULT_255_1_234
10
10.1602372
20
-0.258548
11
10.524075
21
-0.258548
0
LINE
8
DEFAULT_255_1_234
10
10.524075
20
-0.258548
11
10.524075
21
0.3149181
0
LINE
8
DEFAULT_255_1_234
10
10.524075
20
0.3149181
11
10.5064051
21
0.2827912
0
LINE
8
DEFAULT_255_1_234
10
11.5971152
20
0.5181211
11
11.5971152
21
-0.258548
0
LINE
8
DEFAULT_255_1_234
10
11.5971152
20
-0.258548
11
11.7593563
21
-0.258548
0
LINE
8
DEFAULT_255_1_234
10
11.7593563
20
-0.258548
11
11.7593563
21
-0.3798272
0
LINE
8
DEFAULT_255_1_234
10
11.7593563
20
-0.3798272
11
11.5971152
21
-0.3798272
0
LINE
8
DEFAULT_255_1_234
10
11.5971152
20
-0.3798272
11
11.5971152
21
-0.6513
0
LINE
8
DEFAULT_255_1_234
10
11.5971152
20
-0.6513
11
11.4477249
21
-0.6513
0
LINE
8
DEFAULT_255_1_234
10
11.4477249
20
-0.6513
11
11.4477249
21
-0.3798272
0
LINE
8
DEFAULT_255_1_234
10
11.4477249
20
-0.3798272
11
10.9152206
21
-0.3798272
0
LINE
8
DEFAULT_255_1_234
10
10.9152206
20
-0.3798272
11
10.9152206
21
-0.2922813
0
LINE
8
DEFAULT_255_1_234
10
10.9152206
20
-0.2922813
11
11.4388899
21
0.5181211
0
LINE
8
DEFAULT_255_1_234
10
11.4388899
20
0.5181211
11
11.5971152
21
0.5181211
0
LINE
8
DEFAULT_255_1_234
10
11.430055
20
0.2827912
11
11.0838871
21
-0.258548
0
LINE
8
DEFAULT_255_1_234
10
11.0838871
20
-0.258548
11
11.4477249
21
-0.258548
0
LINE
8
DEFAULT_255_1_234
10
11.4477249
20
-0.258548
11
11.4477249
21
0.3149181
0
LINE
8
DEFAULT_255_1_234
10
11.4477249
20
0.3149181
11
11.430055
21
0.2827912
0
LINE
8
DEFAULT_255_1_234
10
12.1095401
20
-0.1155831
11
12.1095401
21
0.0056962
0
LINE
8
DEFAULT_255_1_234
10
12.1095401
20
0.0056962
11
12.2211813
21
0.0056962
0
LINE
8
DEFAULT_255_1_234
10
12.0308291
20
0.2113087
11
11.8822419
21
0.2113087
0
LINE
8
DEFAULT_255_1_234
10
11.8718006
20
-0.3428813
11
12.021191
21
-0.3428813
0
LINE
8
DEFAULT_255_1_234
10
12.2211813
20
-0.1155831
11
12.1095401
21
-0.1155831
0
ARC
8
DEFAULT_255_1_234
10
12.2182679
20
0.3449713
40
0.3392876
50
270.4919872
51
281.8951556
0
ARC
8
DEFAULT_255_1_234
10
12.2423941
20
0.2347702
40
0.2264817
50
281.6691735
51
301.2943132
0
ARC
8
DEFAULT_255_1_234
10
12.2594151
20
0.2036304
40
0.1910381
50
301.7833094
51
311.7545298
0
ARC
8
DEFAULT_255_1_234
10
12.2685726
20
0.1934748
40
0.1773635
50
311.7323931
51
354.2802411
0
ARC
8
DEFAULT_255_1_234
10
12.1959352
20
0.2059722
40
0.2509385
50
353.0937916
51
0.1181479
0
ARC
8
DEFAULT_255_1_234
10
12.1498137
20
0.2107386
40
0.2970898
50
359.1805295
51
15.0453146
0
ARC
8
DEFAULT_255_1_234
10
12.2843974
20
0.2499992
40
0.1569564
50
13.9577229
51
77.6713066
0
ARC
8
DEFAULT_255_1_234
10
12.2457503
20
0.1114949
40
0.3006298
50
76.1116566
51
90.7026153
0
ARC
8
DEFAULT_255_1_234
10
12.2398341
20
0.1388545
40
0.2732568
50
89.5324876
51
103.531937
0
ARC
8
DEFAULT_255_1_234
10
12.2197785
20
0.2187884
40
0.1908508
50
103.2931773
51
133.5619022
0
ARC
8
DEFAULT_255_1_234
10
12.2153274
20
0.2247375
40
0.1834746
50
133.8349307
51
173.5344437
0
ARC
8
DEFAULT_255_1_234
10
12.2876317
20
0.2119213
40
0.2568033
50
172.5096846
51
180.1366907
0
ARC
8
DEFAULT_255_1_234
10
12.1925211
20
0.2153622
40
0.3103056
50
155.3484492
51
180.7484736
0
ARC
8
DEFAULT_255_1_234
10
12.18763
20
0.2124846
40
0.3070957
50
131.5744599
51
154.4798489
0
ARC
8
DEFAULT_255_1_234
10
12.2189447
20
0.180831
40
0.3515643
50
96.9875458
51
131.9690667
0
ARC
8
DEFAULT_255_1_234
10
12.2408927
20
0.0562636
40
0.4779224
50
89.8596053
51
97.7825159
0
ARC
8
DEFAULT_255_1_234
10
12.245699
20
0.0300616
40
0.5041361
50
78.3655447
51
90.4131539
0
ARC
8
DEFAULT_255_1_234
10
12.2814908
20
0.1959887
40
0.3344039
50
56.6229102
51
78.638727
0
ARC
8
DEFAULT_255_1_234
10
12.3029852
20
0.2335805
40
0.2912001
50
47.0253525
51
56.0854072
0
ARC
8
DEFAULT_255_1_234
10
12.3049632
20
0.2375223
40
0.2869704
50
10.9208013
51
46.7778124
0
ARC
8
DEFAULT_255_1_234
10
12.1685698
20
0.2059857
40
0.426899
50
359.6364486
51
11.6087304
0
ARC
8
DEFAULT_255_1_234
10
12.3520542
20
0.2044752
40
0.243409
50
332.3549906
51
359.7179418
0
ARC
8
DEFAULT_255_1_234
10
12.2870144
20
0.2353142
40
0.3153459
50
325.2333722
51
332.8745602
0
ARC
8
DEFAULT_255_1_234
10
12.3022767
20
0.2246828
40
0.2967456
50
292.9802137
51
325.2392345
0
ARC
8
DEFAULT_255_1_234
10
12.2748141
20
0.2780863
40
0.3566604
50
292.5402179
51
293.6924929
0
ARC
8
DEFAULT_255_1_234
10
12.3140737
20
-0.3673909
40
0.3307468
50
57.6435486
51
72.8625112
0
ARC
8
DEFAULT_255_1_234
10
12.3495237
20
-0.3099451
40
0.2632492
50
36.7248896
51
57.4697979
0
ARC
8
DEFAULT_255_1_234
10
12.3483869
20
-0.308678
40
0.2634081
50
8.0545065
51
36.356114
0
ARC
8
DEFAULT_255_1_234
10
12.2621055
20
-0.3241826
40
0.3510261
50
359.8320645
51
8.5869982
0
ARC
8
DEFAULT_255_1_234
10
12.2245831
20
-0.3289899
40
0.3885653
50
343.9829931
51
0.5571613
0
ARC
8
DEFAULT_255_1_234
10
12.3132028
20
-0.3532562
40
0.2966924
50
311.6359546
51
343.7651759
0
ARC
8
DEFAULT_255_1_234
10
12.2753597
20
-0.3105898
40
0.3537231
50
279.7829875
51
311.6255694
0
ARC
8
DEFAULT_255_1_234
10
12.2452373
20
-0.166872
40
0.5004971
50
269.7286406
51
280.3856417
0
ARC
8
DEFAULT_255_1_234
10
12.2390446
20
-0.1710004
40
0.4963778
50
256.6828919
51
270.4412052
0
ARC
8
DEFAULT_255_1_234
10
12.2051742
20
-0.3094606
40
0.3538406
50
229.4223008
51
256.8556159
0
ARC
8
DEFAULT_255_1_234
10
12.1637135
20
-0.3561264
40
0.2914296
50
181.818294
51
229.6455059
0
ARC
8
DEFAULT_255_1_234
10
12.2677091
20
-0.3430504
40
0.3959084
50
179.9755256
51
183.2323064
0
ARC
8
DEFAULT_255_1_234
10
12.2504837
20
-0.3450963
40
0.2293034
50
179.4465117
51
196.2869258
0
ARC
8
DEFAULT_255_1_234
10
12.2017245
20
-0.3584349
40
0.1787621
50
196.5661473
51
227.705904
0
ARC
8
DEFAULT_255_1_234
10
12.218134
20
-0.3400845
40
0.2033784
50
227.7652068
51
257.8762805
0
ARC
8
DEFAULT_255_1_234
10
12.240631
20
-0.2457844
40
0.3003081
50
257.4584385
51
270.426602
0
ARC
8
DEFAULT_255_1_234
10
12.2451876
20
-0.2168004
40
0.329292
50
269.5962073
51
280.8789248
0
ARC
8
DEFAULT_255_1_234
10
12.2681405
20
-0.3314315
40
0.2123908
50
280.6346389
51
299.8595945
0
ARC
8
DEFAULT_255_1_234
10
12.2872311
20
-0.3676788
40
0.171457
50
300.3576302
51
314.5517981
0
ARC
8
DEFAULT_255_1_234
10
12.2789372
20
-0.3616081
40
0.1816095
50
315.0728369
51
345.0431014
0
ARC
8
DEFAULT_255_1_234
10
12.1866186
20
-0.3347159
40
0.2777492
50
344.5986631
51
357.9269593
0
ARC
8
DEFAULT_255_1_234
10
12.0970512
20
-0.3285724
40
0.3674917
50
357.4748886
51
0.0231117
0
ARC
8
DEFAULT_255_1_234
10
12.1993622
20
-0.3261321
40
0.2651907
50
359.5047933
51
13.4239635
0
ARC
8
DEFAULT_255_1_234
10
12.2860265
20
-0.3039522
40
0.1757509
50
12.9498199
51
48.7551375
0
ARC
8
DEFAULT_255_1_234
10
12.2677999
20
-0.32886
40
0.2065134
50
49.5088623
51
72.1836453
0
ARC
8
DEFAULT_255_1_234
10
12.2320152
20
-0.4350709
40
0.3185836
50
71.9010081
51
84.3554254
0
ARC
8
DEFAULT_255_1_234
10
12.2158784
20
-0.5711674
40
0.4556151
50
84.0193428
51
89.333121
0
LINE
8
DEFAULT_255_1_234
10
13.1416185
20
-0.0938974
11
13.1416185
21
-0.2151766
0
LINE
8
DEFAULT_255_1_234
10
13.1416185
20
-0.2151766
11
12.7496696
21
-0.2151766
0
LINE
8
DEFAULT_255_1_234
10
12.7496696
20
-0.2151766
11
12.7496696
21
-0.0938974
0
LINE
8
DEFAULT_255_1_234
10
12.7496696
20
-0.0938974
11
13.1416185
21
-0.0938974
0
LINE
8
DEFAULT_255_1_234
10
13.7592591
20
0.5237433
11
13.7592591
21
-0.6513
0
LINE
8
DEFAULT_255_1_234
10
13.7592591
20
-0.6513
11
13.6098688
21
-0.6513
0
LINE
8
DEFAULT_255_1_234
10
13.6098688
20
-0.6513
11
13.6098688
21
0.3390133
0
LINE
8
DEFAULT_255_1_234
10
13.6098688
20
0.3390133
11
13.310285
21
0.2289785
0
LINE
8
DEFAULT_255_1_234
10
13.310285
20
0.2289785
11
13.310285
21
0.3639117
0
LINE
8
DEFAULT_255_1_234
10
13.310285
20
0.3639117
11
13.7359671
21
0.5237433
0
LINE
8
DEFAULT_255_1_234
10
13.7359671
20
0.5237433
11
13.7592591
21
0.5237433
0
LINE
8
DEFAULT_255_1_234
10
15.0965436
20
-0.068999
11
15.0965436
21
-0.4978938
0
LINE
8
DEFAULT_255_1_234
10
14.1953825
20
-0.1228116
11
14.1953825
21
-0.0208085
0
LINE
8
DEFAULT_255_1_234
10
15.0965436
20
0.1751659
11
14.9423342
21
0.1751659
0
LINE
8
DEFAULT_255_1_234
10
14.3503951
20
-0.0167927
11
14.3503951
21
-0.1123704
0
LINE
8
DEFAULT_255_1_234
10
14.9431374
20
-0.4569319
11
14.9431374
21
-0.1942941
0
LINE
8
DEFAULT_255_1_234
10
14.9431374
20
-0.1942941
11
14.6724678
21
-0.1942941
0
LINE
8
DEFAULT_255_1_234
10
14.6724678
20
-0.1942941
11
14.6724678
21
-0.068999
0
LINE
8
DEFAULT_255_1_234
10
14.6724678
20
-0.068999
11
15.0965436
21
-0.068999
0
ARC
8
DEFAULT_255_1_234
10
14.8133942
20
-0.2985604
40
0.3462765
50
295.8437914
51
324.8549609
0
ARC
8
DEFAULT_255_1_234
10
14.7717909
20
-0.2232433
40
0.4322211
50
291.5695085
51
296.4549398
0
ARC
8
DEFAULT_255_1_234
10
14.7207161
20
-0.0867725
40
0.5779178
50
278.6622409
51
291.3045483
0
ARC
8
DEFAULT_255_1_234
10
14.6867652
20
0.1280408
40
0.7953952
50
270.020006
51
278.7494541
0
ARC
8
DEFAULT_255_1_234
10
14.6829576
20
0.2597036
40
0.927067
50
269.9969998
51
270.2524872
0
ARC
8
DEFAULT_255_1_234
10
14.6791289
20
-0.1486411
40
0.5187361
50
253.5786322
51
270.4175299
0
ARC
8
DEFAULT_255_1_234
10
14.6617945
20
-0.2157764
40
0.4494451
50
238.8203306
51
253.2788235
0
ARC
8
DEFAULT_255_1_234
10
14.6598318
20
-0.2208769
40
0.4440665
50
206.7883783
51
238.6962764
0
ARC
8
DEFAULT_255_1_234
10
14.7372228
20
-0.1744595
40
0.5341121
50
206.1129412
51
207.4916643
0
ARC
8
DEFAULT_255_1_234
10
14.7969144
20
-0.1490512
40
0.5989041
50
188.6921119
51
205.7821245
0
ARC
8
DEFAULT_255_1_234
10
14.9825505
20
-0.117477
40
0.7871862
50
180.3882829
51
188.9219216
0
ARC
8
DEFAULT_255_1_234
10
15.1053319
20
-0.0151536
40
0.909967
50
170.2024264
51
180.3560651
0
ARC
8
DEFAULT_255_1_234
10
14.7889837
20
0.0414237
40
0.5886083
50
154.2857445
51
170.3893044
0
ARC
8
DEFAULT_255_1_234
10
14.660804
20
0.100095
40
0.4476743
50
139.8401567
51
153.9332699
0
ARC
8
DEFAULT_255_1_234
10
14.6248776
20
0.1288577
40
0.4016697
50
98.4190291
51
139.6707122
0
ARC
8
DEFAULT_255_1_234
10
14.6628294
20
-0.0556672
40
0.5898566
50
89.7659205
51
99.4415478
0
ARC
8
DEFAULT_255_1_234
10
14.6693544
20
-0.0491156
40
0.5833147
50
78.0551672
51
90.4042112
0
ARC
8
DEFAULT_255_1_234
10
14.7098054
20
0.1327644
40
0.3970055
50
54.6380464
51
78.3339173
0
ARC
8
DEFAULT_255_1_234
10
14.7288109
20
0.1647795
40
0.3599102
50
50.031736
51
54.1558201
0
ARC
8
DEFAULT_255_1_234
10
14.7180897
20
0.1551766
40
0.3741624
50
18.1092409
51
49.7180913
0
ARC
8
DEFAULT_255_1_234
10
14.5724097
20
0.1018089
40
0.5292424
50
7.9672797
51
18.6984571
0
ARC
8
DEFAULT_255_1_234
10
14.5874575
20
0.1141504
40
0.3600838
50
9.7557294
51
27.3215714
0
ARC
8
DEFAULT_255_1_234
10
14.7002047
20
0.1704912
40
0.2340608
50
27.7361077
51
84.5257964
0
ARC
8
DEFAULT_255_1_234
10
14.6674434
20
0.006164
40
0.4011215
50
82.106034
51
90.2001166
0
ARC
8
DEFAULT_255_1_234
10
14.6624651
20
0.0569215
40
0.3503799
50
89.4150119
51
105.5823402
0
ARC
8
DEFAULT_255_1_234
10
14.6367649
20
0.1504867
40
0.2533503
50
105.6678618
51
144.2648758
0
ARC
8
DEFAULT_255_1_234
10
14.7260904
20
0.0869289
40
0.3629787
50
144.3561283
51
162.8564086
0
ARC
8
DEFAULT_255_1_234
10
14.9344814
20
0.0200017
40
0.5818441
50
162.6076014
51
173.6780284
0
ARC
8
DEFAULT_255_1_234
10
15.2405957
20
-0.017211
40
0.8902007
50
173.4670142
51
179.9730753
0
ARC
8
DEFAULT_255_1_234
10
15.0497628
20
-0.116574
40
0.6993804
50
179.6556203
51
190.0080463
0
ARC
8
DEFAULT_255_1_234
10
14.8181457
20
-0.1590625
40
0.4639066
50
189.8116607
51
206.6796816
0
ARC
8
DEFAULT_255_1_234
10
14.7336609
20
-0.1984497
40
0.3707421
50
207.1031645
51
217.7074368
0
ARC
8
DEFAULT_255_1_234
10
14.6702298
20
-0.2536441
40
0.2868417
50
216.7345547
51
265.6812148
0
ARC
8
DEFAULT_255_1_234
10
14.6833089
20
-0.1632145
40
0.3780509
50
264.7366618
51
270.0611241
0
ARC
8
DEFAULT_255_1_234
10
14.6856352
20
0.1208111
40
0.662079
50
269.8335834
51
276.0539546
0
ARC
8
DEFAULT_255_1_234
10
14.7063357
20
-0.069344
40
0.4708016
50
275.9894168
51
284.4615085
0
ARC
8
DEFAULT_255_1_234
10
14.7261364
20
-0.1526337
40
0.3852094
50
284.7034461
51
286.4953897
0
ARC
8
DEFAULT_255_1_234
10
14.7668377
20
-0.2837035
40
0.2479842
50
286.0770838
51
304.2625829
0
ARC
8
DEFAULT_255_1_234
10
14.7801791
20
-0.3055406
40
0.2224291
50
304.5891602
51
317.1073298
0
LINE
8
DEFAULT_255_1_234
10
15.4531527
20
0.5181211
11
15.7350667
21
0.0699501
0
LINE
8
DEFAULT_255_1_234
10
15.7350667
20
0.0699501
11
16.0153744
21
0.5181211
0
LINE
8
DEFAULT_255_1_234
10
16.0153744
20
0.5181211
11
16.1968917
21
0.5181211
0
LINE
8
DEFAULT_255_1_234
10
16.1968917
20
0.5181211
11
15.8274317
21
-0.0617704
0
LINE
8
DEFAULT_255_1_234
10
15.8274317
20
-0.0617704
11
16.2057266
21
-0.6513
0
LINE
8
DEFAULT_255_1_234
10
16.2057266
20
-0.6513
11
16.022603
21
-0.6513
0
LINE
8
DEFAULT_255_1_234
10
16.022603
20
-0.6513
11
15.7350667
21
-0.1950973
0
LINE
8
DEFAULT_255_1_234
10
15.7350667
20
-0.1950973
11
15.4459242
21
-0.6513
0
LINE
8
DEFAULT_255_1_234
10
15.4459242
20
-0.6513
11
15.2636037
21
-0.6513
0
LINE
8
DEFAULT_255_1_234
10
15.2636037
20
-0.6513
11
15.6427018
21
-0.0617704
0
LINE
8
DEFAULT_255_1_234
10
15.6427018
20
-0.0617704
11
15.2724386
21
0.5181211
0
LINE
8
DEFAULT_255_1_234
10
15.2724386
20
0.5181211
11
15.4531527
21
0.5181211
0
LINE
8
DEFAULT_255_1_234
10
16.5623358
20
-0.1155831
11
16.5623358
21
0.0056962
0
LINE
8
DEFAULT_255_1_234
10
16.5623358
20
0.0056962
11
16.673977
21
0.0056962
0
LINE
8
DEFAULT_255_1_234
10
16.4836248
20
0.2113087
11
16.3350376
21
0.2113087
0
LINE
8
DEFAULT_255_1_234
10
16.3245963
20
-0.3428813
11
16.4739867
21
-0.3428813
0
LINE
8
DEFAULT_255_1_234
10
16.673977
20
-0.1155831
11
16.5623358
21
-0.1155831
0
ARC
8
DEFAULT_255_1_234
10
16.6710636
20
0.3449713
40
0.3392876
50
270.4919872
51
281.8951556
0
ARC
8
DEFAULT_255_1_234
10
16.6951898
20
0.2347702
40
0.2264817
50
281.6691735
51
301.2943132
0
ARC
8
DEFAULT_255_1_234
10
16.7122108
20
0.2036304
40
0.1910381
50
301.7833094
51
311.7545298
0
ARC
8
DEFAULT_255_1_234
10
16.7213684
20
0.1934748
40
0.1773635
50
311.7323931
51
354.2802411
0
ARC
8
DEFAULT_255_1_234
10
16.6487309
20
0.2059722
40
0.2509385
50
353.0937916
51
0.1181479
0
ARC
8
DEFAULT_255_1_234
10
16.6026094
20
0.2107386
40
0.2970898
50
359.1805295
51
15.0453146
0
ARC
8
DEFAULT_255_1_234
10
16.7371931
20
0.2499992
40
0.1569564
50
13.9577229
51
77.6713066
0
ARC
8
DEFAULT_255_1_234
10
16.698546
20
0.1114949
40
0.3006298
50
76.1116566
51
90.7026153
0
ARC
8
DEFAULT_255_1_234
10
16.6926298
20
0.1388545
40
0.2732568
50
89.5324876
51
103.531937
0
ARC
8
DEFAULT_255_1_234
10
16.6725742
20
0.2187884
40
0.1908508
50
103.2931773
51
133.5619022
0
ARC
8
DEFAULT_255_1_234
10
16.6681231
20
0.2247375
40
0.1834746
50
133.8349307
51
173.5344437
0
ARC
8
DEFAULT_255_1_234
10
16.7404274
20
0.2119213
40
0.2568033
50
172.5096846
51
180.1366907
0
ARC
8
DEFAULT_255_1_234
10
16.6453168
20
0.2153622
40
0.3103056
50
155.3484492
51
180.7484736
0
ARC
8
DEFAULT_255_1_234
10
16.6404257
20
0.2124846
40
0.3070957
50
131.5744599
51
154.4798489
0
ARC
8
DEFAULT_255_1_234
10
16.6717404
20
0.180831
40
0.3515643
50
96.9875458
51
131.9690667
0
ARC
8
DEFAULT_255_1_234
10
16.6936884
20
0.0562636
40
0.4779224
50
89.8596053
51
97.7825159
0
ARC
8
DEFAULT_255_1_234
10
16.6984947
20
0.0300616
40
0.5041361
50
78.3655447
51
90.4131539
0
ARC
8
DEFAULT_255_1_234
10
16.7342865
20
0.1959887
40
0.3344039
50
56.6229102
51
78.638727
0
ARC
8
DEFAULT_255_1_234
10
16.7557809
20
0.2335805
40
0.2912001
50
47.0253525
51
56.0854072
0
ARC
8
DEFAULT_255_1_234
10
16.7577589
20
0.2375223
40
0.2869704
50
10.9208013
51
46.7778124
0
ARC
8
DEFAULT_255_1_234
10
16.6213655
20
0.2059857
40
0.426899
50
359.6364486
51
11.6087304
0
ARC
8
DEFAULT_255_1_234
10
16.8048499
20
0.2044752
40
0.243409
50
332.3549906
51
359.7179418
0
ARC
8
DEFAULT_255_1_234
10
16.7398101
20
0.2353142
40
0.3153459
50
325.2333722
51
332.8745602
0
ARC
8
DEFAULT_255_1_234
10
16.7550724
20
0.2246828
40
0.2967456
50
292.9802137
51
325.2392345
0
ARC
8
DEFAULT_255_1_234
10
16.7276098
20
0.2780863
40
0.3566604
50
292.5402179
51
293.6924929
0
ARC
8
DEFAULT_255_1_234
10
16.7668694
20
-0.3673909
40
0.3307468
50
57.6435486
51
72.8625112
0
ARC
8
DEFAULT_255_1_234
10
16.8023194
20
-0.3099451
40
0.2632492
50
36.7248896
51
57.4697979
0
ARC
8
DEFAULT_255_1_234
10
16.8011827
20
-0.308678
40
0.2634081
50
8.0545065
51
36.356114
0
ARC
8
DEFAULT_255_1_234
10
16.7149012
20
-0.3241826
40
0.3510261
50
359.8320645
51
8.5869982
0
ARC
8
DEFAULT_255_1_234
10
16.6773788
20
-0.3289899
40
0.3885653
50
343.9829931
51
0.5571613
0
ARC
8
DEFAULT_255_1_234
10
16.7659985
20
-0.3532562
40
0.2966924
50
311.6359546
51
343.7651759
0
ARC
8
DEFAULT_255_1_234
10
16.7281554
20
-0.3105898
40
0.3537231
50
279.7829875
51
311.6255694
0
ARC
8
DEFAULT_255_1_234
10
16.698033
20
-0.166872
40
0.5004971
50
269.7286406
51
280.3856417
0
ARC
8
DEFAULT_255_1_234
10
16.6918403
20
-0.1710004
40
0.4963778
50
256.6828919
51
270.4412052
0
ARC
8
DEFAULT_255_1_234
10
16.6579699
20
-0.3094606
40
0.3538406
50
229.4223008
51
256.8556159
0
ARC
8
DEFAULT_255_1_234
10
16.6165092
20
-0.3561264
40
0.2914296
50
181.818294
51
229.6455059
0
ARC
8
DEFAULT_255_1_234
10
16.7205048
20
-0.3430504
40
0.3959084
50
179.9755256
51
183.2323064
0
ARC
8
DEFAULT_255_1_234
10
16.7032794
20
-0.3450963
40
0.2293034
50
179.4465117
51
196.2869258
0
ARC
8
DEFAULT_255_1_234
10
16.6545202
20
-0.3584349
40
0.1787621
50
196.5661473
51
227.705904
0
ARC
8
DEFAULT_255_1_234
10
16.6709297
20
-0.3400845
40
0.2033784
50
227.7652068
51
257.8762805
0
ARC
8
DEFAULT_255_1_234
10
16.6934267
20
-0.2457844
40
0.3003081
50
257.4584385
51
270.426602
0
ARC
8
DEFAULT_255_1_234
10
16.6979833
20
-0.2168004
40
0.329292
50
269.5962073
51
280.8789248
0
ARC
8
DEFAULT_255_1_234
10
16.7209362
20
-0.3314315
40
0.2123908
50
280.6346389
51
299.8595945
0
ARC
8
DEFAULT_255_1_234
10
16.7400269
20
-0.3676788
40
0.171457
50
300.3576302
51
314.5517981
0
ARC
8
DEFAULT_255_1_234
10
16.7317329
20
-0.3616081
40
0.1816095
50
315.0728369
51
345.0431014
0
ARC
8
DEFAULT_255_1_234
10
16.6394143
20
-0.3347159
40
0.2777492
50
344.5986631
51
357.9269593
0
ARC
8
DEFAULT_255_1_234
10
16.5498469
20
-0.3285724
40
0.3674917
50
357.4748886
51
0.0231117
0
ARC
8
DEFAULT_255_1_234
10
16.6521579
20
-0.3261321
40
0.2651907
50
359.5047933
51
13.4239635
0
ARC
8
DEFAULT_255_1_234
10
16.7388222
20
-0.3039522
40
0.1757509
50
12.9498199
51
48.7551375
0
ARC
8
DEFAULT_255_1_234
10
16.7205956
20
-0.32886
40
0.2065134
50
49.5088623
51
72.1836453
0
ARC
8
DEFAULT_255_1_234
10
16.6848109
20
-0.4350709
40
0.3185836
50
71.9010081
51
84.3554254
0
ARC
8
DEFAULT_255_1_234
10
16.6686741
20
-0.5711674
40
0.4556151
50
84.0193428
51
89.333121
0
LINE
8
DEFAULT_255_1_234
10
18.0032296
20
0.0402327
11
18.0032296
21
-0.1525291
0
LINE
8
DEFAULT_255_1_234
10
17.2651129
20
-0.1726084
11
17.2651129
21
0.0257755
0
LINE
8
DEFAULT_255_1_234
10
17.8546425
20
-0.1926877
11
17.8546425
21
0.0506739
0
LINE
8
DEFAULT_255_1_234
10
17.4137
20
0.0619184
11
17.4137
21
-0.1758211
0
ARC
8
DEFAULT_255_1_234
10
16.7785186
20
-0.1574195
40
1.2247208
50
353.8441951
51
0.2287902
0
ARC
8
DEFAULT_255_1_234
10
17.242469
20
-0.2092194
40
0.7578929
50
344.4934747
51
353.9765454
0
ARC
8
DEFAULT_255_1_234
10
17.541728
20
-0.2943019
40
0.4467846
50
329.2803592
51
344.7472793
0
ARC
8
DEFAULT_255_1_234
10
17.6410105
20
-0.3487982
40
0.3336173
50
324.9352394
51
328.6160465
0
ARC
8
DEFAULT_255_1_234
10
17.6787213
20
-0.3751573
40
0.2876076
50
280.580143
51
324.9173126
0
ARC
8
DEFAULT_255_1_234
10
17.6386006
20
-0.2080901
40
0.4592847
50
269.5977311
51
281.6734359
0
ARC
8
DEFAULT_255_1_234
10
17.6313912
20
-0.2200827
40
0.4472986
50
256.6228859
51
270.51044
0
ARC
8
DEFAULT_255_1_234
10
17.5911889
20
-0.3749123
40
0.2873874
50
215.8618325
51
257.2788573
0
ARC
8
DEFAULT_255_1_234
10
17.6932921
20
-0.3064023
40
0.4102928
50
197.9693508
51
215.2623606
0
ARC
8
DEFAULT_255_1_234
10
17.9418037
20
-0.2225291
40
0.6725652
50
187.8816417
51
198.2346507
0
ARC
8
DEFAULT_255_1_234
10
18.3376245
20
-0.1653921
40
1.0724845
50
180.8976217
51
188.0055519
0
ARC
8
DEFAULT_255_1_234
10
18.6176433
20
-0.1550223
40
1.3526448
50
180.7449369
51
181.1510016
0
ARC
8
DEFAULT_255_1_234
10
18.4599162
20
0.0306042
40
1.1948131
50
173.7675579
51
180.231553
0
ARC
8
DEFAULT_255_1_234
10
18.0081309
20
0.0816666
40
0.7401564
50
164.3058563
51
173.9002247
0
ARC
8
DEFAULT_255_1_234
10
17.7169378
20
0.1655656
40
0.4371288
50
148.7922025
51
164.568378
0
ARC
8
DEFAULT_255_1_234
10
17.621783
20
0.2186929
40
0.3282386
50
144.5883898
51
148.1176286
0
ARC
8
DEFAULT_255_1_234
10
17.5874728
20
0.2426315
40
0.2864044
50
101.6440918
51
144.514236
0
ARC
8
DEFAULT_255_1_234
10
17.6299794
20
0.0737069
40
0.4604934
50
89.5284041
51
102.5819763
0
ARC
8
DEFAULT_255_1_234
10
17.6378882
20
0.0698018
40
0.464401
50
77.0437873
51
90.5081339
0
ARC
8
DEFAULT_255_1_234
10
17.6780884
20
0.2340615
40
0.2953195
50
48.2778575
51
77.4994676
0
ARC
8
DEFAULT_255_1_234
10
17.6853515
20
0.2469746
40
0.2808655
50
36.3142134
51
47.6305865
0
ARC
8
DEFAULT_255_1_234
10
17.5984822
20
0.1884515
40
0.3855453
50
18.2931786
51
35.6769206
0
ARC
8
DEFAULT_255_1_234
10
17.3441581
20
0.1011593
40
0.654423
50
8.024666
51
18.5605216
0
ARC
8
DEFAULT_255_1_234
10
16.9278501
20
0.0396792
40
1.0752407
50
1.1274072
51
8.1718305
0
ARC
8
DEFAULT_255_1_234
10
16.6042692
20
0.0269885
40
1.3990231
50
0.5424119
51
1.3863029
0
ARC
8
DEFAULT_255_1_234
10
16.7864069
20
0.0542342
40
1.0682415
50
359.8090433
51
4.9407866
0
ARC
8
DEFAULT_255_1_234
10
17.2074083
20
0.0918113
40
0.6455691
50
4.8362157
51
12.2904523
0
ARC
8
DEFAULT_255_1_234
10
17.4829198
20
0.1531965
40
0.3633074
50
12.0805627
51
23.8173984
0
ARC
8
DEFAULT_255_1_234
10
17.6002904
20
0.2028919
40
0.2358723
50
24.2871213
51
31.3935614
0
ARC
8
DEFAULT_255_1_234
10
17.6527601
20
0.2372233
40
0.1732111
50
30.7407893
51
82.4657128
0
ARC
8
DEFAULT_255_1_234
10
17.6347735
20
0.1488691
40
0.263235
50
81.1060089
51
90.2184952
0
ARC
8
DEFAULT_255_1_234
10
17.6312034
20
0.1746924
40
0.2374236
50
89.3806855
51
105.6762551
0
ARC
8
DEFAULT_255_1_234
10
17.6128665
20
0.2413567
40
0.1682847
50
105.7981136
51
149.7388061
0
ARC
8
DEFAULT_255_1_234
10
17.7192743
20
0.177395
40
0.2924306
50
149.4208916
51
163.6286378
0
ARC
8
DEFAULT_255_1_234
10
17.9283631
20
0.113625
40
0.5110213
50
163.3763315
51
172.1410975
0
ARC
8
DEFAULT_255_1_234
10
18.258435
20
0.0663518
40
0.8444586
50
172.0259487
51
178.0703232
0
ARC
8
DEFAULT_255_1_234
10
18.5614439
20
0.0519906
40
1.1477868
50
177.8631668
51
179.5044149
0
ARC
8
DEFAULT_255_1_234
10
18.4541844
20
-0.1794611
40
1.0404907
50
179.7995573
51
185.2460446
0
ARC
8
DEFAULT_255_1_234
10
18.0498883
20
-0.2177487
40
0.6343885
50
185.1411642
51
193.0079639
0
ARC
8
DEFAULT_255_1_234
10
17.7855356
20
-0.2802359
40
0.3627568
50
192.7897626
51
205.2507664
0
ARC
8
DEFAULT_255_1_234
10
17.6808903
20
-0.3269585
40
0.2481908
50
205.8005384
51
211.2537509
0
ARC
8
DEFAULT_255_1_234
10
17.6285343
20
-0.362042
40
0.1852521
50
210.3789793
51
238.4008143
0
ARC
8
DEFAULT_255_1_234
10
17.6265865
20
-0.3573624
40
0.1882621
50
239.6520629
51
265.9793761
0
ARC
8
DEFAULT_255_1_234
10
17.6351065
20
-0.2901573
40
0.2559272
50
265.1315437
51
270.060332
0
ARC
8
DEFAULT_255_1_234
10
17.6379844
20
-0.3225466
40
0.2235528
50
269.3314664
51
287.2178029
0
ARC
8
DEFAULT_255_1_234
10
17.6517696
20
-0.3728721
40
0.1714108
50
287.7958004
51
329.080874
0
ARC
8
DEFAULT_255_1_234
10
17.5560153
20
-0.313107
40
0.2842745
50
328.6634704
51
343.3325132
0
ARC
8
DEFAULT_255_1_234
10
17.3387173
20
-0.2454137
40
0.5118644
50
343.0499468
51
351.9393422
0
ARC
8
DEFAULT_255_1_234
10
16.9920473
20
-0.1943051
40
0.8622784
50
351.8069023
51
357.7959224
0
ARC
8
DEFAULT_255_1_234
10
16.6685029
20
-0.1775279
40
1.1862365
50
357.5871873
51
359.2677531
0
LINE
8
DEFAULT_255_1_234
10
18.5180641
20
-0.0938974
11
18.5180641
21
-0.2151766
0
LINE
8
DEFAULT_255_1_234
10
18.5180641
20
-0.2151766
11
18.1261152
21
-0.2151766
0
LINE
8
DEFAULT_255_1_234
10
18.1261152
20
-0.2151766
11
18.1261152
21
-0.0938974
0
LINE
8
DEFAULT_255_1_234
10
18.1261152
20
-0.0938974
11
18.5180641
21
-0.0938974
0
LINE
8
DEFAULT_255_1_234
10
19.3806728
20
0.0402327
11
19.3806728
21
-0.1525291
0
LINE
8
DEFAULT_255_1_234
10
18.642556
20
-0.1726084
11
18.642556
21
0.0257755
0
LINE
8
DEFAULT_255_1_234
10
19.2320856
20
-0.1926877
11
19.2320856
21
0.0506739
0
LINE
8
DEFAULT_255_1_234
10
18.7911432
20
0.0619184
11
18.7911432
21
-0.1758211
0
ARC
8
DEFAULT_255_1_234
10
18.1559617
20
-0.1574195
40
1.2247208
50
353.8441951
51
0.2287902
0
ARC
8
DEFAULT_255_1_234
10
18.6199121
20
-0.2092194
40
0.7578929
50
344.4934747
51
353.9765454
0
ARC
8
DEFAULT_255_1_234
10
18.9191711
20
-0.2943019
40
0.4467846
50
329.2803592
51
344.7472793
0
ARC
8
DEFAULT_255_1_234
10
19.0184536
20
-0.3487982
40
0.3336173
50
324.9352394
51
328.6160465
0
ARC
8
DEFAULT_255_1_234
10
19.0561645
20
-0.3751573
40
0.2876076
50
280.580143
51
324.9173126
0
ARC
8
DEFAULT_255_1_234
10
19.0160437
20
-0.2080901
40
0.4592847
50
269.5977311
51
281.6734359
0
ARC
8
DEFAULT_255_1_234
10
19.0088343
20
-0.2200827
40
0.4472986
50
256.6228859
51
270.51044
0
ARC
8
DEFAULT_255_1_234
10
18.9686321
20
-0.3749123
40
0.2873874
50
215.8618325
51
257.2788573
0
ARC
8
DEFAULT_255_1_234
10
19.0707352
20
-0.3064023
40
0.4102928
50
197.9693508
51
215.2623606
0
ARC
8
DEFAULT_255_1_234
10
19.3192468
20
-0.2225291
40
0.6725652
50
187.8816417
51
198.2346507
0
ARC
8
DEFAULT_255_1_234
10
19.7150676
20
-0.1653921
40
1.0724845
50
180.8976217
51
188.0055519
0
ARC
8
DEFAULT_255_1_234
10
19.9950864
20
-0.1550223
40
1.3526448
50
180.7449369
51
181.1510016
0
ARC
8
DEFAULT_255_1_234
10
19.8373593
20
0.0306042
40
1.1948131
50
173.7675579
51
180.231553
0
ARC
8
DEFAULT_255_1_234
10
19.385574
20
0.0816666
40
0.7401564
50
164.3058563
51
173.9002247
0
ARC
8
DEFAULT_255_1_234
10
19.0943809
20
0.1655656
40
0.4371288
50
148.7922025
51
164.568378
0
ARC
8
DEFAULT_255_1_234
10
18.9992261
20
0.2186929
40
0.3282386
50
144.5883898
51
148.1176286
0
ARC
8
DEFAULT_255_1_234
10
18.9649159
20
0.2426315
40
0.2864044
50
101.6440918
51
144.514236
0
ARC
8
DEFAULT_255_1_234
10
19.0074226
20
0.0737069
40
0.4604934
50
89.5284041
51
102.5819763
0
ARC
8
DEFAULT_255_1_234
10
19.0153313
20
0.0698018
40
0.464401
50
77.0437873
51
90.5081339
0
ARC
8
DEFAULT_255_1_234
10
19.0555315
20
0.2340615
40
0.2953195
50
48.2778575
51
77.4994676
0
ARC
8
DEFAULT_255_1_234
10
19.0627946
20
0.2469746
40
0.2808655
50
36.3142134
51
47.6305865
0
ARC
8
DEFAULT_255_1_234
10
18.9759253
20
0.1884515
40
0.3855453
50
18.2931786
51
35.6769206
0
ARC
8
DEFAULT_255_1_234
10
18.7216012
20
0.1011593
40
0.654423
50
8.024666
51
18.5605216
0
ARC
8
DEFAULT_255_1_234
10
18.3052932
20
0.0396792
40
1.0752407
50
1.1274072
51
8.1718305
0
ARC
8
DEFAULT_255_1_234
10
17.9817123
20
0.0269885
40
1.3990231
50
0.5424119
51
1.3863029
0
ARC
8
DEFAULT_255_1_234
10
18.1638501
20
0.0542342
40
1.0682415
50
359.8090433
51
4.9407866
0
ARC
8
DEFAULT_255_1_234
10
18.5848515
20
0.0918113
40
0.6455691
50
4.8362157
51
12.2904523
0
ARC
8
DEFAULT_255_1_234
10
18.8603629
20
0.1531965
40
0.3633074
50
12.0805627
51
23.8173984
0
ARC
8
DEFAULT_255_1_234
10
18.9777335
20
0.2028919
40
0.2358723
50
24.2871213
51
31.3935614
0
ARC
8
DEFAULT_255_1_234
10
19.0302032
20
0.2372233
40
0.1732111
50
30.7407893
51
82.4657128
0
ARC
8
DEFAULT_255_1_234
10
19.0122166
20
0.1488691
40
0.263235
50
81.1060089
51
90.2184952
0
ARC
8
DEFAULT_255_1_234
10
19.0086465
20
0.1746924
40
0.2374236
50
89.3806855
51
105.6762551
0
ARC
8
DEFAULT_255_1_234
10
18.9903096
20
0.2413567
40
0.1682847
50
105.7981136
51
149.7388061
0
ARC
8
DEFAULT_255_1_234
10
19.0967174
20
0.177395
40
0.2924306
50
149.4208916
51
163.6286378
0
ARC
8
DEFAULT_255_1_234
10
19.3058062
20
0.113625
40
0.5110213
50
163.3763315
51
172.1410975
0
ARC
8
DEFAULT_255_1_234
10
19.6358781
20
0.0663518
40
0.8444586
50
172.0259487
51
178.0703232
0
ARC
8
DEFAULT_255_1_234
10
19.9388871
20
0.0519906
40
1.1477868
50
177.8631668
51
179.5044149
0
ARC
8
DEFAULT_255_1_234
10
19.8316275
20
-0.1794611
40
1.0404907
50
179.7995573
51
185.2460446
0
ARC
8
DEFAULT_255_1_234
10
19.4273314
20
-0.2177487
40
0.6343885
50
185.1411642
51
193.0079639
0
ARC
8
DEFAULT_255_1_234
10
19.1629787
20
-0.2802359
40
0.3627568
50
192.7897626
51
205.2507664
0
ARC
8
DEFAULT_255_1_234
10
19.0583334
20
-0.3269585
40
0.2481908
50
205.8005384
51
211.2537509
0
ARC
8
DEFAULT_255_1_234
10
19.0059774
20
-0.362042
40
0.1852521
50
210.3789793
51
238.4008143
0
ARC
8
DEFAULT_255_1_234
10
19.0040296
20
-0.3573624
40
0.1882621
50
239.6520629
51
265.9793761
0
ARC
8
DEFAULT_255_1_234
10
19.0125497
20
-0.2901573
40
0.2559272
50
265.1315437
51
270.060332
0
ARC
8
DEFAULT_255_1_234
10
19.0154275
20
-0.3225466
40
0.2235528
50
269.3314664
51
287.2178029
0
ARC
8
DEFAULT_255_1_234
10
19.0292127
20
-0.3728721
40
0.1714108
50
287.7958004
51
329.080874
0
ARC
8
DEFAULT_255_1_234
10
18.9334584
20
-0.313107
40
0.2842745
50
328.6634704
51
343.3325132
0
ARC
8
DEFAULT_255_1_234
10
18.7161604
20
-0.2454137
40
0.5118644
50
343.0499468
51
351.9393422
0
ARC
8
DEFAULT_255_1_234
10
18.3694904
20
-0.1943051
40
0.8622784
50
351.8069023
51
357.7959224
0
ARC
8
DEFAULT_255_1_234
10
18.045946
20
-0.1775279
40
1.1862365
50
357.5871873
51
359.2677531
0
LINE
8
DEFAULT_255_1_234
10
19.7091708
20
0.5181211
11
19.9910849
21
0.0699501
0
LINE
8
DEFAULT_255_1_234
10
19.9910849
20
0.0699501
11
20.2713925
21
0.5181211
0
LINE
8
DEFAULT_255_1_234
10
20.2713925
20
0.5181211
11
20.4529098
21
0.5181211
0
LINE
8
DEFAULT_255_1_234
10
20.4529098
20
0.5181211
11
20.0834499
21
-0.0617704
0
LINE
8
DEFAULT_255_1_234
10
20.0834499
20
-0.0617704
11
20.4617447
21
-0.6513
0
LINE
8
DEFAULT_255_1_234
10
20.4617447
20
-0.6513
11
20.2786211
21
-0.6513
0
LINE
8
DEFAULT_255_1_234
10
20.2786211
20
-0.6513
11
19.9910849
21
-0.1950973
0
LINE
8
DEFAULT_255_1_234
10
19.9910849
20
-0.1950973
11
19.7019423
21
-0.6513
0
LINE
8
DEFAULT_255_1_234
10
19.7019423
20
-0.6513
11
19.5196218
21
-0.6513
0
LINE
8
DEFAULT_255_1_234
10
19.5196218
20
-0.6513
11
19.8987199
21
-0.0617704
0
LINE
8
DEFAULT_255_1_234
10
19.8987199
20
-0.0617704
11
19.5284567
21
0.5181211
0
LINE
8
DEFAULT_255_1_234
10
19.5284567
20
0.5181211
11
19.7091708
21
0.5181211
0
LINE
8
DEFAULT_255_1_234
10
21.3018646
20
0.0153343
11
21.3018646
21
-0.110764
0
LINE
8
DEFAULT_255_1_234
10
21.3018646
20
-0.110764
11
20.7950619
21
-0.110764
0
LINE
8
DEFAULT_255_1_234
10
20.7950619
20
-0.110764
11
20.7950619
21
-0.5252017
0
LINE
8
DEFAULT_255_1_234
10
20.7950619
20
-0.5252017
11
21.3837883
21
-0.5252017
0
LINE
8
DEFAULT_255_1_234
10
21.3837883
20
-0.5252017
11
21.3837883
21
-0.6513
0
LINE
8
DEFAULT_255_1_234
10
21.3837883
20
-0.6513
11
20.6408525
21
-0.6513
0
LINE
8
DEFAULT_255_1_234
10
20.6408525
20
-0.6513
11
20.6408525
21
0.5181211
0
LINE
8
DEFAULT_255_1_234
10
20.6408525
20
0.5181211
11
21.3757565
21
0.5181211
0
LINE
8
DEFAULT_255_1_234
10
21.3757565
20
0.5181211
11
21.3757565
21
0.3912196
0
LINE
8
DEFAULT_255_1_234
10
21.3757565
20
0.3912196
11
20.7950619
21
0.3912196
0
LINE
8
DEFAULT_255_1_234
10
20.7950619
20
0.3912196
11
20.7950619
21
0.0153343
0
LINE
8
DEFAULT_255_1_234
10
20.7950619
20
0.0153343
11
21.3018646
21
0.0153343
0
LINE
8
DEFAULT_255_1_234
10
22.2704922
20
0.0402327
11
22.2704922
21
-0.1525291
0
LINE
8
DEFAULT_255_1_234
10
21.5323754
20
-0.1726084
11
21.5323754
21
0.0257755
0
LINE
8
DEFAULT_255_1_234
10
22.121905
20
-0.1926877
11
22.121905
21
0.0506739
0
LINE
8
DEFAULT_255_1_234
10
21.6809626
20
0.0619184
11
21.6809626
21
-0.1758211
0
ARC
8
DEFAULT_255_1_234
10
21.0457811
20
-0.1574195
40
1.2247208
50
353.8441951
51
0.2287902
0
ARC
8
DEFAULT_255_1_234
10
21.5097315
20
-0.2092194
40
0.7578929
50
344.4934747
51
353.9765454
0
ARC
8
DEFAULT_255_1_234
10
21.8089905
20
-0.2943019
40
0.4467846
50
329.2803592
51
344.7472793
0
ARC
8
DEFAULT_255_1_234
10
21.908273
20
-0.3487982
40
0.3336173
50
324.9352394
51
328.6160465
0
ARC
8
DEFAULT_255_1_234
10
21.9459839
20
-0.3751573
40
0.2876076
50
280.580143
51
324.9173126
0
ARC
8
DEFAULT_255_1_234
10
21.9058631
20
-0.2080901
40
0.4592847
50
269.5977311
51
281.6734359
0
ARC
8
DEFAULT_255_1_234
10
21.8986537
20
-0.2200827
40
0.4472986
50
256.6228859
51
270.51044
0
ARC
8
DEFAULT_255_1_234
10
21.8584515
20
-0.3749123
40
0.2873874
50
215.8618325
51
257.2788573
0
ARC
8
DEFAULT_255_1_234
10
21.9605547
20
-0.3064023
40
0.4102928
50
197.9693508
51
215.2623606
0
ARC
8
DEFAULT_255_1_234
10
22.2090662
20
-0.2225291
40
0.6725652
50
187.8816417
51
198.2346507
0
ARC
8
DEFAULT_255_1_234
10
22.604887
20
-0.1653921
40
1.0724845
50
180.8976217
51
188.0055519
0
ARC
8
DEFAULT_255_1_234
10
22.8849059
20
-0.1550223
40
1.3526448
50
180.7449369
51
181.1510016
0
ARC
8
DEFAULT_255_1_234
10
22.7271788
20
0.0306042
40
1.1948131
50
173.7675579
51
180.231553
0
ARC
8
DEFAULT_255_1_234
10
22.2753934
20
0.0816666
40
0.7401564
50
164.3058563
51
173.9002247
0
ARC
8
DEFAULT_255_1_234
10
21.9842003
20
0.1655656
40
0.4371288
50
148.7922025
51
164.568378
0
ARC
8
DEFAULT_255_1_234
10
21.8890455
20
0.2186929
40
0.3282386
50
144.5883898
51
148.1176286
0
ARC
8
DEFAULT_255_1_234
10
21.8547353
20
0.2426315
40
0.2864044
50
101.6440918
51
144.514236
0
ARC
8
DEFAULT_255_1_234
10
21.897242
20
0.0737069
40
0.4604934
50
89.5284041
51
102.5819763
0
ARC
8
DEFAULT_255_1_234
10
21.9051508
20
0.0698018
40
0.464401
50
77.0437873
51
90.5081339
0
ARC
8
DEFAULT_255_1_234
10
21.9453509
20
0.2340615
40
0.2953195
50
48.2778575
51
77.4994676
0
ARC
8
DEFAULT_255_1_234
10
21.9526141
20
0.2469746
40
0.2808655
50
36.3142134
51
47.6305865
0
ARC
8
DEFAULT_255_1_234
10
21.8657448
20
0.1884515
40
0.3855453
50
18.2931786
51
35.6769206
0
ARC
8
DEFAULT_255_1_234
10
21.6114206
20
0.1011593
40
0.654423
50
8.024666
51
18.5605216
0
ARC
8
DEFAULT_255_1_234
10
21.1951126
20
0.0396792
40
1.0752407
50
1.1274072
51
8.1718305
0
ARC
8
DEFAULT_255_1_234
10
20.8715317
20
0.0269885
40
1.3990231
50
0.5424119
51
1.3863029
0
ARC
8
DEFAULT_255_1_234
10
21.0536695
20
0.0542342
40
1.0682415
50
359.8090433
51
4.9407866
0
ARC
8
DEFAULT_255_1_234
10
21.4746709
20
0.0918113
40
0.6455691
50
4.8362157
51
12.2904523
0
ARC
8
DEFAULT_255_1_234
10
21.7501824
20
0.1531965
40
0.3633074
50
12.0805627
51
23.8173984
0
ARC
8
DEFAULT_255_1_234
10
21.8675529
20
0.2028919
40
0.2358723
50
24.2871213
51
31.3935614
0
ARC
8
DEFAULT_255_1_234
10
21.9200226
20
0.2372233
40
0.1732111
50
30.7407893
51
82.4657128
0
ARC
8
DEFAULT_255_1_234
10
21.9020361
20
0.1488691
40
0.263235
50
81.1060089
51
90.2184952
0
ARC
8
DEFAULT_255_1_234
10
21.8984659
20
0.1746924
40
0.2374236
50
89.3806855
51
105.6762551
0
ARC
8
DEFAULT_255_1_234
10
21.880129
20
0.2413567
40
0.1682847
50
105.7981136
51
149.7388061
0
ARC
8
DEFAULT_255_1_234
10
21.9865368
20
0.177395
40
0.2924306
50
149.4208916
51
163.6286378
0
ARC
8
DEFAULT_255_1_234
10
22.1956256
20
0.113625
40
0.5110213
50
163.3763315
51
172.1410975
0
ARC
8
DEFAULT_255_1_234
10
22.5256975
20
0.0663518
40
0.8444586
50
172.0259487
51
178.0703232
0
ARC
8
DEFAULT_255_1_234
10
22.8287065
20
0.0519906
40
1.1477868
50
177.8631668
51
179.5044149
0
ARC
8
DEFAULT_255_1_234
10
22.7214469
20
-0.1794611
40
1.0404907
50
179.7995573
51
185.2460446
0
ARC
8
DEFAULT_255_1_234
10
22.3171509
20
-0.2177487
40
0.6343885
50
185.1411642
51
193.0079639
0
ARC
8
DEFAULT_255_1_234
10
22.0527981
20
-0.2802359
40
0.3627568
50
192.7897626
51
205.2507664
0
ARC
8
DEFAULT_255_1_234
10
21.9481528
20
-0.3269585
40
0.2481908
50
205.8005384
51
211.2537509
0
ARC
8
DEFAULT_255_1_234
10
21.8957969
20
-0.362042
40
0.1852521
50
210.3789793
51
238.4008143
0
ARC
8
DEFAULT_255_1_234
10
21.8938491
20
-0.3573624
40
0.1882621
50
239.6520629
51
265.9793761
0
ARC
8
DEFAULT_255_1_234
10
21.9023691
20
-0.2901573
40
0.2559272
50
265.1315437
51
270.060332
0
ARC
8
DEFAULT_255_1_234
10
21.905247
20
-0.3225466
40
0.2235528
50
269.3314664
51
287.2178029
0
ARC
8
DEFAULT_255_1_234
10
21.9190322
20
-0.3728721
40
0.1714108
50
287.7958004
51
329.080874
0
ARC
8
DEFAULT_255_1_234
10
21.8232778
20
-0.313107
40
0.2842745
50
328.6634704
51
343.3325132
0
ARC
8
DEFAULT_255_1_234
10
21.6059798
20
-0.2454137
40
0.5118644
50
343.0499468
51
351.9393422
0
ARC
8
DEFAULT_255_1_234
10
21.2593098
20
-0.1943051
40
0.8622784
50
351.8069023
51
357.7959224
0
ARC
8
DEFAULT_255_1_234
10
20.9357654
20
-0.1775279
40
1.1862365
50
357.5871873
51
359.2677531
0
ARC
8
DEFAULT_255_2_778
10
7.7537338
20
60.2762992
40
3.0484709
50
251.6854144
51
258.6071955
0
ARC
8
DEFAULT_255_2_778
10
7.539521
20
59.1946738
40
1.9458471
50
258.4992492
51
268.3986479
0
ARC
8
DEFAULT_255_2_778
10
7.5172314
20
58.7644206
40
1.5151737
50
268.7865272
51
269.9950384
0
ARC
8
DEFAULT_255_2_778
10
7.5277432
20
58.3132355
40
1.0640417
50
269.426895
51
279.6711067
0
ARC
8
DEFAULT_255_2_778
10
7.6417753
20
57.6836746
40
0.4243233
50
278.7731084
51
300.3324923
0
ARC
8
DEFAULT_255_2_778
10
7.760746
20
57.4810552
40
0.1893587
50
300.2240287
51
1.9041213
0
ARC
8
DEFAULT_255_2_778
10
7.7452705
20
57.4902089
40
0.2047497
50
359.1991369
51
359.99965
0
ARC
8
DEFAULT_255_2_778
10
7.7523233
20
57.4910378
40
0.1976988
50
359.7594145
51
47.1793976
0
ARC
8
DEFAULT_255_2_778
10
7.6187277
20
57.342431
40
0.3975169
50
47.6144502
51
60.8366176
0
ARC
8
DEFAULT_255_2_778
10
7.0190958
20
56.3264865
40
1.5771337
50
59.799464
51
64.8885807
0
ARC
8
DEFAULT_255_2_778
10
6.0948833
20
54.3974682
40
3.7160912
50
64.6076081
51
66.8386974
0
ARC
8
DEFAULT_255_2_778
10
9.6419609
20
62.7605052
40
5.368109
50
244.3032309
51
247.1393781
0
ARC
8
DEFAULT_255_2_778
10
8.5507088
20
60.500518
40
2.8584574
50
240.2323579
51
244.3709759
0
ARC
8
DEFAULT_255_2_778
10
7.7800475
20
59.1636591
40
1.315392
50
233.2209971
51
240.4606284
0
ARC
8
DEFAULT_255_2_778
10
7.3561477
20
58.5925187
40
0.6041399
50
225.6990744
51
232.9899679
0
ARC
8
DEFAULT_255_2_778
10
7.3965073
20
58.6169214
40
0.6499005
50
178.2783416
51
224.6550883
0
ARC
8
DEFAULT_255_2_778
10
7.5059624
20
58.6502974
40
0.7591885
50
157.033673
51
181.0453383
0
ARC
8
DEFAULT_255_2_778
10
7.378439
20
58.6911396
40
0.6259551
50
124.9113017
51
155.9211516
0
ARC
8
DEFAULT_255_2_778
10
7.5960466
20
58.3825681
40
1.0035357
50
100.4079723
51
125.0168617
0
ARC
8
DEFAULT_255_2_778
10
7.6991199
20
57.8885046
40
1.5081396
50
89.6483922
51
100.8684975
0
ARC
8
DEFAULT_255_2_778
10
7.7083242
20
57.5362988
40
1.8603169
50
89.5079487
51
89.9984402
0
ARC
8
DEFAULT_255_2_778
10
7.7099573
20
57.4710694
40
1.9255311
50
83.9170631
51
89.5732113
0
ARC
8
DEFAULT_255_2_778
10
7.5071517
20
55.4634957
40
3.9433074
50
80.7325723
51
84.0779772
0
ARC
8
DEFAULT_255_2_778
10
7.0208457
20
52.440582
40
7.0050837
50
78.5086351
51
80.7886813
0
ARC
8
DEFAULT_255_2_778
10
7.6620177
20
57.0400544
40
1.9415426
50
67.135818
51
78.0934208
0
ARC
8
DEFAULT_255_2_778
10
7.7851814
20
57.6104809
40
1.3579807
50
78.2126325
51
89.7333975
0
ARC
8
DEFAULT_255_2_778
10
7.7793853
20
58.0256211
40
0.9429038
50
89.2638155
51
100.5666868
0
ARC
8
DEFAULT_255_2_778
10
7.6660949
20
58.5954419
40
0.362036
50
99.4784875
51
124.329414
0
ARC
8
DEFAULT_255_2_778
10
7.5705593
20
58.743551
40
0.1859067
50
125.7571195
51
182.2824883
0
ARC
8
DEFAULT_255_2_778
10
7.5493239
20
58.7368629
40
0.1645253
50
180.2492993
51
239.8144161
0
ARC
8
DEFAULT_255_2_778
10
7.932718
20
59.3369128
40
0.876484
50
237.8725734
51
242.8068846
0
ARC
8
DEFAULT_255_2_778
10
9.4175857
20
62.1534958
40
4.0604642
50
242.3328458
51
244.031083
0
ARC
8
DEFAULT_255_2_778
10
12.3804066
20
68.2019314
40
10.7955807
50
243.950624
51
244.8024316
0
ARC
8
DEFAULT_255_2_778
10
15.4009918
20
74.5859175
40
17.8580926
50
244.7535425
51
244.9563234
0
ARC
8
DEFAULT_255_2_778
10
5.8652927
20
54.0843264
40
4.7527588
50
62.2505456
51
65.4301556
0
ARC
8
DEFAULT_255_2_778
10
6.9275435
20
56.0924172
40
2.4810291
50
57.2951304
51
62.3684211
0
ARC
8
DEFAULT_255_2_778
10
7.6807233
20
57.2557235
40
1.0952081
50
48.7345704
51
57.5685367
0
ARC
8
DEFAULT_255_2_778
10
8.0117486
20
57.6432722
40
0.5856147
50
44.3236031
51
48.0704418
0
ARC
8
DEFAULT_255_2_778
10
7.9783002
20
57.6232468
40
0.6236013
50
1.3523843
51
43.4925744
0
ARC
8
DEFAULT_255_2_778
10
7.7103531
20
57.5903151
40
0.8926473
50
359.9763756
51
3.0599076
0
ARC
8
DEFAULT_255_2_778
10
7.8645343
20
57.5752407
40
0.7386124
50
333.0361889
51
1.1408766
0
ARC
8
DEFAULT_255_2_778
10
7.8947908
20
57.5821919
40
0.7150741
50
300.8430083
51
331.4403095
0
ARC
8
DEFAULT_255_2_778
10
7.694568
20
57.8957162
40
1.0869673
50
281.4258583
51
301.4316118
0
ARC
8
DEFAULT_255_2_778
10
7.5632666
20
58.5039414
40
1.7091691
50
270.2273513
51
281.7010805
0
ARC
8
DEFAULT_255_2_778
10
7.5453797
20
58.9806043
40
2.1859577
50
269.9983113
51
270.6466065
0
LINE
8
DEFAULT_255_2_778
10
7.5453153
20
56.7946465
11
7.5438002
21
56.794647
0
ARC
8
DEFAULT_255_2_778
10
7.5509161
20
59.9775969
40
3.1829579
50
256.2431122
51
269.871909
0
ARC
8
DEFAULT_255_2_778
10
21.7538511
20
60.2021629
40
2.9720345
50
251.5709223
51
258.7508181
0
ARC
8
DEFAULT_255_2_778
10
21.5538128
20
59.1789385
40
1.9294488
50
258.6495077
51
268.8281511
0
ARC
8
DEFAULT_255_2_778
10
21.5355488
20
58.7841193
40
1.5343723
50
269.2085037
51
269.9981866
0
ARC
8
DEFAULT_255_2_778
10
21.5473849
20
58.3157184
40
1.0660376
50
269.3612297
51
279.5899087
0
ARC
8
DEFAULT_255_2_778
10
21.6608439
20
57.6842324
40
0.424527
50
278.6895227
51
300.2363944
0
ARC
8
DEFAULT_255_2_778
10
21.7799083
20
57.4807793
40
0.188796
50
300.1108484
51
1.9024905
0
ARC
8
DEFAULT_255_2_778
10
21.7439577
20
57.4914221
40
0.2246851
50
358.8842611
51
0.0019649
0
ARC
8
DEFAULT_255_2_778
10
21.7769791
20
57.4953385
40
0.1917038
50
358.831716
51
47.0900458
0
ARC
8
DEFAULT_255_2_778
10
21.6364654
20
57.335984
40
0.4041259
50
47.8812665
51
61.174665
0
ARC
8
DEFAULT_255_2_778
10
21.0418848
20
56.3160117
40
1.5846568
50
60.1210877
51
65.1917015
0
ARC
8
DEFAULT_255_2_778
10
20.1415278
20
54.4104122
40
3.6922188
50
64.9168629
51
67.1565628
0
ARC
8
DEFAULT_255_2_778
10
23.6275467
20
62.6819888
40
5.2839333
50
244.2656926
51
247.1407051
0
ARC
8
DEFAULT_255_2_778
10
22.5594997
20
60.473765
40
2.8309849
50
240.1545061
51
244.3326325
0
ARC
8
DEFAULT_255_2_778
10
21.7856548
20
59.1377346
40
1.2870531
50
232.697515
51
240.4357497
0
ARC
8
DEFAULT_255_2_778
10
21.3705506
20
58.5867218
40
0.5972006
50
225.5850892
51
232.3393736
0
ARC
8
DEFAULT_255_2_778
10
21.4133941
20
58.6162933
40
0.6483829
50
178.7795739
51
224.7095916
0
ARC
8
DEFAULT_255_2_778
10
21.6669319
20
58.6403135
40
0.9018316
50
179.997867
51
180.6487041
0
ARC
8
DEFAULT_255_2_778
10
21.5167738
20
58.6541249
40
0.7517998
50
156.9195758
51
181.050088
0
ARC
8
DEFAULT_255_2_778
10
21.3928482
20
58.6935712
40
0.6224513
50
124.7111133
51
155.7879672
0
ARC
8
DEFAULT_255_2_778
10
21.6055459
20
58.4016942
40
0.9835402
50
101.7934503
51
125.2143527
0
ARC
8
DEFAULT_255_2_778
10
21.729848
20
57.8491326
40
1.5498677
50
89.5248728
51
102.1166783
0
ARC
8
DEFAULT_255_2_778
10
21.7283109
20
57.2955834
40
2.1034129
50
83.2889725
51
89.6080411
0
ARC
8
DEFAULT_255_2_778
10
21.529975
20
55.5277668
40
3.8823067
50
79.4764054
51
83.4308492
0
ARC
8
DEFAULT_255_2_778
10
21.2186357
20
53.7745673
40
5.6628977
50
78.2224868
51
79.6190915
0
ARC
8
DEFAULT_255_2_778
10
21.6838473
20
57.0520715
40
1.9311543
50
67.1323814
51
78.3148813
0
ARC
8
DEFAULT_255_2_778
10
21.801359
20
57.6035614
40
1.3672981
50
78.4565774
51
89.7552271
0
ARC
8
DEFAULT_255_2_778
10
21.7951366
20
58.034447
40
0.9364778
50
89.2619009
51
100.5950934
0
ARC
8
DEFAULT_255_2_778
10
21.6824182
20
58.5999169
40
0.3599879
50
99.5087086
51
124.406715
0
ARC
8
DEFAULT_255_2_778
10
21.5878565
20
58.746343
40
0.1858061
50
125.8630185
51
182.2986975
0
ARC
8
DEFAULT_255_2_778
10
21.5497296
20
58.7388047
40
0.1475296
50
179.9666559
51
180.100057
0
ARC
8
DEFAULT_255_2_778
10
21.566185
20
58.738793
40
0.163985
50
180.0859454
51
239.8819968
0
ARC
8
DEFAULT_255_2_778
10
21.9379018
20
59.3255619
40
0.8584853
50
238.072871
51
243.0442008
0
ARC
8
DEFAULT_255_2_778
10
23.4872034
20
62.2905845
40
4.2038426
50
242.5409111
51
244.1884903
0
ARC
8
DEFAULT_255_2_778
10
26.6463384
20
68.785196
40
11.4260319
50
244.1076525
51
244.9219574
0
ARC
8
DEFAULT_255_2_778
10
29.9038827
20
75.708855
40
19.0777309
50
244.8743531
51
245.066969
0
ARC
8
DEFAULT_255_2_778
10
19.8865272
20
54.1166274
40
4.7250654
50
62.0340028
51
65.293009
0
ARC
8
DEFAULT_255_2_778
10
20.9507744
20
56.1115758
40
2.464003
50
57.1127289
51
62.13736
0
ARC
8
DEFAULT_255_2_778
10
21.7037139
20
57.2652906
40
1.0863604
50
48.3695509
51
57.4197129
0
ARC
8
DEFAULT_255_2_778
10
22.0286268
20
57.6420419
40
0.5889589
50
44.472493
51
47.6467012
0
ARC
8
DEFAULT_255_2_778
10
21.9979457
20
57.6249032
40
0.6229283
50
1.2061613
51
43.6203607
0
ARC
8
DEFAULT_255_2_778
10
21.7312413
20
57.5924903
40
0.890659
50
359.9779196
51
2.9299178
0
ARC
8
DEFAULT_255_2_778
10
21.8802547
20
57.5773837
40
0.7417924
50
333.172934
51
1.140392
0
ARC
8
DEFAULT_255_2_778
10
21.9146167
20
57.5820736
40
0.7135172
50
300.9808035
51
331.5913995
0
ARC
8
DEFAULT_255_2_778
10
21.7182603
20
57.8919862
40
1.0803281
50
281.9040909
51
301.4483918
0
ARC
8
DEFAULT_255_2_778
10
21.5848425
20
58.4905518
40
1.6935565
50
270.5796874
51
282.1436175
0
ARC
8
DEFAULT_255_2_778
10
21.5636722
20
58.9854735
40
2.1887267
50
269.9959074
51
271.0027751
0
LINE
8
DEFAULT_255_2_778
10
21.5635158
20
56.7967468
11
21.5625002
21
56.796747
0
ARC
8
DEFAULT_255_2_778
10
21.5700221
20
59.9855174
40
3.1887792
50
256.2556596
51
269.8648469
0
LINE
8
DEFAULT_255_2_778
10
6.7958002
20
56.887547
11
6.7958002
21
57.382247
0
LINE
8
DEFAULT_255_2_778
10
8.4164002
20
59.305247
11
8.4164002
21
58.829047
0
LINE
8
DEFAULT_255_2_778
10
6.7940002
20
56.885947
11
6.7958002
21
56.887547
0
LINE
8
DEFAULT_255_2_778
10
8.9866002
20
59.354747
11
9.6629002
21
59.354747
0
LINE
8
DEFAULT_255_2_778
10
9.6629002
20
59.354747
11
9.6629002
21
56.847347
0
LINE
8
DEFAULT_255_2_778
10
9.6629002
20
56.847347
11
8.9866002
21
56.847347
0
LINE
8
DEFAULT_255_2_778
10
8.9866002
20
56.847347
11
8.9866002
21
59.354747
0
LINE
8
DEFAULT_255_2_778
10
10.2809002
20
56.847347
11
10.2809002
21
59.354747
0
LINE
8
DEFAULT_255_2_778
10
10.2809002
20
59.354747
11
12.0132002
21
59.354747
0
LINE
8
DEFAULT_255_2_778
10
12.0132002
20
59.354747
11
12.0132002
21
58.901047
0
LINE
8
DEFAULT_255_2_778
10
12.0132002
20
58.901047
11
10.9321002
21
58.901047
0
LINE
8
DEFAULT_255_2_778
10
10.9321002
20
58.901047
11
10.9321002
21
58.334747
0
LINE
8
DEFAULT_255_2_778
10
10.9321002
20
58.334747
11
11.8735002
21
58.334747
0
LINE
8
DEFAULT_255_2_778
10
11.8735002
20
58.334747
11
11.8735002
21
57.921247
0
LINE
8
DEFAULT_255_2_778
10
11.8735002
20
57.921247
11
10.9321002
21
57.921247
0
LINE
8
DEFAULT_255_2_778
10
10.9321002
20
57.921247
11
10.9321002
21
57.325947
0
LINE
8
DEFAULT_255_2_778
10
10.9321002
20
57.325947
11
12.0412002
21
57.325947
0
LINE
8
DEFAULT_255_2_778
10
12.0412002
20
57.325947
11
12.0412002
21
56.845747
0
LINE
8
DEFAULT_255_2_778
10
12.0412002
20
56.845747
11
10.2809002
21
56.847347
0
LINE
8
DEFAULT_255_2_778
10
12.4817002
20
56.847347
11
12.4817002
21
59.354747
0
LINE
8
DEFAULT_255_2_778
10
12.4817002
20
59.354747
11
13.3575002
21
59.354747
0
LINE
8
DEFAULT_255_2_778
10
13.3575002
20
59.354747
11
13.9671002
21
57.752447
0
LINE
8
DEFAULT_255_2_778
10
13.9671002
20
57.752447
11
14.5897002
21
59.354747
0
LINE
8
DEFAULT_255_2_778
10
14.5897002
20
59.354747
11
15.4215002
21
59.354747
0
LINE
8
DEFAULT_255_2_778
10
15.4215002
20
59.354747
11
15.4215002
21
56.847347
0
LINE
8
DEFAULT_255_2_778
10
15.4215002
20
56.847347
11
14.7812002
21
56.847347
0
LINE
8
DEFAULT_255_2_778
10
14.7812002
20
56.847347
11
14.7812002
21
58.623147
0
LINE
8
DEFAULT_255_2_778
10
14.7812002
20
58.623147
11
14.0724002
21
56.822947
0
LINE
8
DEFAULT_255_2_778
10
14.0724002
20
56.822947
11
13.6515002
21
56.822947
0
LINE
8
DEFAULT_255_2_778
10
13.6515002
20
56.822947
11
12.9559002
21
58.623147
0
LINE
8
DEFAULT_255_2_778
10
12.9559002
20
58.623147
11
12.9559002
21
56.847047
0
LINE
8
DEFAULT_255_2_778
10
12.9559002
20
56.847047
11
12.4817002
21
56.847347
0
LINE
8
DEFAULT_255_2_778
10
16.0409002
20
56.847347
11
16.0409002
21
59.354747
0
LINE
8
DEFAULT_255_2_778
10
16.0409002
20
59.354747
11
17.7731002
21
59.354747
0
LINE
8
DEFAULT_255_2_778
10
17.7731002
20
59.354747
11
17.7731002
21
58.901047
0
LINE
8
DEFAULT_255_2_778
10
17.7731002
20
58.901047
11
16.6921002
21
58.901047
0
LINE
8
DEFAULT_255_2_778
10
16.6921002
20
58.901047
11
16.6921002
21
58.334747
0
LINE
8
DEFAULT_255_2_778
10
16.6921002
20
58.334747
11
17.6334002
21
58.334747
0
LINE
8
DEFAULT_255_2_778
10
17.6334002
20
58.334747
11
17.6334002
21
57.921247
0
LINE
8
DEFAULT_255_2_778
10
17.6334002
20
57.921247
11
16.6921002
21
57.921247
0
LINE
8
DEFAULT_255_2_778
10
16.6921002
20
57.921247
11
16.6921002
21
57.325947
0
LINE
8
DEFAULT_255_2_778
10
16.6921002
20
57.325947
11
17.8030002
21
57.325947
0
LINE
8
DEFAULT_255_2_778
10
17.8030002
20
57.325947
11
17.8030002
21
56.845747
0
LINE
8
DEFAULT_255_2_778
10
17.8030002
20
56.845747
11
16.0409002
21
56.847347
0
LINE
8
DEFAULT_255_2_778
10
18.2454002
20
56.847347
11
18.2454002
21
59.354747
0
LINE
8
DEFAULT_255_2_778
10
18.2454002
20
59.354747
11
19.0283002
21
59.354747
0
LINE
8
DEFAULT_255_2_778
10
19.0283002
20
59.354747
11
19.8586002
21
57.675947
0
LINE
8
DEFAULT_255_2_778
10
19.8586002
20
57.675947
11
19.8586002
21
59.354747
0
LINE
8
DEFAULT_255_2_778
10
19.8586002
20
59.354747
11
20.3343002
21
59.354747
0
LINE
8
DEFAULT_255_2_778
10
20.3343002
20
59.354747
11
20.3343002
21
56.847347
0
LINE
8
DEFAULT_255_2_778
10
20.3343002
20
56.847347
11
19.5739002
21
56.847347
0
LINE
8
DEFAULT_255_2_778
10
19.5739002
20
56.847347
11
18.7214002
21
58.548547
0
LINE
8
DEFAULT_255_2_778
10
18.7214002
20
58.548547
11
18.7214002
21
56.847347
0
LINE
8
DEFAULT_255_2_778
10
18.7214002
20
56.847347
11
18.2454002
21
56.847347
0
LINE
8
DEFAULT_255_2_778
10
20.8143002
20
56.887747
11
20.8143002
21
57.382547
0
LINE
8
DEFAULT_255_2_778
10
22.3745002
20
59.318247
11
22.4343002
21
59.307647
0
LINE
8
DEFAULT_255_2_778
10
22.4343002
20
59.307647
11
22.4343002
21
58.831447
0
LINE
8
DEFAULT_255_2_778
10
20.8124002
20
56.888047
11
20.8143002
21
56.887747
0
LINE
8
DEFAULT_255_1_234
10
9.1313023
20
55.0809849
11
8.9762897
21
55.0809849
0
LINE
8
DEFAULT_255_1_234
10
8.2839539
20
54.5886394
11
8.4389665
21
54.5886394
0
ARC
8
DEFAULT_255_1_234
10
9.042171
20
55.9756768
40
1.252368
50
248.9199003
51
254.1439814
0
ARC
8
DEFAULT_255_1_234
10
8.8741205
20
55.5430234
40
0.788226
50
241.633709
51
249.0064503
0
ARC
8
DEFAULT_255_1_234
10
8.72126
20
55.2629317
40
0.4691427
50
230.498225
51
241.8087113
0
ARC
8
DEFAULT_255_1_234
10
8.6428174
20
55.1629906
40
0.3421437
50
227.4064532
51
229.9881192
0
ARC
8
DEFAULT_255_1_234
10
8.5940694
20
55.1154088
40
0.2741476
50
200.6781896
51
228.1763934
0
ARC
8
DEFAULT_255_1_234
10
8.6013005
20
55.1139077
40
0.2804109
50
179.5061581
51
199.8694617
0
ARC
8
DEFAULT_255_1_234
10
8.6003757
20
55.121321
40
0.2795204
50
132.4834203
51
181.0242172
0
ARC
8
DEFAULT_255_1_234
10
8.6599339
20
55.0650704
40
0.3612768
50
129.2532479
51
133.4242687
0
ARC
8
DEFAULT_255_1_234
10
8.6745789
20
55.0430965
40
0.3875675
50
101.98776
51
128.8742646
0
ARC
8
DEFAULT_255_1_234
10
8.7144399
20
54.8709741
40
0.5642249
50
89.5906553
51
102.3169264
0
ARC
8
DEFAULT_255_1_234
10
8.7214891
20
54.9028148
40
0.5323783
50
77.2360837
51
90.3248275
0
ARC
8
DEFAULT_255_1_234
10
8.7421971
20
54.99954
40
0.4334697
50
63.837784
51
77.0809408
0
ARC
8
DEFAULT_255_1_234
10
8.7699732
20
55.0512911
40
0.3747796
50
45.9864267
51
64.1607727
0
ARC
8
DEFAULT_255_1_234
10
8.7960614
20
55.0810866
40
0.3352302
50
32.2747395
51
45.6547121
0
ARC
8
DEFAULT_255_1_234
10
8.8027054
20
55.082988
40
0.328603
50
359.6507365
51
32.6130309
0
ARC
8
DEFAULT_255_1_234
10
8.708415
20
55.083466
40
0.2678863
50
359.469343
51
14.9832209
0
ARC
8
DEFAULT_255_1_234
10
8.7789212
20
55.1023539
40
0.1948938
50
14.9781179
51
48.2004265
0
ARC
8
DEFAULT_255_1_234
10
8.7624856
20
55.0816983
40
0.2212521
50
48.5927837
51
74.1241538
0
ARC
8
DEFAULT_255_1_234
10
8.7291346
20
54.9716248
40
0.3362561
50
73.7888341
51
86.6652678
0
ARC
8
DEFAULT_255_1_234
10
8.7188911
20
54.8508881
40
0.4573953
50
86.2640471
51
90.0526343
0
ARC
8
DEFAULT_255_1_234
10
8.7160624
20
54.8904192
40
0.4178709
50
89.6697524
51
99.2309573
0
ARC
8
DEFAULT_255_1_234
10
8.6918075
20
55.0348964
40
0.2713749
50
99.069534
51
113.7658566
0
ARC
8
DEFAULT_255_1_234
10
8.6644266
20
55.0994677
40
0.2012469
50
114.0401004
51
127.9850673
0
ARC
8
DEFAULT_255_1_234
10
8.640383
20
55.129073
40
0.1631167
50
127.7287463
51
176.7105154
0
ARC
8
DEFAULT_255_1_234
10
8.7082547
20
55.1189693
40
0.2315392
50
175.1779447
51
180.0581938
0
ARC
8
DEFAULT_255_1_234
10
8.6239394
20
55.1177428
40
0.1472271
50
179.6142195
51
228.1246017
0
ARC
8
DEFAULT_255_1_234
10
8.6681063
20
55.1586308
40
0.2072299
50
226.5779593
51
230.8800004
0
ARC
8
DEFAULT_255_1_234
10
8.7152141
20
55.2211636
40
0.2854818
50
231.4635071
51
241.9260842
0
ARC
8
DEFAULT_255_1_234
10
8.8349319
20
55.44148
40
0.53622
50
241.7178533
51
248.3259551
0
ARC
8
DEFAULT_255_1_234
10
8.9734691
20
55.7847064
40
0.9063478
50
248.2007737
51
252.4528373
0
ARC
8
DEFAULT_255_1_234
10
9.0938416
20
56.1568441
40
1.2974635
50
252.3391078
51
254.3469452
0
ARC
8
DEFAULT_255_1_234
10
8.3396119
20
53.4591148
40
1.5037162
50
71.0197183
51
74.4087047
0
ARC
8
DEFAULT_255_1_234
10
8.5090804
20
53.9483111
40
0.9859993
50
66.1847285
51
71.086374
0
ARC
8
DEFAULT_255_1_234
10
8.6647116
20
54.29872
40
0.6025855
50
59.3536294
51
66.2691831
0
ARC
8
DEFAULT_255_1_234
10
8.7535769
20
54.4490609
40
0.4279449
50
49.1020879
51
59.3293958
0
ARC
8
DEFAULT_255_1_234
10
8.8354509
20
54.5423834
40
0.3038015
50
32.7919921
51
49.2505539
0
ARC
8
DEFAULT_255_1_234
10
8.8675599
20
54.5652191
40
0.264448
50
31.1181161
51
32.4005348
0
ARC
8
DEFAULT_255_1_234
10
8.8587136
20
54.5616779
40
0.2738556
50
8.1116974
51
30.7958831
0
ARC
8
DEFAULT_255_1_234
10
8.7776804
20
54.5478753
40
0.3560327
50
359.8389159
51
8.4706516
0
ARC
8
DEFAULT_255_1_234
10
8.8402596
20
54.5430137
40
0.2934776
50
337.4731098
51
0.7537279
0
ARC
8
DEFAULT_255_1_234
10
8.8581291
20
54.5410387
40
0.2762607
50
307.5917067
51
336.4315538
0
ARC
8
DEFAULT_255_1_234
10
8.8121119
20
54.5923102
40
0.3449979
50
307.6551545
51
308.4529766
0
ARC
8
DEFAULT_255_1_234
10
8.7890838
20
54.627825
40
0.3871988
50
284.3734338
51
307.1424381
0
ARC
8
DEFAULT_255_1_234
10
8.7395668
20
54.8099932
40
0.5759636
50
272.4382747
51
284.646547
0
ARC
8
DEFAULT_255_1_234
10
8.7268876
20
54.9899893
40
0.7563528
50
269.9708387
51
272.8178037
0
ARC
8
DEFAULT_255_1_234
10
8.7225916
20
54.7861716
40
0.5525489
50
248.2707594
51
270.4055579
0
ARC
8
DEFAULT_255_1_234
10
8.7171657
20
54.7671192
40
0.5328452
50
246.1383403
51
248.0542782
0
ARC
8
DEFAULT_255_1_234
10
8.6753036
20
54.6791843
40
0.4355005
50
233.1670131
51
246.4950969
0
ARC
8
DEFAULT_255_1_234
10
8.6198941
20
54.6043812
40
0.3424126
50
215.3403242
51
233.0843104
0
ARC
8
DEFAULT_255_1_234
10
8.5926372
20
54.5845549
40
0.3087104
50
179.2419209
51
215.2648451
0
ARC
8
DEFAULT_255_1_234
10
8.6693966
20
54.5859666
40
0.2304457
50
179.335461
51
199.1045811
0
ARC
8
DEFAULT_255_1_234
10
8.6361643
20
54.5772766
40
0.1962176
50
199.8828939
51
232.7063202
0
ARC
8
DEFAULT_255_1_234
10
8.6833911
20
54.6366788
40
0.2720938
50
232.3738199
51
255.5136649
0
ARC
8
DEFAULT_255_1_234
10
8.7174778
20
54.7610835
40
0.4010747
50
255.2446292
51
267.5320849
0
ARC
8
DEFAULT_255_1_234
10
8.7262401
20
54.8843702
40
0.5246356
50
267.1557994
51
270.0286766
0
ARC
8
DEFAULT_255_1_234
10
8.7290173
20
54.839995
40
0.4802668
50
269.7000017
51
278.1660162
0
ARC
8
DEFAULT_255_1_234
10
8.7546178
20
54.6669515
40
0.3053425
50
278.0231263
51
290.625471
0
ARC
8
DEFAULT_255_1_234
10
8.7893865
20
54.5742025
40
0.206291
50
290.6619762
51
307.0370976
0
ARC
8
DEFAULT_255_1_234
10
8.8194254
20
54.5373504
40
0.1587906
50
306.3943566
51
355.3030547
0
ARC
8
DEFAULT_255_1_234
10
8.7682186
20
54.5450113
40
0.2104809
50
354.3660432
51
0.0698737
0
ARC
8
DEFAULT_255_1_234
10
8.7824531
20
54.5472617
40
0.1962563
50
359.417946
51
16.1971788
0
ARC
8
DEFAULT_255_1_234
10
8.8279841
20
54.5597418
40
0.149053
50
16.4723299
51
52.6262157
0
ARC
8
DEFAULT_255_1_234
10
8.7458895
20
54.4513433
40
0.2850296
50
52.7386432
51
62.4979148
0
ARC
8
DEFAULT_255_1_234
10
8.6073972
20
54.1907283
40
0.5801521
50
62.2515216
51
68.1220564
0
ARC
8
DEFAULT_255_1_234
10
8.4353883
20
53.7679872
40
1.0365451
50
68.0062803
51
71.8053402
0
ARC
8
DEFAULT_255_1_234
10
8.2558255
20
53.2294758
40
1.6042013
50
71.7183119
51
73.9258742
0
LINE
8
DEFAULT_255_1_234
10
9.4967464
20
55.4191211
11
9.4967464
21
54.2497
0
LINE
8
DEFAULT_255_1_234
10
9.4967464
20
54.2497
11
9.342537
21
54.2497
0
LINE
8
DEFAULT_255_1_234
10
9.342537
20
54.2497
11
9.342537
21
55.4191211
0
LINE
8
DEFAULT_255_1_234
10
9.342537
20
55.4191211
11
9.4967464
21
55.4191211
0
LINE
8
DEFAULT_255_1_234
10
9.7786604
20
55.4191211
11
9.9778475
21
55.4191211
0
LINE
8
DEFAULT_255_1_234
10
9.9778475
20
55.4191211
11
10.3601583
21
54.4649506
0
LINE
8
DEFAULT_255_1_234
10
10.3601583
20
54.4649506
11
10.742469
21
55.4191211
0
LINE
8
DEFAULT_255_1_234
10
10.742469
20
55.4191211
11
10.9424593
21
55.4191211
0
LINE
8
DEFAULT_255_1_234
10
10.9424593
20
55.4191211
11
10.9424593
21
54.2497
0
LINE
8
DEFAULT_255_1_234
10
10.9424593
20
54.2497
11
10.7882499
21
54.2497
0
LINE
8
DEFAULT_255_1_234
10
10.7882499
20
54.2497
11
10.7882499
21
54.7050996
0
LINE
8
DEFAULT_255_1_234
10
10.7882499
20
54.7050996
11
10.802707
21
55.1966419
0
LINE
8
DEFAULT_255_1_234
10
10.802707
20
55.1966419
11
10.4187899
21
54.2497
0
LINE
8
DEFAULT_255_1_234
10
10.4187899
20
54.2497
11
10.3007234
21
54.2497
0
LINE
8
DEFAULT_255_1_234
10
10.3007234
20
54.2497
11
9.9176095
21
55.1942324
0
LINE
8
DEFAULT_255_1_234
10
9.9176095
20
55.1942324
11
9.9328698
21
54.7050996
0
LINE
8
DEFAULT_255_1_234
10
9.9328698
20
54.7050996
11
9.9328698
21
54.2497
0
LINE
8
DEFAULT_255_1_234
10
9.9328698
20
54.2497
11
9.7786604
21
54.2497
0
LINE
8
DEFAULT_255_1_234
10
9.7786604
20
54.2497
11
9.7786604
21
55.4191211
0
LINE
8
DEFAULT_255_1_234
10
11.9865853
20
54.2497
11
11.8749441
21
54.5549061
0
LINE
8
DEFAULT_255_1_234
10
11.8749441
20
54.5549061
11
11.3850081
21
54.5549061
0
LINE
8
DEFAULT_255_1_234
10
11.3850081
20
54.5549061
11
11.2749732
21
54.2497
0
LINE
8
DEFAULT_255_1_234
10
11.2749732
20
54.2497
11
11.1159448
21
54.2497
0
LINE
8
DEFAULT_255_1_234
10
11.1159448
20
54.2497
11
11.5625095
21
55.4191211
0
LINE
8
DEFAULT_255_1_234
10
11.5625095
20
55.4191211
11
11.6974427
21
55.4191211
0
LINE
8
DEFAULT_255_1_234
10
11.6974427
20
55.4191211
11
12.1448105
21
54.2497
0
LINE
8
DEFAULT_255_1_234
10
12.1448105
20
54.2497
11
11.9865853
21
54.2497
0
LINE
8
DEFAULT_255_1_234
10
11.6299761
20
55.2287689
11
11.4315921
21
54.6818075
0
LINE
8
DEFAULT_255_1_234
10
11.4315921
20
54.6818075
11
11.8291632
21
54.6818075
0
LINE
8
DEFAULT_255_1_234
10
11.8291632
20
54.6818075
11
11.6299761
21
55.2287689
0
LINE
8
DEFAULT_255_1_234
10
13.006616
20
55.4191211
11
13.006616
21
55.2922196
0
LINE
8
DEFAULT_255_1_234
10
13.006616
20
55.2922196
11
12.6307307
21
55.2922196
0
LINE
8
DEFAULT_255_1_234
10
12.6307307
20
55.2922196
11
12.6307307
21
54.2497
0
LINE
8
DEFAULT_255_1_234
10
12.6307307
20
54.2497
11
12.4773245
21
54.2497
0
LINE
8
DEFAULT_255_1_234
10
12.4773245
20
54.2497
11
12.4773245
21
55.2922196
0
LINE
8
DEFAULT_255_1_234
10
12.4773245
20
55.2922196
11
12.1022423
21
55.2922196
0
LINE
8
DEFAULT_255_1_234
10
12.1022423
20
55.2922196
11
12.1022423
21
55.4191211
0
LINE
8
DEFAULT_255_1_234
10
12.1022423
20
55.4191211
11
13.006616
21
55.4191211
0
LINE
8
DEFAULT_255_1_234
10
13.3455554
20
55.4191211
11
13.3455554
21
54.2497
0
LINE
8
DEFAULT_255_1_234
10
13.3455554
20
54.2497
11
13.191346
21
54.2497
0
LINE
8
DEFAULT_255_1_234
10
13.191346
20
54.2497
11
13.191346
21
55.4191211
0
LINE
8
DEFAULT_255_1_234
10
13.191346
20
55.4191211
11
13.3455554
21
55.4191211
0
LINE
8
DEFAULT_255_1_234
10
14.332656
20
54.6207663
11
14.4876686
21
54.6207663
0
LINE
8
DEFAULT_255_1_234
10
13.5873107
20
54.7797947
11
13.5873107
21
54.8922391
0
LINE
8
DEFAULT_255_1_234
10
14.4876686
20
55.0432357
11
14.332656
21
55.0432357
0
LINE
8
DEFAULT_255_1_234
10
13.7423232
20
54.8882232
11
13.7423232
21
54.7749757
0
ARC
8
DEFAULT_255_1_234
10
13.9396072
20
54.6804846
40
0.5513052
50
340.1774281
51
353.7814284
0
ARC
8
DEFAULT_255_1_234
10
14.0967425
20
54.6219582
40
0.3836379
50
311.4558989
51
340.4421614
0
ARC
8
DEFAULT_255_1_234
10
14.0934093
20
54.6330528
40
0.3941894
50
282.4333181
51
310.7513653
0
ARC
8
DEFAULT_255_1_234
10
14.0494832
20
54.8145679
40
0.5809175
50
269.9358511
51
282.809604
0
ARC
8
DEFAULT_255_1_234
10
14.0442899
20
54.9603212
40
0.7266847
50
270.0021091
51
270.3581957
0
ARC
8
DEFAULT_255_1_234
10
14.0390315
20
54.7002585
40
0.4666519
50
250.7884749
51
270.6489167
0
ARC
8
DEFAULT_255_1_234
10
14.022215
20
54.6365319
40
0.4009729
50
219.3627325
51
250.0611886
0
ARC
8
DEFAULT_255_1_234
10
14.1051361
20
54.7070042
40
0.5097822
50
193.5479632
51
219.5756669
0
ARC
8
DEFAULT_255_1_234
10
14.3422982
20
54.7685919
40
0.7547848
50
181.1218675
51
193.87563
0
ARC
8
DEFAULT_255_1_234
10
14.5493163
20
54.779658
40
0.9620055
50
179.9918545
51
181.5394234
0
ARC
8
DEFAULT_255_1_234
10
14.3642265
20
54.8959788
40
0.7769248
50
169.5837241
51
180.2757934
0
ARC
8
DEFAULT_255_1_234
10
14.1805203
20
54.9299229
40
0.590109
50
155.0365899
51
169.6003176
0
ARC
8
DEFAULT_255_1_234
10
14.0669667
20
54.9846677
40
0.4640625
50
136.783148
51
155.2472683
0
ARC
8
DEFAULT_255_1_234
10
14.0280144
20
55.0177562
40
0.4130255
50
121.7633186
51
136.428115
0
ARC
8
DEFAULT_255_1_234
10
14.0415106
20
54.9928227
40
0.4413323
50
95.6459699
51
121.5490577
0
ARC
8
DEFAULT_255_1_234
10
14.0572388
20
54.8819949
40
0.55319
50
89.924208
51
96.1377933
0
ARC
8
DEFAULT_255_1_234
10
14.0622821
20
54.8938542
40
0.5413475
50
76.6779277
51
90.4563316
0
ARC
8
DEFAULT_255_1_234
10
14.1016444
20
55.0529114
40
0.3775041
50
47.485847
51
76.9287264
0
ARC
8
DEFAULT_255_1_234
10
14.0869417
20
55.0429159
40
0.3948286
50
16.5424086
51
46.8933463
0
ARC
8
DEFAULT_255_1_234
10
13.9261574
20
54.9900861
40
0.564021
50
5.4072051
51
17.0365086
0
ARC
8
DEFAULT_255_1_234
10
13.7822591
20
54.9669679
40
0.5556559
50
7.8891745
51
15.9239216
0
ARC
8
DEFAULT_255_1_234
10
13.9809605
20
55.0246631
40
0.3487515
50
15.7653144
51
27.9410532
0
ARC
8
DEFAULT_255_1_234
10
14.0913822
20
55.083779
40
0.2235026
50
27.8166557
51
46.4008329
0
ARC
8
DEFAULT_255_1_234
10
14.0963465
20
55.0832082
40
0.2205286
50
47.4371857
51
75.0698205
0
ARC
8
DEFAULT_255_1_234
10
14.065486
20
54.9757765
40
0.3322915
50
74.7008593
51
87.8124495
0
ARC
8
DEFAULT_255_1_234
10
14.0581547
20
54.8701844
40
0.4380987
50
87.3814673
51
90.0240855
0
ARC
8
DEFAULT_255_1_234
10
14.0543091
20
54.9879291
40
0.3203749
50
89.3451631
51
108.5745436
0
ARC
8
DEFAULT_255_1_234
10
14.0406196
20
55.0392908
40
0.2673494
50
109.2998449
51
143.3037509
0
ARC
8
DEFAULT_255_1_234
10
14.1168268
20
54.9806881
40
0.3634757
50
143.0753173
51
163.1916937
0
ARC
8
DEFAULT_255_1_234
10
14.3119996
20
54.9190967
40
0.5681262
50
162.9373603
51
174.6208611
0
ARC
8
DEFAULT_255_1_234
10
14.5746038
20
54.890301
40
0.8322832
50
174.3419979
51
180.1430411
0
ARC
8
DEFAULT_255_1_234
10
14.4815194
20
54.7708698
40
0.7392076
50
179.6817502
51
189.150529
0
ARC
8
DEFAULT_255_1_234
10
14.2314443
20
54.729219
40
0.4856932
50
188.9910863
51
203.5773039
0
ARC
8
DEFAULT_255_1_234
10
14.1234775
20
54.6844211
40
0.3688271
50
203.9077269
51
215.1312379
0
ARC
8
DEFAULT_255_1_234
10
14.0311869
20
54.6128941
40
0.2522457
50
213.9071664
51
263.8849284
0
ARC
8
DEFAULT_255_1_234
10
14.0437198
20
54.6913518
40
0.3316174
50
263.1758525
51
270.1031083
0
ARC
8
DEFAULT_255_1_234
10
14.046929
20
54.8160365
40
0.4563091
50
269.6719807
51
279.0609165
0
ARC
8
DEFAULT_255_1_234
10
14.0736058
20
54.6547907
40
0.2928759
50
278.8750225
51
293.6346586
0
ARC
8
DEFAULT_255_1_234
10
14.1056266
20
54.57959
40
0.2111472
50
293.8553404
51
310.0518804
0
ARC
8
DEFAULT_255_1_234
10
14.106112
20
54.5733516
40
0.2060917
50
311.0646779
51
332.0108348
0
ARC
8
DEFAULT_255_1_234
10
13.9868847
20
54.6390978
40
0.3422352
50
331.6588543
51
343.2878891
0
ARC
8
DEFAULT_255_1_234
10
13.7806362
20
54.7024798
40
0.5580003
50
343.1446044
51
351.010618
0
ARC
8
DEFAULT_255_1_234
10
13.6265008
20
54.7305871
40
0.7146438
50
350.7157277
51
351.1602153
0
LINE
8
DEFAULT_255_1_234
10
15.8811751
20
55.0809849
11
15.7261626
21
55.0809849
0
LINE
8
DEFAULT_255_1_234
10
15.0338268
20
54.5886394
11
15.1888393
21
54.5886394
0
ARC
8
DEFAULT_255_1_234
10
15.7920439
20
55.9756768
40
1.252368
50
248.9199003
51
254.1439814
0
ARC
8
DEFAULT_255_1_234
10
15.6239934
20
55.5430234
40
0.788226
50
241.633709
51
249.0064503
0
ARC
8
DEFAULT_255_1_234
10
15.4711328
20
55.2629317
40
0.4691427
50
230.498225
51
241.8087113
0
ARC
8
DEFAULT_255_1_234
10
15.3926902
20
55.1629906
40
0.3421437
50
227.4064532
51
229.9881192
0
ARC
8
DEFAULT_255_1_234
10
15.3439423
20
55.1154088
40
0.2741476
50
200.6781896
51
228.1763934
0
ARC
8
DEFAULT_255_1_234
10
15.3511734
20
55.1139077
40
0.2804109
50
179.5061581
51
199.8694617
0
ARC
8
DEFAULT_255_1_234
10
15.3502485
20
55.121321
40
0.2795204
50
132.4834203
51
181.0242172
0
ARC
8
DEFAULT_255_1_234
10
15.4098068
20
55.0650704
40
0.3612768
50
129.2532479
51
133.4242687
0
ARC
8
DEFAULT_255_1_234
10
15.4244517
20
55.0430965
40
0.3875675
50
101.98776
51
128.8742646
0
ARC
8
DEFAULT_255_1_234
10
15.4643128
20
54.8709741
40
0.5642249
50
89.5906553
51
102.3169264
0
ARC
8
DEFAULT_255_1_234
10
15.471362
20
54.9028148
40
0.5323783
50
77.2360837
51
90.3248275
0
ARC
8
DEFAULT_255_1_234
10
15.4920699
20
54.99954
40
0.4334697
50
63.837784
51
77.0809408
0
ARC
8
DEFAULT_255_1_234
10
15.5198461
20
55.0512911
40
0.3747796
50
45.9864267
51
64.1607727
0
ARC
8
DEFAULT_255_1_234
10
15.5459342
20
55.0810866
40
0.3352302
50
32.2747395
51
45.6547121
0
ARC
8
DEFAULT_255_1_234
10
15.5525783
20
55.082988
40
0.328603
50
359.6507365
51
32.6130309
0
ARC
8
DEFAULT_255_1_234
10
15.4582878
20
55.083466
40
0.2678863
50
359.469343
51
14.9832209
0
ARC
8
DEFAULT_255_1_234
10
15.5287941
20
55.1023539
40
0.1948938
50
14.9781179
51
48.2004265
0
ARC
8
DEFAULT_255_1_234
10
15.5123585
20
55.0816983
40
0.2212521
50
48.5927837
51
74.1241538
0
ARC
8
DEFAULT_255_1_234
10
15.4790074
20
54.9716248
40
0.3362561
50
73.7888341
51
86.6652678
0
ARC
8
DEFAULT_255_1_234
10
15.468764
20
54.8508881
40
0.4573953
50
86.2640471
51
90.0526343
0
ARC
8
DEFAULT_255_1_234
10
15.4659352
20
54.8904192
40
0.4178709
50
89.6697524
51
99.2309573
0
ARC
8
DEFAULT_255_1_234
10
15.4416803
20
55.0348964
40
0.2713749
50
99.069534
51
113.7658566
0
ARC
8
DEFAULT_255_1_234
10
15.4142994
20
55.0994677
40
0.2012469
50
114.0401004
51
127.9850673
0
ARC
8
DEFAULT_255_1_234
10
15.3902558
20
55.129073
40
0.1631167
50
127.7287463
51
176.7105154
0
ARC
8
DEFAULT_255_1_234
10
15.4581276
20
55.1189693
40
0.2315392
50
175.1779447
51
180.0581938
0
ARC
8
DEFAULT_255_1_234
10
15.3738123
20
55.1177428
40
0.1472271
50
179.6142195
51
228.1246017
0
ARC
8
DEFAULT_255_1_234
10
15.4179791
20
55.1586308
40
0.2072299
50
226.5779593
51
230.8800004
0
ARC
8
DEFAULT_255_1_234
10
15.465087
20
55.2211636
40
0.2854818
50
231.4635071
51
241.9260842
0
ARC
8
DEFAULT_255_1_234
10
15.5848048
20
55.44148
40
0.53622
50
241.7178533
51
248.3259551
0
ARC
8
DEFAULT_255_1_234
10
15.723342
20
55.7847064
40
0.9063478
50
248.2007737
51
252.4528373
0
ARC
8
DEFAULT_255_1_234
10
15.8437145
20
56.1568441
40
1.2974635
50
252.3391078
51
254.3469452
0
ARC
8
DEFAULT_255_1_234
10
15.0894847
20
53.4591148
40
1.5037162
50
71.0197183
51
74.4087047
0
ARC
8
DEFAULT_255_1_234
10
15.2589532
20
53.9483111
40
0.9859993
50
66.1847285
51
71.086374
0
ARC
8
DEFAULT_255_1_234
10
15.4145845
20
54.29872
40
0.6025855
50
59.3536294
51
66.2691831
0
ARC
8
DEFAULT_255_1_234
10
15.5034497
20
54.4490609
40
0.4279449
50
49.1020879
51
59.3293958
0
ARC
8
DEFAULT_255_1_234
10
15.5853237
20
54.5423834
40
0.3038015
50
32.7919921
51
49.2505539
0
ARC
8
DEFAULT_255_1_234
10
15.6174327
20
54.5652191
40
0.264448
50
31.1181161
51
32.4005348
0
ARC
8
DEFAULT_255_1_234
10
15.6085865
20
54.5616779
40
0.2738556
50
8.1116974
51
30.7958831
0
ARC
8
DEFAULT_255_1_234
10
15.5275533
20
54.5478753
40
0.3560327
50
359.8389159
51
8.4706516
0
ARC
8
DEFAULT_255_1_234
10
15.5901324
20
54.5430137
40
0.2934776
50
337.4731098
51
0.7537279
0
ARC
8
DEFAULT_255_1_234
10
15.6080019
20
54.5410387
40
0.2762607
50
307.5917067
51
336.4315538
0
ARC
8
DEFAULT_255_1_234
10
15.5619847
20
54.5923102
40
0.3449979
50
307.6551545
51
308.4529766
0
ARC
8
DEFAULT_255_1_234
10
15.5389566
20
54.627825
40
0.3871988
50
284.3734338
51
307.1424381
0
ARC
8
DEFAULT_255_1_234
10
15.4894396
20
54.8099932
40
0.5759636
50
272.4382747
51
284.646547
0
ARC
8
DEFAULT_255_1_234
10
15.4767605
20
54.9899893
40
0.7563528
50
269.9708387
51
272.8178037
0
ARC
8
DEFAULT_255_1_234
10
15.4724645
20
54.7861716
40
0.5525489
50
248.2707594
51
270.4055579
0
ARC
8
DEFAULT_255_1_234
10
15.4670386
20
54.7671192
40
0.5328452
50
246.1383403
51
248.0542782
0
ARC
8
DEFAULT_255_1_234
10
15.4251765
20
54.6791843
40
0.4355005
50
233.1670131
51
246.4950969
0
ARC
8
DEFAULT_255_1_234
10
15.369767
20
54.6043812
40
0.3424126
50
215.3403242
51
233.0843104
0
ARC
8
DEFAULT_255_1_234
10
15.3425101
20
54.5845549
40
0.3087104
50
179.2419209
51
215.2648451
0
ARC
8
DEFAULT_255_1_234
10
15.4192695
20
54.5859666
40
0.2304457
50
179.335461
51
199.1045811
0
ARC
8
DEFAULT_255_1_234
10
15.3860371
20
54.5772766
40
0.1962176
50
199.8828939
51
232.7063202
0
ARC
8
DEFAULT_255_1_234
10
15.433264
20
54.6366788
40
0.2720938
50
232.3738199
51
255.5136649
0
ARC
8
DEFAULT_255_1_234
10
15.4673506
20
54.7610835
40
0.4010747
50
255.2446292
51
267.5320849
0
ARC
8
DEFAULT_255_1_234
10
15.476113
20
54.8843702
40
0.5246356
50
267.1557994
51
270.0286766
0
ARC
8
DEFAULT_255_1_234
10
15.4788902
20
54.839995
40
0.4802668
50
269.7000017
51
278.1660162
0
ARC
8
DEFAULT_255_1_234
10
15.5044907
20
54.6669515
40
0.3053425
50
278.0231263
51
290.625471
0
ARC
8
DEFAULT_255_1_234
10
15.5392594
20
54.5742025
40
0.206291
50
290.6619762
51
307.0370976
0
ARC
8
DEFAULT_255_1_234
10
15.5692983
20
54.5373504
40
0.1587906
50
306.3943566
51
355.3030547
0
ARC
8
DEFAULT_255_1_234
10
15.5180914
20
54.5450113
40
0.2104809
50
354.3660432
51
0.0698737
0
ARC
8
DEFAULT_255_1_234
10
15.532326
20
54.5472617
40
0.1962563
50
359.417946
51
16.1971788
0
ARC
8
DEFAULT_255_1_234
10
15.577857
20
54.5597418
40
0.149053
50
16.4723299
51
52.6262157
0
ARC
8
DEFAULT_255_1_234
10
15.4957624
20
54.4513433
40
0.2850296
50
52.7386432
51
62.4979148
0
ARC
8
DEFAULT_255_1_234
10
15.3572701
20
54.1907283
40
0.5801521
50
62.2515216
51
68.1220564
0
ARC
8
DEFAULT_255_1_234
10
15.1852612
20
53.7679872
40
1.0365451
50
68.0062803
51
71.8053402
0
ARC
8
DEFAULT_255_1_234
10
15.0056983
20
53.2294758
40
1.6042013
50
71.7183119
51
73.9258742
0
LINE
8
DEFAULT_255_1_234
10
16.7975965
20
55.4191211
11
16.7975965
21
55.335591
0
LINE
8
DEFAULT_255_1_234
10
16.7975965
20
55.335591
11
16.3132827
21
54.2497
0
LINE
8
DEFAULT_255_1_234
10
16.3132827
20
54.2497
11
16.1574669
21
54.2497
0
LINE
8
DEFAULT_255_1_234
10
16.1574669
20
54.2497
11
16.6401744
21
55.2970387
0
LINE
8
DEFAULT_255_1_234
10
16.6401744
20
55.2970387
11
16.0072734
21
55.2970387
0
LINE
8
DEFAULT_255_1_234
10
16.0072734
20
55.2970387
11
16.0072734
21
55.4191211
0
LINE
8
DEFAULT_255_1_234
10
16.0072734
20
55.4191211
11
16.7975965
21
55.4191211
0
LINE
8
DEFAULT_255_1_234
10
17.2907452
20
54.8071026
11
17.2907452
21
54.6858234
0
LINE
8
DEFAULT_255_1_234
10
17.2907452
20
54.6858234
11
16.8987964
21
54.6858234
0
LINE
8
DEFAULT_255_1_234
10
16.8987964
20
54.6858234
11
16.8987964
21
54.8071026
0
LINE
8
DEFAULT_255_1_234
10
16.8987964
20
54.8071026
11
17.2907452
21
54.8071026
0
LINE
8
DEFAULT_255_1_234
10
18.047335
20
55.4191211
11
18.047335
21
54.642452
0
LINE
8
DEFAULT_255_1_234
10
18.047335
20
54.642452
11
18.2095761
21
54.642452
0
LINE
8
DEFAULT_255_1_234
10
18.2095761
20
54.642452
11
18.2095761
21
54.5211728
0
LINE
8
DEFAULT_255_1_234
10
18.2095761
20
54.5211728
11
18.047335
21
54.5211728
0
LINE
8
DEFAULT_255_1_234
10
18.047335
20
54.5211728
11
18.047335
21
54.2497
0
LINE
8
DEFAULT_255_1_234
10
18.047335
20
54.2497
11
17.8979446
21
54.2497
0
LINE
8
DEFAULT_255_1_234
10
17.8979446
20
54.2497
11
17.8979446
21
54.5211728
0
LINE
8
DEFAULT_255_1_234
10
17.8979446
20
54.5211728
11
17.3654404
21
54.5211728
0
LINE
8
DEFAULT_255_1_234
10
17.3654404
20
54.5211728
11
17.3654404
21
54.6087187
0
LINE
8
DEFAULT_255_1_234
10
17.3654404
20
54.6087187
11
17.8891097
21
55.4191211
0
LINE
8
DEFAULT_255_1_234
10
17.8891097
20
55.4191211
11
18.047335
21
55.4191211
0
LINE
8
DEFAULT_255_1_234
10
17.8802748
20
55.1837912
11
17.5341069
21
54.642452
0
LINE
8
DEFAULT_255_1_234
10
17.5341069
20
54.642452
11
17.8979446
21
54.642452
0
LINE
8
DEFAULT_255_1_234
10
17.8979446
20
54.642452
11
17.8979446
21
55.2159181
0
LINE
8
DEFAULT_255_1_234
10
17.8979446
20
55.2159181
11
17.8802748
21
55.1837912
0
LINE
8
DEFAULT_255_1_234
10
19.0770038
20
54.9412327
11
19.0770038
21
54.7484709
0
LINE
8
DEFAULT_255_1_234
10
18.3388871
20
54.7283916
11
18.3388871
21
54.9267755
0
LINE
8
DEFAULT_255_1_234
10
18.9284167
20
54.7083123
11
18.9284167
21
54.9516739
0
LINE
8
DEFAULT_255_1_234
10
18.4874742
20
54.9629184
11
18.4874742
21
54.7251789
0
ARC
8
DEFAULT_255_1_234
10
17.8522928
20
54.7435805
40
1.2247208
50
353.8441951
51
0.2287902
0
ARC
8
DEFAULT_255_1_234
10
18.3162431
20
54.6917806
40
0.7578929
50
344.4934747
51
353.9765454
0
ARC
8
DEFAULT_255_1_234
10
18.6155022
20
54.6066981
40
0.4467846
50
329.2803592
51
344.7472793
0
ARC
8
DEFAULT_255_1_234
10
18.7147846
20
54.5522018
40
0.3336173
50
324.9352394
51
328.6160465
0
ARC
8
DEFAULT_255_1_234
10
18.7524955
20
54.5258427
40
0.2876076
50
280.580143
51
324.9173126
0
ARC
8
DEFAULT_255_1_234
10
18.7123748
20
54.6929099
40
0.4592847
50
269.5977311
51
281.6734359
0
ARC
8
DEFAULT_255_1_234
10
18.7051653
20
54.6809173
40
0.4472986
50
256.6228859
51
270.51044
0
ARC
8
DEFAULT_255_1_234
10
18.6649631
20
54.5260877
40
0.2873874
50
215.8618325
51
257.2788573
0
ARC
8
DEFAULT_255_1_234
10
18.7670663
20
54.5945977
40
0.4102928
50
197.9693508
51
215.2623606
0
ARC
8
DEFAULT_255_1_234
10
19.0155778
20
54.6784709
40
0.6725652
50
187.8816417
51
198.2346507
0
ARC
8
DEFAULT_255_1_234
10
19.4113987
20
54.7356079
40
1.0724845
50
180.8976217
51
188.0055519
0
ARC
8
DEFAULT_255_1_234
10
19.6914175
20
54.7459777
40
1.3526448
50
180.7449369
51
181.1510016
0
ARC
8
DEFAULT_255_1_234
10
19.5336904
20
54.9316042
40
1.1948131
50
173.7675579
51
180.231553
0
ARC
8
DEFAULT_255_1_234
10
19.081905
20
54.9826666
40
0.7401564
50
164.3058563
51
173.9002247
0
ARC
8
DEFAULT_255_1_234
10
18.7907119
20
55.0665656
40
0.4371288
50
148.7922025
51
164.568378
0
ARC
8
DEFAULT_255_1_234
10
18.6955571
20
55.1196929
40
0.3282386
50
144.5883898
51
148.1176286
0
ARC
8
DEFAULT_255_1_234
10
18.6612469
20
55.1436315
40
0.2864044
50
101.6440918
51
144.514236
0
ARC
8
DEFAULT_255_1_234
10
18.7037536
20
54.9747069
40
0.4604934
50
89.5284041
51
102.5819763
0
ARC
8
DEFAULT_255_1_234
10
18.7116624
20
54.9708018
40
0.464401
50
77.0437873
51
90.5081339
0
ARC
8
DEFAULT_255_1_234
10
18.7518626
20
55.1350615
40
0.2953195
50
48.2778575
51
77.4994676
0
ARC
8
DEFAULT_255_1_234
10
18.7591257
20
55.1479746
40
0.2808655
50
36.3142134
51
47.6305865
0
ARC
8
DEFAULT_255_1_234
10
18.6722564
20
55.0894515
40
0.3855453
50
18.2931786
51
35.6769206
0
ARC
8
DEFAULT_255_1_234
10
18.4179323
20
55.0021593
40
0.654423
50
8.024666
51
18.5605216
0
ARC
8
DEFAULT_255_1_234
10
18.0016243
20
54.9406792
40
1.0752407
50
1.1274072
51
8.1718305
0
ARC
8
DEFAULT_255_1_234
10
17.6780433
20
54.9279885
40
1.3990231
50
0.5424119
51
1.3863029
0
ARC
8
DEFAULT_255_1_234
10
17.8601811
20
54.9552342
40
1.0682415
50
359.8090433
51
4.9407866
0
ARC
8
DEFAULT_255_1_234
10
18.2811825
20
54.9928113
40
0.6455691
50
4.8362157
51
12.2904523
0
ARC
8
DEFAULT_255_1_234
10
18.556694
20
55.0541965
40
0.3633074
50
12.0805627
51
23.8173984
0
ARC
8
DEFAULT_255_1_234
10
18.6740645
20
55.1038919
40
0.2358723
50
24.2871213
51
31.3935614
0
ARC
8
DEFAULT_255_1_234
10
18.7265342
20
55.1382233
40
0.1732111
50
30.7407893
51
82.4657128
0
ARC
8
DEFAULT_255_1_234
10
18.7085477
20
55.0498691
40
0.263235
50
81.1060089
51
90.2184952
0
ARC
8
DEFAULT_255_1_234
10
18.7049776
20
55.0756924
40
0.2374236
50
89.3806855
51
105.6762551
0
ARC
8
DEFAULT_255_1_234
10
18.6866406
20
55.1423567
40
0.1682847
50
105.7981136
51
149.7388061
0
ARC
8
DEFAULT_255_1_234
10
18.7930485
20
55.078395
40
0.2924306
50
149.4208916
51
163.6286378
0
ARC
8
DEFAULT_255_1_234
10
19.0021373
20
55.014625
40
0.5110213
50
163.3763315
51
172.1410975
0
ARC
8
DEFAULT_255_1_234
10
19.3322092
20
54.9673518
40
0.8444586
50
172.0259487
51
178.0703232
0
ARC
8
DEFAULT_255_1_234
10
19.6352181
20
54.9529906
40
1.1477868
50
177.8631668
51
179.5044149
0
ARC
8
DEFAULT_255_1_234
10
19.5279586
20
54.7215389
40
1.0404907
50
179.7995573
51
185.2460446
0
ARC
8
DEFAULT_255_1_234
10
19.1236625
20
54.6832513
40
0.6343885
50
185.1411642
51
193.0079639
0
ARC
8
DEFAULT_255_1_234
10
18.8593097
20
54.6207641
40
0.3627568
50
192.7897626
51
205.2507664
0
ARC
8
DEFAULT_255_1_234
10
18.7546644
20
54.5740415
40
0.2481908
50
205.8005384
51
211.2537509
0
ARC
8
DEFAULT_255_1_234
10
18.7023085
20
54.538958
40
0.1852521
50
210.3789793
51
238.4008143
0
ARC
8
DEFAULT_255_1_234
10
18.7003607
20
54.5436376
40
0.1882621
50
239.6520629
51
265.9793761
0
ARC
8
DEFAULT_255_1_234
10
18.7088807
20
54.6108427
40
0.2559272
50
265.1315437
51
270.060332
0
ARC
8
DEFAULT_255_1_234
10
18.7117586
20
54.5784534
40
0.2235528
50
269.3314664
51
287.2178029
0
ARC
8
DEFAULT_255_1_234
10
18.7255438
20
54.5281279
40
0.1714108
50
287.7958004
51
329.080874
0
ARC
8
DEFAULT_255_1_234
10
18.6297894
20
54.587893
40
0.2842745
50
328.6634704
51
343.3325132
0
ARC
8
DEFAULT_255_1_234
10
18.4124915
20
54.6555863
40
0.5118644
50
343.0499468
51
351.9393422
0
ARC
8
DEFAULT_255_1_234
10
18.0658215
20
54.7066949
40
0.8622784
50
351.8069023
51
357.7959224
0
ARC
8
DEFAULT_255_1_234
10
17.7422771
20
54.7234721
40
1.1862365
50
357.5871873
51
359.2677531
0
LINE
8
DEFAULT_255_1_234
10
20.0006537
20
54.9412327
11
20.0006537
21
54.7484709
0
LINE
8
DEFAULT_255_1_234
10
19.262537
20
54.7283916
11
19.262537
21
54.9267755
0
LINE
8
DEFAULT_255_1_234
10
19.8520666
20
54.7083123
11
19.8520666
21
54.9516739
0
LINE
8
DEFAULT_255_1_234
10
19.4111241
20
54.9629184
11
19.4111241
21
54.7251789
0
ARC
8
DEFAULT_255_1_234
10
18.7759427
20
54.7435805
40
1.2247208
50
353.8441951
51
0.2287902
0
ARC
8
DEFAULT_255_1_234
10
19.239893
20
54.6917806
40
0.7578929
50
344.4934747
51
353.9765454
0
ARC
8
DEFAULT_255_1_234
10
19.5391521
20
54.6066981
40
0.4467846
50
329.2803592
51
344.7472793
0
ARC
8
DEFAULT_255_1_234
10
19.6384345
20
54.5522018
40
0.3336173
50
324.9352394
51
328.6160465
0
ARC
8
DEFAULT_255_1_234
10
19.6761454
20
54.5258427
40
0.2876076
50
280.580143
51
324.9173126
0
ARC
8
DEFAULT_255_1_234
10
19.6360247
20
54.6929099
40
0.4592847
50
269.5977311
51
281.6734359
0
ARC
8
DEFAULT_255_1_234
10
19.6288152
20
54.6809173
40
0.4472986
50
256.6228859
51
270.51044
0
ARC
8
DEFAULT_255_1_234
10
19.588613
20
54.5260877
40
0.2873874
50
215.8618325
51
257.2788573
0
ARC
8
DEFAULT_255_1_234
10
19.6907162
20
54.5945977
40
0.4102928
50
197.9693508
51
215.2623606
0
ARC
8
DEFAULT_255_1_234
10
19.9392277
20
54.6784709
40
0.6725652
50
187.8816417
51
198.2346507
0
ARC
8
DEFAULT_255_1_234
10
20.3350486
20
54.7356079
40
1.0724845
50
180.8976217
51
188.0055519
0
ARC
8
DEFAULT_255_1_234
10
20.6150674
20
54.7459777
40
1.3526448
50
180.7449369
51
181.1510016
0
ARC
8
DEFAULT_255_1_234
10
20.4573403
20
54.9316042
40
1.1948131
50
173.7675579
51
180.231553
0
ARC
8
DEFAULT_255_1_234
10
20.0055549
20
54.9826666
40
0.7401564
50
164.3058563
51
173.9002247
0
ARC
8
DEFAULT_255_1_234
10
19.7143618
20
55.0665656
40
0.4371288
50
148.7922025
51
164.568378
0
ARC
8
DEFAULT_255_1_234
10
19.619207
20
55.1196929
40
0.3282386
50
144.5883898
51
148.1176286
0
ARC
8
DEFAULT_255_1_234
10
19.5848968
20
55.1436315
40
0.2864044
50
101.6440918
51
144.514236
0
ARC
8
DEFAULT_255_1_234
10
19.6274035
20
54.9747069
40
0.4604934
50
89.5284041
51
102.5819763
0
ARC
8
DEFAULT_255_1_234
10
19.6353123
20
54.9708018
40
0.464401
50
77.0437873
51
90.5081339
0
ARC
8
DEFAULT_255_1_234
10
19.6755125
20
55.1350615
40
0.2953195
50
48.2778575
51
77.4994676
0
ARC
8
DEFAULT_255_1_234
10
19.6827756
20
55.1479746
40
0.2808655
50
36.3142134
51
47.6305865
0
ARC
8
DEFAULT_255_1_234
10
19.5959063
20
55.0894515
40
0.3855453
50
18.2931786
51
35.6769206
0
ARC
8
DEFAULT_255_1_234
10
19.3415822
20
55.0021593
40
0.654423
50
8.024666
51
18.5605216
0
ARC
8
DEFAULT_255_1_234
10
18.9252742
20
54.9406792
40
1.0752407
50
1.1274072
51
8.1718305
0
ARC
8
DEFAULT_255_1_234
10
18.6016932
20
54.9279885
40
1.3990231
50
0.5424119
51
1.3863029
0
ARC
8
DEFAULT_255_1_234
10
18.783831
20
54.9552342
40
1.0682415
50
359.8090433
51
4.9407866
0
ARC
8
DEFAULT_255_1_234
10
19.2048324
20
54.9928113
40
0.6455691
50
4.8362157
51
12.2904523
0
ARC
8
DEFAULT_255_1_234
10
19.4803439
20
55.0541965
40
0.3633074
50
12.0805627
51
23.8173984
0
ARC
8
DEFAULT_255_1_234
10
19.5977144
20
55.1038919
40
0.2358723
50
24.2871213
51
31.3935614
0
ARC
8
DEFAULT_255_1_234
10
19.6501841
20
55.1382233
40
0.1732111
50
30.7407893
51
82.4657128
0
ARC
8
DEFAULT_255_1_234
10
19.6321976
20
55.0498691
40
0.263235
50
81.1060089
51
90.2184952
0
ARC
8
DEFAULT_255_1_234
10
19.6286275
20
55.0756924
40
0.2374236
50
89.3806855
51
105.6762551
0
ARC
8
DEFAULT_255_1_234
10
19.6102905
20
55.1423567
40
0.1682847
50
105.7981136
51
149.7388061
0
ARC
8
DEFAULT_255_1_234
10
19.7166984
20
55.078395
40
0.2924306
50
149.4208916
51
163.6286378
0
ARC
8
DEFAULT_255_1_234
10
19.9257872
20
55.014625
40
0.5110213
50
163.3763315
51
172.1410975
0
ARC
8
DEFAULT_255_1_234
10
20.2558591
20
54.9673518
40
0.8444586
50
172.0259487
51
178.0703232
0
ARC
8
DEFAULT_255_1_234
10
20.558868
20
54.9529906
40
1.1477868
50
177.8631668
51
179.5044149
0
ARC
8
DEFAULT_255_1_234
10
20.4516085
20
54.7215389
40
1.0404907
50
179.7995573
51
185.2460446
0
ARC
8
DEFAULT_255_1_234
10
20.0473124
20
54.6832513
40
0.6343885
50
185.1411642
51
193.0079639
0
ARC
8
DEFAULT_255_1_234
10
19.7829596
20
54.6207641
40
0.3627568
50
192.7897626
51
205.2507664
0
ARC
8
DEFAULT_255_1_234
10
19.6783143
20
54.5740415
40
0.2481908
50
205.8005384
51
211.2537509
0
ARC
8
DEFAULT_255_1_234
10
19.6259584
20
54.538958
40
0.1852521
50
210.3789793
51
238.4008143
0
ARC
8
DEFAULT_255_1_234
10
19.6240106
20
54.5436376
40
0.1882621
50
239.6520629
51
265.9793761
0
ARC
8
DEFAULT_255_1_234
10
19.6325306
20
54.6108427
40
0.2559272
50
265.1315437
51
270.060332
0
ARC
8
DEFAULT_255_1_234
10
19.6354085
20
54.5784534
40
0.2235528
50
269.3314664
51
287.2178029
0
ARC
8
DEFAULT_255_1_234
10
19.6491937
20
54.5281279
40
0.1714108
50
287.7958004
51
329.080874
0
ARC
8
DEFAULT_255_1_234
10
19.5534394
20
54.587893
40
0.2842745
50
328.6634704
51
343.3325132
0
ARC
8
DEFAULT_255_1_234
10
19.3361414
20
54.6555863
40
0.5118644
50
343.0499468
51
351.9393422
0
ARC
8
DEFAULT_255_1_234
10
18.9894714
20
54.7066949
40
0.8622784
50
351.8069023
51
357.7959224
0
ARC
8
DEFAULT_255_1_234
10
18.665927
20
54.7234721
40
1.1862365
50
357.5871873
51
359.2677531
0
LINE
8
DEFAULT_255_1_234
10
4.2454489
20
53.4348211
11
4.2454489
21
52.3914983
0
LINE
8
DEFAULT_255_1_234
10
4.2454489
20
52.3914983
11
4.7996389
21
52.3914983
0
LINE
8
DEFAULT_255_1_234
10
4.7996389
20
52.3914983
11
4.7996389
21
52.2654
0
LINE
8
DEFAULT_255_1_234
10
4.7996389
20
52.2654
11
4.0904364
21
52.2654
0
LINE
8
DEFAULT_255_1_234
10
4.0904364
20
52.2654
11
4.0904364
21
53.4348211
0
LINE
8
DEFAULT_255_1_234
10
4.0904364
20
53.4348211
11
4.2454489
21
53.4348211
0
LINE
8
DEFAULT_255_1_234
10
5.377924
20
53.2340276
11
5.377924
21
52.8926788
0
LINE
8
DEFAULT_255_1_234
10
5.377924
20
52.8926788
11
5.7040126
21
52.8926788
0
LINE
8
DEFAULT_255_1_234
10
5.7040126
20
52.8926788
11
5.7040126
21
52.7521233
0
LINE
8
DEFAULT_255_1_234
10
5.7040126
20
52.7521233
11
5.377924
21
52.7521233
0
LINE
8
DEFAULT_255_1_234
10
5.377924
20
52.7521233
11
5.377924
21
52.3826634
0
LINE
8
DEFAULT_255_1_234
10
5.377924
20
52.3826634
11
5.2285337
21
52.3826634
0
LINE
8
DEFAULT_255_1_234
10
5.2285337
20
52.3826634
11
5.2285337
21
52.7521233
0
LINE
8
DEFAULT_255_1_234
10
5.2285337
20
52.7521233
11
4.9024451
21
52.7521233
0
LINE
8
DEFAULT_255_1_234
10
4.9024451
20
52.7521233
11
4.9024451
21
52.8926788
0
LINE
8
DEFAULT_255_1_234
10
4.9024451
20
52.8926788
11
5.2285337
21
52.8926788
0
LINE
8
DEFAULT_255_1_234
10
5.2285337
20
52.8926788
11
5.2285337
21
53.2340276
0
LINE
8
DEFAULT_255_1_234
10
5.2285337
20
53.2340276
11
5.377924
21
53.2340276
0
LINE
8
DEFAULT_255_1_234
10
4.8792341
20
4.6404
11
4.6254312
21
5.1134694
0
LINE
8
DEFAULT_255_1_234
10
4.6254312
20
5.1134694
11
4.3507458
21
5.1134694
0
LINE
8
DEFAULT_255_1_234
10
4.3507458
20
5.1134694
11
4.3507458
21
4.6404
0
LINE
8
DEFAULT_255_1_234
10
4.3507458
20
4.6404
11
4.1957332
21
4.6404
0
LINE
8
DEFAULT_255_1_234
10
4.1957332
20
4.6404
11
4.1957332
21
5.8098211
0
LINE
8
DEFAULT_255_1_234
10
4.1957332
20
5.8098211
11
4.582863
21
5.8098211
0
LINE
8
DEFAULT_255_1_234
10
4.7700025
20
5.1463995
11
5.0446879
21
4.6500381
0
LINE
8
DEFAULT_255_1_234
10
5.0446879
20
4.6500381
11
5.0446879
21
4.6404
0
LINE
8
DEFAULT_255_1_234
10
5.0446879
20
4.6404
11
4.8792341
21
4.6404
0
LINE
8
DEFAULT_255_1_234
10
4.3507458
20
5.6829196
11
4.3507458
21
5.2395677
0
LINE
8
DEFAULT_255_1_234
10
4.3507458
20
5.2395677
11
4.587682
21
5.2395677
0
LINE
8
DEFAULT_255_1_234
10
4.5868789
20
5.6829196
11
4.3507458
21
5.6829196
0
ARC
8
DEFAULT_255_1_234
10
4.5870269
20
5.1136761
40
0.6961575
50
80.653586
51
90.3427061
0
ARC
8
DEFAULT_255_1_234
10
4.6289744
20
5.3599348
40
0.4463577
50
65.6987447
51
80.8329603
0
ARC
8
DEFAULT_255_1_234
10
4.6767385
20
5.4694322
40
0.3269094
50
50.0017161
51
65.4305835
0
ARC
8
DEFAULT_255_1_234
10
4.6985849
20
5.4989482
40
0.2902647
50
11.628416
51
49.5603263
0
ARC
8
DEFAULT_255_1_234
10
4.5450185
20
5.4614299
40
0.4482792
50
359.5655735
51
12.3691
0
ARC
8
DEFAULT_255_1_234
10
4.6527045
20
5.4551644
40
0.3405924
50
341.9983148
51
0.4822259
0
ARC
8
DEFAULT_255_1_234
10
4.6921885
20
5.4444471
40
0.2997359
50
323.8609373
51
341.61416
0
ARC
8
DEFAULT_255_1_234
10
4.6620129
20
5.4677484
40
0.3378487
50
296.7018614
51
323.6876402
0
ARC
8
DEFAULT_255_1_234
10
4.6179024
20
5.5466235
40
0.4281516
50
290.8086567
51
297.2323311
0
ARC
8
DEFAULT_255_1_234
10
4.5902554
20
5.5989351
40
0.3593766
50
269.589728
51
281.8058135
0
ARC
8
DEFAULT_255_1_234
10
4.6153453
20
5.4841743
40
0.2419125
50
281.5501019
51
303.9357432
0
ARC
8
DEFAULT_255_1_234
10
4.6290641
20
5.4603936
40
0.2145323
50
304.4415616
51
311.2106213
0
ARC
8
DEFAULT_255_1_234
10
4.6422746
20
5.4464632
40
0.1953505
50
310.9875673
51
356.2715578
0
ARC
8
DEFAULT_255_1_234
10
4.5666395
20
5.4577422
40
0.2716331
50
354.9348262
51
0.0609027
0
ARC
8
DEFAULT_255_1_234
10
4.5479269
20
5.4604435
40
0.2903554
50
359.5239371
51
12.8808918
0
ARC
8
DEFAULT_255_1_234
10
4.6456824
20
5.4843728
40
0.1897315
50
12.4173452
51
43.1022135
0
ARC
8
DEFAULT_255_1_234
10
4.6518429
20
5.4880724
40
0.1827118
50
43.5751728
51
48.203944
0
ARC
8
DEFAULT_255_1_234
10
4.6348921
20
5.4659302
40
0.2105272
50
48.7809703
51
72.6969569
0
ARC
8
DEFAULT_255_1_234
10
4.5994546
20
5.358382
40
0.3237537
50
72.3702241
51
84.8791103
0
ARC
8
DEFAULT_255_1_234
10
4.5847022
20
5.2241769
40
0.4587478
50
84.5400526
51
89.7281406
0
LINE
8
DEFAULT_255_1_234
10
5.3089321
20
5.8098211
11
5.5908461
21
5.3616501
0
LINE
8
DEFAULT_255_1_234
10
5.5908461
20
5.3616501
11
5.8711538
21
5.8098211
0
LINE
8
DEFAULT_255_1_234
10
5.8711538
20
5.8098211
11
6.0526711
21
5.8098211
0
LINE
8
DEFAULT_255_1_234
10
6.0526711
20
5.8098211
11
5.6832111
21
5.2299296
0
LINE
8
DEFAULT_255_1_234
10
5.6832111
20
5.2299296
11
6.061506
21
4.6404
0
LINE
8
DEFAULT_255_1_234
10
6.061506
20
4.6404
11
5.8783824
21
4.6404
0
LINE
8
DEFAULT_255_1_234
10
5.8783824
20
4.6404
11
5.5908461
21
5.0966027
0
LINE
8
DEFAULT_255_1_234
10
5.5908461
20
5.0966027
11
5.3017036
21
4.6404
0
LINE
8
DEFAULT_255_1_234
10
5.3017036
20
4.6404
11
5.1193831
21
4.6404
0
LINE
8
DEFAULT_255_1_234
10
5.1193831
20
4.6404
11
5.4984812
21
5.2299296
0
LINE
8
DEFAULT_255_1_234
10
5.4984812
20
5.2299296
11
5.128218
21
5.8098211
0
LINE
8
DEFAULT_255_1_234
10
5.128218
20
5.8098211
11
5.3089321
21
5.8098211
0
LINE
8
DEFAULT_255_1_234
10
6.5642928
20
4.6404
11
6.2406138
21
4.6404
0
LINE
8
DEFAULT_255_1_234
10
6.2406138
20
4.6404
11
6.2406138
21
5.8098211
0
LINE
8
DEFAULT_255_1_234
10
6.2406138
20
5.8098211
11
6.5707182
21
5.8098211
0
LINE
8
DEFAULT_255_1_234
10
7.0863558
20
5.2644661
11
7.0863558
21
5.1897709
0
LINE
8
DEFAULT_255_1_234
10
6.5747341
20
5.6829196
11
6.3948231
21
5.6829196
0
LINE
8
DEFAULT_255_1_234
10
6.3948231
20
5.6829196
11
6.3948231
21
4.7664983
0
LINE
8
DEFAULT_255_1_234
10
6.3948231
20
4.7664983
11
6.5570643
21
4.7664983
0
LINE
8
DEFAULT_255_1_234
10
6.9337528
20
5.1929836
11
6.9337528
21
5.2612534
0
ARC
8
DEFAULT_255_1_234
10
6.5746125
20
5.2232894
40
0.5865446
50
75.4101064
51
90.3804066
0
ARC
8
DEFAULT_255_1_234
10
6.5975638
20
5.3189492
40
0.4881916
50
60.145586
51
75.1888407
0
ARC
8
DEFAULT_255_1_234
10
6.6134414
20
5.3466199
40
0.4562893
50
26.5253612
51
60.1450928
0
ARC
8
DEFAULT_255_1_234
10
6.5014163
20
5.2872158
40
0.5830602
50
7.4030428
51
26.8320788
0
ARC
8
DEFAULT_255_1_234
10
6.341992
20
5.2623804
40
0.7443669
50
0.1605367
51
7.7176192
0
ARC
8
DEFAULT_255_1_234
10
6.3583824
20
5.1859434
40
0.7279835
50
348.7289388
51
0.3012466
0
ARC
8
DEFAULT_255_1_234
10
6.5240255
20
5.1530386
40
0.559104
50
333.0706509
51
348.7181832
0
ARC
8
DEFAULT_255_1_234
10
6.6207012
20
5.1005319
40
0.4491417
50
299.2531685
51
333.4571258
0
ARC
8
DEFAULT_255_1_234
10
6.5846152
20
5.1690828
40
0.5265881
50
278.107187
51
299.0339503
0
ARC
8
DEFAULT_255_1_234
10
6.5590231
20
5.3198216
40
0.679442
50
270.4443897
51
278.4511052
0
ARC
8
DEFAULT_255_1_234
10
6.5611061
20
5.2269213
40
0.4604407
50
269.4970433
51
284.0205042
0
ARC
8
DEFAULT_255_1_234
10
6.5966362
20
5.0903978
40
0.3193797
50
283.7700273
51
318.1555492
0
ARC
8
DEFAULT_255_1_234
10
6.562912
20
5.1156367
40
0.3613588
50
318.7415601
51
343.6873628
0
ARC
8
DEFAULT_255_1_234
10
6.3825143
20
5.1719832
40
0.5503313
50
343.3325091
51
355.8548958
0
ARC
8
DEFAULT_255_1_234
10
6.1726827
20
5.1919319
40
0.7610708
50
355.4988528
51
0.0791727
0
ARC
8
DEFAULT_255_1_234
10
6.250945
20
5.265478
40
0.6828208
50
359.6455037
51
9.8607896
0
ARC
8
DEFAULT_255_1_234
10
6.4870148
20
5.3081099
40
0.4429406
50
9.6571907
51
26.1932807
0
ARC
8
DEFAULT_255_1_234
10
6.5798137
20
5.3512118
40
0.3406537
50
26.5777228
51
40.1532208
0
ARC
8
DEFAULT_255_1_234
10
6.6053863
20
5.3711619
40
0.308246
50
40.3840491
51
80.1431104
0
ARC
8
DEFAULT_255_1_234
10
6.5726981
20
5.2262333
40
0.4566909
50
79.2152159
51
89.7445637
0
LINE
8
DEFAULT_255_1_234
10
5.1082292
20
13.7473211
11
5.1082292
21
13.6204196
0
LINE
8
DEFAULT_255_1_234
10
5.1082292
20
13.6204196
11
4.7323439
21
13.6204196
0
LINE
8
DEFAULT_255_1_234
10
4.7323439
20
13.6204196
11
4.7323439
21
12.5779
0
LINE
8
DEFAULT_255_1_234
10
4.7323439
20
12.5779
11
4.5789377
21
12.5779
0
LINE
8
DEFAULT_255_1_234
10
4.5789377
20
12.5779
11
4.5789377
21
13.6204196
0
LINE
8
DEFAULT_255_1_234
10
4.5789377
20
13.6204196
11
4.2038555
21
13.6204196
0
LINE
8
DEFAULT_255_1_234
10
4.2038555
20
13.6204196
11
4.2038555
21
13.7473211
0
LINE
8
DEFAULT_255_1_234
10
4.2038555
20
13.7473211
11
5.1082292
21
13.7473211
0
LINE
8
DEFAULT_255_1_234
10
5.3813083
20
13.7473211
11
5.6632224
21
13.2991501
0
LINE
8
DEFAULT_255_1_234
10
5.6632224
20
13.2991501
11
5.94353
21
13.7473211
0
LINE
8
DEFAULT_255_1_234
10
5.94353
20
13.7473211
11
6.1250473
21
13.7473211
0
LINE
8
DEFAULT_255_1_234
10
6.1250473
20
13.7473211
11
5.7555874
21
13.1674296
0
LINE
8
DEFAULT_255_1_234
10
5.7555874
20
13.1674296
11
6.1338822
21
12.5779
0
LINE
8
DEFAULT_255_1_234
10
6.1338822
20
12.5779
11
5.9507586
21
12.5779
0
LINE
8
DEFAULT_255_1_234
10
5.9507586
20
12.5779
11
5.6632224
21
13.0341027
0
LINE
8
DEFAULT_255_1_234
10
5.6632224
20
13.0341027
11
5.3740798
21
12.5779
0
LINE
8
DEFAULT_255_1_234
10
5.3740798
20
12.5779
11
5.1917593
21
12.5779
0
LINE
8
DEFAULT_255_1_234
10
5.1917593
20
12.5779
11
5.5708574
21
13.1674296
0
LINE
8
DEFAULT_255_1_234
10
5.5708574
20
13.1674296
11
5.2005942
21
13.7473211
0
LINE
8
DEFAULT_255_1_234
10
5.2005942
20
13.7473211
11
5.3813083
21
13.7473211
0
LINE
8
DEFAULT_255_1_234
10
6.636669
20
12.5779
11
6.31299
21
12.5779
0
LINE
8
DEFAULT_255_1_234
10
6.31299
20
12.5779
11
6.31299
21
13.7473211
0
LINE
8
DEFAULT_255_1_234
10
6.31299
20
13.7473211
11
6.6430944
21
13.7473211
0
LINE
8
DEFAULT_255_1_234
10
7.158732
20
13.2019661
11
7.158732
21
13.1272709
0
LINE
8
DEFAULT_255_1_234
10
6.6471103
20
13.6204196
11
6.4671994
21
13.6204196
0
LINE
8
DEFAULT_255_1_234
10
6.4671994
20
13.6204196
11
6.4671994
21
12.7039983
0
LINE
8
DEFAULT_255_1_234
10
6.4671994
20
12.7039983
11
6.6294405
21
12.7039983
0
LINE
8
DEFAULT_255_1_234
10
7.006129
20
13.1304836
11
7.006129
21
13.1987534
0
ARC
8
DEFAULT_255_1_234
10
6.6469887
20
13.1607894
40
0.5865446
50
75.4101064
51
90.3804066
0
ARC
8
DEFAULT_255_1_234
10
6.6699401
20
13.2564492
40
0.4881916
50
60.145586
51
75.1888407
0
ARC
8
DEFAULT_255_1_234
10
6.6858176
20
13.2841199
40
0.4562893
50
26.5253612
51
60.1450928
0
ARC
8
DEFAULT_255_1_234
10
6.5737925
20
13.2247158
40
0.5830602
50
7.4030428
51
26.8320788
0
ARC
8
DEFAULT_255_1_234
10
6.4143682
20
13.1998804
40
0.7443669
50
0.1605367
51
7.7176192
0
ARC
8
DEFAULT_255_1_234
10
6.4307586
20
13.1234434
40
0.7279835
50
348.7289388
51
0.3012466
0
ARC
8
DEFAULT_255_1_234
10
6.5964017
20
13.0905386
40
0.559104
50
333.0706509
51
348.7181832
0
ARC
8
DEFAULT_255_1_234
10
6.6930774
20
13.0380319
40
0.4491417
50
299.2531685
51
333.4571258
0
ARC
8
DEFAULT_255_1_234
10
6.6569914
20
13.1065828
40
0.5265881
50
278.107187
51
299.0339503
0
ARC
8
DEFAULT_255_1_234
10
6.6313993
20
13.2573216
40
0.679442
50
270.4443897
51
278.4511052
0
ARC
8
DEFAULT_255_1_234
10
6.6334823
20
13.1644213
40
0.4604407
50
269.4970433
51
284.0205042
0
ARC
8
DEFAULT_255_1_234
10
6.6690124
20
13.0278978
40
0.3193797
50
283.7700273
51
318.1555492
0
ARC
8
DEFAULT_255_1_234
10
6.6352882
20
13.0531367
40
0.3613588
50
318.7415601
51
343.6873628
0
ARC
8
DEFAULT_255_1_234
10
6.4548906
20
13.1094832
40
0.5503313
50
343.3325091
51
355.8548958
0
ARC
8
DEFAULT_255_1_234
10
6.245059
20
13.1294319
40
0.7610708
50
355.4988528
51
0.0791727
0
ARC
8
DEFAULT_255_1_234
10
6.3233213
20
13.202978
40
0.6828208
50
359.6455037
51
9.8607896
0
ARC
8
DEFAULT_255_1_234
10
6.559391
20
13.2456099
40
0.4429406
50
9.6571907
51
26.1932807
0
ARC
8
DEFAULT_255_1_234
10
6.6521899
20
13.2887118
40
0.3406537
50
26.5777228
51
40.1532208
0
ARC
8
DEFAULT_255_1_234
10
6.6777625
20
13.3086619
40
0.308246
50
40.3840491
51
80.1431104
0
ARC
8
DEFAULT_255_1_234
10
6.6450743
20
13.1637333
40
0.4566909
50
79.2152159
51
89.7445637
0
LINE
8
DEFAULT_255_1_234
10
4.7041392
20
20.5154
11
4.2985364
21
20.5154
0
LINE
8
DEFAULT_255_1_234
10
4.2985364
20
20.5154
11
4.2985364
21
21.6848211
0
LINE
8
DEFAULT_255_1_234
10
4.2985364
20
21.6848211
11
4.6808471
21
21.6848211
0
LINE
8
DEFAULT_255_1_234
10
4.7097614
20
21.0623614
11
4.4527458
21
21.0623614
0
LINE
8
DEFAULT_255_1_234
10
4.4527458
20
21.0623614
11
4.4527458
21
20.6414983
0
LINE
8
DEFAULT_255_1_234
10
4.4527458
20
20.6414983
11
4.7073519
21
20.6414983
0
LINE
8
DEFAULT_255_1_234
10
4.4527458
20
21.5579196
11
4.4527458
21
21.1860501
0
LINE
8
DEFAULT_255_1_234
10
4.4527458
20
21.1860501
11
4.6856662
21
21.1860501
0
LINE
8
DEFAULT_255_1_234
10
4.6808471
20
21.5579196
11
4.4527458
21
21.5579196
0
ARC
8
DEFAULT_255_1_234
10
4.684618
20
20.9480901
40
0.7367406
50
82.1257326
51
90.2932599
0
ARC
8
DEFAULT_255_1_234
10
4.7235135
20
21.2199013
40
0.4621653
50
69.9044149
51
82.2857423
0
ARC
8
DEFAULT_255_1_234
10
4.7805813
20
21.3741637
40
0.2976871
50
51.1838526
51
70.0181538
0
ARC
8
DEFAULT_255_1_234
10
4.8060779
20
21.411224
40
0.2528517
50
12.1017251
51
50.4214761
0
ARC
8
DEFAULT_255_1_234
10
4.6676653
20
21.3764676
40
0.3955061
50
359.5251267
51
12.8211707
0
ARC
8
DEFAULT_255_1_234
10
4.8256579
20
21.3695344
40
0.2375281
50
323.4908128
51
0.8817314
0
ARC
8
DEFAULT_255_1_234
10
4.7838266
20
21.401855
40
0.2903817
50
298.6825083
51
323.2756573
0
ARC
8
DEFAULT_255_1_234
10
4.7476629
20
21.4619649
40
0.3604842
50
293.1999386
51
299.1396394
0
ARC
8
DEFAULT_255_1_234
10
4.8149602
20
20.8534126
40
0.2871098
50
54.0011765
51
74.9167975
0
ARC
8
DEFAULT_255_1_234
10
4.8265961
20
20.8731332
40
0.2643248
50
36.3580696
51
53.5291921
0
ARC
8
DEFAULT_255_1_234
10
4.8139203
20
20.8640998
40
0.2798884
50
4.8189881
51
36.3089977
0
ARC
8
DEFAULT_255_1_234
10
4.7360038
20
20.853127
40
0.358478
50
359.9370252
51
5.5204067
0
ARC
8
DEFAULT_255_1_234
10
4.703556
20
20.8490667
40
0.3909429
50
344.7478609
51
0.5373281
0
ARC
8
DEFAULT_255_1_234
10
4.8026531
20
20.8223544
40
0.2883093
50
311.1786488
51
344.6886812
0
ARC
8
DEFAULT_255_1_234
10
4.7734578
20
20.8586987
40
0.3348923
50
286.0418249
51
310.8441291
0
ARC
8
DEFAULT_255_1_234
10
4.722741
20
21.0233807
40
0.5071869
50
274.1042341
51
286.4071509
0
ARC
8
DEFAULT_255_1_234
10
4.7050666
20
21.2117229
40
0.6963234
50
269.9236873
51
274.445647
0
ARC
8
DEFAULT_255_1_234
10
4.7096667
20
20.9777537
40
0.3362634
50
269.6055768
51
281.3740047
0
ARC
8
DEFAULT_255_1_234
10
4.7327305
20
20.8684353
40
0.224546
50
281.1055983
51
302.5132223
0
ARC
8
DEFAULT_255_1_234
10
4.7474204
20
20.8420823
40
0.1944357
50
303.0368945
51
311.8811219
0
ARC
8
DEFAULT_255_1_234
10
4.7545611
20
20.833589
40
0.1833454
50
311.9916004
51
351.7143462
0
ARC
8
DEFAULT_255_1_234
10
4.6728841
20
20.850093
40
0.2665871
50
350.7339597
51
0.2221581
0
ARC
8
DEFAULT_255_1_234
10
4.6621287
20
20.8557467
40
0.2773789
50
359.0456241
51
17.2296242
0
ARC
8
DEFAULT_255_1_234
10
4.7660404
20
20.8866163
40
0.1689915
50
17.6685481
51
78.9940892
0
ARC
8
DEFAULT_255_1_234
10
4.7143568
20
20.7011224
40
0.3612658
50
76.5635957
51
90.6980921
0
LINE
8
DEFAULT_255_1_234
10
4.7099552
20
21.0623613
11
4.7097614
21
21.0623614
0
ARC
8
DEFAULT_255_1_234
10
4.6879228
20
21.5146036
40
0.3285612
50
269.6064736
51
281.4533503
0
ARC
8
DEFAULT_255_1_234
10
4.7102048
20
21.4094688
40
0.2210975
50
281.2041486
51
302.5148063
0
ARC
8
DEFAULT_255_1_234
10
4.7238898
20
21.3848241
40
0.1929674
50
303.021671
51
309.8369575
0
ARC
8
DEFAULT_255_1_234
10
4.7422359
20
21.3642488
40
0.1654181
50
309.5228395
51
356.9509836
0
ARC
8
DEFAULT_255_1_234
10
4.6758942
20
21.3737932
40
0.2322512
50
355.4701227
51
0.0492546
0
ARC
8
DEFAULT_255_1_234
10
4.6480033
20
21.3760094
40
0.2601498
50
359.5558597
51
11.2096359
0
ARC
8
DEFAULT_255_1_234
10
4.7437323
20
21.395823
40
0.1623975
50
10.9182341
51
31.3230275
0
ARC
8
DEFAULT_255_1_234
10
4.7723056
20
21.4117214
40
0.1297302
50
31.8852677
51
52.1412565
0
ARC
8
DEFAULT_255_1_234
10
4.7448789
20
21.372975
40
0.1771663
50
52.8285564
51
71.9850297
0
ARC
8
DEFAULT_255_1_234
10
4.7072965
20
21.2623664
40
0.2939794
50
71.6863486
51
82.8455995
0
ARC
8
DEFAULT_255_1_234
10
4.6833501
20
21.0814149
40
0.476506
50
82.6984714
51
90.1729175
0
ARC
8
DEFAULT_255_1_234
10
4.6811136
20
21.2037623
40
0.3541573
50
89.8708275
51
90.0431131
0
LINE
8
DEFAULT_255_1_234
10
5.9908236
20
21.6848211
11
6.1458362
21
21.6848211
0
LINE
8
DEFAULT_255_1_234
10
6.1458362
20
21.6848211
11
6.1458362
21
20.889679
0
LINE
8
DEFAULT_255_1_234
10
5.7619191
20
20.5009429
11
5.7209572
21
20.4993365
0
LINE
8
DEFAULT_255_1_234
10
5.299291
20
20.8880727
11
5.299291
21
21.6848211
0
LINE
8
DEFAULT_255_1_234
10
5.299291
20
21.6848211
11
5.451894
21
21.6848211
0
LINE
8
DEFAULT_255_1_234
10
5.451894
20
21.6848211
11
5.451894
21
20.8928917
0
LINE
8
DEFAULT_255_1_234
10
5.9908236
20
20.8920885
11
5.9908236
21
21.6848211
0
ARC
8
DEFAULT_255_1_234
10
5.710526
20
20.8876928
40
0.4353147
50
343.0898354
51
0.2614217
0
ARC
8
DEFAULT_255_1_234
10
5.7933662
20
20.8645837
40
0.3493402
50
315.3345598
51
342.7641223
0
ARC
8
DEFAULT_255_1_234
10
5.771011
20
20.8877682
40
0.3815385
50
284.6606969
51
315.2182466
0
ARC
8
DEFAULT_255_1_234
10
5.7254823
20
21.0423755
40
0.5426573
50
273.8500273
51
285.1797701
0
ARC
8
DEFAULT_255_1_234
10
5.7166874
20
21.0765475
40
0.5772268
50
257.6317484
51
270.4238298
0
ARC
8
DEFAULT_255_1_234
10
5.6742072
20
20.8944198
40
0.3902347
50
230.6087562
51
257.9964012
0
ARC
8
DEFAULT_255_1_234
10
5.6610074
20
20.8737802
40
0.3659186
50
227.7440991
51
230.1551448
0
ARC
8
DEFAULT_255_1_234
10
5.6475905
20
20.8576471
40
0.3449568
50
189.2524587
51
227.5916061
0
ARC
8
DEFAULT_255_1_234
10
5.7997592
20
20.8904013
40
0.5004737
50
180.2665968
51
190.1525252
0
ARC
8
DEFAULT_255_1_234
10
5.8219612
20
20.8900918
40
0.3700778
50
179.5665184
51
191.9952995
0
ARC
8
DEFAULT_255_1_234
10
5.6991718
20
20.8627043
40
0.2442808
50
191.6974072
51
215.1404042
0
ARC
8
DEFAULT_255_1_234
10
5.6753633
20
20.8485108
40
0.2166522
50
215.6950207
51
224.8513522
0
ARC
8
DEFAULT_255_1_234
10
5.6809376
20
20.8564697
40
0.2262237
50
225.2846858
51
255.0111758
0
ARC
8
DEFAULT_255_1_234
10
5.7133336
20
20.9678455
40
0.3421979
50
254.5944985
51
267.9129803
0
ARC
8
DEFAULT_255_1_234
10
5.7207817
20
21.0762903
40
0.4508556
50
267.4689655
51
270.0223026
0
ARC
8
DEFAULT_255_1_234
10
5.7237963
20
21.0173849
40
0.3919604
50
269.5849941
51
281.1843768
0
ARC
8
DEFAULT_255_1_234
10
5.7516727
20
20.8821059
40
0.2538457
50
280.9344262
51
300.9743589
0
ARC
8
DEFAULT_255_1_234
10
5.7729333
20
20.8429688
40
0.2093566
50
301.4980046
51
315.1466847
0
ARC
8
DEFAULT_255_1_234
10
5.7584871
20
20.8548236
40
0.2279656
50
315.5952539
51
345.6678731
0
ARC
8
DEFAULT_255_1_234
10
5.6465388
20
20.8860009
40
0.3441564
50
345.2524969
51
358.6304371
0
ARC
8
DEFAULT_255_1_234
10
5.5447741
20
20.8919916
40
0.4460494
50
358.1735671
51
0.0124524
0
LINE
8
DEFAULT_255_1_234
10
7.1650638
20
21.3466849
11
7.0100512
21
21.3466849
0
LINE
8
DEFAULT_255_1_234
10
6.3177154
20
20.8543394
11
6.4727279
21
20.8543394
0
ARC
8
DEFAULT_255_1_234
10
7.0759325
20
22.2413768
40
1.252368
50
248.9199003
51
254.1439814
0
ARC
8
DEFAULT_255_1_234
10
6.907882
20
21.8087234
40
0.788226
50
241.633709
51
249.0064503
0
ARC
8
DEFAULT_255_1_234
10
6.7550214
20
21.5286317
40
0.4691427
50
230.498225
51
241.8087113
0
ARC
8
DEFAULT_255_1_234
10
6.6765789
20
21.4286906
40
0.3421437
50
227.4064532
51
229.9881192
0
ARC
8
DEFAULT_255_1_234
10
6.6278309
20
21.3811088
40
0.2741476
50
200.6781896
51
228.1763934
0
ARC
8
DEFAULT_255_1_234
10
6.635062
20
21.3796077
40
0.2804109
50
179.5061581
51
199.8694617
0
ARC
8
DEFAULT_255_1_234
10
6.6341371
20
21.387021
40
0.2795204
50
132.4834203
51
181.0242172
0
ARC
8
DEFAULT_255_1_234
10
6.6936954
20
21.3307704
40
0.3612768
50
129.2532479
51
133.4242687
0
ARC
8
DEFAULT_255_1_234
10
6.7083403
20
21.3087965
40
0.3875675
50
101.98776
51
128.8742646
0
ARC
8
DEFAULT_255_1_234
10
6.7482014
20
21.1366741
40
0.5642249
50
89.5906553
51
102.3169264
0
ARC
8
DEFAULT_255_1_234
10
6.7552506
20
21.1685148
40
0.5323783
50
77.2360837
51
90.3248275
0
ARC
8
DEFAULT_255_1_234
10
6.7759585
20
21.26524
40
0.4334697
50
63.837784
51
77.0809408
0
ARC
8
DEFAULT_255_1_234
10
6.8037347
20
21.3169911
40
0.3747796
50
45.9864267
51
64.1607727
0
ARC
8
DEFAULT_255_1_234
10
6.8298228
20
21.3467866
40
0.3352302
50
32.2747395
51
45.6547121
0
ARC
8
DEFAULT_255_1_234
10
6.8364669
20
21.348688
40
0.328603
50
359.6507365
51
32.6130309
0
ARC
8
DEFAULT_255_1_234
10
6.7421764
20
21.349166
40
0.2678863
50
359.469343
51
14.9832209
0
ARC
8
DEFAULT_255_1_234
10
6.8126827
20
21.3680539
40
0.1948938
50
14.9781179
51
48.2004265
0
ARC
8
DEFAULT_255_1_234
10
6.7962471
20
21.3473983
40
0.2212521
50
48.5927837
51
74.1241538
0
ARC
8
DEFAULT_255_1_234
10
6.762896
20
21.2373248
40
0.3362561
50
73.7888341
51
86.6652678
0
ARC
8
DEFAULT_255_1_234
10
6.7526526
20
21.1165881
40
0.4573953
50
86.2640471
51
90.0526343
0
ARC
8
DEFAULT_255_1_234
10
6.7498239
20
21.1561192
40
0.4178709
50
89.6697524
51
99.2309573
0
ARC
8
DEFAULT_255_1_234
10
6.725569
20
21.3005964
40
0.2713749
50
99.069534
51
113.7658566
0
ARC
8
DEFAULT_255_1_234
10
6.6981881
20
21.3651677
40
0.2012469
50
114.0401004
51
127.9850673
0
ARC
8
DEFAULT_255_1_234
10
6.6741445
20
21.394773
40
0.1631167
50
127.7287463
51
176.7105154
0
ARC
8
DEFAULT_255_1_234
10
6.7420162
20
21.3846693
40
0.2315392
50
175.1779447
51
180.0581938
0
ARC
8
DEFAULT_255_1_234
10
6.6577009
20
21.3834428
40
0.1472271
50
179.6142195
51
228.1246017
0
ARC
8
DEFAULT_255_1_234
10
6.7018678
20
21.4243308
40
0.2072299
50
226.5779593
51
230.8800004
0
ARC
8
DEFAULT_255_1_234
10
6.7489756
20
21.4868636
40
0.2854818
50
231.4635071
51
241.9260842
0
ARC
8
DEFAULT_255_1_234
10
6.8686934
20
21.70718
40
0.53622
50
241.7178533
51
248.3259551
0
ARC
8
DEFAULT_255_1_234
10
7.0072306
20
22.0504064
40
0.9063478
50
248.2007737
51
252.4528373
0
ARC
8
DEFAULT_255_1_234
10
7.1276031
20
22.4225441
40
1.2974635
50
252.3391078
51
254.3469452
0
ARC
8
DEFAULT_255_1_234
10
6.3733733
20
19.7248148
40
1.5037162
50
71.0197183
51
74.4087047
0
ARC
8
DEFAULT_255_1_234
10
6.5428419
20
20.2140111
40
0.9859993
50
66.1847285
51
71.086374
0
ARC
8
DEFAULT_255_1_234
10
6.6984731
20
20.56442
40
0.6025855
50
59.3536294
51
66.2691831
0
ARC
8
DEFAULT_255_1_234
10
6.7873383
20
20.7147609
40
0.4279449
50
49.1020879
51
59.3293958
0
ARC
8
DEFAULT_255_1_234
10
6.8692123
20
20.8080834
40
0.3038015
50
32.7919921
51
49.2505539
0
ARC
8
DEFAULT_255_1_234
10
6.9013213
20
20.8309191
40
0.264448
50
31.1181161
51
32.4005348
0
ARC
8
DEFAULT_255_1_234
10
6.8924751
20
20.8273779
40
0.2738556
50
8.1116974
51
30.7958831
0
ARC
8
DEFAULT_255_1_234
10
6.8114419
20
20.8135753
40
0.3560327
50
359.8389159
51
8.4706516
0
ARC
8
DEFAULT_255_1_234
10
6.8740211
20
20.8087137
40
0.2934776
50
337.4731098
51
0.7537279
0
ARC
8
DEFAULT_255_1_234
10
6.8918905
20
20.8067387
40
0.2762607
50
307.5917067
51
336.4315538
0
ARC
8
DEFAULT_255_1_234
10
6.8458733
20
20.8580102
40
0.3449979
50
307.6551545
51
308.4529766
0
ARC
8
DEFAULT_255_1_234
10
6.8228452
20
20.893525
40
0.3871988
50
284.3734338
51
307.1424381
0
ARC
8
DEFAULT_255_1_234
10
6.7733282
20
21.0756932
40
0.5759636
50
272.4382747
51
284.646547
0
ARC
8
DEFAULT_255_1_234
10
6.7606491
20
21.2556893
40
0.7563528
50
269.9708387
51
272.8178037
0
ARC
8
DEFAULT_255_1_234
10
6.7563531
20
21.0518716
40
0.5525489
50
248.2707594
51
270.4055579
0
ARC
8
DEFAULT_255_1_234
10
6.7509272
20
21.0328192
40
0.5328452
50
246.1383403
51
248.0542782
0
ARC
8
DEFAULT_255_1_234
10
6.7090651
20
20.9448843
40
0.4355005
50
233.1670131
51
246.4950969
0
ARC
8
DEFAULT_255_1_234
10
6.6536556
20
20.8700812
40
0.3424126
50
215.3403242
51
233.0843104
0
ARC
8
DEFAULT_255_1_234
10
6.6263987
20
20.8502549
40
0.3087104
50
179.2419209
51
215.2648451
0
ARC
8
DEFAULT_255_1_234
10
6.7031581
20
20.8516666
40
0.2304457
50
179.335461
51
199.1045811
0
ARC
8
DEFAULT_255_1_234
10
6.6699258
20
20.8429766
40
0.1962176
50
199.8828939
51
232.7063202
0
ARC
8
DEFAULT_255_1_234
10
6.7171526
20
20.9023788
40
0.2720938
50
232.3738199
51
255.5136649
0
ARC
8
DEFAULT_255_1_234
10
6.7512393
20
21.0267835
40
0.4010747
50
255.2446292
51
267.5320849
0
ARC
8
DEFAULT_255_1_234
10
6.7600016
20
21.1500702
40
0.5246356
50
267.1557994
51
270.0286766
0
ARC
8
DEFAULT_255_1_234
10
6.7627788
20
21.105695
40
0.4802668
50
269.7000017
51
278.1660162
0
ARC
8
DEFAULT_255_1_234
10
6.7883793
20
20.9326515
40
0.3053425
50
278.0231263
51
290.625471
0
ARC
8
DEFAULT_255_1_234
10
6.823148
20
20.8399025
40
0.206291
50
290.6619762
51
307.0370976
0
ARC
8
DEFAULT_255_1_234
10
6.8531869
20
20.8030504
40
0.1587906
50
306.3943566
51
355.3030547
0
ARC
8
DEFAULT_255_1_234
10
6.8019801
20
20.8107113
40
0.2104809
50
354.3660432
51
0.0698737
0
ARC
8
DEFAULT_255_1_234
10
6.8162146
20
20.8129617
40
0.1962563
50
359.417946
51
16.1971788
0
ARC
8
DEFAULT_255_1_234
10
6.8617456
20
20.8254418
40
0.149053
50
16.4723299
51
52.6262157
0
ARC
8
DEFAULT_255_1_234
10
6.779651
20
20.7170433
40
0.2850296
50
52.7386432
51
62.4979148
0
ARC
8
DEFAULT_255_1_234
10
6.6411587
20
20.4564283
40
0.5801521
50
62.2515216
51
68.1220564
0
ARC
8
DEFAULT_255_1_234
10
6.4691498
20
20.0336872
40
1.0365451
50
68.0062803
51
71.8053402
0
ARC
8
DEFAULT_255_1_234
10
6.289587
20
19.4951758
40
1.6042013
50
71.7183119
51
73.9258742
0
LINE
8
DEFAULT_255_1_234
10
8.0927295
20
20.6366792
11
8.0927295
21
20.5154
0
LINE
8
DEFAULT_255_1_234
10
8.0927295
20
20.5154
11
7.3265017
21
20.5154
0
LINE
8
DEFAULT_255_1_234
10
7.3265017
20
20.5154
11
7.3265017
21
20.6222221
0
LINE
8
DEFAULT_255_1_234
10
7.3265017
20
20.6222221
11
7.7313013
21
21.0719995
0
LINE
8
DEFAULT_255_1_234
10
7.4526
20
21.3402595
11
7.3040128
21
21.3402595
0
LINE
8
DEFAULT_255_1_234
10
7.8188473
20
20.9764218
11
7.5056095
21
20.6366792
0
LINE
8
DEFAULT_255_1_234
10
7.5056095
20
20.6366792
11
8.0927295
21
20.6366792
0
ARC
8
DEFAULT_255_1_234
10
6.3822846
20
22.2649527
40
1.8008286
50
318.5132453
51
320.7828378
0
ARC
8
DEFAULT_255_1_234
10
6.9109821
20
21.8346426
40
1.1191493
50
320.7372736
51
323.9737074
0
ARC
8
DEFAULT_255_1_234
10
7.3029677
20
21.5506361
40
0.6350923
50
323.8961724
51
328.6421089
0
ARC
8
DEFAULT_255_1_234
10
7.5076273
20
21.4244031
40
0.3946393
50
328.8299013
51
331.789948
0
ARC
8
DEFAULT_255_1_234
10
7.6073451
20
21.3729509
40
0.2824501
50
331.4255242
51
352.9364833
0
ARC
8
DEFAULT_255_1_234
10
7.6209952
20
21.3698976
40
0.2685315
50
353.2248685
51
0.0169286
0
ARC
8
DEFAULT_255_1_234
10
7.6419829
20
21.372195
40
0.2475536
50
359.4866256
51
15.9339782
0
ARC
8
DEFAULT_255_1_234
10
7.6926814
20
21.3858286
40
0.1950618
50
16.1714718
51
43.5284424
0
ARC
8
DEFAULT_255_1_234
10
7.7004122
20
21.3935573
40
0.184134
50
43.4415429
51
83.1661404
0
ARC
8
DEFAULT_255_1_234
10
7.6870041
20
21.3198771
40
0.258926
50
82.160215
51
90.1505798
0
ARC
8
DEFAULT_255_1_234
10
7.6838468
20
21.2661865
40
0.3126255
50
89.5460705
51
102.5418777
0
ARC
8
DEFAULT_255_1_234
10
7.6595554
20
21.3692665
40
0.2067346
50
102.1739365
51
129.2061916
0
ARC
8
DEFAULT_255_1_234
10
7.6516626
20
21.3817094
40
0.1921118
50
129.7279328
51
135.7542026
0
ARC
8
DEFAULT_255_1_234
10
7.6638153
20
21.3720045
40
0.2075944
50
136.175737
51
166.3674722
0
ARC
8
DEFAULT_255_1_234
10
7.7645073
20
21.3450182
40
0.3118201
50
165.9092917
51
178.8683903
0
ARC
8
DEFAULT_255_1_234
10
7.8509934
20
21.3403179
40
0.3983935
50
178.438168
51
180.0083905
0
ARC
8
DEFAULT_255_1_234
10
7.7108536
20
21.3442231
40
0.4068601
50
163.2878735
51
180.5581814
0
ARC
8
DEFAULT_255_1_234
10
7.6306797
20
21.366284
40
0.3237344
50
133.454115
51
162.9470031
0
ARC
8
DEFAULT_255_1_234
10
7.6485339
20
21.3473
40
0.349795
50
100.7869394
51
133.4384016
0
ARC
8
DEFAULT_255_1_234
10
7.683311
20
21.1924319
40
0.5084616
50
89.6605301
51
101.3704185
0
ARC
8
DEFAULT_255_1_234
10
7.6899449
20
21.1985496
40
0.502348
50
78.2171172
51
90.4130393
0
ARC
8
DEFAULT_255_1_234
10
7.7254528
20
21.3609637
40
0.3361092
50
55.9268222
51
78.4888551
0
ARC
8
DEFAULT_255_1_234
10
7.7450968
20
21.3948324
40
0.2970617
50
47.9292255
51
55.4054003
0
ARC
8
DEFAULT_255_1_234
10
7.7552528
20
21.4051502
40
0.2825983
50
4.3347696
51
48.0560701
0
ARC
8
DEFAULT_255_1_234
10
7.6456922
20
21.3881601
40
0.393225
50
359.925209
51
5.5967654
0
ARC
8
DEFAULT_255_1_234
10
7.6885814
20
21.3937816
40
0.3503892
50
337.8914096
51
358.9967724
0
ARC
8
DEFAULT_255_1_234
10
7.4172226
20
21.4984706
40
0.6412172
50
326.9135351
51
338.3505194
0
ARC
8
DEFAULT_255_1_234
10
7.018653
20
21.7539284
40
1.1146189
50
319.6472867
51
327.095818
0
ARC
8
DEFAULT_255_1_234
10
6.6353533
20
22.0701
40
1.6114559
50
317.2586784
51
319.9046139
0
LINE
8
DEFAULT_255_1_234
10
8.9336525
20
21.1579391
11
8.9336525
21
21.0318408
0
LINE
8
DEFAULT_255_1_234
10
8.9336525
20
21.0318408
11
8.4429133
21
21.0318408
0
LINE
8
DEFAULT_255_1_234
10
8.4429133
20
21.0318408
11
8.4429133
21
20.5154
0
LINE
8
DEFAULT_255_1_234
10
8.4429133
20
20.5154
11
8.288704
21
20.5154
0
LINE
8
DEFAULT_255_1_234
10
8.288704
20
20.5154
11
8.288704
21
21.6848211
0
LINE
8
DEFAULT_255_1_234
10
8.288704
20
21.6848211
11
9.0131667
21
21.6848211
0
LINE
8
DEFAULT_255_1_234
10
9.0131667
20
21.6848211
11
9.0131667
21
21.5579196
0
LINE
8
DEFAULT_255_1_234
10
9.0131667
20
21.5579196
11
8.4429133
21
21.5579196
0
LINE
8
DEFAULT_255_1_234
10
8.4429133
20
21.5579196
11
8.4429133
21
21.1579391
0
LINE
8
DEFAULT_255_1_234
10
8.4429133
20
21.1579391
11
8.9336525
21
21.1579391
0
LINE
8
DEFAULT_255_1_234
10
4.7041392
20
28.4529
11
4.2985364
21
28.4529
0
LINE
8
DEFAULT_255_1_234
10
4.2985364
20
28.4529
11
4.2985364
21
29.6223211
0
LINE
8
DEFAULT_255_1_234
10
4.2985364
20
29.6223211
11
4.6808471
21
29.6223211
0
LINE
8
DEFAULT_255_1_234
10
4.7097614
20
28.9998614
11
4.4527458
21
28.9998614
0
LINE
8
DEFAULT_255_1_234
10
4.4527458
20
28.9998614
11
4.4527458
21
28.5789983
0
LINE
8
DEFAULT_255_1_234
10
4.4527458
20
28.5789983
11
4.7073519
21
28.5789983
0
LINE
8
DEFAULT_255_1_234
10
4.4527458
20
29.4954196
11
4.4527458
21
29.1235501
0
LINE
8
DEFAULT_255_1_234
10
4.4527458
20
29.1235501
11
4.6856662
21
29.1235501
0
LINE
8
DEFAULT_255_1_234
10
4.6808471
20
29.4954196
11
4.4527458
21
29.4954196
0
ARC
8
DEFAULT_255_1_234
10
4.684618
20
28.8855901
40
0.7367406
50
82.1257326
51
90.2932599
0
ARC
8
DEFAULT_255_1_234
10
4.7235135
20
29.1574013
40
0.4621653
50
69.9044149
51
82.2857423
0
ARC
8
DEFAULT_255_1_234
10
4.7805813
20
29.3116637
40
0.2976871
50
51.1838526
51
70.0181538
0
ARC
8
DEFAULT_255_1_234
10
4.8060779
20
29.348724
40
0.2528517
50
12.1017251
51
50.4214761
0
ARC
8
DEFAULT_255_1_234
10
4.6676653
20
29.3139676
40
0.3955061
50
359.5251267
51
12.8211707
0
ARC
8
DEFAULT_255_1_234
10
4.8256579
20
29.3070344
40
0.2375281
50
323.4908128
51
0.8817314
0
ARC
8
DEFAULT_255_1_234
10
4.7838266
20
29.339355
40
0.2903817
50
298.6825083
51
323.2756573
0
ARC
8
DEFAULT_255_1_234
10
4.7476629
20
29.3994649
40
0.3604842
50
293.1999386
51
299.1396394
0
ARC
8
DEFAULT_255_1_234
10
4.8149602
20
28.7909126
40
0.2871098
50
54.0011765
51
74.9167975
0
ARC
8
DEFAULT_255_1_234
10
4.8265961
20
28.8106332
40
0.2643248
50
36.3580696
51
53.5291921
0
ARC
8
DEFAULT_255_1_234
10
4.8139203
20
28.8015998
40
0.2798884
50
4.8189881
51
36.3089977
0
ARC
8
DEFAULT_255_1_234
10
4.7360038
20
28.790627
40
0.358478
50
359.9370252
51
5.5204067
0
ARC
8
DEFAULT_255_1_234
10
4.703556
20
28.7865667
40
0.3909429
50
344.7478609
51
0.5373281
0
ARC
8
DEFAULT_255_1_234
10
4.8026531
20
28.7598544
40
0.2883093
50
311.1786488
51
344.6886812
0
ARC
8
DEFAULT_255_1_234
10
4.7734578
20
28.7961987
40
0.3348923
50
286.0418249
51
310.8441291
0
ARC
8
DEFAULT_255_1_234
10
4.722741
20
28.9608807
40
0.5071869
50
274.1042341
51
286.4071509
0
ARC
8
DEFAULT_255_1_234
10
4.7050666
20
29.1492229
40
0.6963234
50
269.9236873
51
274.445647
0
ARC
8
DEFAULT_255_1_234
10
4.7096667
20
28.9152537
40
0.3362634
50
269.6055768
51
281.3740047
0
ARC
8
DEFAULT_255_1_234
10
4.7327305
20
28.8059353
40
0.224546
50
281.1055983
51
302.5132223
0
ARC
8
DEFAULT_255_1_234
10
4.7474204
20
28.7795823
40
0.1944357
50
303.0368945
51
311.8811219
0
ARC
8
DEFAULT_255_1_234
10
4.7545611
20
28.771089
40
0.1833454
50
311.9916004
51
351.7143462
0
ARC
8
DEFAULT_255_1_234
10
4.6728841
20
28.787593
40
0.2665871
50
350.7339597
51
0.2221581
0
ARC
8
DEFAULT_255_1_234
10
4.6621287
20
28.7932467
40
0.2773789
50
359.0456241
51
17.2296242
0
ARC
8
DEFAULT_255_1_234
10
4.7660404
20
28.8241163
40
0.1689915
50
17.6685481
51
78.9940892
0
ARC
8
DEFAULT_255_1_234
10
4.7143568
20
28.6386224
40
0.3612658
50
76.5635957
51
90.6980921
0
LINE
8
DEFAULT_255_1_234
10
4.7099552
20
28.9998613
11
4.7097614
21
28.9998614
0
ARC
8
DEFAULT_255_1_234
10
4.6879228
20
29.4521036
40
0.3285612
50
269.6064736
51
281.4533503
0
ARC
8
DEFAULT_255_1_234
10
4.7102048
20
29.3469688
40
0.2210975
50
281.2041486
51
302.5148063
0
ARC
8
DEFAULT_255_1_234
10
4.7238898
20
29.3223241
40
0.1929674
50
303.021671
51
309.8369575
0
ARC
8
DEFAULT_255_1_234
10
4.7422359
20
29.3017488
40
0.1654181
50
309.5228395
51
356.9509836
0
ARC
8
DEFAULT_255_1_234
10
4.6758942
20
29.3112932
40
0.2322512
50
355.4701227
51
0.0492546
0
ARC
8
DEFAULT_255_1_234
10
4.6480033
20
29.3135094
40
0.2601498
50
359.5558597
51
11.2096359
0
ARC
8
DEFAULT_255_1_234
10
4.7437323
20
29.333323
40
0.1623975
50
10.9182341
51
31.3230275
0
ARC
8
DEFAULT_255_1_234
10
4.7723056
20
29.3492214
40
0.1297302
50
31.8852677
51
52.1412565
0
ARC
8
DEFAULT_255_1_234
10
4.7448789
20
29.310475
40
0.1771663
50
52.8285564
51
71.9850297
0
ARC
8
DEFAULT_255_1_234
10
4.7072965
20
29.1998664
40
0.2939794
50
71.6863486
51
82.8455995
0
ARC
8
DEFAULT_255_1_234
10
4.6833501
20
29.0189149
40
0.476506
50
82.6984714
51
90.1729175
0
ARC
8
DEFAULT_255_1_234
10
4.6811136
20
29.1412623
40
0.3541573
50
89.8708275
51
90.0431131
0
LINE
8
DEFAULT_255_1_234
10
5.9908236
20
29.6223211
11
6.1458362
21
29.6223211
0
LINE
8
DEFAULT_255_1_234
10
6.1458362
20
29.6223211
11
6.1458362
21
28.827179
0
LINE
8
DEFAULT_255_1_234
10
5.7619191
20
28.4384429
11
5.7209572
21
28.4368365
0
LINE
8
DEFAULT_255_1_234
10
5.299291
20
28.8255727
11
5.299291
21
29.6223211
0
LINE
8
DEFAULT_255_1_234
10
5.299291
20
29.6223211
11
5.451894
21
29.6223211
0
LINE
8
DEFAULT_255_1_234
10
5.451894
20
29.6223211
11
5.451894
21
28.8303917
0
LINE
8
DEFAULT_255_1_234
10
5.9908236
20
28.8295885
11
5.9908236
21
29.6223211
0
ARC
8
DEFAULT_255_1_234
10
5.710526
20
28.8251928
40
0.4353147
50
343.0898354
51
0.2614217
0
ARC
8
DEFAULT_255_1_234
10
5.7933662
20
28.8020837
40
0.3493402
50
315.3345598
51
342.7641223
0
ARC
8
DEFAULT_255_1_234
10
5.771011
20
28.8252682
40
0.3815385
50
284.6606969
51
315.2182466
0
ARC
8
DEFAULT_255_1_234
10
5.7254823
20
28.9798755
40
0.5426573
50
273.8500273
51
285.1797701
0
ARC
8
DEFAULT_255_1_234
10
5.7166874
20
29.0140475
40
0.5772268
50
257.6317484
51
270.4238298
0
ARC
8
DEFAULT_255_1_234
10
5.6742072
20
28.8319198
40
0.3902347
50
230.6087562
51
257.9964012
0
ARC
8
DEFAULT_255_1_234
10
5.6610074
20
28.8112802
40
0.3659186
50
227.7440991
51
230.1551448
0
ARC
8
DEFAULT_255_1_234
10
5.6475905
20
28.7951471
40
0.3449568
50
189.2524587
51
227.5916061
0
ARC
8
DEFAULT_255_1_234
10
5.7997592
20
28.8279013
40
0.5004737
50
180.2665968
51
190.1525252
0
ARC
8
DEFAULT_255_1_234
10
5.8219612
20
28.8275918
40
0.3700778
50
179.5665184
51
191.9952995
0
ARC
8
DEFAULT_255_1_234
10
5.6991718
20
28.8002043
40
0.2442808
50
191.6974072
51
215.1404042
0
ARC
8
DEFAULT_255_1_234
10
5.6753633
20
28.7860108
40
0.2166522
50
215.6950207
51
224.8513522
0
ARC
8
DEFAULT_255_1_234
10
5.6809376
20
28.7939697
40
0.2262237
50
225.2846858
51
255.0111758
0
ARC
8
DEFAULT_255_1_234
10
5.7133336
20
28.9053455
40
0.3421979
50
254.5944985
51
267.9129803
0
ARC
8
DEFAULT_255_1_234
10
5.7207817
20
29.0137903
40
0.4508556
50
267.4689655
51
270.0223026
0
ARC
8
DEFAULT_255_1_234
10
5.7237963
20
28.9548849
40
0.3919604
50
269.5849941
51
281.1843768
0
ARC
8
DEFAULT_255_1_234
10
5.7516727
20
28.8196059
40
0.2538457
50
280.9344262
51
300.9743589
0
ARC
8
DEFAULT_255_1_234
10
5.7729333
20
28.7804688
40
0.2093566
50
301.4980046
51
315.1466847
0
ARC
8
DEFAULT_255_1_234
10
5.7584871
20
28.7923236
40
0.2279656
50
315.5952539
51
345.6678731
0
ARC
8
DEFAULT_255_1_234
10
5.6465388
20
28.8235009
40
0.3441564
50
345.2524969
51
358.6304371
0
ARC
8
DEFAULT_255_1_234
10
5.5447741
20
28.8294916
40
0.4460494
50
358.1735671
51
0.0124524
0
LINE
8
DEFAULT_255_1_234
10
7.1650638
20
29.2841849
11
7.0100512
21
29.2841849
0
LINE
8
DEFAULT_255_1_234
10
6.3177154
20
28.7918394
11
6.4727279
21
28.7918394
0
ARC
8
DEFAULT_255_1_234
10
7.0759325
20
30.1788768
40
1.252368
50
248.9199003
51
254.1439814
0
ARC
8
DEFAULT_255_1_234
10
6.907882
20
29.7462234
40
0.788226
50
241.633709
51
249.0064503
0
ARC
8
DEFAULT_255_1_234
10
6.7550214
20
29.4661317
40
0.4691427
50
230.498225
51
241.8087113
0
ARC
8
DEFAULT_255_1_234
10
6.6765789
20
29.3661906
40
0.3421437
50
227.4064532
51
229.9881192
0
ARC
8
DEFAULT_255_1_234
10
6.6278309
20
29.3186088
40
0.2741476
50
200.6781896
51
228.1763934
0
ARC
8
DEFAULT_255_1_234
10
6.635062
20
29.3171077
40
0.2804109
50
179.5061581
51
199.8694617
0
ARC
8
DEFAULT_255_1_234
10
6.6341371
20
29.324521
40
0.2795204
50
132.4834203
51
181.0242172
0
ARC
8
DEFAULT_255_1_234
10
6.6936954
20
29.2682704
40
0.3612768
50
129.2532479
51
133.4242687
0
ARC
8
DEFAULT_255_1_234
10
6.7083403
20
29.2462965
40
0.3875675
50
101.98776
51
128.8742646
0
ARC
8
DEFAULT_255_1_234
10
6.7482014
20
29.0741741
40
0.5642249
50
89.5906553
51
102.3169264
0
ARC
8
DEFAULT_255_1_234
10
6.7552506
20
29.1060148
40
0.5323783
50
77.2360837
51
90.3248275
0
ARC
8
DEFAULT_255_1_234
10
6.7759585
20
29.20274
40
0.4334697
50
63.837784
51
77.0809408
0
ARC
8
DEFAULT_255_1_234
10
6.8037347
20
29.2544911
40
0.3747796
50
45.9864267
51
64.1607727
0
ARC
8
DEFAULT_255_1_234
10
6.8298228
20
29.2842866
40
0.3352302
50
32.2747395
51
45.6547121
0
ARC
8
DEFAULT_255_1_234
10
6.8364669
20
29.286188
40
0.328603
50
359.6507365
51
32.6130309
0
ARC
8
DEFAULT_255_1_234
10
6.7421764
20
29.286666
40
0.2678863
50
359.469343
51
14.9832209
0
ARC
8
DEFAULT_255_1_234
10
6.8126827
20
29.3055539
40
0.1948938
50
14.9781179
51
48.2004265
0
ARC
8
DEFAULT_255_1_234
10
6.7962471
20
29.2848983
40
0.2212521
50
48.5927837
51
74.1241538
0
ARC
8
DEFAULT_255_1_234
10
6.762896
20
29.1748248
40
0.3362561
50
73.7888341
51
86.6652678
0
ARC
8
DEFAULT_255_1_234
10
6.7526526
20
29.0540881
40
0.4573953
50
86.2640471
51
90.0526343
0
ARC
8
DEFAULT_255_1_234
10
6.7498239
20
29.0936192
40
0.4178709
50
89.6697524
51
99.2309573
0
ARC
8
DEFAULT_255_1_234
10
6.725569
20
29.2380964
40
0.2713749
50
99.069534
51
113.7658566
0
ARC
8
DEFAULT_255_1_234
10
6.6981881
20
29.3026677
40
0.2012469
50
114.0401004
51
127.9850673
0
ARC
8
DEFAULT_255_1_234
10
6.6741445
20
29.332273
40
0.1631167
50
127.7287463
51
176.7105154
0
ARC
8
DEFAULT_255_1_234
10
6.7420162
20
29.3221693
40
0.2315392
50
175.1779447
51
180.0581938
0
ARC
8
DEFAULT_255_1_234
10
6.6577009
20
29.3209428
40
0.1472271
50
179.6142195
51
228.1246017
0
ARC
8
DEFAULT_255_1_234
10
6.7018678
20
29.3618308
40
0.2072299
50
226.5779593
51
230.8800004
0
ARC
8
DEFAULT_255_1_234
10
6.7489756
20
29.4243636
40
0.2854818
50
231.4635071
51
241.9260842
0
ARC
8
DEFAULT_255_1_234
10
6.8686934
20
29.64468
40
0.53622
50
241.7178533
51
248.3259551
0
ARC
8
DEFAULT_255_1_234
10
7.0072306
20
29.9879064
40
0.9063478
50
248.2007737
51
252.4528373
0
ARC
8
DEFAULT_255_1_234
10
7.1276031
20
30.3600441
40
1.2974635
50
252.3391078
51
254.3469452
0
ARC
8
DEFAULT_255_1_234
10
6.3733733
20
27.6623148
40
1.5037162
50
71.0197183
51
74.4087047
0
ARC
8
DEFAULT_255_1_234
10
6.5428419
20
28.1515111
40
0.9859993
50
66.1847285
51
71.086374
0
ARC
8
DEFAULT_255_1_234
10
6.6984731
20
28.50192
40
0.6025855
50
59.3536294
51
66.2691831
0
ARC
8
DEFAULT_255_1_234
10
6.7873383
20
28.6522609
40
0.4279449
50
49.1020879
51
59.3293958
0
ARC
8
DEFAULT_255_1_234
10
6.8692123
20
28.7455834
40
0.3038015
50
32.7919921
51
49.2505539
0
ARC
8
DEFAULT_255_1_234
10
6.9013213
20
28.7684191
40
0.264448
50
31.1181161
51
32.4005348
0
ARC
8
DEFAULT_255_1_234
10
6.8924751
20
28.7648779
40
0.2738556
50
8.1116974
51
30.7958831
0
ARC
8
DEFAULT_255_1_234
10
6.8114419
20
28.7510753
40
0.3560327
50
359.8389159
51
8.4706516
0
ARC
8
DEFAULT_255_1_234
10
6.8740211
20
28.7462137
40
0.2934776
50
337.4731098
51
0.7537279
0
ARC
8
DEFAULT_255_1_234
10
6.8918905
20
28.7442387
40
0.2762607
50
307.5917067
51
336.4315538
0
ARC
8
DEFAULT_255_1_234
10
6.8458733
20
28.7955102
40
0.3449979
50
307.6551545
51
308.4529766
0
ARC
8
DEFAULT_255_1_234
10
6.8228452
20
28.831025
40
0.3871988
50
284.3734338
51
307.1424381
0
ARC
8
DEFAULT_255_1_234
10
6.7733282
20
29.0131932
40
0.5759636
50
272.4382747
51
284.646547
0
ARC
8
DEFAULT_255_1_234
10
6.7606491
20
29.1931893
40
0.7563528
50
269.9708387
51
272.8178037
0
ARC
8
DEFAULT_255_1_234
10
6.7563531
20
28.9893716
40
0.5525489
50
248.2707594
51
270.4055579
0
ARC
8
DEFAULT_255_1_234
10
6.7509272
20
28.9703192
40
0.5328452
50
246.1383403
51
248.0542782
0
ARC
8
DEFAULT_255_1_234
10
6.7090651
20
28.8823843
40
0.4355005
50
233.1670131
51
246.4950969
0
ARC
8
DEFAULT_255_1_234
10
6.6536556
20
28.8075812
40
0.3424126
50
215.3403242
51
233.0843104
0
ARC
8
DEFAULT_255_1_234
10
6.6263987
20
28.7877549
40
0.3087104
50
179.2419209
51
215.2648451
0
ARC
8
DEFAULT_255_1_234
10
6.7031581
20
28.7891666
40
0.2304457
50
179.335461
51
199.1045811
0
ARC
8
DEFAULT_255_1_234
10
6.6699258
20
28.7804766
40
0.1962176
50
199.8828939
51
232.7063202
0
ARC
8
DEFAULT_255_1_234
10
6.7171526
20
28.8398788
40
0.2720938
50
232.3738199
51
255.5136649
0
ARC
8
DEFAULT_255_1_234
10
6.7512393
20
28.9642835
40
0.4010747
50
255.2446292
51
267.5320849
0
ARC
8
DEFAULT_255_1_234
10
6.7600016
20
29.0875702
40
0.5246356
50
267.1557994
51
270.0286766
0
ARC
8
DEFAULT_255_1_234
10
6.7627788
20
29.043195
40
0.4802668
50
269.7000017
51
278.1660162
0
ARC
8
DEFAULT_255_1_234
10
6.7883793
20
28.8701515
40
0.3053425
50
278.0231263
51
290.625471
0
ARC
8
DEFAULT_255_1_234
10
6.823148
20
28.7774025
40
0.206291
50
290.6619762
51
307.0370976
0
ARC
8
DEFAULT_255_1_234
10
6.8531869
20
28.7405504
40
0.1587906
50
306.3943566
51
355.3030547
0
ARC
8
DEFAULT_255_1_234
10
6.8019801
20
28.7482113
40
0.2104809
50
354.3660432
51
0.0698737
0
ARC
8
DEFAULT_255_1_234
10
6.8162146
20
28.7504617
40
0.1962563
50
359.417946
51
16.1971788
0
ARC
8
DEFAULT_255_1_234
10
6.8617456
20
28.7629418
40
0.149053
50
16.4723299
51
52.6262157
0
ARC
8
DEFAULT_255_1_234
10
6.779651
20
28.6545433
40
0.2850296
50
52.7386432
51
62.4979148
0
ARC
8
DEFAULT_255_1_234
10
6.6411587
20
28.3939283
40
0.5801521
50
62.2515216
51
68.1220564
0
ARC
8
DEFAULT_255_1_234
10
6.4691498
20
27.9711872
40
1.0365451
50
68.0062803
51
71.8053402
0
ARC
8
DEFAULT_255_1_234
10
6.289587
20
27.4326758
40
1.6042013
50
71.7183119
51
73.9258742
0
LINE
8
DEFAULT_255_1_234
10
7.8148314
20
29.6279433
11
7.8148314
21
28.4529
0
LINE
8
DEFAULT_255_1_234
10
7.8148314
20
28.4529
11
7.6654411
21
28.4529
0
LINE
8
DEFAULT_255_1_234
10
7.6654411
20
28.4529
11
7.6654411
21
29.4432133
0
LINE
8
DEFAULT_255_1_234
10
7.6654411
20
29.4432133
11
7.3658572
21
29.3331785
0
LINE
8
DEFAULT_255_1_234
10
7.3658572
20
29.3331785
11
7.3658572
21
29.4681117
0
LINE
8
DEFAULT_255_1_234
10
7.3658572
20
29.4681117
11
7.7915394
21
29.6279433
0
LINE
8
DEFAULT_255_1_234
10
7.7915394
20
29.6279433
11
7.8148314
21
29.6279433
0
LINE
8
DEFAULT_255_1_234
10
8.9336525
20
29.0954391
11
8.9336525
21
28.9693408
0
LINE
8
DEFAULT_255_1_234
10
8.9336525
20
28.9693408
11
8.4429133
21
28.9693408
0
LINE
8
DEFAULT_255_1_234
10
8.4429133
20
28.9693408
11
8.4429133
21
28.4529
0
LINE
8
DEFAULT_255_1_234
10
8.4429133
20
28.4529
11
8.288704
21
28.4529
0
LINE
8
DEFAULT_255_1_234
10
8.288704
20
28.4529
11
8.288704
21
29.6223211
0
LINE
8
DEFAULT_255_1_234
10
8.288704
20
29.6223211
11
9.0131667
21
29.6223211
0
LINE
8
DEFAULT_255_1_234
10
9.0131667
20
29.6223211
11
9.0131667
21
29.4954196
0
LINE
8
DEFAULT_255_1_234
10
9.0131667
20
29.4954196
11
8.4429133
21
29.4954196
0
LINE
8
DEFAULT_255_1_234
10
8.4429133
20
29.4954196
11
8.4429133
21
29.0954391
0
LINE
8
DEFAULT_255_1_234
10
8.4429133
20
29.0954391
11
8.9336525
21
29.0954391
0
LINE
8
DEFAULT_255_1_234
10
4.8935484
20
37.0570343
11
4.8935484
21
36.930936
0
LINE
8
DEFAULT_255_1_234
10
4.8935484
20
36.930936
11
4.3867458
21
36.930936
0
LINE
8
DEFAULT_255_1_234
10
4.3867458
20
36.930936
11
4.3867458
21
36.5164983
0
LINE
8
DEFAULT_255_1_234
10
4.3867458
20
36.5164983
11
4.9754722
21
36.5164983
0
LINE
8
DEFAULT_255_1_234
10
4.9754722
20
36.5164983
11
4.9754722
21
36.3904
0
LINE
8
DEFAULT_255_1_234
10
4.9754722
20
36.3904
11
4.2325364
21
36.3904
0
LINE
8
DEFAULT_255_1_234
10
4.2325364
20
36.3904
11
4.2325364
21
37.5598211
0
LINE
8
DEFAULT_255_1_234
10
4.2325364
20
37.5598211
11
4.9674404
21
37.5598211
0
LINE
8
DEFAULT_255_1_234
10
4.9674404
20
37.5598211
11
4.9674404
21
37.4329196
0
LINE
8
DEFAULT_255_1_234
10
4.9674404
20
37.4329196
11
4.3867458
21
37.4329196
0
LINE
8
DEFAULT_255_1_234
10
4.3867458
20
37.4329196
11
4.3867458
21
37.0570343
0
LINE
8
DEFAULT_255_1_234
10
4.3867458
20
37.0570343
11
4.8935484
21
37.0570343
0
LINE
8
DEFAULT_255_1_234
10
5.2670243
20
37.5598211
11
5.5489383
21
37.1116501
0
LINE
8
DEFAULT_255_1_234
10
5.5489383
20
37.1116501
11
5.8292459
21
37.5598211
0
LINE
8
DEFAULT_255_1_234
10
5.8292459
20
37.5598211
11
6.0107632
21
37.5598211
0
LINE
8
DEFAULT_255_1_234
10
6.0107632
20
37.5598211
11
5.6413033
21
36.9799296
0
LINE
8
DEFAULT_255_1_234
10
5.6413033
20
36.9799296
11
6.0195981
21
36.3904
0
LINE
8
DEFAULT_255_1_234
10
6.0195981
20
36.3904
11
5.8364745
21
36.3904
0
LINE
8
DEFAULT_255_1_234
10
5.8364745
20
36.3904
11
5.5489383
21
36.8466027
0
LINE
8
DEFAULT_255_1_234
10
5.5489383
20
36.8466027
11
5.2597957
21
36.3904
0
LINE
8
DEFAULT_255_1_234
10
5.2597957
20
36.3904
11
5.0774752
21
36.3904
0
LINE
8
DEFAULT_255_1_234
10
5.0774752
20
36.3904
11
5.4565733
21
36.9799296
0
LINE
8
DEFAULT_255_1_234
10
5.4565733
20
36.9799296
11
5.0863102
21
37.5598211
0
LINE
8
DEFAULT_255_1_234
10
5.0863102
20
37.5598211
11
5.2670243
21
37.5598211
0
LINE
8
DEFAULT_255_1_234
10
7.0066988
20
37.5598211
11
7.0066988
21
37.4329196
0
LINE
8
DEFAULT_255_1_234
10
7.0066988
20
37.4329196
11
6.6308134
21
37.4329196
0
LINE
8
DEFAULT_255_1_234
10
6.6308134
20
37.4329196
11
6.6308134
21
36.3904
0
LINE
8
DEFAULT_255_1_234
10
6.6308134
20
36.3904
11
6.4774072
21
36.3904
0
LINE
8
DEFAULT_255_1_234
10
6.4774072
20
36.3904
11
6.4774072
21
37.4329196
0
LINE
8
DEFAULT_255_1_234
10
6.4774072
20
37.4329196
11
6.102325
21
37.4329196
0
LINE
8
DEFAULT_255_1_234
10
6.102325
20
37.4329196
11
6.102325
21
37.5598211
0
LINE
8
DEFAULT_255_1_234
10
6.102325
20
37.5598211
11
7.0066988
21
37.5598211
0
LINE
8
DEFAULT_255_1_234
10
7.8251329
20
37.0329391
11
7.8251329
21
36.9068408
0
LINE
8
DEFAULT_255_1_234
10
7.8251329
20
36.9068408
11
7.3343937
21
36.9068408
0
LINE
8
DEFAULT_255_1_234
10
7.3343937
20
36.9068408
11
7.3343937
21
36.3904
0
LINE
8
DEFAULT_255_1_234
10
7.3343937
20
36.3904
11
7.1801843
21
36.3904
0
LINE
8
DEFAULT_255_1_234
10
7.1801843
20
36.3904
11
7.1801843
21
37.5598211
0
LINE
8
DEFAULT_255_1_234
10
7.1801843
20
37.5598211
11
7.9046471
21
37.5598211
0
LINE
8
DEFAULT_255_1_234
10
7.9046471
20
37.5598211
11
7.9046471
21
37.4329196
0
LINE
8
DEFAULT_255_1_234
10
7.9046471
20
37.4329196
11
7.3343937
21
37.4329196
0
LINE
8
DEFAULT_255_1_234
10
7.3343937
20
37.4329196
11
7.3343937
21
37.0329391
0
LINE
8
DEFAULT_255_1_234
10
7.3343937
20
37.0329391
11
7.8251329
21
37.0329391
0
LINE
8
DEFAULT_255_1_234
10
4.3749902
20
45.4973211
11
4.3749902
21
44.3279
0
LINE
8
DEFAULT_255_1_234
10
4.3749902
20
44.3279
11
4.2207808
21
44.3279
0
LINE
8
DEFAULT_255_1_234
10
4.2207808
20
44.3279
11
4.2207808
21
45.4973211
0
LINE
8
DEFAULT_255_1_234
10
4.2207808
20
45.4973211
11
4.3749902
21
45.4973211
0
LINE
8
DEFAULT_255_1_234
10
5.5556557
20
45.4973211
11
5.5556557
21
44.3279
0
LINE
8
DEFAULT_255_1_234
10
5.5556557
20
44.3279
11
5.4006432
21
44.3279
0
LINE
8
DEFAULT_255_1_234
10
5.4006432
20
44.3279
11
4.8119167
21
45.229061
0
LINE
8
DEFAULT_255_1_234
10
4.8119167
20
45.229061
11
4.8119167
21
44.3279
0
LINE
8
DEFAULT_255_1_234
10
4.8119167
20
44.3279
11
4.6569042
21
44.3279
0
LINE
8
DEFAULT_255_1_234
10
4.6569042
20
44.3279
11
4.6569042
21
45.4973211
0
LINE
8
DEFAULT_255_1_234
10
4.6569042
20
45.4973211
11
4.8119167
21
45.4973211
0
LINE
8
DEFAULT_255_1_234
10
4.8119167
20
45.4973211
11
5.4022495
21
44.5921442
0
LINE
8
DEFAULT_255_1_234
10
5.4022495
20
44.5921442
11
5.4022495
21
45.4973211
0
LINE
8
DEFAULT_255_1_234
10
5.4022495
20
45.4973211
11
5.5556557
21
45.4973211
0
LINE
8
DEFAULT_255_1_234
10
6.6142388
20
45.4973211
11
6.6142388
21
45.3704196
0
LINE
8
DEFAULT_255_1_234
10
6.6142388
20
45.3704196
11
6.2383535
21
45.3704196
0
LINE
8
DEFAULT_255_1_234
10
6.2383535
20
45.3704196
11
6.2383535
21
44.3279
0
LINE
8
DEFAULT_255_1_234
10
6.2383535
20
44.3279
11
6.0849473
21
44.3279
0
LINE
8
DEFAULT_255_1_234
10
6.0849473
20
44.3279
11
6.0849473
21
45.3704196
0
LINE
8
DEFAULT_255_1_234
10
6.0849473
20
45.3704196
11
5.7098651
21
45.3704196
0
LINE
8
DEFAULT_255_1_234
10
5.7098651
20
45.3704196
11
5.7098651
21
45.4973211
0
LINE
8
DEFAULT_255_1_234
10
5.7098651
20
45.4973211
11
6.6142388
21
45.4973211
0
LINE
8
DEFAULT_255_1_234
10
7.4326729
20
44.9704391
11
7.4326729
21
44.8443408
0
LINE
8
DEFAULT_255_1_234
10
7.4326729
20
44.8443408
11
6.9419337
21
44.8443408
0
LINE
8
DEFAULT_255_1_234
10
6.9419337
20
44.8443408
11
6.9419337
21
44.3279
0
LINE
8
DEFAULT_255_1_234
10
6.9419337
20
44.3279
11
6.7877244
21
44.3279
0
LINE
8
DEFAULT_255_1_234
10
6.7877244
20
44.3279
11
6.7877244
21
45.4973211
0
LINE
8
DEFAULT_255_1_234
10
6.7877244
20
45.4973211
11
7.5121872
21
45.4973211
0
LINE
8
DEFAULT_255_1_234
10
7.5121872
20
45.4973211
11
7.5121872
21
45.3704196
0
LINE
8
DEFAULT_255_1_234
10
7.5121872
20
45.3704196
11
6.9419337
21
45.3704196
0
LINE
8
DEFAULT_255_1_234
10
6.9419337
20
45.3704196
11
6.9419337
21
44.9704391
0
LINE
8
DEFAULT_255_1_234
10
6.9419337
20
44.9704391
11
7.4326729
21
44.9704391
0
LINE
8
DEFAULT_255_1_234
10
23.0444364
20
53.4348211
11
23.2436235
21
53.4348211
0
LINE
8
DEFAULT_255_1_234
10
23.2436235
20
53.4348211
11
23.6259342
21
52.4806506
0
LINE
8
DEFAULT_255_1_234
10
23.6259342
20
52.4806506
11
24.008245
21
53.4348211
0
LINE
8
DEFAULT_255_1_234
10
24.008245
20
53.4348211
11
24.2082353
21
53.4348211
0
LINE
8
DEFAULT_255_1_234
10
24.2082353
20
53.4348211
11
24.2082353
21
52.2654
0
LINE
8
DEFAULT_255_1_234
10
24.2082353
20
52.2654
11
24.0540259
21
52.2654
0
LINE
8
DEFAULT_255_1_234
10
24.0540259
20
52.2654
11
24.0540259
21
52.7207996
0
LINE
8
DEFAULT_255_1_234
10
24.0540259
20
52.7207996
11
24.068483
21
53.2123419
0
LINE
8
DEFAULT_255_1_234
10
24.068483
20
53.2123419
11
23.6845659
21
52.2654
0
LINE
8
DEFAULT_255_1_234
10
23.6845659
20
52.2654
11
23.5664994
21
52.2654
0
LINE
8
DEFAULT_255_1_234
10
23.5664994
20
52.2654
11
23.1833854
21
53.2099324
0
LINE
8
DEFAULT_255_1_234
10
23.1833854
20
53.2099324
11
23.1986458
21
52.7207996
0
LINE
8
DEFAULT_255_1_234
10
23.1986458
20
52.7207996
11
23.1986458
21
52.2654
0
LINE
8
DEFAULT_255_1_234
10
23.1986458
20
52.2654
11
23.0444364
21
52.2654
0
LINE
8
DEFAULT_255_1_234
10
23.0444364
20
52.2654
11
23.0444364
21
53.4348211
0
ENDSEC
0
EOF