0
SECTION
2
HEADER
9
$MEASUREMENT
70
1
0
ENDSEC
0
SECTION
2
TABLES
0
TABLE
2
LTYPE
0
LTYPE
72
65
70
64
2
CONTINUOUS
3
______
73
0
40
0
0
ENDTAB
0
TABLE
2
LAYER
0
LAYER
2
DEFAULT_255_2_778
70
0
62
255
6
CONTINUOUS
0
LAYER
2
DEFAULT_255_1_234
70
0
62
255
6
CONTINUOUS
0
ENDTAB
0
ENDSEC
0
SECTION
2
ENTITIES
0
ARC
8
DEFAULT_255_2_778
10
3.5695693
20
20.2426538
40
0.7914215
50
129.1312896
51
180.1450914
0
ARC
8
DEFAULT_255_2_778
10
3.5698345
20
20.2431409
40
0.7912112
50
89.854026
51
129.1684493
0
ARC
8
DEFAULT_255_2_778
10
25.7988937
20
20.2428275
40
0.7915249
50
39.4792447
51
90.147911
0
ARC
8
DEFAULT_255_2_778
10
25.7994935
20
20.2426741
40
0.7911595
50
359.8533901
51
39.5154338
0
ARC
8
DEFAULT_255_2_778
10
25.7991693
20
-1.9863985
40
0.7914836
50
309.4761667
51
0.1482649
0
ARC
8
DEFAULT_255_2_778
10
25.798898
20
-1.9868295
40
0.7913235
50
269.8517415
51
309.511178
0
ARC
8
DEFAULT_255_2_778
10
3.569842
20
-1.9867714
40
0.7913815
50
219.1282118
51
270.1454017
0
ARC
8
DEFAULT_255_2_778
10
3.5695247
20
-1.9863889
40
0.7913769
50
179.8524075
51
219.1641908
0
LINE
8
DEFAULT_255_2_778
10
3.5718503
20
21.0343497
11
25.7968503
21
21.0343497
0
LINE
8
DEFAULT_255_2_778
10
26.5906503
20
20.2406497
11
26.5906503
21
-1.9843503
0
LINE
8
DEFAULT_255_2_778
10
25.7968503
20
-2.7781503
11
3.5718503
21
-2.7781503
0
LINE
8
DEFAULT_255_2_778
10
2.7781503
20
-1.9843503
11
2.7781503
21
20.2406497
0
LINE
8
DEFAULT_255_1_234
10
8.6667835
20
0.5189243
11
8.6932882
21
0.5189243
0
LINE
8
DEFAULT_255_1_234
10
8.6932882
20
0.5189243
11
8.6932882
21
0.392826
0
LINE
8
DEFAULT_255_1_234
10
8.6932882
20
0.392826
11
8.6659803
21
0.392826
0
LINE
8
DEFAULT_255_1_234
10
8.1190189
20
-0.2063417
11
8.1190189
21
-0.1493164
0
LINE
8
DEFAULT_255_1_234
10
8.2684093
20
-0.1685925
11
8.2684093
21
-0.2232083
0
ARC
8
DEFAULT_255_1_234
10
8.6712151
20
-0.1069545
40
0.4998079
50
90.6001036
51
104.514704
0
ARC
8
DEFAULT_255_1_234
10
8.6323667
20
0.0375131
40
0.3502176
50
104.2855254
51
133.862935
0
ARC
8
DEFAULT_255_1_234
10
8.6487424
20
0.026683
40
0.3693984
50
134.5302688
51
161.6210873
0
ARC
8
DEFAULT_255_1_234
10
8.8140613
20
-0.0316105
40
0.5446739
50
161.2849839
51
174.2076652
0
ARC
8
DEFAULT_255_1_234
10
8.954755
20
-0.0510213
40
0.6866274
50
173.7810589
51
174.9254635
0
ARC
8
DEFAULT_255_1_234
10
8.4997382
20
-0.1893161
40
0.3033419
50
95.8330959
51
138.9954921
0
ARC
8
DEFAULT_255_1_234
10
8.5220738
20
-0.3171625
40
0.4328947
50
89.8753725
51
97.0544009
0
ARC
8
DEFAULT_255_1_234
10
8.5268204
20
-0.2336252
40
0.3493769
50
71.6407809
51
90.6240094
0
ARC
8
DEFAULT_255_1_234
10
8.5418777
20
-0.1781918
40
0.2920396
50
39.6367836
51
71.019018
0
ARC
8
DEFAULT_255_1_234
10
8.478225
20
-0.2332002
40
0.3761538
50
10.658731
51
39.9043955
0
ARC
8
DEFAULT_255_1_234
10
8.3234333
20
-0.2668314
40
0.5345136
50
359.682601
51
11.132623
0
ARC
8
DEFAULT_255_1_234
10
8.3194464
20
-0.273899
40
0.5385081
50
347.2486944
51
0.4369317
0
ARC
8
DEFAULT_255_1_234
10
8.4861941
20
-0.3140193
40
0.3670249
50
318.1409698
51
347.6118597
0
ARC
8
DEFAULT_255_1_234
10
8.5186934
20
-0.3407298
40
0.3250007
50
275.6342139
51
317.8248465
0
ARC
8
DEFAULT_255_1_234
10
8.4966045
20
-0.2107781
40
0.4565864
50
269.8874292
51
276.7917694
0
ARC
8
DEFAULT_255_1_234
10
8.4911116
20
-0.3133257
40
0.3540676
50
246.9140195
51
270.7437342
0
ARC
8
DEFAULT_255_1_234
10
8.4917506
20
-0.3275616
40
0.3412781
50
218.1665114
51
245.878116
0
ARC
8
DEFAULT_255_1_234
10
8.5796967
20
-0.2539721
40
0.455911
50
191.4115814
51
218.6077802
0
ARC
8
DEFAULT_255_1_234
10
8.7735056
20
-0.2105167
40
0.6545001
50
179.6345085
51
191.7836486
0
ARC
8
DEFAULT_255_1_234
10
9.3317393
20
-0.1426303
40
1.2127388
50
171.4525249
51
180.3158839
0
ARC
8
DEFAULT_255_1_234
10
8.8922269
20
-0.0742392
40
0.7679464
50
157.9802646
51
171.6246686
0
ARC
8
DEFAULT_255_1_234
10
8.670829
20
0.0140421
40
0.5296008
50
141.4298019
51
157.854097
0
ARC
8
DEFAULT_255_1_234
10
8.606661
20
0.0594381
40
0.4511509
50
102.8715806
51
140.8564722
0
ARC
8
DEFAULT_255_1_234
10
8.6714226
20
-0.1845448
40
0.7034845
50
90.3778349
51
103.5869322
0
ARC
8
DEFAULT_255_1_234
10
8.4976002
20
-0.245027
40
0.2370698
50
89.8751008
51
126.2071704
0
ARC
8
DEFAULT_255_1_234
10
8.5021792
20
-0.2604697
40
0.2522934
50
124.9745049
51
144.895901
0
ARC
8
DEFAULT_255_1_234
10
8.4845982
20
-0.246144
40
0.2296779
50
145.2974905
51
160.2660252
0
ARC
8
DEFAULT_255_1_234
10
8.7918521
20
-0.2263929
40
0.5234525
50
179.6514266
51
190.2855912
0
ARC
8
DEFAULT_255_1_234
10
8.6224658
20
-0.2583214
40
0.3510893
50
190.0945431
51
207.5098196
0
ARC
8
DEFAULT_255_1_234
10
8.5658928
20
-0.2852377
40
0.288489
50
207.9583163
51
216.3251085
0
ARC
8
DEFAULT_255_1_234
10
8.5319036
20
-0.3131895
40
0.2445587
50
215.7661442
51
232.5456785
0
ARC
8
DEFAULT_255_1_234
10
8.4936019
20
-0.3618518
40
0.1826382
50
232.8005391
51
270.6605633
0
ARC
8
DEFAULT_255_1_234
10
8.498172
20
-0.3254388
40
0.2190529
50
269.35537
51
288.4744281
0
ARC
8
DEFAULT_255_1_234
10
8.5074617
20
-0.3603882
40
0.1829749
50
289.1833337
51
322.9683818
0
ARC
8
DEFAULT_255_1_234
10
8.4463139
20
-0.3121609
40
0.2608399
50
322.6007884
51
346.5182367
0
ARC
8
DEFAULT_255_1_234
10
8.3305735
20
-0.2826384
40
0.3802777
50
346.2582162
51
358.7741648
0
ARC
8
DEFAULT_255_1_234
10
8.2287404
20
-0.2771035
40
0.4822176
50
358.3755224
51
0.0098023
0
ARC
8
DEFAULT_255_1_234
10
8.3043591
20
-0.2743343
40
0.4066078
50
359.6214041
51
11.2839074
0
ARC
8
DEFAULT_255_1_234
10
8.4320738
20
-0.2476934
40
0.2761514
50
11.0482309
51
31.8146458
0
ARC
8
DEFAULT_255_1_234
10
8.4629781
20
-0.2309416
40
0.2410679
50
32.3035391
51
38.082671
0
ARC
8
DEFAULT_255_1_234
10
8.5050441
20
-0.1928338
40
0.1844966
50
36.825067
51
85.7415724
0
ARC
8
DEFAULT_255_1_234
10
8.4983274
20
-0.2428699
40
0.2349122
50
85.0140713
51
90.0513278
0
LINE
8
DEFAULT_255_1_234
10
9.9711378
20
0.5181211
11
9.9711378
21
-0.6513
0
LINE
8
DEFAULT_255_1_234
10
9.9711378
20
-0.6513
11
9.8161252
21
-0.6513
0
LINE
8
DEFAULT_255_1_234
10
9.8161252
20
-0.6513
11
9.2273988
21
0.249861
0
LINE
8
DEFAULT_255_1_234
10
9.2273988
20
0.249861
11
9.2273988
21
-0.6513
0
LINE
8
DEFAULT_255_1_234
10
9.2273988
20
-0.6513
11
9.0723863
21
-0.6513
0
LINE
8
DEFAULT_255_1_234
10
9.0723863
20
-0.6513
11
9.0723863
21
0.5181211
0
LINE
8
DEFAULT_255_1_234
10
9.0723863
20
0.5181211
11
9.2273988
21
0.5181211
0
LINE
8
DEFAULT_255_1_234
10
9.2273988
20
0.5181211
11
9.8177316
21
-0.3870558
0
LINE
8
DEFAULT_255_1_234
10
9.8177316
20
-0.3870558
11
9.8177316
21
0.5181211
0
LINE
8
DEFAULT_255_1_234
10
9.8177316
20
0.5181211
11
9.9711378
21
0.5181211
0
LINE
8
DEFAULT_255_1_234
10
11.1437716
20
0.5181211
11
11.1437716
21
-0.6513
0
LINE
8
DEFAULT_255_1_234
10
11.1437716
20
-0.6513
11
10.988759
21
-0.6513
0
LINE
8
DEFAULT_255_1_234
10
10.988759
20
-0.6513
11
10.988759
21
-0.110764
0
LINE
8
DEFAULT_255_1_234
10
10.988759
20
-0.110764
11
10.3992294
21
-0.110764
0
LINE
8
DEFAULT_255_1_234
10
10.3992294
20
-0.110764
11
10.3992294
21
-0.6513
0
LINE
8
DEFAULT_255_1_234
10
10.3992294
20
-0.6513
11
10.2450201
21
-0.6513
0
LINE
8
DEFAULT_255_1_234
10
10.2450201
20
-0.6513
11
10.2450201
21
0.5181211
0
LINE
8
DEFAULT_255_1_234
10
10.2450201
20
0.5181211
11
10.3992294
21
0.5181211
0
LINE
8
DEFAULT_255_1_234
10
10.3992294
20
0.5181211
11
10.3992294
21
0.0153343
0
LINE
8
DEFAULT_255_1_234
10
10.3992294
20
0.0153343
11
10.988759
21
0.0153343
0
LINE
8
DEFAULT_255_1_234
10
10.988759
20
0.0153343
11
10.988759
21
0.5181211
0
LINE
8
DEFAULT_255_1_234
10
10.988759
20
0.5181211
11
11.1437716
21
0.5181211
0
LINE
8
DEFAULT_255_1_234
10
12.1340849
20
0.5181211
11
12.1340849
21
0.434591
0
LINE
8
DEFAULT_255_1_234
10
12.1340849
20
0.434591
11
11.6497711
21
-0.6513
0
LINE
8
DEFAULT_255_1_234
10
11.6497711
20
-0.6513
11
11.4939554
21
-0.6513
0
LINE
8
DEFAULT_255_1_234
10
11.4939554
20
-0.6513
11
11.9766628
21
0.3960387
0
LINE
8
DEFAULT_255_1_234
10
11.9766628
20
0.3960387
11
11.3437619
21
0.3960387
0
LINE
8
DEFAULT_255_1_234
10
11.3437619
20
0.3960387
11
11.3437619
21
0.5181211
0
LINE
8
DEFAULT_255_1_234
10
11.3437619
20
0.5181211
11
12.1340849
21
0.5181211
0
ARC
8
DEFAULT_255_1_234
10
12.7297298
20
0.2103703
40
0.2822356
50
338.8763615
51
0.5166041
0
ARC
8
DEFAULT_255_1_234
10
12.7465952
20
0.2058208
40
0.2648703
50
325.8412414
51
338.4795939
0
ARC
8
DEFAULT_255_1_234
10
12.707532
20
0.2329042
40
0.3124019
50
296.7586019
51
325.753654
0
ARC
8
DEFAULT_255_1_234
10
12.6787428
20
0.2813789
40
0.368668
50
296.0902311
51
297.3618122
0
ARC
8
DEFAULT_255_1_234
10
12.7044886
20
-0.3740959
40
0.3518806
50
47.9009248
51
67.1946869
0
ARC
8
DEFAULT_255_1_234
10
12.7241128
20
-0.3494605
40
0.320451
50
35.236241
51
47.551371
0
ARC
8
DEFAULT_255_1_234
10
12.7502746
20
-0.3320007
40
0.2890103
50
359.2759738
51
35.4014081
0
ARC
8
DEFAULT_255_1_234
10
12.6757777
20
-0.3393174
40
0.3635026
50
343.1294516
51
0.5776525
0
ARC
8
DEFAULT_255_1_234
10
12.7482322
20
-0.359267
40
0.2883832
50
310.8497458
51
342.744803
0
ARC
8
DEFAULT_255_1_234
10
12.7064435
20
-0.3115706
40
0.3517954
50
281.5473923
51
310.9169905
0
ARC
8
DEFAULT_255_1_234
10
12.6707884
20
-0.1562916
40
0.5110832
50
269.6192722
51
281.9789957
0
ARC
8
DEFAULT_255_1_234
10
12.6635673
20
-0.1562172
40
0.5111606
50
257.4584469
51
270.4287458
0
ARC
8
DEFAULT_255_1_234
10
12.6254816
20
-0.3165656
40
0.3463762
50
228.7553743
51
257.8484423
0
ARC
8
DEFAULT_255_1_234
10
12.5945015
20
-0.3538558
40
0.297916
50
184.0104442
51
228.5071787
0
ARC
8
DEFAULT_255_1_234
10
12.7107959
20
-0.3361488
40
0.4152734
50
179.9315461
51
185.3254504
0
ARC
8
DEFAULT_255_1_234
10
12.5931604
20
-0.3324008
40
0.2976554
50
145.6795913
51
180.6259649
0
ARC
8
DEFAULT_255_1_234
10
12.6094954
20
-0.3438071
40
0.3175776
50
115.5537925
51
145.6416199
0
ARC
8
DEFAULT_255_1_234
10
12.6435884
20
-0.4048972
40
0.3874232
50
113.2437915
51
116.2054627
0
ARC
8
DEFAULT_255_1_234
10
12.6283096
20
0.234958
40
0.3154751
50
222.9548379
51
244.1372485
0
ARC
8
DEFAULT_255_1_234
10
12.6161172
20
0.2212834
40
0.2972382
50
213.3439227
51
222.6271327
0
ARC
8
DEFAULT_255_1_234
10
12.5969106
20
0.2082308
40
0.274019
50
180.4316517
51
213.2713999
0
ARC
8
DEFAULT_255_1_234
10
12.6544108
20
0.212911
40
0.33158
50
179.9992944
51
181.1655061
0
ARC
8
DEFAULT_255_1_234
10
12.6953525
20
0.2163561
40
0.3725376
50
164.6186108
51
180.5292368
0
ARC
8
DEFAULT_255_1_234
10
12.6055388
20
0.2405101
40
0.2795349
50
132.2454369
51
164.5092287
0
ARC
8
DEFAULT_255_1_234
10
12.6342492
20
0.2080028
40
0.3229019
50
100.7052766
51
132.1387266
0
ARC
8
DEFAULT_255_1_234
10
12.6647464
20
0.0702086
40
0.4639835
50
89.6732617
51
101.2449487
0
ARC
8
DEFAULT_255_1_234
10
12.6709662
20
0.087699
40
0.4464999
50
76.2876631
51
90.4586123
0
ARC
8
DEFAULT_255_1_234
10
12.7015894
20
0.209922
40
0.3205023
50
47.8240157
51
76.4266918
0
ARC
8
DEFAULT_255_1_234
10
12.7238443
20
0.235959
40
0.2862661
50
6.9168658
51
47.6261438
0
ARC
8
DEFAULT_255_1_234
10
12.6051847
20
0.214037
40
0.4067708
50
359.8419705
51
7.9694496
0
ARC
8
DEFAULT_255_1_234
10
12.6393744
20
-0.3300075
40
0.2513121
50
359.4454068
51
16.9256425
0
ARC
8
DEFAULT_255_1_234
10
12.6862555
20
-0.3170967
40
0.2027071
50
17.292259
51
45.462717
0
ARC
8
DEFAULT_255_1_234
10
12.6808491
20
-0.3217566
40
0.2098212
50
45.3028762
51
83.1921472
0
ARC
8
DEFAULT_255_1_234
10
12.6665175
20
-0.4019105
40
0.2911472
50
82.2614531
51
90.143954
0
ARC
8
DEFAULT_255_1_234
10
12.6634295
20
-0.378605
40
0.2678513
50
89.4959189
51
104.8579811
0
ARC
8
DEFAULT_255_1_234
10
12.6457554
20
-0.311611
40
0.1985654
50
104.8855873
51
135.2448349
0
ARC
8
DEFAULT_255_1_234
10
12.6507326
20
-0.3160664
40
0.2052373
50
135.3398955
51
172.104394
0
ARC
8
DEFAULT_255_1_234
10
12.7314384
20
-0.3315075
40
0.2873299
50
171.2651929
51
180.1859362
0
ARC
8
DEFAULT_255_1_234
10
12.7145086
20
-0.3347267
40
0.2704083
50
179.515471
51
193.6466734
0
ARC
8
DEFAULT_255_1_234
10
12.6328855
20
-0.3555223
40
0.1861855
50
193.3540587
51
225.8256931
0
ARC
8
DEFAULT_255_1_234
10
12.6369612
20
-0.3484476
40
0.1941102
50
226.418029
51
255.8553723
0
ARC
8
DEFAULT_255_1_234
10
12.6626045
20
-0.2548002
40
0.2911917
50
255.4655572
51
268.7985967
0
ARC
8
DEFAULT_255_1_234
10
12.6673237
20
-0.1709509
40
0.3751331
50
268.3464808
51
270.0104874
0
ARC
8
DEFAULT_255_1_234
10
12.6696625
20
-0.2393862
40
0.3067064
50
269.575914
51
282.0823146
0
ARC
8
DEFAULT_255_1_234
10
12.6921534
20
-0.3388197
40
0.2047712
50
281.7522535
51
306.6056425
0
ARC
8
DEFAULT_255_1_234
10
12.701996
20
-0.3549513
40
0.1859604
50
307.1350025
51
314.0277951
0
ARC
8
DEFAULT_255_1_234
10
12.6984044
20
-0.3523234
40
0.1903475
50
314.2553419
51
350.169324
0
ARC
8
DEFAULT_255_1_234
10
12.6132512
20
-0.3338591
40
0.2774269
50
349.4145679
51
0.2930737
0
ARC
8
DEFAULT_255_1_234
10
12.6652946
20
0.1820353
40
0.2300764
50
89.477591
51
105.729794
0
ARC
8
DEFAULT_255_1_234
10
12.6516859
20
0.2325637
40
0.1777519
50
105.922966
51
135.1662921
0
ARC
8
DEFAULT_255_1_234
10
12.6537362
20
0.2311419
40
0.1802087
50
135.3053131
51
168.9882338
0
ARC
8
DEFAULT_255_1_234
10
12.7364934
20
0.2121721
40
0.2650806
50
168.3802067
51
180.3602358
0
ARC
8
DEFAULT_255_1_234
10
12.7136513
20
0.2084041
40
0.2422425
50
179.5029707
51
194.9126783
0
ARC
8
DEFAULT_255_1_234
10
12.6551174
20
0.193011
40
0.1817188
50
194.9722181
51
224.1943972
0
ARC
8
DEFAULT_255_1_234
10
12.6523042
20
0.1907169
40
0.1781027
50
224.2961434
51
262.0157375
0
ARC
8
DEFAULT_255_1_234
10
12.6665285
20
0.2638661
40
0.2525492
50
261.1250369
51
270.1959853
0
ARC
8
DEFAULT_255_1_234
10
12.669504
20
0.2451339
40
0.233825
50
269.4825617
51
285.0988277
0
ARC
8
DEFAULT_255_1_234
10
12.6849199
20
0.187299
40
0.1739712
50
285.1585659
51
315.9484648
0
ARC
8
DEFAULT_255_1_234
10
12.6760211
20
0.1954886
40
0.1860616
50
316.0412958
51
351.9162715
0
ARC
8
DEFAULT_255_1_234
10
12.6027165
20
0.2096245
40
0.2606517
50
351.1056823
51
0.1936567
0
ARC
8
DEFAULT_255_1_234
10
12.6289994
20
0.2126369
40
0.234377
50
359.4789506
51
16.0679113
0
ARC
8
DEFAULT_255_1_234
10
12.6765953
20
0.225481
40
0.1850875
50
16.3251951
51
44.791304
0
ARC
8
DEFAULT_255_1_234
10
12.6748235
20
0.2255339
40
0.186312
50
44.3958661
51
88.2498933
0
ARC
8
DEFAULT_255_1_234
10
12.6674789
20
0.1644154
40
0.2476868
50
86.9833827
51
90.0200148
0
LINE
8
DEFAULT_255_1_234
10
13.959699
20
0.0402327
11
13.959699
21
-0.1525291
0
LINE
8
DEFAULT_255_1_234
10
13.2215823
20
-0.1726084
11
13.2215823
21
0.0257755
0
LINE
8
DEFAULT_255_1_234
10
13.8111119
20
-0.1926877
11
13.8111119
21
0.0506739
0
LINE
8
DEFAULT_255_1_234
10
13.3701694
20
0.0619184
11
13.3701694
21
-0.1758211
0
ARC
8
DEFAULT_255_1_234
10
12.734988
20
-0.1574195
40
1.2247208
50
353.8441951
51
0.2287902
0
ARC
8
DEFAULT_255_1_234
10
13.1989383
20
-0.2092194
40
0.7578929
50
344.4934747
51
353.9765454
0
ARC
8
DEFAULT_255_1_234
10
13.4981974
20
-0.2943019
40
0.4467846
50
329.2803592
51
344.7472793
0
ARC
8
DEFAULT_255_1_234
10
13.5974799
20
-0.3487982
40
0.3336173
50
324.9352394
51
328.6160465
0
ARC
8
DEFAULT_255_1_234
10
13.6351907
20
-0.3751573
40
0.2876076
50
280.580143
51
324.9173126
0
ARC
8
DEFAULT_255_1_234
10
13.59507
20
-0.2080901
40
0.4592847
50
269.5977311
51
281.6734359
0
ARC
8
DEFAULT_255_1_234
10
13.5878605
20
-0.2200827
40
0.4472986
50
256.6228859
51
270.51044
0
ARC
8
DEFAULT_255_1_234
10
13.5476583
20
-0.3749123
40
0.2873874
50
215.8618325
51
257.2788573
0
ARC
8
DEFAULT_255_1_234
10
13.6497615
20
-0.3064023
40
0.4102928
50
197.9693508
51
215.2623606
0
ARC
8
DEFAULT_255_1_234
10
13.898273
20
-0.2225291
40
0.6725652
50
187.8816417
51
198.2346507
0
ARC
8
DEFAULT_255_1_234
10
14.2940939
20
-0.1653921
40
1.0724845
50
180.8976217
51
188.0055519
0
ARC
8
DEFAULT_255_1_234
10
14.5741127
20
-0.1550223
40
1.3526448
50
180.7449369
51
181.1510016
0
ARC
8
DEFAULT_255_1_234
10
14.4163856
20
0.0306042
40
1.1948131
50
173.7675579
51
180.231553
0
ARC
8
DEFAULT_255_1_234
10
13.9646003
20
0.0816666
40
0.7401564
50
164.3058563
51
173.9002247
0
ARC
8
DEFAULT_255_1_234
10
13.6734071
20
0.1655656
40
0.4371288
50
148.7922025
51
164.568378
0
ARC
8
DEFAULT_255_1_234
10
13.5782524
20
0.2186929
40
0.3282386
50
144.5883898
51
148.1176286
0
ARC
8
DEFAULT_255_1_234
10
13.5439421
20
0.2426315
40
0.2864044
50
101.6440918
51
144.514236
0
ARC
8
DEFAULT_255_1_234
10
13.5864488
20
0.0737069
40
0.4604934
50
89.5284041
51
102.5819763
0
ARC
8
DEFAULT_255_1_234
10
13.5943576
20
0.0698018
40
0.464401
50
77.0437873
51
90.5081339
0
ARC
8
DEFAULT_255_1_234
10
13.6345578
20
0.2340615
40
0.2953195
50
48.2778575
51
77.4994676
0
ARC
8
DEFAULT_255_1_234
10
13.6418209
20
0.2469746
40
0.2808655
50
36.3142134
51
47.6305865
0
ARC
8
DEFAULT_255_1_234
10
13.5549516
20
0.1884515
40
0.3855453
50
18.2931786
51
35.6769206
0
ARC
8
DEFAULT_255_1_234
10
13.3006275
20
0.1011593
40
0.654423
50
8.024666
51
18.5605216
0
ARC
8
DEFAULT_255_1_234
10
12.8843195
20
0.0396792
40
1.0752407
50
1.1274072
51
8.1718305
0
ARC
8
DEFAULT_255_1_234
10
12.5607385
20
0.0269885
40
1.3990231
50
0.5424119
51
1.3863029
0
ARC
8
DEFAULT_255_1_234
10
12.7428763
20
0.0542342
40
1.0682415
50
359.8090433
51
4.9407866
0
ARC
8
DEFAULT_255_1_234
10
13.1638777
20
0.0918113
40
0.6455691
50
4.8362157
51
12.2904523
0
ARC
8
DEFAULT_255_1_234
10
13.4393892
20
0.1531965
40
0.3633074
50
12.0805627
51
23.8173984
0
ARC
8
DEFAULT_255_1_234
10
13.5567597
20
0.2028919
40
0.2358723
50
24.2871213
51
31.3935614
0
ARC
8
DEFAULT_255_1_234
10
13.6092295
20
0.2372233
40
0.1732111
50
30.7407893
51
82.4657128
0
ARC
8
DEFAULT_255_1_234
10
13.5912429
20
0.1488691
40
0.263235
50
81.1060089
51
90.2184952
0
ARC
8
DEFAULT_255_1_234
10
13.5876728
20
0.1746924
40
0.2374236
50
89.3806855
51
105.6762551
0
ARC
8
DEFAULT_255_1_234
10
13.5693358
20
0.2413567
40
0.1682847
50
105.7981136
51
149.7388061
0
ARC
8
DEFAULT_255_1_234
10
13.6757437
20
0.177395
40
0.2924306
50
149.4208916
51
163.6286378
0
ARC
8
DEFAULT_255_1_234
10
13.8848325
20
0.113625
40
0.5110213
50
163.3763315
51
172.1410975
0
ARC
8
DEFAULT_255_1_234
10
14.2149044
20
0.0663518
40
0.8444586
50
172.0259487
51
178.0703232
0
ARC
8
DEFAULT_255_1_234
10
14.5179133
20
0.0519906
40
1.1477868
50
177.8631668
51
179.5044149
0
ARC
8
DEFAULT_255_1_234
10
14.4106538
20
-0.1794611
40
1.0404907
50
179.7995573
51
185.2460446
0
ARC
8
DEFAULT_255_1_234
10
14.0063577
20
-0.2177487
40
0.6343885
50
185.1411642
51
193.0079639
0
ARC
8
DEFAULT_255_1_234
10
13.742005
20
-0.2802359
40
0.3627568
50
192.7897626
51
205.2507664
0
ARC
8
DEFAULT_255_1_234
10
13.6373597
20
-0.3269585
40
0.2481908
50
205.8005384
51
211.2537509
0
ARC
8
DEFAULT_255_1_234
10
13.5850037
20
-0.362042
40
0.1852521
50
210.3789793
51
238.4008143
0
ARC
8
DEFAULT_255_1_234
10
13.5830559
20
-0.3573624
40
0.1882621
50
239.6520629
51
265.9793761
0
ARC
8
DEFAULT_255_1_234
10
13.5915759
20
-0.2901573
40
0.2559272
50
265.1315437
51
270.060332
0
ARC
8
DEFAULT_255_1_234
10
13.5944538
20
-0.3225466
40
0.2235528
50
269.3314664
51
287.2178029
0
ARC
8
DEFAULT_255_1_234
10
13.608239
20
-0.3728721
40
0.1714108
50
287.7958004
51
329.080874
0
ARC
8
DEFAULT_255_1_234
10
13.5124847
20
-0.313107
40
0.2842745
50
328.6634704
51
343.3325132
0
ARC
8
DEFAULT_255_1_234
10
13.2951867
20
-0.2454137
40
0.5118644
50
343.0499468
51
351.9393422
0
ARC
8
DEFAULT_255_1_234
10
12.9485167
20
-0.1943051
40
0.8622784
50
351.8069023
51
357.7959224
0
ARC
8
DEFAULT_255_1_234
10
12.6249723
20
-0.1775279
40
1.1862365
50
357.5871873
51
359.2677531
0
LINE
8
DEFAULT_255_1_234
10
14.8833489
20
0.0402327
11
14.8833489
21
-0.1525291
0
LINE
8
DEFAULT_255_1_234
10
14.1452322
20
-0.1726084
11
14.1452322
21
0.0257755
0
LINE
8
DEFAULT_255_1_234
10
14.7347618
20
-0.1926877
11
14.7347618
21
0.0506739
0
LINE
8
DEFAULT_255_1_234
10
14.2938193
20
0.0619184
11
14.2938193
21
-0.1758211
0
ARC
8
DEFAULT_255_1_234
10
13.6586379
20
-0.1574195
40
1.2247208
50
353.8441951
51
0.2287902
0
ARC
8
DEFAULT_255_1_234
10
14.1225882
20
-0.2092194
40
0.7578929
50
344.4934747
51
353.9765454
0
ARC
8
DEFAULT_255_1_234
10
14.4218473
20
-0.2943019
40
0.4467846
50
329.2803592
51
344.7472793
0
ARC
8
DEFAULT_255_1_234
10
14.5211298
20
-0.3487982
40
0.3336173
50
324.9352394
51
328.6160465
0
ARC
8
DEFAULT_255_1_234
10
14.5588406
20
-0.3751573
40
0.2876076
50
280.580143
51
324.9173126
0
ARC
8
DEFAULT_255_1_234
10
14.5187199
20
-0.2080901
40
0.4592847
50
269.5977311
51
281.6734359
0
ARC
8
DEFAULT_255_1_234
10
14.5115104
20
-0.2200827
40
0.4472986
50
256.6228859
51
270.51044
0
ARC
8
DEFAULT_255_1_234
10
14.4713082
20
-0.3749123
40
0.2873874
50
215.8618325
51
257.2788573
0
ARC
8
DEFAULT_255_1_234
10
14.5734114
20
-0.3064023
40
0.4102928
50
197.9693508
51
215.2623606
0
ARC
8
DEFAULT_255_1_234
10
14.821923
20
-0.2225291
40
0.6725652
50
187.8816417
51
198.2346507
0
ARC
8
DEFAULT_255_1_234
10
15.2177438
20
-0.1653921
40
1.0724845
50
180.8976217
51
188.0055519
0
ARC
8
DEFAULT_255_1_234
10
15.4977626
20
-0.1550223
40
1.3526448
50
180.7449369
51
181.1510016
0
ARC
8
DEFAULT_255_1_234
10
15.3400355
20
0.0306042
40
1.1948131
50
173.7675579
51
180.231553
0
ARC
8
DEFAULT_255_1_234
10
14.8882502
20
0.0816666
40
0.7401564
50
164.3058563
51
173.9002247
0
ARC
8
DEFAULT_255_1_234
10
14.597057
20
0.1655656
40
0.4371288
50
148.7922025
51
164.568378
0
ARC
8
DEFAULT_255_1_234
10
14.5019023
20
0.2186929
40
0.3282386
50
144.5883898
51
148.1176286
0
ARC
8
DEFAULT_255_1_234
10
14.467592
20
0.2426315
40
0.2864044
50
101.6440918
51
144.514236
0
ARC
8
DEFAULT_255_1_234
10
14.5100987
20
0.0737069
40
0.4604934
50
89.5284041
51
102.5819763
0
ARC
8
DEFAULT_255_1_234
10
14.5180075
20
0.0698018
40
0.464401
50
77.0437873
51
90.5081339
0
ARC
8
DEFAULT_255_1_234
10
14.5582077
20
0.2340615
40
0.2953195
50
48.2778575
51
77.4994676
0
ARC
8
DEFAULT_255_1_234
10
14.5654708
20
0.2469746
40
0.2808655
50
36.3142134
51
47.6305865
0
ARC
8
DEFAULT_255_1_234
10
14.4786015
20
0.1884515
40
0.3855453
50
18.2931786
51
35.6769206
0
ARC
8
DEFAULT_255_1_234
10
14.2242774
20
0.1011593
40
0.654423
50
8.024666
51
18.5605216
0
ARC
8
DEFAULT_255_1_234
10
13.8079694
20
0.0396792
40
1.0752407
50
1.1274072
51
8.1718305
0
ARC
8
DEFAULT_255_1_234
10
13.4843884
20
0.0269885
40
1.3990231
50
0.5424119
51
1.3863029
0
ARC
8
DEFAULT_255_1_234
10
13.6665262
20
0.0542342
40
1.0682415
50
359.8090433
51
4.9407866
0
ARC
8
DEFAULT_255_1_234
10
14.0875276
20
0.0918113
40
0.6455691
50
4.8362157
51
12.2904523
0
ARC
8
DEFAULT_255_1_234
10
14.3630391
20
0.1531965
40
0.3633074
50
12.0805627
51
23.8173984
0
ARC
8
DEFAULT_255_1_234
10
14.4804096
20
0.2028919
40
0.2358723
50
24.2871213
51
31.3935614
0
ARC
8
DEFAULT_255_1_234
10
14.5328794
20
0.2372233
40
0.1732111
50
30.7407893
51
82.4657128
0
ARC
8
DEFAULT_255_1_234
10
14.5148928
20
0.1488691
40
0.263235
50
81.1060089
51
90.2184952
0
ARC
8
DEFAULT_255_1_234
10
14.5113227
20
0.1746924
40
0.2374236
50
89.3806855
51
105.6762551
0
ARC
8
DEFAULT_255_1_234
10
14.4929857
20
0.2413567
40
0.1682847
50
105.7981136
51
149.7388061
0
ARC
8
DEFAULT_255_1_234
10
14.5993936
20
0.177395
40
0.2924306
50
149.4208916
51
163.6286378
0
ARC
8
DEFAULT_255_1_234
10
14.8084824
20
0.113625
40
0.5110213
50
163.3763315
51
172.1410975
0
ARC
8
DEFAULT_255_1_234
10
15.1385543
20
0.0663518
40
0.8444586
50
172.0259487
51
178.0703232
0
ARC
8
DEFAULT_255_1_234
10
15.4415632
20
0.0519906
40
1.1477868
50
177.8631668
51
179.5044149
0
ARC
8
DEFAULT_255_1_234
10
15.3343037
20
-0.1794611
40
1.0404907
50
179.7995573
51
185.2460446
0
ARC
8
DEFAULT_255_1_234
10
14.9300076
20
-0.2177487
40
0.6343885
50
185.1411642
51
193.0079639
0
ARC
8
DEFAULT_255_1_234
10
14.6656549
20
-0.2802359
40
0.3627568
50
192.7897626
51
205.2507664
0
ARC
8
DEFAULT_255_1_234
10
14.5610096
20
-0.3269585
40
0.2481908
50
205.8005384
51
211.2537509
0
ARC
8
DEFAULT_255_1_234
10
14.5086536
20
-0.362042
40
0.1852521
50
210.3789793
51
238.4008143
0
ARC
8
DEFAULT_255_1_234
10
14.5067058
20
-0.3573624
40
0.1882621
50
239.6520629
51
265.9793761
0
ARC
8
DEFAULT_255_1_234
10
14.5152258
20
-0.2901573
40
0.2559272
50
265.1315437
51
270.060332
0
ARC
8
DEFAULT_255_1_234
10
14.5181037
20
-0.3225466
40
0.2235528
50
269.3314664
51
287.2178029
0
ARC
8
DEFAULT_255_1_234
10
14.5318889
20
-0.3728721
40
0.1714108
50
287.7958004
51
329.080874
0
ARC
8
DEFAULT_255_1_234
10
14.4361346
20
-0.313107
40
0.2842745
50
328.6634704
51
343.3325132
0
ARC
8
DEFAULT_255_1_234
10
14.2188366
20
-0.2454137
40
0.5118644
50
343.0499468
51
351.9393422
0
ARC
8
DEFAULT_255_1_234
10
13.8721666
20
-0.1943051
40
0.8622784
50
351.8069023
51
357.7959224
0
ARC
8
DEFAULT_255_1_234
10
13.5486222
20
-0.1775279
40
1.1862365
50
357.5871873
51
359.2677531
0
LINE
8
DEFAULT_255_1_234
10
15.3981833
20
-0.0938974
11
15.3981833
21
-0.2151766
0
LINE
8
DEFAULT_255_1_234
10
15.3981833
20
-0.2151766
11
15.0062345
21
-0.2151766
0
LINE
8
DEFAULT_255_1_234
10
15.0062345
20
-0.2151766
11
15.0062345
21
-0.0938974
0
LINE
8
DEFAULT_255_1_234
10
15.0062345
20
-0.0938974
11
15.3981833
21
-0.0938974
0
LINE
8
DEFAULT_255_1_234
10
16.1547731
20
0.5181211
11
16.1547731
21
-0.258548
0
LINE
8
DEFAULT_255_1_234
10
16.1547731
20
-0.258548
11
16.3170142
21
-0.258548
0
LINE
8
DEFAULT_255_1_234
10
16.3170142
20
-0.258548
11
16.3170142
21
-0.3798272
0
LINE
8
DEFAULT_255_1_234
10
16.3170142
20
-0.3798272
11
16.1547731
21
-0.3798272
0
LINE
8
DEFAULT_255_1_234
10
16.1547731
20
-0.3798272
11
16.1547731
21
-0.6513
0
LINE
8
DEFAULT_255_1_234
10
16.1547731
20
-0.6513
11
16.0053828
21
-0.6513
0
LINE
8
DEFAULT_255_1_234
10
16.0053828
20
-0.6513
11
16.0053828
21
-0.3798272
0
LINE
8
DEFAULT_255_1_234
10
16.0053828
20
-0.3798272
11
15.4728785
21
-0.3798272
0
LINE
8
DEFAULT_255_1_234
10
15.4728785
20
-0.3798272
11
15.4728785
21
-0.2922813
0
LINE
8
DEFAULT_255_1_234
10
15.4728785
20
-0.2922813
11
15.9965479
21
0.5181211
0
LINE
8
DEFAULT_255_1_234
10
15.9965479
20
0.5181211
11
16.1547731
21
0.5181211
0
LINE
8
DEFAULT_255_1_234
10
15.9877129
20
0.2827912
11
15.641545
21
-0.258548
0
LINE
8
DEFAULT_255_1_234
10
15.641545
20
-0.258548
11
16.0053828
21
-0.258548
0
LINE
8
DEFAULT_255_1_234
10
16.0053828
20
-0.258548
11
16.0053828
21
0.3149181
0
LINE
8
DEFAULT_255_1_234
10
16.0053828
20
0.3149181
11
15.9877129
21
0.2827912
0
LINE
8
DEFAULT_255_1_234
10
16.8952994
20
-0.6513
11
16.4896966
21
-0.6513
0
LINE
8
DEFAULT_255_1_234
10
16.4896966
20
-0.6513
11
16.4896966
21
0.5181211
0
LINE
8
DEFAULT_255_1_234
10
16.4896966
20
0.5181211
11
16.8720073
21
0.5181211
0
LINE
8
DEFAULT_255_1_234
10
16.9009216
20
-0.1043386
11
16.643906
21
-0.1043386
0
LINE
8
DEFAULT_255_1_234
10
16.643906
20
-0.1043386
11
16.643906
21
-0.5252017
0
LINE
8
DEFAULT_255_1_234
10
16.643906
20
-0.5252017
11
16.8985121
21
-0.5252017
0
LINE
8
DEFAULT_255_1_234
10
16.643906
20
0.3912196
11
16.643906
21
0.0193501
0
LINE
8
DEFAULT_255_1_234
10
16.643906
20
0.0193501
11
16.8768264
21
0.0193501
0
LINE
8
DEFAULT_255_1_234
10
16.8720073
20
0.3912196
11
16.643906
21
0.3912196
0
ARC
8
DEFAULT_255_1_234
10
16.8757782
20
-0.2186099
40
0.7367406
50
82.1257326
51
90.2932599
0
ARC
8
DEFAULT_255_1_234
10
16.9146737
20
0.0532013
40
0.4621653
50
69.9044149
51
82.2857423
0
ARC
8
DEFAULT_255_1_234
10
16.9717415
20
0.2074637
40
0.2976871
50
51.1838526
51
70.0181538
0
ARC
8
DEFAULT_255_1_234
10
16.9972381
20
0.244524
40
0.2528517
50
12.1017251
51
50.4214761
0
ARC
8
DEFAULT_255_1_234
10
16.8588255
20
0.2097676
40
0.3955061
50
359.5251267
51
12.8211707
0
ARC
8
DEFAULT_255_1_234
10
17.0168181
20
0.2028344
40
0.2375281
50
323.4908128
51
0.8817314
0
ARC
8
DEFAULT_255_1_234
10
16.9749868
20
0.235155
40
0.2903817
50
298.6825083
51
323.2756573
0
ARC
8
DEFAULT_255_1_234
10
16.9388231
20
0.2952649
40
0.3604842
50
293.1999386
51
299.1396394
0
ARC
8
DEFAULT_255_1_234
10
17.0061204
20
-0.3132874
40
0.2871098
50
54.0011765
51
74.9167975
0
ARC
8
DEFAULT_255_1_234
10
17.0177563
20
-0.2935668
40
0.2643248
50
36.3580696
51
53.5291921
0
ARC
8
DEFAULT_255_1_234
10
17.0050805
20
-0.3026002
40
0.2798884
50
4.8189881
51
36.3089977
0
ARC
8
DEFAULT_255_1_234
10
16.927164
20
-0.313573
40
0.358478
50
359.9370252
51
5.5204067
0
ARC
8
DEFAULT_255_1_234
10
16.8947162
20
-0.3176333
40
0.3909429
50
344.7478609
51
0.5373281
0
ARC
8
DEFAULT_255_1_234
10
16.9938133
20
-0.3443456
40
0.2883093
50
311.1786488
51
344.6886812
0
ARC
8
DEFAULT_255_1_234
10
16.964618
20
-0.3080013
40
0.3348923
50
286.0418249
51
310.8441291
0
ARC
8
DEFAULT_255_1_234
10
16.9139012
20
-0.1433193
40
0.5071869
50
274.1042341
51
286.4071509
0
ARC
8
DEFAULT_255_1_234
10
16.8962268
20
0.0450229
40
0.6963234
50
269.9236873
51
274.445647
0
ARC
8
DEFAULT_255_1_234
10
16.9008269
20
-0.1889463
40
0.3362634
50
269.6055768
51
281.3740047
0
ARC
8
DEFAULT_255_1_234
10
16.9238907
20
-0.2982647
40
0.224546
50
281.1055983
51
302.5132223
0
ARC
8
DEFAULT_255_1_234
10
16.9385806
20
-0.3246177
40
0.1944357
50
303.0368945
51
311.8811219
0
ARC
8
DEFAULT_255_1_234
10
16.9457213
20
-0.333111
40
0.1833454
50
311.9916004
51
351.7143462
0
ARC
8
DEFAULT_255_1_234
10
16.8640443
20
-0.316607
40
0.2665871
50
350.7339597
51
0.2221581
0
ARC
8
DEFAULT_255_1_234
10
16.8532889
20
-0.3109533
40
0.2773789
50
359.0456241
51
17.2296242
0
ARC
8
DEFAULT_255_1_234
10
16.9572006
20
-0.2800837
40
0.1689915
50
17.6685481
51
78.9940892
0
ARC
8
DEFAULT_255_1_234
10
16.905517
20
-0.4655776
40
0.3612658
50
76.5635957
51
90.6980921
0
LINE
8
DEFAULT_255_1_234
10
16.9011154
20
-0.1043387
11
16.9009216
21
-0.1043386
0
ARC
8
DEFAULT_255_1_234
10
16.879083
20
0.3479036
40
0.3285612
50
269.6064736
51
281.4533503
0
ARC
8
DEFAULT_255_1_234
10
16.901365
20
0.2427688
40
0.2210975
50
281.2041486
51
302.5148063
0
ARC
8
DEFAULT_255_1_234
10
16.91505
20
0.2181241
40
0.1929674
50
303.021671
51
309.8369575
0
ARC
8
DEFAULT_255_1_234
10
16.9333961
20
0.1975488
40
0.1654181
50
309.5228395
51
356.9509836
0
ARC
8
DEFAULT_255_1_234
10
16.8670544
20
0.2070932
40
0.2322512
50
355.4701227
51
0.0492546
0
ARC
8
DEFAULT_255_1_234
10
16.8391635
20
0.2093094
40
0.2601498
50
359.5558597
51
11.2096359
0
ARC
8
DEFAULT_255_1_234
10
16.9348925
20
0.229123
40
0.1623975
50
10.9182341
51
31.3230275
0
ARC
8
DEFAULT_255_1_234
10
16.9634658
20
0.2450214
40
0.1297302
50
31.8852677
51
52.1412565
0
ARC
8
DEFAULT_255_1_234
10
16.9360391
20
0.206275
40
0.1771663
50
52.8285564
51
71.9850297
0
ARC
8
DEFAULT_255_1_234
10
16.8984567
20
0.0956664
40
0.2939794
50
71.6863486
51
82.8455995
0
ARC
8
DEFAULT_255_1_234
10
16.8745103
20
-0.0852851
40
0.476506
50
82.6984714
51
90.1729175
0
ARC
8
DEFAULT_255_1_234
10
16.8722738
20
0.0370623
40
0.3541573
50
89.8708275
51
90.0431131
0
LINE
8
DEFAULT_255_1_234
10
18.2711361
20
-0.6513
11
18.159495
21
-0.3460939
0
LINE
8
DEFAULT_255_1_234
10
18.159495
20
-0.3460939
11
17.6695589
21
-0.3460939
0
LINE
8
DEFAULT_255_1_234
10
17.6695589
20
-0.3460939
11
17.5595241
21
-0.6513
0
LINE
8
DEFAULT_255_1_234
10
17.5595241
20
-0.6513
11
17.4004957
21
-0.6513
0
LINE
8
DEFAULT_255_1_234
10
17.4004957
20
-0.6513
11
17.8470604
21
0.5181211
0
LINE
8
DEFAULT_255_1_234
10
17.8470604
20
0.5181211
11
17.9819936
21
0.5181211
0
LINE
8
DEFAULT_255_1_234
10
17.9819936
20
0.5181211
11
18.4293614
21
-0.6513
0
LINE
8
DEFAULT_255_1_234
10
18.4293614
20
-0.6513
11
18.2711361
21
-0.6513
0
LINE
8
DEFAULT_255_1_234
10
17.914527
20
0.3277689
11
17.716143
21
-0.2191925
0
LINE
8
DEFAULT_255_1_234
10
17.716143
20
-0.2191925
11
18.1137141
21
-0.2191925
0
LINE
8
DEFAULT_255_1_234
10
18.1137141
20
-0.2191925
11
17.914527
21
0.3277689
0
LINE
8
DEFAULT_255_1_234
10
19.2815288
20
0.0402327
11
19.2815288
21
-0.1525291
0
LINE
8
DEFAULT_255_1_234
10
18.5434121
20
-0.1726084
11
18.5434121
21
0.0257755
0
LINE
8
DEFAULT_255_1_234
10
19.1329417
20
-0.1926877
11
19.1329417
21
0.0506739
0
LINE
8
DEFAULT_255_1_234
10
18.6919992
20
0.0619184
11
18.6919992
21
-0.1758211
0
ARC
8
DEFAULT_255_1_234
10
18.0568178
20
-0.1574195
40
1.2247208
50
353.8441951
51
0.2287902
0
ARC
8
DEFAULT_255_1_234
10
18.5207681
20
-0.2092194
40
0.7578929
50
344.4934747
51
353.9765454
0
ARC
8
DEFAULT_255_1_234
10
18.8200272
20
-0.2943019
40
0.4467846
50
329.2803592
51
344.7472793
0
ARC
8
DEFAULT_255_1_234
10
18.9193096
20
-0.3487982
40
0.3336173
50
324.9352394
51
328.6160465
0
ARC
8
DEFAULT_255_1_234
10
18.9570205
20
-0.3751573
40
0.2876076
50
280.580143
51
324.9173126
0
ARC
8
DEFAULT_255_1_234
10
18.9168998
20
-0.2080901
40
0.4592847
50
269.5977311
51
281.6734359
0
ARC
8
DEFAULT_255_1_234
10
18.9096903
20
-0.2200827
40
0.4472986
50
256.6228859
51
270.51044
0
ARC
8
DEFAULT_255_1_234
10
18.8694881
20
-0.3749123
40
0.2873874
50
215.8618325
51
257.2788573
0
ARC
8
DEFAULT_255_1_234
10
18.9715913
20
-0.3064023
40
0.4102928
50
197.9693508
51
215.2623606
0
ARC
8
DEFAULT_255_1_234
10
19.2201028
20
-0.2225291
40
0.6725652
50
187.8816417
51
198.2346507
0
ARC
8
DEFAULT_255_1_234
10
19.6159237
20
-0.1653921
40
1.0724845
50
180.8976217
51
188.0055519
0
ARC
8
DEFAULT_255_1_234
10
19.8959425
20
-0.1550223
40
1.3526448
50
180.7449369
51
181.1510016
0
ARC
8
DEFAULT_255_1_234
10
19.7382154
20
0.0306042
40
1.1948131
50
173.7675579
51
180.231553
0
ARC
8
DEFAULT_255_1_234
10
19.28643
20
0.0816666
40
0.7401564
50
164.3058563
51
173.9002247
0
ARC
8
DEFAULT_255_1_234
10
18.9952369
20
0.1655656
40
0.4371288
50
148.7922025
51
164.568378
0
ARC
8
DEFAULT_255_1_234
10
18.9000821
20
0.2186929
40
0.3282386
50
144.5883898
51
148.1176286
0
ARC
8
DEFAULT_255_1_234
10
18.8657719
20
0.2426315
40
0.2864044
50
101.6440918
51
144.514236
0
ARC
8
DEFAULT_255_1_234
10
18.9082786
20
0.0737069
40
0.4604934
50
89.5284041
51
102.5819763
0
ARC
8
DEFAULT_255_1_234
10
18.9161874
20
0.0698018
40
0.464401
50
77.0437873
51
90.5081339
0
ARC
8
DEFAULT_255_1_234
10
18.9563876
20
0.2340615
40
0.2953195
50
48.2778575
51
77.4994676
0
ARC
8
DEFAULT_255_1_234
10
18.9636507
20
0.2469746
40
0.2808655
50
36.3142134
51
47.6305865
0
ARC
8
DEFAULT_255_1_234
10
18.8767814
20
0.1884515
40
0.3855453
50
18.2931786
51
35.6769206
0
ARC
8
DEFAULT_255_1_234
10
18.6224573
20
0.1011593
40
0.654423
50
8.024666
51
18.5605216
0
ARC
8
DEFAULT_255_1_234
10
18.2061493
20
0.0396792
40
1.0752407
50
1.1274072
51
8.1718305
0
ARC
8
DEFAULT_255_1_234
10
17.8825683
20
0.0269885
40
1.3990231
50
0.5424119
51
1.3863029
0
ARC
8
DEFAULT_255_1_234
10
18.0647061
20
0.0542342
40
1.0682415
50
359.8090433
51
4.9407866
0
ARC
8
DEFAULT_255_1_234
10
18.4857075
20
0.0918113
40
0.6455691
50
4.8362157
51
12.2904523
0
ARC
8
DEFAULT_255_1_234
10
18.761219
20
0.1531965
40
0.3633074
50
12.0805627
51
23.8173984
0
ARC
8
DEFAULT_255_1_234
10
18.8785895
20
0.2028919
40
0.2358723
50
24.2871213
51
31.3935614
0
ARC
8
DEFAULT_255_1_234
10
18.9310592
20
0.2372233
40
0.1732111
50
30.7407893
51
82.4657128
0
ARC
8
DEFAULT_255_1_234
10
18.9130727
20
0.1488691
40
0.263235
50
81.1060089
51
90.2184952
0
ARC
8
DEFAULT_255_1_234
10
18.9095026
20
0.1746924
40
0.2374236
50
89.3806855
51
105.6762551
0
ARC
8
DEFAULT_255_1_234
10
18.8911656
20
0.2413567
40
0.1682847
50
105.7981136
51
149.7388061
0
ARC
8
DEFAULT_255_1_234
10
18.9975735
20
0.177395
40
0.2924306
50
149.4208916
51
163.6286378
0
ARC
8
DEFAULT_255_1_234
10
19.2066623
20
0.113625
40
0.5110213
50
163.3763315
51
172.1410975
0
ARC
8
DEFAULT_255_1_234
10
19.5367342
20
0.0663518
40
0.8444586
50
172.0259487
51
178.0703232
0
ARC
8
DEFAULT_255_1_234
10
19.8397431
20
0.0519906
40
1.1477868
50
177.8631668
51
179.5044149
0
ARC
8
DEFAULT_255_1_234
10
19.7324836
20
-0.1794611
40
1.0404907
50
179.7995573
51
185.2460446
0
ARC
8
DEFAULT_255_1_234
10
19.3281875
20
-0.2177487
40
0.6343885
50
185.1411642
51
193.0079639
0
ARC
8
DEFAULT_255_1_234
10
19.0638347
20
-0.2802359
40
0.3627568
50
192.7897626
51
205.2507664
0
ARC
8
DEFAULT_255_1_234
10
18.9591894
20
-0.3269585
40
0.2481908
50
205.8005384
51
211.2537509
0
ARC
8
DEFAULT_255_1_234
10
18.9068335
20
-0.362042
40
0.1852521
50
210.3789793
51
238.4008143
0
ARC
8
DEFAULT_255_1_234
10
18.9048857
20
-0.3573624
40
0.1882621
50
239.6520629
51
265.9793761
0
ARC
8
DEFAULT_255_1_234
10
18.9134057
20
-0.2901573
40
0.2559272
50
265.1315437
51
270.060332
0
ARC
8
DEFAULT_255_1_234
10
18.9162836
20
-0.3225466
40
0.2235528
50
269.3314664
51
287.2178029
0
ARC
8
DEFAULT_255_1_234
10
18.9300688
20
-0.3728721
40
0.1714108
50
287.7958004
51
329.080874
0
ARC
8
DEFAULT_255_1_234
10
18.8343144
20
-0.313107
40
0.2842745
50
328.6634704
51
343.3325132
0
ARC
8
DEFAULT_255_1_234
10
18.6170165
20
-0.2454137
40
0.5118644
50
343.0499468
51
351.9393422
0
ARC
8
DEFAULT_255_1_234
10
18.2703465
20
-0.1943051
40
0.8622784
50
351.8069023
51
357.7959224
0
ARC
8
DEFAULT_255_1_234
10
17.9468021
20
-0.1775279
40
1.1862365
50
357.5871873
51
359.2677531
0
LINE
8
DEFAULT_255_1_234
10
20.2051787
20
0.0402327
11
20.2051787
21
-0.1525291
0
LINE
8
DEFAULT_255_1_234
10
19.467062
20
-0.1726084
11
19.467062
21
0.0257755
0
LINE
8
DEFAULT_255_1_234
10
20.0565916
20
-0.1926877
11
20.0565916
21
0.0506739
0
LINE
8
DEFAULT_255_1_234
10
19.6156491
20
0.0619184
11
19.6156491
21
-0.1758211
0
ARC
8
DEFAULT_255_1_234
10
18.9804677
20
-0.1574195
40
1.2247208
50
353.8441951
51
0.2287902
0
ARC
8
DEFAULT_255_1_234
10
19.444418
20
-0.2092194
40
0.7578929
50
344.4934747
51
353.9765454
0
ARC
8
DEFAULT_255_1_234
10
19.7436771
20
-0.2943019
40
0.4467846
50
329.2803592
51
344.7472793
0
ARC
8
DEFAULT_255_1_234
10
19.8429595
20
-0.3487982
40
0.3336173
50
324.9352394
51
328.6160465
0
ARC
8
DEFAULT_255_1_234
10
19.8806704
20
-0.3751573
40
0.2876076
50
280.580143
51
324.9173126
0
ARC
8
DEFAULT_255_1_234
10
19.8405497
20
-0.2080901
40
0.4592847
50
269.5977311
51
281.6734359
0
ARC
8
DEFAULT_255_1_234
10
19.8333402
20
-0.2200827
40
0.4472986
50
256.6228859
51
270.51044
0
ARC
8
DEFAULT_255_1_234
10
19.793138
20
-0.3749123
40
0.2873874
50
215.8618325
51
257.2788573
0
ARC
8
DEFAULT_255_1_234
10
19.8952412
20
-0.3064023
40
0.4102928
50
197.9693508
51
215.2623606
0
ARC
8
DEFAULT_255_1_234
10
20.1437527
20
-0.2225291
40
0.6725652
50
187.8816417
51
198.2346507
0
ARC
8
DEFAULT_255_1_234
10
20.5395736
20
-0.1653921
40
1.0724845
50
180.8976217
51
188.0055519
0
ARC
8
DEFAULT_255_1_234
10
20.8195924
20
-0.1550223
40
1.3526448
50
180.7449369
51
181.1510016
0
ARC
8
DEFAULT_255_1_234
10
20.6618653
20
0.0306042
40
1.1948131
50
173.7675579
51
180.231553
0
ARC
8
DEFAULT_255_1_234
10
20.2100799
20
0.0816666
40
0.7401564
50
164.3058563
51
173.9002247
0
ARC
8
DEFAULT_255_1_234
10
19.9188868
20
0.1655656
40
0.4371288
50
148.7922025
51
164.568378
0
ARC
8
DEFAULT_255_1_234
10
19.823732
20
0.2186929
40
0.3282386
50
144.5883898
51
148.1176286
0
ARC
8
DEFAULT_255_1_234
10
19.7894218
20
0.2426315
40
0.2864044
50
101.6440918
51
144.514236
0
ARC
8
DEFAULT_255_1_234
10
19.8319285
20
0.0737069
40
0.4604934
50
89.5284041
51
102.5819763
0
ARC
8
DEFAULT_255_1_234
10
19.8398373
20
0.0698018
40
0.464401
50
77.0437873
51
90.5081339
0
ARC
8
DEFAULT_255_1_234
10
19.8800375
20
0.2340615
40
0.2953195
50
48.2778575
51
77.4994676
0
ARC
8
DEFAULT_255_1_234
10
19.8873006
20
0.2469746
40
0.2808655
50
36.3142134
51
47.6305865
0
ARC
8
DEFAULT_255_1_234
10
19.8004313
20
0.1884515
40
0.3855453
50
18.2931786
51
35.6769206
0
ARC
8
DEFAULT_255_1_234
10
19.5461072
20
0.1011593
40
0.654423
50
8.024666
51
18.5605216
0
ARC
8
DEFAULT_255_1_234
10
19.1297992
20
0.0396792
40
1.0752407
50
1.1274072
51
8.1718305
0
ARC
8
DEFAULT_255_1_234
10
18.8062182
20
0.0269885
40
1.3990231
50
0.5424119
51
1.3863029
0
ARC
8
DEFAULT_255_1_234
10
18.988356
20
0.0542342
40
1.0682415
50
359.8090433
51
4.9407866
0
ARC
8
DEFAULT_255_1_234
10
19.4093574
20
0.0918113
40
0.6455691
50
4.8362157
51
12.2904523
0
ARC
8
DEFAULT_255_1_234
10
19.6848689
20
0.1531965
40
0.3633074
50
12.0805627
51
23.8173984
0
ARC
8
DEFAULT_255_1_234
10
19.8022394
20
0.2028919
40
0.2358723
50
24.2871213
51
31.3935614
0
ARC
8
DEFAULT_255_1_234
10
19.8547091
20
0.2372233
40
0.1732111
50
30.7407893
51
82.4657128
0
ARC
8
DEFAULT_255_1_234
10
19.8367226
20
0.1488691
40
0.263235
50
81.1060089
51
90.2184952
0
ARC
8
DEFAULT_255_1_234
10
19.8331525
20
0.1746924
40
0.2374236
50
89.3806855
51
105.6762551
0
ARC
8
DEFAULT_255_1_234
10
19.8148155
20
0.2413567
40
0.1682847
50
105.7981136
51
149.7388061
0
ARC
8
DEFAULT_255_1_234
10
19.9212234
20
0.177395
40
0.2924306
50
149.4208916
51
163.6286378
0
ARC
8
DEFAULT_255_1_234
10
20.1303122
20
0.113625
40
0.5110213
50
163.3763315
51
172.1410975
0
ARC
8
DEFAULT_255_1_234
10
20.4603841
20
0.0663518
40
0.8444586
50
172.0259487
51
178.0703232
0
ARC
8
DEFAULT_255_1_234
10
20.763393
20
0.0519906
40
1.1477868
50
177.8631668
51
179.5044149
0
ARC
8
DEFAULT_255_1_234
10
20.6561335
20
-0.1794611
40
1.0404907
50
179.7995573
51
185.2460446
0
ARC
8
DEFAULT_255_1_234
10
20.2518374
20
-0.2177487
40
0.6343885
50
185.1411642
51
193.0079639
0
ARC
8
DEFAULT_255_1_234
10
19.9874846
20
-0.2802359
40
0.3627568
50
192.7897626
51
205.2507664
0
ARC
8
DEFAULT_255_1_234
10
19.8828393
20
-0.3269585
40
0.2481908
50
205.8005384
51
211.2537509
0
ARC
8
DEFAULT_255_1_234
10
19.8304834
20
-0.362042
40
0.1852521
50
210.3789793
51
238.4008143
0
ARC
8
DEFAULT_255_1_234
10
19.8285356
20
-0.3573624
40
0.1882621
50
239.6520629
51
265.9793761
0
ARC
8
DEFAULT_255_1_234
10
19.8370556
20
-0.2901573
40
0.2559272
50
265.1315437
51
270.060332
0
ARC
8
DEFAULT_255_1_234
10
19.8399335
20
-0.3225466
40
0.2235528
50
269.3314664
51
287.2178029
0
ARC
8
DEFAULT_255_1_234
10
19.8537187
20
-0.3728721
40
0.1714108
50
287.7958004
51
329.080874
0
ARC
8
DEFAULT_255_1_234
10
19.7579644
20
-0.313107
40
0.2842745
50
328.6634704
51
343.3325132
0
ARC
8
DEFAULT_255_1_234
10
19.5406664
20
-0.2454137
40
0.5118644
50
343.0499468
51
351.9393422
0
ARC
8
DEFAULT_255_1_234
10
19.1939964
20
-0.1943051
40
0.8622784
50
351.8069023
51
357.7959224
0
ARC
8
DEFAULT_255_1_234
10
18.870452
20
-0.1775279
40
1.1862365
50
357.5871873
51
359.2677531
0
ARC
8
DEFAULT_255_2_778
10
7.7537338
20
20.5887992
40
3.0484709
50
251.6854144
51
258.6071955
0
ARC
8
DEFAULT_255_2_778
10
7.539521
20
19.5071738
40
1.9458471
50
258.4992492
51
268.3986479
0
ARC
8
DEFAULT_255_2_778
10
7.5172314
20
19.0769206
40
1.5151737
50
268.7865272
51
269.9950384
0
ARC
8
DEFAULT_255_2_778
10
7.5277432
20
18.6257355
40
1.0640417
50
269.426895
51
279.6711067
0
ARC
8
DEFAULT_255_2_778
10
7.6417753
20
17.9961746
40
0.4243233
50
278.7731084
51
300.3324923
0
ARC
8
DEFAULT_255_2_778
10
7.760746
20
17.7935552
40
0.1893587
50
300.2240287
51
1.9041213
0
ARC
8
DEFAULT_255_2_778
10
7.7452705
20
17.8027089
40
0.2047497
50
359.1991369
51
359.99965
0
ARC
8
DEFAULT_255_2_778
10
7.7523233
20
17.8035378
40
0.1976988
50
359.7594145
51
47.1793976
0
ARC
8
DEFAULT_255_2_778
10
7.6187277
20
17.654931
40
0.3975169
50
47.6144502
51
60.8366176
0
ARC
8
DEFAULT_255_2_778
10
7.0190958
20
16.6389865
40
1.5771337
50
59.799464
51
64.8885807
0
ARC
8
DEFAULT_255_2_778
10
6.0948833
20
14.7099682
40
3.7160912
50
64.6076081
51
66.8386974
0
ARC
8
DEFAULT_255_2_778
10
9.6419609
20
23.0730052
40
5.368109
50
244.3032309
51
247.1393781
0
ARC
8
DEFAULT_255_2_778
10
8.5507088
20
20.813018
40
2.8584574
50
240.2323579
51
244.3709759
0
ARC
8
DEFAULT_255_2_778
10
7.7800475
20
19.4761591
40
1.315392
50
233.2209971
51
240.4606284
0
ARC
8
DEFAULT_255_2_778
10
7.3561477
20
18.9050187
40
0.6041399
50
225.6990744
51
232.9899679
0
ARC
8
DEFAULT_255_2_778
10
7.3965073
20
18.9294214
40
0.6499005
50
178.2783416
51
224.6550883
0
ARC
8
DEFAULT_255_2_778
10
7.5059624
20
18.9627974
40
0.7591885
50
157.033673
51
181.0453383
0
ARC
8
DEFAULT_255_2_778
10
7.378439
20
19.0036396
40
0.6259551
50
124.9113017
51
155.9211516
0
ARC
8
DEFAULT_255_2_778
10
7.5960466
20
18.6950681
40
1.0035357
50
100.4079723
51
125.0168617
0
ARC
8
DEFAULT_255_2_778
10
7.6991199
20
18.2010046
40
1.5081396
50
89.6483922
51
100.8684975
0
ARC
8
DEFAULT_255_2_778
10
7.7083242
20
17.8487988
40
1.8603169
50
89.5079487
51
89.9984402
0
ARC
8
DEFAULT_255_2_778
10
7.7099573
20
17.7835694
40
1.9255311
50
83.9170631
51
89.5732113
0
ARC
8
DEFAULT_255_2_778
10
7.5071517
20
15.7759957
40
3.9433074
50
80.7325723
51
84.0779772
0
ARC
8
DEFAULT_255_2_778
10
7.0208457
20
12.753082
40
7.0050837
50
78.5086351
51
80.7886813
0
ARC
8
DEFAULT_255_2_778
10
7.6620177
20
17.3525544
40
1.9415426
50
67.135818
51
78.0934208
0
ARC
8
DEFAULT_255_2_778
10
7.7851814
20
17.9229809
40
1.3579807
50
78.2126325
51
89.7333975
0
ARC
8
DEFAULT_255_2_778
10
7.7793853
20
18.3381211
40
0.9429038
50
89.2638155
51
100.5666868
0
ARC
8
DEFAULT_255_2_778
10
7.6660949
20
18.9079419
40
0.362036
50
99.4784875
51
124.329414
0
ARC
8
DEFAULT_255_2_778
10
7.5705593
20
19.056051
40
0.1859067
50
125.7571195
51
182.2824883
0
ARC
8
DEFAULT_255_2_778
10
7.5493239
20
19.0493629
40
0.1645253
50
180.2492993
51
239.8144161
0
ARC
8
DEFAULT_255_2_778
10
7.932718
20
19.6494128
40
0.876484
50
237.8725734
51
242.8068846
0
ARC
8
DEFAULT_255_2_778
10
9.4175857
20
22.4659958
40
4.0604642
50
242.3328458
51
244.031083
0
ARC
8
DEFAULT_255_2_778
10
12.3804066
20
28.5144314
40
10.7955807
50
243.950624
51
244.8024316
0
ARC
8
DEFAULT_255_2_778
10
15.4009918
20
34.8984175
40
17.8580926
50
244.7535425
51
244.9563234
0
ARC
8
DEFAULT_255_2_778
10
5.8652927
20
14.3968264
40
4.7527588
50
62.2505456
51
65.4301556
0
ARC
8
DEFAULT_255_2_778
10
6.9275435
20
16.4049172
40
2.4810291
50
57.2951304
51
62.3684211
0
ARC
8
DEFAULT_255_2_778
10
7.6807233
20
17.5682235
40
1.0952081
50
48.7345704
51
57.5685367
0
ARC
8
DEFAULT_255_2_778
10
8.0117486
20
17.9557722
40
0.5856147
50
44.3236031
51
48.0704418
0
ARC
8
DEFAULT_255_2_778
10
7.9783002
20
17.9357468
40
0.6236013
50
1.3523843
51
43.4925744
0
ARC
8
DEFAULT_255_2_778
10
7.7103531
20
17.9028151
40
0.8926473
50
359.9763756
51
3.0599076
0
ARC
8
DEFAULT_255_2_778
10
7.8645343
20
17.8877407
40
0.7386124
50
333.0361889
51
1.1408766
0
ARC
8
DEFAULT_255_2_778
10
7.8947908
20
17.8946919
40
0.7150741
50
300.8430083
51
331.4403095
0
ARC
8
DEFAULT_255_2_778
10
7.694568
20
18.2082162
40
1.0869673
50
281.4258583
51
301.4316118
0
ARC
8
DEFAULT_255_2_778
10
7.5632666
20
18.8164414
40
1.7091691
50
270.2273513
51
281.7010805
0
ARC
8
DEFAULT_255_2_778
10
7.5453797
20
19.2931043
40
2.1859577
50
269.9983113
51
270.6466065
0
LINE
8
DEFAULT_255_2_778
10
7.5453153
20
17.1071465
11
7.5438002
21
17.107147
0
ARC
8
DEFAULT_255_2_778
10
7.5509161
20
20.2900969
40
3.1829579
50
256.2431122
51
269.871909
0
ARC
8
DEFAULT_255_2_778
10
21.7538511
20
20.5146629
40
2.9720345
50
251.5709223
51
258.7508181
0
ARC
8
DEFAULT_255_2_778
10
21.5538128
20
19.4914385
40
1.9294488
50
258.6495077
51
268.8281511
0
ARC
8
DEFAULT_255_2_778
10
21.5355488
20
19.0966193
40
1.5343723
50
269.2085037
51
269.9981866
0
ARC
8
DEFAULT_255_2_778
10
21.5473849
20
18.6282184
40
1.0660376
50
269.3612297
51
279.5899087
0
ARC
8
DEFAULT_255_2_778
10
21.6608439
20
17.9967324
40
0.424527
50
278.6895227
51
300.2363944
0
ARC
8
DEFAULT_255_2_778
10
21.7799083
20
17.7932793
40
0.188796
50
300.1108484
51
1.9024905
0
ARC
8
DEFAULT_255_2_778
10
21.7439577
20
17.8039221
40
0.2246851
50
358.8842611
51
0.0019649
0
ARC
8
DEFAULT_255_2_778
10
21.7769791
20
17.8078385
40
0.1917038
50
358.831716
51
47.0900458
0
ARC
8
DEFAULT_255_2_778
10
21.6364654
20
17.648484
40
0.4041259
50
47.8812665
51
61.174665
0
ARC
8
DEFAULT_255_2_778
10
21.0418848
20
16.6285117
40
1.5846568
50
60.1210877
51
65.1917015
0
ARC
8
DEFAULT_255_2_778
10
20.1415278
20
14.7229122
40
3.6922188
50
64.9168629
51
67.1565628
0
ARC
8
DEFAULT_255_2_778
10
23.6275467
20
22.9944888
40
5.2839333
50
244.2656926
51
247.1407051
0
ARC
8
DEFAULT_255_2_778
10
22.5594997
20
20.786265
40
2.8309849
50
240.1545061
51
244.3326325
0
ARC
8
DEFAULT_255_2_778
10
21.7856548
20
19.4502346
40
1.2870531
50
232.697515
51
240.4357497
0
ARC
8
DEFAULT_255_2_778
10
21.3705506
20
18.8992218
40
0.5972006
50
225.5850892
51
232.3393736
0
ARC
8
DEFAULT_255_2_778
10
21.4133941
20
18.9287933
40
0.6483829
50
178.7795739
51
224.7095916
0
ARC
8
DEFAULT_255_2_778
10
21.6669319
20
18.9528135
40
0.9018316
50
179.997867
51
180.6487041
0
ARC
8
DEFAULT_255_2_778
10
21.5167738
20
18.9666249
40
0.7517998
50
156.9195758
51
181.050088
0
ARC
8
DEFAULT_255_2_778
10
21.3928482
20
19.0060712
40
0.6224513
50
124.7111133
51
155.7879672
0
ARC
8
DEFAULT_255_2_778
10
21.6055459
20
18.7141942
40
0.9835402
50
101.7934503
51
125.2143527
0
ARC
8
DEFAULT_255_2_778
10
21.729848
20
18.1616326
40
1.5498677
50
89.5248728
51
102.1166783
0
ARC
8
DEFAULT_255_2_778
10
21.7283109
20
17.6080834
40
2.1034129
50
83.2889725
51
89.6080411
0
ARC
8
DEFAULT_255_2_778
10
21.529975
20
15.8402668
40
3.8823067
50
79.4764054
51
83.4308492
0
ARC
8
DEFAULT_255_2_778
10
21.2186357
20
14.0870673
40
5.6628977
50
78.2224868
51
79.6190915
0
ARC
8
DEFAULT_255_2_778
10
21.6838473
20
17.3645715
40
1.9311543
50
67.1323814
51
78.3148813
0
ARC
8
DEFAULT_255_2_778
10
21.801359
20
17.9160614
40
1.3672981
50
78.4565774
51
89.7552271
0
ARC
8
DEFAULT_255_2_778
10
21.7951366
20
18.346947
40
0.9364778
50
89.2619009
51
100.5950934
0
ARC
8
DEFAULT_255_2_778
10
21.6824182
20
18.9124169
40
0.3599879
50
99.5087086
51
124.406715
0
ARC
8
DEFAULT_255_2_778
10
21.5878565
20
19.058843
40
0.1858061
50
125.8630185
51
182.2986975
0
ARC
8
DEFAULT_255_2_778
10
21.5497296
20
19.0513047
40
0.1475296
50
179.9666559
51
180.100057
0
ARC
8
DEFAULT_255_2_778
10
21.566185
20
19.051293
40
0.163985
50
180.0859454
51
239.8819968
0
ARC
8
DEFAULT_255_2_778
10
21.9379018
20
19.6380619
40
0.8584853
50
238.072871
51
243.0442008
0
ARC
8
DEFAULT_255_2_778
10
23.4872034
20
22.6030845
40
4.2038426
50
242.5409111
51
244.1884903
0
ARC
8
DEFAULT_255_2_778
10
26.6463384
20
29.097696
40
11.4260319
50
244.1076525
51
244.9219574
0
ARC
8
DEFAULT_255_2_778
10
29.9038827
20
36.021355
40
19.0777309
50
244.8743531
51
245.066969
0
ARC
8
DEFAULT_255_2_778
10
19.8865272
20
14.4291274
40
4.7250654
50
62.0340028
51
65.293009
0
ARC
8
DEFAULT_255_2_778
10
20.9507744
20
16.4240758
40
2.464003
50
57.1127289
51
62.13736
0
ARC
8
DEFAULT_255_2_778
10
21.7037139
20
17.5777906
40
1.0863604
50
48.3695509
51
57.4197129
0
ARC
8
DEFAULT_255_2_778
10
22.0286268
20
17.9545419
40
0.5889589
50
44.472493
51
47.6467012
0
ARC
8
DEFAULT_255_2_778
10
21.9979457
20
17.9374032
40
0.6229283
50
1.2061613
51
43.6203607
0
ARC
8
DEFAULT_255_2_778
10
21.7312413
20
17.9049903
40
0.890659
50
359.9779196
51
2.9299178
0
ARC
8
DEFAULT_255_2_778
10
21.8802547
20
17.8898837
40
0.7417924
50
333.172934
51
1.140392
0
ARC
8
DEFAULT_255_2_778
10
21.9146167
20
17.8945736
40
0.7135172
50
300.9808035
51
331.5913995
0
ARC
8
DEFAULT_255_2_778
10
21.7182603
20
18.2044862
40
1.0803281
50
281.9040909
51
301.4483918
0
ARC
8
DEFAULT_255_2_778
10
21.5848425
20
18.8030518
40
1.6935565
50
270.5796874
51
282.1436175
0
ARC
8
DEFAULT_255_2_778
10
21.5636722
20
19.2979735
40
2.1887267
50
269.9959074
51
271.0027751
0
LINE
8
DEFAULT_255_2_778
10
21.5635158
20
17.1092468
11
21.5625002
21
17.109247
0
ARC
8
DEFAULT_255_2_778
10
21.5700221
20
20.2980174
40
3.1887792
50
256.2556596
51
269.8648469
0
LINE
8
DEFAULT_255_2_778
10
6.7958002
20
17.200047
11
6.7958002
21
17.694747
0
LINE
8
DEFAULT_255_2_778
10
8.4164002
20
19.617747
11
8.4164002
21
19.141547
0
LINE
8
DEFAULT_255_2_778
10
6.7940002
20
17.198447
11
6.7958002
21
17.200047
0
LINE
8
DEFAULT_255_2_778
10
8.9866002
20
19.667247
11
9.6629002
21
19.667247
0
LINE
8
DEFAULT_255_2_778
10
9.6629002
20
19.667247
11
9.6629002
21
17.159847
0
LINE
8
DEFAULT_255_2_778
10
9.6629002
20
17.159847
11
8.9866002
21
17.159847
0
LINE
8
DEFAULT_255_2_778
10
8.9866002
20
17.159847
11
8.9866002
21
19.667247
0
LINE
8
DEFAULT_255_2_778
10
10.2809002
20
17.159847
11
10.2809002
21
19.667247
0
LINE
8
DEFAULT_255_2_778
10
10.2809002
20
19.667247
11
12.0132002
21
19.667247
0
LINE
8
DEFAULT_255_2_778
10
12.0132002
20
19.667247
11
12.0132002
21
19.213547
0
LINE
8
DEFAULT_255_2_778
10
12.0132002
20
19.213547
11
10.9321002
21
19.213547
0
LINE
8
DEFAULT_255_2_778
10
10.9321002
20
19.213547
11
10.9321002
21
18.647247
0
LINE
8
DEFAULT_255_2_778
10
10.9321002
20
18.647247
11
11.8735002
21
18.647247
0
LINE
8
DEFAULT_255_2_778
10
11.8735002
20
18.647247
11
11.8735002
21
18.233747
0
LINE
8
DEFAULT_255_2_778
10
11.8735002
20
18.233747
11
10.9321002
21
18.233747
0
LINE
8
DEFAULT_255_2_778
10
10.9321002
20
18.233747
11
10.9321002
21
17.638447
0
LINE
8
DEFAULT_255_2_778
10
10.9321002
20
17.638447
11
12.0412002
21
17.638447
0
LINE
8
DEFAULT_255_2_778
10
12.0412002
20
17.638447
11
12.0412002
21
17.158247
0
LINE
8
DEFAULT_255_2_778
10
12.0412002
20
17.158247
11
10.2809002
21
17.159847
0
LINE
8
DEFAULT_255_2_778
10
12.4817002
20
17.159847
11
12.4817002
21
19.667247
0
LINE
8
DEFAULT_255_2_778
10
12.4817002
20
19.667247
11
13.3575002
21
19.667247
0
LINE
8
DEFAULT_255_2_778
10
13.3575002
20
19.667247
11
13.9671002
21
18.064947
0
LINE
8
DEFAULT_255_2_778
10
13.9671002
20
18.064947
11
14.5897002
21
19.667247
0
LINE
8
DEFAULT_255_2_778
10
14.5897002
20
19.667247
11
15.4215002
21
19.667247
0
LINE
8
DEFAULT_255_2_778
10
15.4215002
20
19.667247
11
15.4215002
21
17.159847
0
LINE
8
DEFAULT_255_2_778
10
15.4215002
20
17.159847
11
14.7812002
21
17.159847
0
LINE
8
DEFAULT_255_2_778
10
14.7812002
20
17.159847
11
14.7812002
21
18.935647
0
LINE
8
DEFAULT_255_2_778
10
14.7812002
20
18.935647
11
14.0724002
21
17.135447
0
LINE
8
DEFAULT_255_2_778
10
14.0724002
20
17.135447
11
13.6515002
21
17.135447
0
LINE
8
DEFAULT_255_2_778
10
13.6515002
20
17.135447
11
12.9559002
21
18.935647
0
LINE
8
DEFAULT_255_2_778
10
12.9559002
20
18.935647
11
12.9559002
21
17.159547
0
LINE
8
DEFAULT_255_2_778
10
12.9559002
20
17.159547
11
12.4817002
21
17.159847
0
LINE
8
DEFAULT_255_2_778
10
16.0409002
20
17.159847
11
16.0409002
21
19.667247
0
LINE
8
DEFAULT_255_2_778
10
16.0409002
20
19.667247
11
17.7731002
21
19.667247
0
LINE
8
DEFAULT_255_2_778
10
17.7731002
20
19.667247
11
17.7731002
21
19.213547
0
LINE
8
DEFAULT_255_2_778
10
17.7731002
20
19.213547
11
16.6921002
21
19.213547
0
LINE
8
DEFAULT_255_2_778
10
16.6921002
20
19.213547
11
16.6921002
21
18.647247
0
LINE
8
DEFAULT_255_2_778
10
16.6921002
20
18.647247
11
17.6334002
21
18.647247
0
LINE
8
DEFAULT_255_2_778
10
17.6334002
20
18.647247
11
17.6334002
21
18.233747
0
LINE
8
DEFAULT_255_2_778
10
17.6334002
20
18.233747
11
16.6921002
21
18.233747
0
LINE
8
DEFAULT_255_2_778
10
16.6921002
20
18.233747
11
16.6921002
21
17.638447
0
LINE
8
DEFAULT_255_2_778
10
16.6921002
20
17.638447
11
17.8030002
21
17.638447
0
LINE
8
DEFAULT_255_2_778
10
17.8030002
20
17.638447
11
17.8030002
21
17.158247
0
LINE
8
DEFAULT_255_2_778
10
17.8030002
20
17.158247
11
16.0409002
21
17.159847
0
LINE
8
DEFAULT_255_2_778
10
18.2454002
20
17.159847
11
18.2454002
21
19.667247
0
LINE
8
DEFAULT_255_2_778
10
18.2454002
20
19.667247
11
19.0283002
21
19.667247
0
LINE
8
DEFAULT_255_2_778
10
19.0283002
20
19.667247
11
19.8586002
21
17.988447
0
LINE
8
DEFAULT_255_2_778
10
19.8586002
20
17.988447
11
19.8586002
21
19.667247
0
LINE
8
DEFAULT_255_2_778
10
19.8586002
20
19.667247
11
20.3343002
21
19.667247
0
LINE
8
DEFAULT_255_2_778
10
20.3343002
20
19.667247
11
20.3343002
21
17.159847
0
LINE
8
DEFAULT_255_2_778
10
20.3343002
20
17.159847
11
19.5739002
21
17.159847
0
LINE
8
DEFAULT_255_2_778
10
19.5739002
20
17.159847
11
18.7214002
21
18.861047
0
LINE
8
DEFAULT_255_2_778
10
18.7214002
20
18.861047
11
18.7214002
21
17.159847
0
LINE
8
DEFAULT_255_2_778
10
18.7214002
20
17.159847
11
18.2454002
21
17.159847
0
LINE
8
DEFAULT_255_2_778
10
20.8143002
20
17.200247
11
20.8143002
21
17.695047
0
LINE
8
DEFAULT_255_2_778
10
22.3745002
20
19.630747
11
22.4343002
21
19.620147
0
LINE
8
DEFAULT_255_2_778
10
22.4343002
20
19.620147
11
22.4343002
21
19.143947
0
LINE
8
DEFAULT_255_2_778
10
20.8124002
20
17.200547
11
20.8143002
21
17.200247
0
LINE
8
DEFAULT_255_1_234
10
9.1302023
20
15.3934849
11
8.9751897
21
15.3934849
0
LINE
8
DEFAULT_255_1_234
10
8.2828539
20
14.9011394
11
8.4378665
21
14.9011394
0
ARC
8
DEFAULT_255_1_234
10
9.041071
20
16.2881768
40
1.252368
50
248.9199003
51
254.1439814
0
ARC
8
DEFAULT_255_1_234
10
8.8730205
20
15.8555234
40
0.788226
50
241.633709
51
249.0064503
0
ARC
8
DEFAULT_255_1_234
10
8.72016
20
15.5754317
40
0.4691427
50
230.498225
51
241.8087113
0
ARC
8
DEFAULT_255_1_234
10
8.6417174
20
15.4754906
40
0.3421437
50
227.4064532
51
229.9881192
0
ARC
8
DEFAULT_255_1_234
10
8.5929694
20
15.4279088
40
0.2741476
50
200.6781896
51
228.1763934
0
ARC
8
DEFAULT_255_1_234
10
8.6002005
20
15.4264077
40
0.2804109
50
179.5061581
51
199.8694617
0
ARC
8
DEFAULT_255_1_234
10
8.5992757
20
15.433821
40
0.2795204
50
132.4834203
51
181.0242172
0
ARC
8
DEFAULT_255_1_234
10
8.6588339
20
15.3775704
40
0.3612768
50
129.2532479
51
133.4242687
0
ARC
8
DEFAULT_255_1_234
10
8.6734789
20
15.3555965
40
0.3875675
50
101.98776
51
128.8742646
0
ARC
8
DEFAULT_255_1_234
10
8.7133399
20
15.1834741
40
0.5642249
50
89.5906553
51
102.3169264
0
ARC
8
DEFAULT_255_1_234
10
8.7203891
20
15.2153148
40
0.5323783
50
77.2360837
51
90.3248275
0
ARC
8
DEFAULT_255_1_234
10
8.7410971
20
15.31204
40
0.4334697
50
63.837784
51
77.0809408
0
ARC
8
DEFAULT_255_1_234
10
8.7688732
20
15.3637911
40
0.3747796
50
45.9864267
51
64.1607727
0
ARC
8
DEFAULT_255_1_234
10
8.7949614
20
15.3935866
40
0.3352302
50
32.2747395
51
45.6547121
0
ARC
8
DEFAULT_255_1_234
10
8.8016054
20
15.395488
40
0.328603
50
359.6507365
51
32.6130309
0
ARC
8
DEFAULT_255_1_234
10
8.707315
20
15.395966
40
0.2678863
50
359.469343
51
14.9832209
0
ARC
8
DEFAULT_255_1_234
10
8.7778212
20
15.4148539
40
0.1948938
50
14.9781179
51
48.2004265
0
ARC
8
DEFAULT_255_1_234
10
8.7613856
20
15.3941983
40
0.2212521
50
48.5927837
51
74.1241538
0
ARC
8
DEFAULT_255_1_234
10
8.7280346
20
15.2841248
40
0.3362561
50
73.7888341
51
86.6652678
0
ARC
8
DEFAULT_255_1_234
10
8.7177911
20
15.1633881
40
0.4573953
50
86.2640471
51
90.0526343
0
ARC
8
DEFAULT_255_1_234
10
8.7149624
20
15.2029192
40
0.4178709
50
89.6697524
51
99.2309573
0
ARC
8
DEFAULT_255_1_234
10
8.6907075
20
15.3473964
40
0.2713749
50
99.069534
51
113.7658566
0
ARC
8
DEFAULT_255_1_234
10
8.6633266
20
15.4119677
40
0.2012469
50
114.0401004
51
127.9850673
0
ARC
8
DEFAULT_255_1_234
10
8.639283
20
15.441573
40
0.1631167
50
127.7287463
51
176.7105154
0
ARC
8
DEFAULT_255_1_234
10
8.7071547
20
15.4314693
40
0.2315392
50
175.1779447
51
180.0581938
0
ARC
8
DEFAULT_255_1_234
10
8.6228394
20
15.4302428
40
0.1472271
50
179.6142195
51
228.1246017
0
ARC
8
DEFAULT_255_1_234
10
8.6670063
20
15.4711308
40
0.2072299
50
226.5779593
51
230.8800004
0
ARC
8
DEFAULT_255_1_234
10
8.7141141
20
15.5336636
40
0.2854818
50
231.4635071
51
241.9260842
0
ARC
8
DEFAULT_255_1_234
10
8.8338319
20
15.75398
40
0.53622
50
241.7178533
51
248.3259551
0
ARC
8
DEFAULT_255_1_234
10
8.9723691
20
16.0972064
40
0.9063478
50
248.2007737
51
252.4528373
0
ARC
8
DEFAULT_255_1_234
10
9.0927416
20
16.4693441
40
1.2974635
50
252.3391078
51
254.3469452
0
ARC
8
DEFAULT_255_1_234
10
8.3385119
20
13.7716148
40
1.5037162
50
71.0197183
51
74.4087047
0
ARC
8
DEFAULT_255_1_234
10
8.5079804
20
14.2608111
40
0.9859993
50
66.1847285
51
71.086374
0
ARC
8
DEFAULT_255_1_234
10
8.6636116
20
14.61122
40
0.6025855
50
59.3536294
51
66.2691831
0
ARC
8
DEFAULT_255_1_234
10
8.7524769
20
14.7615609
40
0.4279449
50
49.1020879
51
59.3293958
0
ARC
8
DEFAULT_255_1_234
10
8.8343509
20
14.8548834
40
0.3038015
50
32.7919921
51
49.2505539
0
ARC
8
DEFAULT_255_1_234
10
8.8664599
20
14.8777191
40
0.264448
50
31.1181161
51
32.4005348
0
ARC
8
DEFAULT_255_1_234
10
8.8576136
20
14.8741779
40
0.2738556
50
8.1116974
51
30.7958831
0
ARC
8
DEFAULT_255_1_234
10
8.7765804
20
14.8603753
40
0.3560327
50
359.8389159
51
8.4706516
0
ARC
8
DEFAULT_255_1_234
10
8.8391596
20
14.8555137
40
0.2934776
50
337.4731098
51
0.7537279
0
ARC
8
DEFAULT_255_1_234
10
8.8570291
20
14.8535387
40
0.2762607
50
307.5917067
51
336.4315538
0
ARC
8
DEFAULT_255_1_234
10
8.8110119
20
14.9048102
40
0.3449979
50
307.6551545
51
308.4529766
0
ARC
8
DEFAULT_255_1_234
10
8.7879838
20
14.940325
40
0.3871988
50
284.3734338
51
307.1424381
0
ARC
8
DEFAULT_255_1_234
10
8.7384668
20
15.1224932
40
0.5759636
50
272.4382747
51
284.646547
0
ARC
8
DEFAULT_255_1_234
10
8.7257876
20
15.3024893
40
0.7563528
50
269.9708387
51
272.8178037
0
ARC
8
DEFAULT_255_1_234
10
8.7214916
20
15.0986716
40
0.5525489
50
248.2707594
51
270.4055579
0
ARC
8
DEFAULT_255_1_234
10
8.7160657
20
15.0796192
40
0.5328452
50
246.1383403
51
248.0542782
0
ARC
8
DEFAULT_255_1_234
10
8.6742036
20
14.9916843
40
0.4355005
50
233.1670131
51
246.4950969
0
ARC
8
DEFAULT_255_1_234
10
8.6187941
20
14.9168812
40
0.3424126
50
215.3403242
51
233.0843104
0
ARC
8
DEFAULT_255_1_234
10
8.5915372
20
14.8970549
40
0.3087104
50
179.2419209
51
215.2648451
0
ARC
8
DEFAULT_255_1_234
10
8.6682966
20
14.8984666
40
0.2304457
50
179.335461
51
199.1045811
0
ARC
8
DEFAULT_255_1_234
10
8.6350643
20
14.8897766
40
0.1962176
50
199.8828939
51
232.7063202
0
ARC
8
DEFAULT_255_1_234
10
8.6822911
20
14.9491788
40
0.2720938
50
232.3738199
51
255.5136649
0
ARC
8
DEFAULT_255_1_234
10
8.7163778
20
15.0735835
40
0.4010747
50
255.2446292
51
267.5320849
0
ARC
8
DEFAULT_255_1_234
10
8.7251401
20
15.1968702
40
0.5246356
50
267.1557994
51
270.0286766
0
ARC
8
DEFAULT_255_1_234
10
8.7279173
20
15.152495
40
0.4802668
50
269.7000017
51
278.1660162
0
ARC
8
DEFAULT_255_1_234
10
8.7535178
20
14.9794515
40
0.3053425
50
278.0231263
51
290.625471
0
ARC
8
DEFAULT_255_1_234
10
8.7882865
20
14.8867025
40
0.206291
50
290.6619762
51
307.0370976
0
ARC
8
DEFAULT_255_1_234
10
8.8183254
20
14.8498504
40
0.1587906
50
306.3943566
51
355.3030547
0
ARC
8
DEFAULT_255_1_234
10
8.7671186
20
14.8575113
40
0.2104809
50
354.3660432
51
0.0698737
0
ARC
8
DEFAULT_255_1_234
10
8.7813531
20
14.8597617
40
0.1962563
50
359.417946
51
16.1971788
0
ARC
8
DEFAULT_255_1_234
10
8.8268841
20
14.8722418
40
0.149053
50
16.4723299
51
52.6262157
0
ARC
8
DEFAULT_255_1_234
10
8.7447895
20
14.7638433
40
0.2850296
50
52.7386432
51
62.4979148
0
ARC
8
DEFAULT_255_1_234
10
8.6062972
20
14.5032283
40
0.5801521
50
62.2515216
51
68.1220564
0
ARC
8
DEFAULT_255_1_234
10
8.4342883
20
14.0804872
40
1.0365451
50
68.0062803
51
71.8053402
0
ARC
8
DEFAULT_255_1_234
10
8.2547255
20
13.5419758
40
1.6042013
50
71.7183119
51
73.9258742
0
LINE
8
DEFAULT_255_1_234
10
9.4956464
20
15.7316211
11
9.4956464
21
14.5622
0
LINE
8
DEFAULT_255_1_234
10
9.4956464
20
14.5622
11
9.341437
21
14.5622
0
LINE
8
DEFAULT_255_1_234
10
9.341437
20
14.5622
11
9.341437
21
15.7316211
0
LINE
8
DEFAULT_255_1_234
10
9.341437
20
15.7316211
11
9.4956464
21
15.7316211
0
LINE
8
DEFAULT_255_1_234
10
9.7775604
20
15.7316211
11
9.9767475
21
15.7316211
0
LINE
8
DEFAULT_255_1_234
10
9.9767475
20
15.7316211
11
10.3590583
21
14.7774506
0
LINE
8
DEFAULT_255_1_234
10
10.3590583
20
14.7774506
11
10.741369
21
15.7316211
0
LINE
8
DEFAULT_255_1_234
10
10.741369
20
15.7316211
11
10.9413593
21
15.7316211
0
LINE
8
DEFAULT_255_1_234
10
10.9413593
20
15.7316211
11
10.9413593
21
14.5622
0
LINE
8
DEFAULT_255_1_234
10
10.9413593
20
14.5622
11
10.7871499
21
14.5622
0
LINE
8
DEFAULT_255_1_234
10
10.7871499
20
14.5622
11
10.7871499
21
15.0175996
0
LINE
8
DEFAULT_255_1_234
10
10.7871499
20
15.0175996
11
10.801607
21
15.5091419
0
LINE
8
DEFAULT_255_1_234
10
10.801607
20
15.5091419
11
10.4176899
21
14.5622
0
LINE
8
DEFAULT_255_1_234
10
10.4176899
20
14.5622
11
10.2996234
21
14.5622
0
LINE
8
DEFAULT_255_1_234
10
10.2996234
20
14.5622
11
9.9165095
21
15.5067324
0
LINE
8
DEFAULT_255_1_234
10
9.9165095
20
15.5067324
11
9.9317698
21
15.0175996
0
LINE
8
DEFAULT_255_1_234
10
9.9317698
20
15.0175996
11
9.9317698
21
14.5622
0
LINE
8
DEFAULT_255_1_234
10
9.9317698
20
14.5622
11
9.7775604
21
14.5622
0
LINE
8
DEFAULT_255_1_234
10
9.7775604
20
14.5622
11
9.7775604
21
15.7316211
0
LINE
8
DEFAULT_255_1_234
10
11.9854853
20
14.5622
11
11.8738441
21
14.8674061
0
LINE
8
DEFAULT_255_1_234
10
11.8738441
20
14.8674061
11
11.3839081
21
14.8674061
0
LINE
8
DEFAULT_255_1_234
10
11.3839081
20
14.8674061
11
11.2738732
21
14.5622
0
LINE
8
DEFAULT_255_1_234
10
11.2738732
20
14.5622
11
11.1148448
21
14.5622
0
LINE
8
DEFAULT_255_1_234
10
11.1148448
20
14.5622
11
11.5614095
21
15.7316211
0
LINE
8
DEFAULT_255_1_234
10
11.5614095
20
15.7316211
11
11.6963427
21
15.7316211
0
LINE
8
DEFAULT_255_1_234
10
11.6963427
20
15.7316211
11
12.1437105
21
14.5622
0
LINE
8
DEFAULT_255_1_234
10
12.1437105
20
14.5622
11
11.9854853
21
14.5622
0
LINE
8
DEFAULT_255_1_234
10
11.6288761
20
15.5412689
11
11.4304921
21
14.9943075
0
LINE
8
DEFAULT_255_1_234
10
11.4304921
20
14.9943075
11
11.8280632
21
14.9943075
0
LINE
8
DEFAULT_255_1_234
10
11.8280632
20
14.9943075
11
11.6288761
21
15.5412689
0
LINE
8
DEFAULT_255_1_234
10
13.005516
20
15.7316211
11
13.005516
21
15.6047196
0
LINE
8
DEFAULT_255_1_234
10
13.005516
20
15.6047196
11
12.6296307
21
15.6047196
0
LINE
8
DEFAULT_255_1_234
10
12.6296307
20
15.6047196
11
12.6296307
21
14.5622
0
LINE
8
DEFAULT_255_1_234
10
12.6296307
20
14.5622
11
12.4762245
21
14.5622
0
LINE
8
DEFAULT_255_1_234
10
12.4762245
20
14.5622
11
12.4762245
21
15.6047196
0
LINE
8
DEFAULT_255_1_234
10
12.4762245
20
15.6047196
11
12.1011423
21
15.6047196
0
LINE
8
DEFAULT_255_1_234
10
12.1011423
20
15.6047196
11
12.1011423
21
15.7316211
0
LINE
8
DEFAULT_255_1_234
10
12.1011423
20
15.7316211
11
13.005516
21
15.7316211
0
LINE
8
DEFAULT_255_1_234
10
13.3444554
20
15.7316211
11
13.3444554
21
14.5622
0
LINE
8
DEFAULT_255_1_234
10
13.3444554
20
14.5622
11
13.190246
21
14.5622
0
LINE
8
DEFAULT_255_1_234
10
13.190246
20
14.5622
11
13.190246
21
15.7316211
0
LINE
8
DEFAULT_255_1_234
10
13.190246
20
15.7316211
11
13.3444554
21
15.7316211
0
LINE
8
DEFAULT_255_1_234
10
14.331556
20
14.9332663
11
14.4865686
21
14.9332663
0
LINE
8
DEFAULT_255_1_234
10
13.5862107
20
15.0922947
11
13.5862107
21
15.2047391
0
LINE
8
DEFAULT_255_1_234
10
14.4865686
20
15.3557357
11
14.331556
21
15.3557357
0
LINE
8
DEFAULT_255_1_234
10
13.7412232
20
15.2007232
11
13.7412232
21
15.0874757
0
ARC
8
DEFAULT_255_1_234
10
13.9385072
20
14.9929846
40
0.5513052
50
340.1774281
51
353.7814284
0
ARC
8
DEFAULT_255_1_234
10
14.0956425
20
14.9344582
40
0.3836379
50
311.4558989
51
340.4421614
0
ARC
8
DEFAULT_255_1_234
10
14.0923093
20
14.9455528
40
0.3941894
50
282.4333181
51
310.7513653
0
ARC
8
DEFAULT_255_1_234
10
14.0483832
20
15.1270679
40
0.5809175
50
269.9358511
51
282.809604
0
ARC
8
DEFAULT_255_1_234
10
14.0431899
20
15.2728212
40
0.7266847
50
270.0021091
51
270.3581957
0
ARC
8
DEFAULT_255_1_234
10
14.0379315
20
15.0127585
40
0.4666519
50
250.7884749
51
270.6489167
0
ARC
8
DEFAULT_255_1_234
10
14.021115
20
14.9490319
40
0.4009729
50
219.3627325
51
250.0611886
0
ARC
8
DEFAULT_255_1_234
10
14.1040361
20
15.0195042
40
0.5097822
50
193.5479632
51
219.5756669
0
ARC
8
DEFAULT_255_1_234
10
14.3411982
20
15.0810919
40
0.7547848
50
181.1218675
51
193.87563
0
ARC
8
DEFAULT_255_1_234
10
14.5482163
20
15.092158
40
0.9620055
50
179.9918545
51
181.5394234
0
ARC
8
DEFAULT_255_1_234
10
14.3631265
20
15.2084788
40
0.7769248
50
169.5837241
51
180.2757934
0
ARC
8
DEFAULT_255_1_234
10
14.1794203
20
15.2424229
40
0.590109
50
155.0365899
51
169.6003176
0
ARC
8
DEFAULT_255_1_234
10
14.0658667
20
15.2971677
40
0.4640625
50
136.783148
51
155.2472683
0
ARC
8
DEFAULT_255_1_234
10
14.0269144
20
15.3302562
40
0.4130255
50
121.7633186
51
136.428115
0
ARC
8
DEFAULT_255_1_234
10
14.0404106
20
15.3053227
40
0.4413323
50
95.6459699
51
121.5490577
0
ARC
8
DEFAULT_255_1_234
10
14.0561388
20
15.1944949
40
0.55319
50
89.924208
51
96.1377933
0
ARC
8
DEFAULT_255_1_234
10
14.0611821
20
15.2063542
40
0.5413475
50
76.6779277
51
90.4563316
0
ARC
8
DEFAULT_255_1_234
10
14.1005444
20
15.3654114
40
0.3775041
50
47.485847
51
76.9287264
0
ARC
8
DEFAULT_255_1_234
10
14.0858417
20
15.3554159
40
0.3948286
50
16.5424086
51
46.8933463
0
ARC
8
DEFAULT_255_1_234
10
13.9250574
20
15.3025861
40
0.564021
50
5.4072051
51
17.0365086
0
ARC
8
DEFAULT_255_1_234
10
13.7811591
20
15.2794679
40
0.5556559
50
7.8891745
51
15.9239216
0
ARC
8
DEFAULT_255_1_234
10
13.9798605
20
15.3371631
40
0.3487515
50
15.7653144
51
27.9410532
0
ARC
8
DEFAULT_255_1_234
10
14.0902822
20
15.396279
40
0.2235026
50
27.8166557
51
46.4008329
0
ARC
8
DEFAULT_255_1_234
10
14.0952465
20
15.3957082
40
0.2205286
50
47.4371857
51
75.0698205
0
ARC
8
DEFAULT_255_1_234
10
14.064386
20
15.2882765
40
0.3322915
50
74.7008593
51
87.8124495
0
ARC
8
DEFAULT_255_1_234
10
14.0570547
20
15.1826844
40
0.4380987
50
87.3814673
51
90.0240855
0
ARC
8
DEFAULT_255_1_234
10
14.0532091
20
15.3004291
40
0.3203749
50
89.3451631
51
108.5745436
0
ARC
8
DEFAULT_255_1_234
10
14.0395196
20
15.3517908
40
0.2673494
50
109.2998449
51
143.3037509
0
ARC
8
DEFAULT_255_1_234
10
14.1157268
20
15.2931881
40
0.3634757
50
143.0753173
51
163.1916937
0
ARC
8
DEFAULT_255_1_234
10
14.3108996
20
15.2315967
40
0.5681262
50
162.9373603
51
174.6208611
0
ARC
8
DEFAULT_255_1_234
10
14.5735038
20
15.202801
40
0.8322832
50
174.3419979
51
180.1430411
0
ARC
8
DEFAULT_255_1_234
10
14.4804194
20
15.0833698
40
0.7392076
50
179.6817502
51
189.150529
0
ARC
8
DEFAULT_255_1_234
10
14.2303443
20
15.041719
40
0.4856932
50
188.9910863
51
203.5773039
0
ARC
8
DEFAULT_255_1_234
10
14.1223775
20
14.9969211
40
0.3688271
50
203.9077269
51
215.1312379
0
ARC
8
DEFAULT_255_1_234
10
14.0300869
20
14.9253941
40
0.2522457
50
213.9071664
51
263.8849284
0
ARC
8
DEFAULT_255_1_234
10
14.0426198
20
15.0038518
40
0.3316174
50
263.1758525
51
270.1031083
0
ARC
8
DEFAULT_255_1_234
10
14.045829
20
15.1285365
40
0.4563091
50
269.6719807
51
279.0609165
0
ARC
8
DEFAULT_255_1_234
10
14.0725058
20
14.9672907
40
0.2928759
50
278.8750225
51
293.6346586
0
ARC
8
DEFAULT_255_1_234
10
14.1045266
20
14.89209
40
0.2111472
50
293.8553404
51
310.0518804
0
ARC
8
DEFAULT_255_1_234
10
14.105012
20
14.8858516
40
0.2060917
50
311.0646779
51
332.0108348
0
ARC
8
DEFAULT_255_1_234
10
13.9857847
20
14.9515978
40
0.3422352
50
331.6588543
51
343.2878891
0
ARC
8
DEFAULT_255_1_234
10
13.7795362
20
15.0149798
40
0.5580003
50
343.1446044
51
351.010618
0
ARC
8
DEFAULT_255_1_234
10
13.6254008
20
15.0430871
40
0.7146438
50
350.7157277
51
351.1602153
0
LINE
8
DEFAULT_255_1_234
10
15.8800751
20
15.3934849
11
15.7250626
21
15.3934849
0
LINE
8
DEFAULT_255_1_234
10
15.0327268
20
14.9011394
11
15.1877393
21
14.9011394
0
ARC
8
DEFAULT_255_1_234
10
15.7909439
20
16.2881768
40
1.252368
50
248.9199003
51
254.1439814
0
ARC
8
DEFAULT_255_1_234
10
15.6228934
20
15.8555234
40
0.788226
50
241.633709
51
249.0064503
0
ARC
8
DEFAULT_255_1_234
10
15.4700328
20
15.5754317
40
0.4691427
50
230.498225
51
241.8087113
0
ARC
8
DEFAULT_255_1_234
10
15.3915902
20
15.4754906
40
0.3421437
50
227.4064532
51
229.9881192
0
ARC
8
DEFAULT_255_1_234
10
15.3428423
20
15.4279088
40
0.2741476
50
200.6781896
51
228.1763934
0
ARC
8
DEFAULT_255_1_234
10
15.3500734
20
15.4264077
40
0.2804109
50
179.5061581
51
199.8694617
0
ARC
8
DEFAULT_255_1_234
10
15.3491485
20
15.433821
40
0.2795204
50
132.4834203
51
181.0242172
0
ARC
8
DEFAULT_255_1_234
10
15.4087068
20
15.3775704
40
0.3612768
50
129.2532479
51
133.4242687
0
ARC
8
DEFAULT_255_1_234
10
15.4233517
20
15.3555965
40
0.3875675
50
101.98776
51
128.8742646
0
ARC
8
DEFAULT_255_1_234
10
15.4632128
20
15.1834741
40
0.5642249
50
89.5906553
51
102.3169264
0
ARC
8
DEFAULT_255_1_234
10
15.470262
20
15.2153148
40
0.5323783
50
77.2360837
51
90.3248275
0
ARC
8
DEFAULT_255_1_234
10
15.4909699
20
15.31204
40
0.4334697
50
63.837784
51
77.0809408
0
ARC
8
DEFAULT_255_1_234
10
15.5187461
20
15.3637911
40
0.3747796
50
45.9864267
51
64.1607727
0
ARC
8
DEFAULT_255_1_234
10
15.5448342
20
15.3935866
40
0.3352302
50
32.2747395
51
45.6547121
0
ARC
8
DEFAULT_255_1_234
10
15.5514783
20
15.395488
40
0.328603
50
359.6507365
51
32.6130309
0
ARC
8
DEFAULT_255_1_234
10
15.4571878
20
15.395966
40
0.2678863
50
359.469343
51
14.9832209
0
ARC
8
DEFAULT_255_1_234
10
15.5276941
20
15.4148539
40
0.1948938
50
14.9781179
51
48.2004265
0
ARC
8
DEFAULT_255_1_234
10
15.5112585
20
15.3941983
40
0.2212521
50
48.5927837
51
74.1241538
0
ARC
8
DEFAULT_255_1_234
10
15.4779074
20
15.2841248
40
0.3362561
50
73.7888341
51
86.6652678
0
ARC
8
DEFAULT_255_1_234
10
15.467664
20
15.1633881
40
0.4573953
50
86.2640471
51
90.0526343
0
ARC
8
DEFAULT_255_1_234
10
15.4648352
20
15.2029192
40
0.4178709
50
89.6697524
51
99.2309573
0
ARC
8
DEFAULT_255_1_234
10
15.4405803
20
15.3473964
40
0.2713749
50
99.069534
51
113.7658566
0
ARC
8
DEFAULT_255_1_234
10
15.4131994
20
15.4119677
40
0.2012469
50
114.0401004
51
127.9850673
0
ARC
8
DEFAULT_255_1_234
10
15.3891558
20
15.441573
40
0.1631167
50
127.7287463
51
176.7105154
0
ARC
8
DEFAULT_255_1_234
10
15.4570276
20
15.4314693
40
0.2315392
50
175.1779447
51
180.0581938
0
ARC
8
DEFAULT_255_1_234
10
15.3727123
20
15.4302428
40
0.1472271
50
179.6142195
51
228.1246017
0
ARC
8
DEFAULT_255_1_234
10
15.4168791
20
15.4711308
40
0.2072299
50
226.5779593
51
230.8800004
0
ARC
8
DEFAULT_255_1_234
10
15.463987
20
15.5336636
40
0.2854818
50
231.4635071
51
241.9260842
0
ARC
8
DEFAULT_255_1_234
10
15.5837048
20
15.75398
40
0.53622
50
241.7178533
51
248.3259551
0
ARC
8
DEFAULT_255_1_234
10
15.722242
20
16.0972064
40
0.9063478
50
248.2007737
51
252.4528373
0
ARC
8
DEFAULT_255_1_234
10
15.8426145
20
16.4693441
40
1.2974635
50
252.3391078
51
254.3469452
0
ARC
8
DEFAULT_255_1_234
10
15.0883847
20
13.7716148
40
1.5037162
50
71.0197183
51
74.4087047
0
ARC
8
DEFAULT_255_1_234
10
15.2578532
20
14.2608111
40
0.9859993
50
66.1847285
51
71.086374
0
ARC
8
DEFAULT_255_1_234
10
15.4134845
20
14.61122
40
0.6025855
50
59.3536294
51
66.2691831
0
ARC
8
DEFAULT_255_1_234
10
15.5023497
20
14.7615609
40
0.4279449
50
49.1020879
51
59.3293958
0
ARC
8
DEFAULT_255_1_234
10
15.5842237
20
14.8548834
40
0.3038015
50
32.7919921
51
49.2505539
0
ARC
8
DEFAULT_255_1_234
10
15.6163327
20
14.8777191
40
0.264448
50
31.1181161
51
32.4005348
0
ARC
8
DEFAULT_255_1_234
10
15.6074865
20
14.8741779
40
0.2738556
50
8.1116974
51
30.7958831
0
ARC
8
DEFAULT_255_1_234
10
15.5264533
20
14.8603753
40
0.3560327
50
359.8389159
51
8.4706516
0
ARC
8
DEFAULT_255_1_234
10
15.5890324
20
14.8555137
40
0.2934776
50
337.4731098
51
0.7537279
0
ARC
8
DEFAULT_255_1_234
10
15.6069019
20
14.8535387
40
0.2762607
50
307.5917067
51
336.4315538
0
ARC
8
DEFAULT_255_1_234
10
15.5608847
20
14.9048102
40
0.3449979
50
307.6551545
51
308.4529766
0
ARC
8
DEFAULT_255_1_234
10
15.5378566
20
14.940325
40
0.3871988
50
284.3734338
51
307.1424381
0
ARC
8
DEFAULT_255_1_234
10
15.4883396
20
15.1224932
40
0.5759636
50
272.4382747
51
284.646547
0
ARC
8
DEFAULT_255_1_234
10
15.4756605
20
15.3024893
40
0.7563528
50
269.9708387
51
272.8178037
0
ARC
8
DEFAULT_255_1_234
10
15.4713645
20
15.0986716
40
0.5525489
50
248.2707594
51
270.4055579
0
ARC
8
DEFAULT_255_1_234
10
15.4659386
20
15.0796192
40
0.5328452
50
246.1383403
51
248.0542782
0
ARC
8
DEFAULT_255_1_234
10
15.4240765
20
14.9916843
40
0.4355005
50
233.1670131
51
246.4950969
0
ARC
8
DEFAULT_255_1_234
10
15.368667
20
14.9168812
40
0.3424126
50
215.3403242
51
233.0843104
0
ARC
8
DEFAULT_255_1_234
10
15.3414101
20
14.8970549
40
0.3087104
50
179.2419209
51
215.2648451
0
ARC
8
DEFAULT_255_1_234
10
15.4181695
20
14.8984666
40
0.2304457
50
179.335461
51
199.1045811
0
ARC
8
DEFAULT_255_1_234
10
15.3849371
20
14.8897766
40
0.1962176
50
199.8828939
51
232.7063202
0
ARC
8
DEFAULT_255_1_234
10
15.432164
20
14.9491788
40
0.2720938
50
232.3738199
51
255.5136649
0
ARC
8
DEFAULT_255_1_234
10
15.4662506
20
15.0735835
40
0.4010747
50
255.2446292
51
267.5320849
0
ARC
8
DEFAULT_255_1_234
10
15.475013
20
15.1968702
40
0.5246356
50
267.1557994
51
270.0286766
0
ARC
8
DEFAULT_255_1_234
10
15.4777902
20
15.152495
40
0.4802668
50
269.7000017
51
278.1660162
0
ARC
8
DEFAULT_255_1_234
10
15.5033907
20
14.9794515
40
0.3053425
50
278.0231263
51
290.625471
0
ARC
8
DEFAULT_255_1_234
10
15.5381594
20
14.8867025
40
0.206291
50
290.6619762
51
307.0370976
0
ARC
8
DEFAULT_255_1_234
10
15.5681983
20
14.8498504
40
0.1587906
50
306.3943566
51
355.3030547
0
ARC
8
DEFAULT_255_1_234
10
15.5169914
20
14.8575113
40
0.2104809
50
354.3660432
51
0.0698737
0
ARC
8
DEFAULT_255_1_234
10
15.531226
20
14.8597617
40
0.1962563
50
359.417946
51
16.1971788
0
ARC
8
DEFAULT_255_1_234
10
15.576757
20
14.8722418
40
0.149053
50
16.4723299
51
52.6262157
0
ARC
8
DEFAULT_255_1_234
10
15.4946624
20
14.7638433
40
0.2850296
50
52.7386432
51
62.4979148
0
ARC
8
DEFAULT_255_1_234
10
15.3561701
20
14.5032283
40
0.5801521
50
62.2515216
51
68.1220564
0
ARC
8
DEFAULT_255_1_234
10
15.1841612
20
14.0804872
40
1.0365451
50
68.0062803
51
71.8053402
0
ARC
8
DEFAULT_255_1_234
10
15.0045983
20
13.5419758
40
1.6042013
50
71.7183119
51
73.9258742
0
LINE
8
DEFAULT_255_1_234
10
16.7964965
20
15.7316211
11
16.7964965
21
15.648091
0
LINE
8
DEFAULT_255_1_234
10
16.7964965
20
15.648091
11
16.3121827
21
14.5622
0
LINE
8
DEFAULT_255_1_234
10
16.3121827
20
14.5622
11
16.1563669
21
14.5622
0
LINE
8
DEFAULT_255_1_234
10
16.1563669
20
14.5622
11
16.6390744
21
15.6095387
0
LINE
8
DEFAULT_255_1_234
10
16.6390744
20
15.6095387
11
16.0061734
21
15.6095387
0
LINE
8
DEFAULT_255_1_234
10
16.0061734
20
15.6095387
11
16.0061734
21
15.7316211
0
LINE
8
DEFAULT_255_1_234
10
16.0061734
20
15.7316211
11
16.7964965
21
15.7316211
0
LINE
8
DEFAULT_255_1_234
10
17.2896452
20
15.1196026
11
17.2896452
21
14.9983234
0
LINE
8
DEFAULT_255_1_234
10
17.2896452
20
14.9983234
11
16.8976964
21
14.9983234
0
LINE
8
DEFAULT_255_1_234
10
16.8976964
20
14.9983234
11
16.8976964
21
15.1196026
0
LINE
8
DEFAULT_255_1_234
10
16.8976964
20
15.1196026
11
17.2896452
21
15.1196026
0
LINE
8
DEFAULT_255_1_234
10
18.046235
20
15.7316211
11
18.046235
21
14.954952
0
LINE
8
DEFAULT_255_1_234
10
18.046235
20
14.954952
11
18.2084761
21
14.954952
0
LINE
8
DEFAULT_255_1_234
10
18.2084761
20
14.954952
11
18.2084761
21
14.8336728
0
LINE
8
DEFAULT_255_1_234
10
18.2084761
20
14.8336728
11
18.046235
21
14.8336728
0
LINE
8
DEFAULT_255_1_234
10
18.046235
20
14.8336728
11
18.046235
21
14.5622
0
LINE
8
DEFAULT_255_1_234
10
18.046235
20
14.5622
11
17.8968446
21
14.5622
0
LINE
8
DEFAULT_255_1_234
10
17.8968446
20
14.5622
11
17.8968446
21
14.8336728
0
LINE
8
DEFAULT_255_1_234
10
17.8968446
20
14.8336728
11
17.3643404
21
14.8336728
0
LINE
8
DEFAULT_255_1_234
10
17.3643404
20
14.8336728
11
17.3643404
21
14.9212187
0
LINE
8
DEFAULT_255_1_234
10
17.3643404
20
14.9212187
11
17.8880097
21
15.7316211
0
LINE
8
DEFAULT_255_1_234
10
17.8880097
20
15.7316211
11
18.046235
21
15.7316211
0
LINE
8
DEFAULT_255_1_234
10
17.8791748
20
15.4962912
11
17.5330069
21
14.954952
0
LINE
8
DEFAULT_255_1_234
10
17.5330069
20
14.954952
11
17.8968446
21
14.954952
0
LINE
8
DEFAULT_255_1_234
10
17.8968446
20
14.954952
11
17.8968446
21
15.5284181
0
LINE
8
DEFAULT_255_1_234
10
17.8968446
20
15.5284181
11
17.8791748
21
15.4962912
0
LINE
8
DEFAULT_255_1_234
10
19.0759038
20
15.2537327
11
19.0759038
21
15.0609709
0
LINE
8
DEFAULT_255_1_234
10
18.3377871
20
15.0408916
11
18.3377871
21
15.2392755
0
LINE
8
DEFAULT_255_1_234
10
18.9273167
20
15.0208123
11
18.9273167
21
15.2641739
0
LINE
8
DEFAULT_255_1_234
10
18.4863742
20
15.2754184
11
18.4863742
21
15.0376789
0
ARC
8
DEFAULT_255_1_234
10
17.8511928
20
15.0560805
40
1.2247208
50
353.8441951
51
0.2287902
0
ARC
8
DEFAULT_255_1_234
10
18.3151431
20
15.0042806
40
0.7578929
50
344.4934747
51
353.9765454
0
ARC
8
DEFAULT_255_1_234
10
18.6144022
20
14.9191981
40
0.4467846
50
329.2803592
51
344.7472793
0
ARC
8
DEFAULT_255_1_234
10
18.7136846
20
14.8647018
40
0.3336173
50
324.9352394
51
328.6160465
0
ARC
8
DEFAULT_255_1_234
10
18.7513955
20
14.8383427
40
0.2876076
50
280.580143
51
324.9173126
0
ARC
8
DEFAULT_255_1_234
10
18.7112748
20
15.0054099
40
0.4592847
50
269.5977311
51
281.6734359
0
ARC
8
DEFAULT_255_1_234
10
18.7040653
20
14.9934173
40
0.4472986
50
256.6228859
51
270.51044
0
ARC
8
DEFAULT_255_1_234
10
18.6638631
20
14.8385877
40
0.2873874
50
215.8618325
51
257.2788573
0
ARC
8
DEFAULT_255_1_234
10
18.7659663
20
14.9070977
40
0.4102928
50
197.9693508
51
215.2623606
0
ARC
8
DEFAULT_255_1_234
10
19.0144778
20
14.9909709
40
0.6725652
50
187.8816417
51
198.2346507
0
ARC
8
DEFAULT_255_1_234
10
19.4102987
20
15.0481079
40
1.0724845
50
180.8976217
51
188.0055519
0
ARC
8
DEFAULT_255_1_234
10
19.6903175
20
15.0584777
40
1.3526448
50
180.7449369
51
181.1510016
0
ARC
8
DEFAULT_255_1_234
10
19.5325904
20
15.2441042
40
1.1948131
50
173.7675579
51
180.231553
0
ARC
8
DEFAULT_255_1_234
10
19.080805
20
15.2951666
40
0.7401564
50
164.3058563
51
173.9002247
0
ARC
8
DEFAULT_255_1_234
10
18.7896119
20
15.3790656
40
0.4371288
50
148.7922025
51
164.568378
0
ARC
8
DEFAULT_255_1_234
10
18.6944571
20
15.4321929
40
0.3282386
50
144.5883898
51
148.1176286
0
ARC
8
DEFAULT_255_1_234
10
18.6601469
20
15.4561315
40
0.2864044
50
101.6440918
51
144.514236
0
ARC
8
DEFAULT_255_1_234
10
18.7026536
20
15.2872069
40
0.4604934
50
89.5284041
51
102.5819763
0
ARC
8
DEFAULT_255_1_234
10
18.7105624
20
15.2833018
40
0.464401
50
77.0437873
51
90.5081339
0
ARC
8
DEFAULT_255_1_234
10
18.7507626
20
15.4475615
40
0.2953195
50
48.2778575
51
77.4994676
0
ARC
8
DEFAULT_255_1_234
10
18.7580257
20
15.4604746
40
0.2808655
50
36.3142134
51
47.6305865
0
ARC
8
DEFAULT_255_1_234
10
18.6711564
20
15.4019515
40
0.3855453
50
18.2931786
51
35.6769206
0
ARC
8
DEFAULT_255_1_234
10
18.4168323
20
15.3146593
40
0.654423
50
8.024666
51
18.5605216
0
ARC
8
DEFAULT_255_1_234
10
18.0005243
20
15.2531792
40
1.0752407
50
1.1274072
51
8.1718305
0
ARC
8
DEFAULT_255_1_234
10
17.6769433
20
15.2404885
40
1.3990231
50
0.5424119
51
1.3863029
0
ARC
8
DEFAULT_255_1_234
10
17.8590811
20
15.2677342
40
1.0682415
50
359.8090433
51
4.9407866
0
ARC
8
DEFAULT_255_1_234
10
18.2800825
20
15.3053113
40
0.6455691
50
4.8362157
51
12.2904523
0
ARC
8
DEFAULT_255_1_234
10
18.555594
20
15.3666965
40
0.3633074
50
12.0805627
51
23.8173984
0
ARC
8
DEFAULT_255_1_234
10
18.6729645
20
15.4163919
40
0.2358723
50
24.2871213
51
31.3935614
0
ARC
8
DEFAULT_255_1_234
10
18.7254342
20
15.4507233
40
0.1732111
50
30.7407893
51
82.4657128
0
ARC
8
DEFAULT_255_1_234
10
18.7074477
20
15.3623691
40
0.263235
50
81.1060089
51
90.2184952
0
ARC
8
DEFAULT_255_1_234
10
18.7038776
20
15.3881924
40
0.2374236
50
89.3806855
51
105.6762551
0
ARC
8
DEFAULT_255_1_234
10
18.6855406
20
15.4548567
40
0.1682847
50
105.7981136
51
149.7388061
0
ARC
8
DEFAULT_255_1_234
10
18.7919485
20
15.390895
40
0.2924306
50
149.4208916
51
163.6286378
0
ARC
8
DEFAULT_255_1_234
10
19.0010373
20
15.327125
40
0.5110213
50
163.3763315
51
172.1410975
0
ARC
8
DEFAULT_255_1_234
10
19.3311092
20
15.2798518
40
0.8444586
50
172.0259487
51
178.0703232
0
ARC
8
DEFAULT_255_1_234
10
19.6341181
20
15.2654906
40
1.1477868
50
177.8631668
51
179.5044149
0
ARC
8
DEFAULT_255_1_234
10
19.5268586
20
15.0340389
40
1.0404907
50
179.7995573
51
185.2460446
0
ARC
8
DEFAULT_255_1_234
10
19.1225625
20
14.9957513
40
0.6343885
50
185.1411642
51
193.0079639
0
ARC
8
DEFAULT_255_1_234
10
18.8582097
20
14.9332641
40
0.3627568
50
192.7897626
51
205.2507664
0
ARC
8
DEFAULT_255_1_234
10
18.7535644
20
14.8865415
40
0.2481908
50
205.8005384
51
211.2537509
0
ARC
8
DEFAULT_255_1_234
10
18.7012085
20
14.851458
40
0.1852521
50
210.3789793
51
238.4008143
0
ARC
8
DEFAULT_255_1_234
10
18.6992607
20
14.8561376
40
0.1882621
50
239.6520629
51
265.9793761
0
ARC
8
DEFAULT_255_1_234
10
18.7077807
20
14.9233427
40
0.2559272
50
265.1315437
51
270.060332
0
ARC
8
DEFAULT_255_1_234
10
18.7106586
20
14.8909534
40
0.2235528
50
269.3314664
51
287.2178029
0
ARC
8
DEFAULT_255_1_234
10
18.7244438
20
14.8406279
40
0.1714108
50
287.7958004
51
329.080874
0
ARC
8
DEFAULT_255_1_234
10
18.6286894
20
14.900393
40
0.2842745
50
328.6634704
51
343.3325132
0
ARC
8
DEFAULT_255_1_234
10
18.4113915
20
14.9680863
40
0.5118644
50
343.0499468
51
351.9393422
0
ARC
8
DEFAULT_255_1_234
10
18.0647215
20
15.0191949
40
0.8622784
50
351.8069023
51
357.7959224
0
ARC
8
DEFAULT_255_1_234
10
17.7411771
20
15.0359721
40
1.1862365
50
357.5871873
51
359.2677531
0
LINE
8
DEFAULT_255_1_234
10
19.9995537
20
15.2537327
11
19.9995537
21
15.0609709
0
LINE
8
DEFAULT_255_1_234
10
19.261437
20
15.0408916
11
19.261437
21
15.2392755
0
LINE
8
DEFAULT_255_1_234
10
19.8509666
20
15.0208123
11
19.8509666
21
15.2641739
0
LINE
8
DEFAULT_255_1_234
10
19.4100241
20
15.2754184
11
19.4100241
21
15.0376789
0
ARC
8
DEFAULT_255_1_234
10
18.7748427
20
15.0560805
40
1.2247208
50
353.8441951
51
0.2287902
0
ARC
8
DEFAULT_255_1_234
10
19.238793
20
15.0042806
40
0.7578929
50
344.4934747
51
353.9765454
0
ARC
8
DEFAULT_255_1_234
10
19.5380521
20
14.9191981
40
0.4467846
50
329.2803592
51
344.7472793
0
ARC
8
DEFAULT_255_1_234
10
19.6373345
20
14.8647018
40
0.3336173
50
324.9352394
51
328.6160465
0
ARC
8
DEFAULT_255_1_234
10
19.6750454
20
14.8383427
40
0.2876076
50
280.580143
51
324.9173126
0
ARC
8
DEFAULT_255_1_234
10
19.6349247
20
15.0054099
40
0.4592847
50
269.5977311
51
281.6734359
0
ARC
8
DEFAULT_255_1_234
10
19.6277152
20
14.9934173
40
0.4472986
50
256.6228859
51
270.51044
0
ARC
8
DEFAULT_255_1_234
10
19.587513
20
14.8385877
40
0.2873874
50
215.8618325
51
257.2788573
0
ARC
8
DEFAULT_255_1_234
10
19.6896162
20
14.9070977
40
0.4102928
50
197.9693508
51
215.2623606
0
ARC
8
DEFAULT_255_1_234
10
19.9381277
20
14.9909709
40
0.6725652
50
187.8816417
51
198.2346507
0
ARC
8
DEFAULT_255_1_234
10
20.3339486
20
15.0481079
40
1.0724845
50
180.8976217
51
188.0055519
0
ARC
8
DEFAULT_255_1_234
10
20.6139674
20
15.0584777
40
1.3526448
50
180.7449369
51
181.1510016
0
ARC
8
DEFAULT_255_1_234
10
20.4562403
20
15.2441042
40
1.1948131
50
173.7675579
51
180.231553
0
ARC
8
DEFAULT_255_1_234
10
20.0044549
20
15.2951666
40
0.7401564
50
164.3058563
51
173.9002247
0
ARC
8
DEFAULT_255_1_234
10
19.7132618
20
15.3790656
40
0.4371288
50
148.7922025
51
164.568378
0
ARC
8
DEFAULT_255_1_234
10
19.618107
20
15.4321929
40
0.3282386
50
144.5883898
51
148.1176286
0
ARC
8
DEFAULT_255_1_234
10
19.5837968
20
15.4561315
40
0.2864044
50
101.6440918
51
144.514236
0
ARC
8
DEFAULT_255_1_234
10
19.6263035
20
15.2872069
40
0.4604934
50
89.5284041
51
102.5819763
0
ARC
8
DEFAULT_255_1_234
10
19.6342123
20
15.2833018
40
0.464401
50
77.0437873
51
90.5081339
0
ARC
8
DEFAULT_255_1_234
10
19.6744125
20
15.4475615
40
0.2953195
50
48.2778575
51
77.4994676
0
ARC
8
DEFAULT_255_1_234
10
19.6816756
20
15.4604746
40
0.2808655
50
36.3142134
51
47.6305865
0
ARC
8
DEFAULT_255_1_234
10
19.5948063
20
15.4019515
40
0.3855453
50
18.2931786
51
35.6769206
0
ARC
8
DEFAULT_255_1_234
10
19.3404822
20
15.3146593
40
0.654423
50
8.024666
51
18.5605216
0
ARC
8
DEFAULT_255_1_234
10
18.9241742
20
15.2531792
40
1.0752407
50
1.1274072
51
8.1718305
0
ARC
8
DEFAULT_255_1_234
10
18.6005932
20
15.2404885
40
1.3990231
50
0.5424119
51
1.3863029
0
ARC
8
DEFAULT_255_1_234
10
18.782731
20
15.2677342
40
1.0682415
50
359.8090433
51
4.9407866
0
ARC
8
DEFAULT_255_1_234
10
19.2037324
20
15.3053113
40
0.6455691
50
4.8362157
51
12.2904523
0
ARC
8
DEFAULT_255_1_234
10
19.4792439
20
15.3666965
40
0.3633074
50
12.0805627
51
23.8173984
0
ARC
8
DEFAULT_255_1_234
10
19.5966144
20
15.4163919
40
0.2358723
50
24.2871213
51
31.3935614
0
ARC
8
DEFAULT_255_1_234
10
19.6490841
20
15.4507233
40
0.1732111
50
30.7407893
51
82.4657128
0
ARC
8
DEFAULT_255_1_234
10
19.6310976
20
15.3623691
40
0.263235
50
81.1060089
51
90.2184952
0
ARC
8
DEFAULT_255_1_234
10
19.6275275
20
15.3881924
40
0.2374236
50
89.3806855
51
105.6762551
0
ARC
8
DEFAULT_255_1_234
10
19.6091905
20
15.4548567
40
0.1682847
50
105.7981136
51
149.7388061
0
ARC
8
DEFAULT_255_1_234
10
19.7155984
20
15.390895
40
0.2924306
50
149.4208916
51
163.6286378
0
ARC
8
DEFAULT_255_1_234
10
19.9246872
20
15.327125
40
0.5110213
50
163.3763315
51
172.1410975
0
ARC
8
DEFAULT_255_1_234
10
20.2547591
20
15.2798518
40
0.8444586
50
172.0259487
51
178.0703232
0
ARC
8
DEFAULT_255_1_234
10
20.557768
20
15.2654906
40
1.1477868
50
177.8631668
51
179.5044149
0
ARC
8
DEFAULT_255_1_234
10
20.4505085
20
15.0340389
40
1.0404907
50
179.7995573
51
185.2460446
0
ARC
8
DEFAULT_255_1_234
10
20.0462124
20
14.9957513
40
0.6343885
50
185.1411642
51
193.0079639
0
ARC
8
DEFAULT_255_1_234
10
19.7818596
20
14.9332641
40
0.3627568
50
192.7897626
51
205.2507664
0
ARC
8
DEFAULT_255_1_234
10
19.6772143
20
14.8865415
40
0.2481908
50
205.8005384
51
211.2537509
0
ARC
8
DEFAULT_255_1_234
10
19.6248584
20
14.851458
40
0.1852521
50
210.3789793
51
238.4008143
0
ARC
8
DEFAULT_255_1_234
10
19.6229106
20
14.8561376
40
0.1882621
50
239.6520629
51
265.9793761
0
ARC
8
DEFAULT_255_1_234
10
19.6314306
20
14.9233427
40
0.2559272
50
265.1315437
51
270.060332
0
ARC
8
DEFAULT_255_1_234
10
19.6343085
20
14.8909534
40
0.2235528
50
269.3314664
51
287.2178029
0
ARC
8
DEFAULT_255_1_234
10
19.6480937
20
14.8406279
40
0.1714108
50
287.7958004
51
329.080874
0
ARC
8
DEFAULT_255_1_234
10
19.5523394
20
14.900393
40
0.2842745
50
328.6634704
51
343.3325132
0
ARC
8
DEFAULT_255_1_234
10
19.3350414
20
14.9680863
40
0.5118644
50
343.0499468
51
351.9393422
0
ARC
8
DEFAULT_255_1_234
10
18.9883714
20
15.0191949
40
0.8622784
50
351.8069023
51
357.7959224
0
ARC
8
DEFAULT_255_1_234
10
18.664827
20
15.0359721
40
1.1862365
50
357.5871873
51
359.2677531
0
LINE
8
DEFAULT_255_1_234
10
4.2459489
20
13.7473211
11
4.2459489
21
12.7039983
0
LINE
8
DEFAULT_255_1_234
10
4.2459489
20
12.7039983
11
4.8001389
21
12.7039983
0
LINE
8
DEFAULT_255_1_234
10
4.8001389
20
12.7039983
11
4.8001389
21
12.5779
0
LINE
8
DEFAULT_255_1_234
10
4.8001389
20
12.5779
11
4.0909364
21
12.5779
0
LINE
8
DEFAULT_255_1_234
10
4.0909364
20
12.5779
11
4.0909364
21
13.7473211
0
LINE
8
DEFAULT_255_1_234
10
4.0909364
20
13.7473211
11
4.2459489
21
13.7473211
0
LINE
8
DEFAULT_255_1_234
10
5.378424
20
13.5465276
11
5.378424
21
13.2051788
0
LINE
8
DEFAULT_255_1_234
10
5.378424
20
13.2051788
11
5.7045126
21
13.2051788
0
LINE
8
DEFAULT_255_1_234
10
5.7045126
20
13.2051788
11
5.7045126
21
13.0646233
0
LINE
8
DEFAULT_255_1_234
10
5.7045126
20
13.0646233
11
5.378424
21
13.0646233
0
LINE
8
DEFAULT_255_1_234
10
5.378424
20
13.0646233
11
5.378424
21
12.6951634
0
LINE
8
DEFAULT_255_1_234
10
5.378424
20
12.6951634
11
5.2290337
21
12.6951634
0
LINE
8
DEFAULT_255_1_234
10
5.2290337
20
12.6951634
11
5.2290337
21
13.0646233
0
LINE
8
DEFAULT_255_1_234
10
5.2290337
20
13.0646233
11
4.9029451
21
13.0646233
0
LINE
8
DEFAULT_255_1_234
10
4.9029451
20
13.0646233
11
4.9029451
21
13.2051788
0
LINE
8
DEFAULT_255_1_234
10
4.9029451
20
13.2051788
11
5.2290337
21
13.2051788
0
LINE
8
DEFAULT_255_1_234
10
5.2290337
20
13.2051788
11
5.2290337
21
13.5465276
0
LINE
8
DEFAULT_255_1_234
10
5.2290337
20
13.5465276
11
5.378424
21
13.5465276
0
LINE
8
DEFAULT_255_1_234
10
4.3013299
20
5.8098211
11
4.5832439
21
5.3616501
0
LINE
8
DEFAULT_255_1_234
10
4.5832439
20
5.3616501
11
4.8635516
21
5.8098211
0
LINE
8
DEFAULT_255_1_234
10
4.8635516
20
5.8098211
11
5.0450689
21
5.8098211
0
LINE
8
DEFAULT_255_1_234
10
5.0450689
20
5.8098211
11
4.6756089
21
5.2299296
0
LINE
8
DEFAULT_255_1_234
10
4.6756089
20
5.2299296
11
5.0539038
21
4.6404
0
LINE
8
DEFAULT_255_1_234
10
5.0539038
20
4.6404
11
4.8707802
21
4.6404
0
LINE
8
DEFAULT_255_1_234
10
4.8707802
20
4.6404
11
4.5832439
21
5.0966027
0
LINE
8
DEFAULT_255_1_234
10
4.5832439
20
5.0966027
11
4.2941014
21
4.6404
0
LINE
8
DEFAULT_255_1_234
10
4.2941014
20
4.6404
11
4.1117809
21
4.6404
0
LINE
8
DEFAULT_255_1_234
10
4.1117809
20
4.6404
11
4.490879
21
5.2299296
0
LINE
8
DEFAULT_255_1_234
10
4.490879
20
5.2299296
11
4.1206158
21
5.8098211
0
LINE
8
DEFAULT_255_1_234
10
4.1206158
20
5.8098211
11
4.3013299
21
5.8098211
0
LINE
8
DEFAULT_255_1_234
10
5.6827889
20
5.8154433
11
5.6827889
21
4.6404
0
LINE
8
DEFAULT_255_1_234
10
5.6827889
20
4.6404
11
5.5333986
21
4.6404
0
LINE
8
DEFAULT_255_1_234
10
5.5333986
20
4.6404
11
5.5333986
21
5.6307133
0
LINE
8
DEFAULT_255_1_234
10
5.5333986
20
5.6307133
11
5.2338147
21
5.5206785
0
LINE
8
DEFAULT_255_1_234
10
5.2338147
20
5.5206785
11
5.2338147
21
5.6556117
0
LINE
8
DEFAULT_255_1_234
10
5.2338147
20
5.6556117
11
5.6594969
21
5.8154433
0
LINE
8
DEFAULT_255_1_234
10
5.6594969
20
5.8154433
11
5.6827889
21
5.8154433
0
LINE
8
DEFAULT_255_1_234
10
23.0445364
20
13.7473211
11
23.2437235
21
13.7473211
0
LINE
8
DEFAULT_255_1_234
10
23.2437235
20
13.7473211
11
23.6260342
21
12.7931506
0
LINE
8
DEFAULT_255_1_234
10
23.6260342
20
12.7931506
11
24.008345
21
13.7473211
0
LINE
8
DEFAULT_255_1_234
10
24.008345
20
13.7473211
11
24.2083353
21
13.7473211
0
LINE
8
DEFAULT_255_1_234
10
24.2083353
20
13.7473211
11
24.2083353
21
12.5779
0
LINE
8
DEFAULT_255_1_234
10
24.2083353
20
12.5779
11
24.0541259
21
12.5779
0
LINE
8
DEFAULT_255_1_234
10
24.0541259
20
12.5779
11
24.0541259
21
13.0332996
0
LINE
8
DEFAULT_255_1_234
10
24.0541259
20
13.0332996
11
24.068583
21
13.5248419
0
LINE
8
DEFAULT_255_1_234
10
24.068583
20
13.5248419
11
23.6846659
21
12.5779
0
LINE
8
DEFAULT_255_1_234
10
23.6846659
20
12.5779
11
23.5665994
21
12.5779
0
LINE
8
DEFAULT_255_1_234
10
23.5665994
20
12.5779
11
23.1834854
21
13.5224324
0
LINE
8
DEFAULT_255_1_234
10
23.1834854
20
13.5224324
11
23.1987458
21
13.0332996
0
LINE
8
DEFAULT_255_1_234
10
23.1987458
20
13.0332996
11
23.1987458
21
12.5779
0
LINE
8
DEFAULT_255_1_234
10
23.1987458
20
12.5779
11
23.0445364
21
12.5779
0
LINE
8
DEFAULT_255_1_234
10
23.0445364
20
12.5779
11
23.0445364
21
13.7473211
0
ENDSEC
0
EOF