0
SECTION
2
HEADER
9
$MEASUREMENT
70
1
0
ENDSEC
0
SECTION
2
TABLES
0
TABLE
2
LTYPE
0
LTYPE
72
65
70
64
2
CONTINUOUS
3
______
73
0
40
0
0
ENDTAB
0
TABLE
2
LAYER
0
LAYER
2
DEFAULT_255_2_778
70
0
62
255
6
CONTINUOUS
0
LAYER
2
DEFAULT_255_1_234
70
0
62
255
6
CONTINUOUS
0
ENDTAB
0
ENDSEC
0
SECTION
2
ENTITIES
0
ARC
8
DEFAULT_255_2_778
10
3.5695693
20
44.0552035
40
0.7914215
50
129.1312896
51
180.1450914
0
ARC
8
DEFAULT_255_2_778
10
3.5698345
20
44.0556906
40
0.7912112
50
89.854026
51
129.1684493
0
ARC
8
DEFAULT_255_2_778
10
25.7988937
20
44.0553771
40
0.7915249
50
39.4792447
51
90.147911
0
ARC
8
DEFAULT_255_2_778
10
25.7994935
20
44.0552238
40
0.7911595
50
359.8533901
51
39.5154338
0
ARC
8
DEFAULT_255_2_778
10
25.7991693
20
-1.9863488
40
0.7914836
50
309.4761667
51
0.1482649
0
ARC
8
DEFAULT_255_2_778
10
25.798898
20
-1.9867799
40
0.7913235
50
269.8517415
51
309.511178
0
ARC
8
DEFAULT_255_2_778
10
3.569842
20
-1.9867217
40
0.7913815
50
219.1282118
51
270.1454017
0
ARC
8
DEFAULT_255_2_778
10
3.5695247
20
-1.9863392
40
0.7913769
50
179.8524075
51
219.1641908
0
LINE
8
DEFAULT_255_2_778
10
3.5718503
20
44.8468993
11
25.7968503
21
44.8468993
0
LINE
8
DEFAULT_255_2_778
10
26.5906503
20
44.0531993
11
26.5906503
21
-1.9843007
0
LINE
8
DEFAULT_255_2_778
10
25.7968503
20
-2.7781007
11
3.5718503
21
-2.7781007
0
LINE
8
DEFAULT_255_2_778
10
2.7781503
20
-1.9843007
11
2.7781503
21
44.0531993
0
LINE
8
DEFAULT_255_1_234
10
6.4431835
20
0.5189243
11
6.4696882
21
0.5189243
0
LINE
8
DEFAULT_255_1_234
10
6.4696882
20
0.5189243
11
6.4696882
21
0.392826
0
LINE
8
DEFAULT_255_1_234
10
6.4696882
20
0.392826
11
6.4423803
21
0.392826
0
LINE
8
DEFAULT_255_1_234
10
5.8954189
20
-0.2063417
11
5.8954189
21
-0.1493164
0
LINE
8
DEFAULT_255_1_234
10
6.0448093
20
-0.1685925
11
6.0448093
21
-0.2232083
0
ARC
8
DEFAULT_255_1_234
10
6.4476151
20
-0.1069545
40
0.4998079
50
90.6001036
51
104.514704
0
ARC
8
DEFAULT_255_1_234
10
6.4087667
20
0.0375131
40
0.3502176
50
104.2855254
51
133.862935
0
ARC
8
DEFAULT_255_1_234
10
6.4251424
20
0.026683
40
0.3693984
50
134.5302688
51
161.6210873
0
ARC
8
DEFAULT_255_1_234
10
6.5904613
20
-0.0316105
40
0.5446739
50
161.2849839
51
174.2076652
0
ARC
8
DEFAULT_255_1_234
10
6.731155
20
-0.0510213
40
0.6866274
50
173.7810589
51
174.9254635
0
ARC
8
DEFAULT_255_1_234
10
6.2761382
20
-0.1893161
40
0.3033419
50
95.8330959
51
138.9954921
0
ARC
8
DEFAULT_255_1_234
10
6.2984738
20
-0.3171625
40
0.4328947
50
89.8753725
51
97.0544009
0
ARC
8
DEFAULT_255_1_234
10
6.3032204
20
-0.2336252
40
0.3493769
50
71.6407809
51
90.6240094
0
ARC
8
DEFAULT_255_1_234
10
6.3182777
20
-0.1781918
40
0.2920396
50
39.6367836
51
71.019018
0
ARC
8
DEFAULT_255_1_234
10
6.254625
20
-0.2332002
40
0.3761538
50
10.658731
51
39.9043955
0
ARC
8
DEFAULT_255_1_234
10
6.0998333
20
-0.2668314
40
0.5345136
50
359.682601
51
11.132623
0
ARC
8
DEFAULT_255_1_234
10
6.0958464
20
-0.273899
40
0.5385081
50
347.2486944
51
0.4369317
0
ARC
8
DEFAULT_255_1_234
10
6.2625941
20
-0.3140193
40
0.3670249
50
318.1409698
51
347.6118597
0
ARC
8
DEFAULT_255_1_234
10
6.2950934
20
-0.3407298
40
0.3250007
50
275.6342139
51
317.8248465
0
ARC
8
DEFAULT_255_1_234
10
6.2730045
20
-0.2107781
40
0.4565864
50
269.8874292
51
276.7917694
0
ARC
8
DEFAULT_255_1_234
10
6.2675116
20
-0.3133257
40
0.3540676
50
246.9140195
51
270.7437342
0
ARC
8
DEFAULT_255_1_234
10
6.2681506
20
-0.3275616
40
0.3412781
50
218.1665114
51
245.878116
0
ARC
8
DEFAULT_255_1_234
10
6.3560967
20
-0.2539721
40
0.455911
50
191.4115814
51
218.6077802
0
ARC
8
DEFAULT_255_1_234
10
6.5499056
20
-0.2105167
40
0.6545001
50
179.6345085
51
191.7836486
0
ARC
8
DEFAULT_255_1_234
10
7.1081393
20
-0.1426303
40
1.2127388
50
171.4525249
51
180.3158839
0
ARC
8
DEFAULT_255_1_234
10
6.6686269
20
-0.0742392
40
0.7679464
50
157.9802646
51
171.6246686
0
ARC
8
DEFAULT_255_1_234
10
6.447229
20
0.0140421
40
0.5296008
50
141.4298019
51
157.854097
0
ARC
8
DEFAULT_255_1_234
10
6.383061
20
0.0594381
40
0.4511509
50
102.8715806
51
140.8564722
0
ARC
8
DEFAULT_255_1_234
10
6.4478226
20
-0.1845448
40
0.7034845
50
90.3778349
51
103.5869322
0
ARC
8
DEFAULT_255_1_234
10
6.2740002
20
-0.245027
40
0.2370698
50
89.8751008
51
126.2071704
0
ARC
8
DEFAULT_255_1_234
10
6.2785792
20
-0.2604697
40
0.2522934
50
124.9745049
51
144.895901
0
ARC
8
DEFAULT_255_1_234
10
6.2609982
20
-0.246144
40
0.2296779
50
145.2974905
51
160.2660252
0
ARC
8
DEFAULT_255_1_234
10
6.5682521
20
-0.2263929
40
0.5234525
50
179.6514266
51
190.2855912
0
ARC
8
DEFAULT_255_1_234
10
6.3988658
20
-0.2583214
40
0.3510893
50
190.0945431
51
207.5098196
0
ARC
8
DEFAULT_255_1_234
10
6.3422928
20
-0.2852377
40
0.288489
50
207.9583163
51
216.3251085
0
ARC
8
DEFAULT_255_1_234
10
6.3083036
20
-0.3131895
40
0.2445587
50
215.7661442
51
232.5456785
0
ARC
8
DEFAULT_255_1_234
10
6.2700019
20
-0.3618518
40
0.1826382
50
232.8005391
51
270.6605633
0
ARC
8
DEFAULT_255_1_234
10
6.274572
20
-0.3254388
40
0.2190529
50
269.35537
51
288.4744281
0
ARC
8
DEFAULT_255_1_234
10
6.2838617
20
-0.3603882
40
0.1829749
50
289.1833337
51
322.9683818
0
ARC
8
DEFAULT_255_1_234
10
6.2227139
20
-0.3121609
40
0.2608399
50
322.6007884
51
346.5182367
0
ARC
8
DEFAULT_255_1_234
10
6.1069735
20
-0.2826384
40
0.3802777
50
346.2582162
51
358.7741648
0
ARC
8
DEFAULT_255_1_234
10
6.0051404
20
-0.2771035
40
0.4822176
50
358.3755224
51
0.0098023
0
ARC
8
DEFAULT_255_1_234
10
6.0807591
20
-0.2743343
40
0.4066078
50
359.6214041
51
11.2839074
0
ARC
8
DEFAULT_255_1_234
10
6.2084738
20
-0.2476934
40
0.2761514
50
11.0482309
51
31.8146458
0
ARC
8
DEFAULT_255_1_234
10
6.2393781
20
-0.2309416
40
0.2410679
50
32.3035391
51
38.082671
0
ARC
8
DEFAULT_255_1_234
10
6.2814441
20
-0.1928338
40
0.1844966
50
36.825067
51
85.7415724
0
ARC
8
DEFAULT_255_1_234
10
6.2747274
20
-0.2428699
40
0.2349122
50
85.0140713
51
90.0513278
0
LINE
8
DEFAULT_255_1_234
10
7.7475378
20
0.5181211
11
7.7475378
21
-0.6513
0
LINE
8
DEFAULT_255_1_234
10
7.7475378
20
-0.6513
11
7.5925252
21
-0.6513
0
LINE
8
DEFAULT_255_1_234
10
7.5925252
20
-0.6513
11
7.0037988
21
0.249861
0
LINE
8
DEFAULT_255_1_234
10
7.0037988
20
0.249861
11
7.0037988
21
-0.6513
0
LINE
8
DEFAULT_255_1_234
10
7.0037988
20
-0.6513
11
6.8487863
21
-0.6513
0
LINE
8
DEFAULT_255_1_234
10
6.8487863
20
-0.6513
11
6.8487863
21
0.5181211
0
LINE
8
DEFAULT_255_1_234
10
6.8487863
20
0.5181211
11
7.0037988
21
0.5181211
0
LINE
8
DEFAULT_255_1_234
10
7.0037988
20
0.5181211
11
7.5941316
21
-0.3870558
0
LINE
8
DEFAULT_255_1_234
10
7.5941316
20
-0.3870558
11
7.5941316
21
0.5181211
0
LINE
8
DEFAULT_255_1_234
10
7.5941316
20
0.5181211
11
7.7475378
21
0.5181211
0
LINE
8
DEFAULT_255_1_234
10
8.9201716
20
0.5181211
11
8.9201716
21
-0.6513
0
LINE
8
DEFAULT_255_1_234
10
8.9201716
20
-0.6513
11
8.765159
21
-0.6513
0
LINE
8
DEFAULT_255_1_234
10
8.765159
20
-0.6513
11
8.765159
21
-0.110764
0
LINE
8
DEFAULT_255_1_234
10
8.765159
20
-0.110764
11
8.1756294
21
-0.110764
0
LINE
8
DEFAULT_255_1_234
10
8.1756294
20
-0.110764
11
8.1756294
21
-0.6513
0
LINE
8
DEFAULT_255_1_234
10
8.1756294
20
-0.6513
11
8.0214201
21
-0.6513
0
LINE
8
DEFAULT_255_1_234
10
8.0214201
20
-0.6513
11
8.0214201
21
0.5181211
0
LINE
8
DEFAULT_255_1_234
10
8.0214201
20
0.5181211
11
8.1756294
21
0.5181211
0
LINE
8
DEFAULT_255_1_234
10
8.1756294
20
0.5181211
11
8.1756294
21
0.0153343
0
LINE
8
DEFAULT_255_1_234
10
8.1756294
20
0.0153343
11
8.765159
21
0.0153343
0
LINE
8
DEFAULT_255_1_234
10
8.765159
20
0.0153343
11
8.765159
21
0.5181211
0
LINE
8
DEFAULT_255_1_234
10
8.765159
20
0.5181211
11
8.9201716
21
0.5181211
0
LINE
8
DEFAULT_255_1_234
10
9.9104849
20
0.5181211
11
9.9104849
21
0.434591
0
LINE
8
DEFAULT_255_1_234
10
9.9104849
20
0.434591
11
9.4261711
21
-0.6513
0
LINE
8
DEFAULT_255_1_234
10
9.4261711
20
-0.6513
11
9.2703554
21
-0.6513
0
LINE
8
DEFAULT_255_1_234
10
9.2703554
20
-0.6513
11
9.7530628
21
0.3960387
0
LINE
8
DEFAULT_255_1_234
10
9.7530628
20
0.3960387
11
9.1201619
21
0.3960387
0
LINE
8
DEFAULT_255_1_234
10
9.1201619
20
0.3960387
11
9.1201619
21
0.5181211
0
LINE
8
DEFAULT_255_1_234
10
9.1201619
20
0.5181211
11
9.9104849
21
0.5181211
0
ARC
8
DEFAULT_255_1_234
10
10.5061298
20
0.2103703
40
0.2822356
50
338.8763615
51
0.5166041
0
ARC
8
DEFAULT_255_1_234
10
10.5229952
20
0.2058208
40
0.2648703
50
325.8412414
51
338.4795939
0
ARC
8
DEFAULT_255_1_234
10
10.483932
20
0.2329042
40
0.3124019
50
296.7586019
51
325.753654
0
ARC
8
DEFAULT_255_1_234
10
10.4551428
20
0.2813789
40
0.368668
50
296.0902311
51
297.3618122
0
ARC
8
DEFAULT_255_1_234
10
10.4808886
20
-0.3740959
40
0.3518806
50
47.9009248
51
67.1946869
0
ARC
8
DEFAULT_255_1_234
10
10.5005128
20
-0.3494605
40
0.320451
50
35.236241
51
47.551371
0
ARC
8
DEFAULT_255_1_234
10
10.5266746
20
-0.3320007
40
0.2890103
50
359.2759738
51
35.4014081
0
ARC
8
DEFAULT_255_1_234
10
10.4521777
20
-0.3393174
40
0.3635026
50
343.1294516
51
0.5776525
0
ARC
8
DEFAULT_255_1_234
10
10.5246322
20
-0.359267
40
0.2883832
50
310.8497458
51
342.744803
0
ARC
8
DEFAULT_255_1_234
10
10.4828435
20
-0.3115706
40
0.3517954
50
281.5473923
51
310.9169905
0
ARC
8
DEFAULT_255_1_234
10
10.4471884
20
-0.1562916
40
0.5110832
50
269.6192722
51
281.9789957
0
ARC
8
DEFAULT_255_1_234
10
10.4399673
20
-0.1562172
40
0.5111606
50
257.4584469
51
270.4287458
0
ARC
8
DEFAULT_255_1_234
10
10.4018816
20
-0.3165656
40
0.3463762
50
228.7553743
51
257.8484423
0
ARC
8
DEFAULT_255_1_234
10
10.3709015
20
-0.3538558
40
0.297916
50
184.0104442
51
228.5071787
0
ARC
8
DEFAULT_255_1_234
10
10.4871959
20
-0.3361488
40
0.4152734
50
179.9315461
51
185.3254504
0
ARC
8
DEFAULT_255_1_234
10
10.3695604
20
-0.3324008
40
0.2976554
50
145.6795913
51
180.6259649
0
ARC
8
DEFAULT_255_1_234
10
10.3858954
20
-0.3438071
40
0.3175776
50
115.5537925
51
145.6416199
0
ARC
8
DEFAULT_255_1_234
10
10.4199884
20
-0.4048972
40
0.3874232
50
113.2437915
51
116.2054627
0
ARC
8
DEFAULT_255_1_234
10
10.4047096
20
0.234958
40
0.3154751
50
222.9548379
51
244.1372485
0
ARC
8
DEFAULT_255_1_234
10
10.3925172
20
0.2212834
40
0.2972382
50
213.3439227
51
222.6271327
0
ARC
8
DEFAULT_255_1_234
10
10.3733106
20
0.2082308
40
0.274019
50
180.4316517
51
213.2713999
0
ARC
8
DEFAULT_255_1_234
10
10.4308108
20
0.212911
40
0.33158
50
179.9992944
51
181.1655061
0
ARC
8
DEFAULT_255_1_234
10
10.4717525
20
0.2163561
40
0.3725376
50
164.6186108
51
180.5292368
0
ARC
8
DEFAULT_255_1_234
10
10.3819388
20
0.2405101
40
0.2795349
50
132.2454369
51
164.5092287
0
ARC
8
DEFAULT_255_1_234
10
10.4106492
20
0.2080028
40
0.3229019
50
100.7052766
51
132.1387266
0
ARC
8
DEFAULT_255_1_234
10
10.4411464
20
0.0702086
40
0.4639835
50
89.6732617
51
101.2449487
0
ARC
8
DEFAULT_255_1_234
10
10.4473662
20
0.087699
40
0.4464999
50
76.2876631
51
90.4586123
0
ARC
8
DEFAULT_255_1_234
10
10.4779894
20
0.209922
40
0.3205023
50
47.8240157
51
76.4266918
0
ARC
8
DEFAULT_255_1_234
10
10.5002443
20
0.235959
40
0.2862661
50
6.9168658
51
47.6261438
0
ARC
8
DEFAULT_255_1_234
10
10.3815847
20
0.214037
40
0.4067708
50
359.8419705
51
7.9694496
0
ARC
8
DEFAULT_255_1_234
10
10.4157744
20
-0.3300075
40
0.2513121
50
359.4454068
51
16.9256425
0
ARC
8
DEFAULT_255_1_234
10
10.4626555
20
-0.3170967
40
0.2027071
50
17.292259
51
45.462717
0
ARC
8
DEFAULT_255_1_234
10
10.4572491
20
-0.3217566
40
0.2098212
50
45.3028762
51
83.1921472
0
ARC
8
DEFAULT_255_1_234
10
10.4429175
20
-0.4019105
40
0.2911472
50
82.2614531
51
90.143954
0
ARC
8
DEFAULT_255_1_234
10
10.4398295
20
-0.378605
40
0.2678513
50
89.4959189
51
104.8579811
0
ARC
8
DEFAULT_255_1_234
10
10.4221554
20
-0.311611
40
0.1985654
50
104.8855873
51
135.2448349
0
ARC
8
DEFAULT_255_1_234
10
10.4271326
20
-0.3160664
40
0.2052373
50
135.3398955
51
172.104394
0
ARC
8
DEFAULT_255_1_234
10
10.5078384
20
-0.3315075
40
0.2873299
50
171.2651929
51
180.1859362
0
ARC
8
DEFAULT_255_1_234
10
10.4909086
20
-0.3347267
40
0.2704083
50
179.515471
51
193.6466734
0
ARC
8
DEFAULT_255_1_234
10
10.4092855
20
-0.3555223
40
0.1861855
50
193.3540587
51
225.8256931
0
ARC
8
DEFAULT_255_1_234
10
10.4133612
20
-0.3484476
40
0.1941102
50
226.418029
51
255.8553723
0
ARC
8
DEFAULT_255_1_234
10
10.4390045
20
-0.2548002
40
0.2911917
50
255.4655572
51
268.7985967
0
ARC
8
DEFAULT_255_1_234
10
10.4437237
20
-0.1709509
40
0.3751331
50
268.3464808
51
270.0104874
0
ARC
8
DEFAULT_255_1_234
10
10.4460625
20
-0.2393862
40
0.3067064
50
269.575914
51
282.0823146
0
ARC
8
DEFAULT_255_1_234
10
10.4685534
20
-0.3388197
40
0.2047712
50
281.7522535
51
306.6056425
0
ARC
8
DEFAULT_255_1_234
10
10.478396
20
-0.3549513
40
0.1859604
50
307.1350025
51
314.0277951
0
ARC
8
DEFAULT_255_1_234
10
10.4748044
20
-0.3523234
40
0.1903475
50
314.2553419
51
350.169324
0
ARC
8
DEFAULT_255_1_234
10
10.3896512
20
-0.3338591
40
0.2774269
50
349.4145679
51
0.2930737
0
ARC
8
DEFAULT_255_1_234
10
10.4416946
20
0.1820353
40
0.2300764
50
89.477591
51
105.729794
0
ARC
8
DEFAULT_255_1_234
10
10.4280859
20
0.2325637
40
0.1777519
50
105.922966
51
135.1662921
0
ARC
8
DEFAULT_255_1_234
10
10.4301362
20
0.2311419
40
0.1802087
50
135.3053131
51
168.9882338
0
ARC
8
DEFAULT_255_1_234
10
10.5128934
20
0.2121721
40
0.2650806
50
168.3802067
51
180.3602358
0
ARC
8
DEFAULT_255_1_234
10
10.4900513
20
0.2084041
40
0.2422425
50
179.5029707
51
194.9126783
0
ARC
8
DEFAULT_255_1_234
10
10.4315174
20
0.193011
40
0.1817188
50
194.9722181
51
224.1943972
0
ARC
8
DEFAULT_255_1_234
10
10.4287042
20
0.1907169
40
0.1781027
50
224.2961434
51
262.0157375
0
ARC
8
DEFAULT_255_1_234
10
10.4429285
20
0.2638661
40
0.2525492
50
261.1250369
51
270.1959853
0
ARC
8
DEFAULT_255_1_234
10
10.445904
20
0.2451339
40
0.233825
50
269.4825617
51
285.0988277
0
ARC
8
DEFAULT_255_1_234
10
10.4613199
20
0.187299
40
0.1739712
50
285.1585659
51
315.9484648
0
ARC
8
DEFAULT_255_1_234
10
10.4524211
20
0.1954886
40
0.1860616
50
316.0412958
51
351.9162715
0
ARC
8
DEFAULT_255_1_234
10
10.3791165
20
0.2096245
40
0.2606517
50
351.1056823
51
0.1936567
0
ARC
8
DEFAULT_255_1_234
10
10.4053994
20
0.2126369
40
0.234377
50
359.4789506
51
16.0679113
0
ARC
8
DEFAULT_255_1_234
10
10.4529953
20
0.225481
40
0.1850875
50
16.3251951
51
44.791304
0
ARC
8
DEFAULT_255_1_234
10
10.4512235
20
0.2255339
40
0.186312
50
44.3958661
51
88.2498933
0
ARC
8
DEFAULT_255_1_234
10
10.4438789
20
0.1644154
40
0.2476868
50
86.9833827
51
90.0200148
0
LINE
8
DEFAULT_255_1_234
10
11.736099
20
0.0402327
11
11.736099
21
-0.1525291
0
LINE
8
DEFAULT_255_1_234
10
10.9979823
20
-0.1726084
11
10.9979823
21
0.0257755
0
LINE
8
DEFAULT_255_1_234
10
11.5875119
20
-0.1926877
11
11.5875119
21
0.0506739
0
LINE
8
DEFAULT_255_1_234
10
11.1465694
20
0.0619184
11
11.1465694
21
-0.1758211
0
ARC
8
DEFAULT_255_1_234
10
10.511388
20
-0.1574195
40
1.2247208
50
353.8441951
51
0.2287902
0
ARC
8
DEFAULT_255_1_234
10
10.9753383
20
-0.2092194
40
0.7578929
50
344.4934747
51
353.9765454
0
ARC
8
DEFAULT_255_1_234
10
11.2745974
20
-0.2943019
40
0.4467846
50
329.2803592
51
344.7472793
0
ARC
8
DEFAULT_255_1_234
10
11.3738799
20
-0.3487982
40
0.3336173
50
324.9352394
51
328.6160465
0
ARC
8
DEFAULT_255_1_234
10
11.4115907
20
-0.3751573
40
0.2876076
50
280.580143
51
324.9173126
0
ARC
8
DEFAULT_255_1_234
10
11.37147
20
-0.2080901
40
0.4592847
50
269.5977311
51
281.6734359
0
ARC
8
DEFAULT_255_1_234
10
11.3642605
20
-0.2200827
40
0.4472986
50
256.6228859
51
270.51044
0
ARC
8
DEFAULT_255_1_234
10
11.3240583
20
-0.3749123
40
0.2873874
50
215.8618325
51
257.2788573
0
ARC
8
DEFAULT_255_1_234
10
11.4261615
20
-0.3064023
40
0.4102928
50
197.9693508
51
215.2623606
0
ARC
8
DEFAULT_255_1_234
10
11.674673
20
-0.2225291
40
0.6725652
50
187.8816417
51
198.2346507
0
ARC
8
DEFAULT_255_1_234
10
12.0704939
20
-0.1653921
40
1.0724845
50
180.8976217
51
188.0055519
0
ARC
8
DEFAULT_255_1_234
10
12.3505127
20
-0.1550223
40
1.3526448
50
180.7449369
51
181.1510016
0
ARC
8
DEFAULT_255_1_234
10
12.1927856
20
0.0306042
40
1.1948131
50
173.7675579
51
180.231553
0
ARC
8
DEFAULT_255_1_234
10
11.7410003
20
0.0816666
40
0.7401564
50
164.3058563
51
173.9002247
0
ARC
8
DEFAULT_255_1_234
10
11.4498071
20
0.1655656
40
0.4371288
50
148.7922025
51
164.568378
0
ARC
8
DEFAULT_255_1_234
10
11.3546524
20
0.2186929
40
0.3282386
50
144.5883898
51
148.1176286
0
ARC
8
DEFAULT_255_1_234
10
11.3203421
20
0.2426315
40
0.2864044
50
101.6440918
51
144.514236
0
ARC
8
DEFAULT_255_1_234
10
11.3628488
20
0.0737069
40
0.4604934
50
89.5284041
51
102.5819763
0
ARC
8
DEFAULT_255_1_234
10
11.3707576
20
0.0698018
40
0.464401
50
77.0437873
51
90.5081339
0
ARC
8
DEFAULT_255_1_234
10
11.4109578
20
0.2340615
40
0.2953195
50
48.2778575
51
77.4994676
0
ARC
8
DEFAULT_255_1_234
10
11.4182209
20
0.2469746
40
0.2808655
50
36.3142134
51
47.6305865
0
ARC
8
DEFAULT_255_1_234
10
11.3313516
20
0.1884515
40
0.3855453
50
18.2931786
51
35.6769206
0
ARC
8
DEFAULT_255_1_234
10
11.0770275
20
0.1011593
40
0.654423
50
8.024666
51
18.5605216
0
ARC
8
DEFAULT_255_1_234
10
10.6607195
20
0.0396792
40
1.0752407
50
1.1274072
51
8.1718305
0
ARC
8
DEFAULT_255_1_234
10
10.3371385
20
0.0269885
40
1.3990231
50
0.5424119
51
1.3863029
0
ARC
8
DEFAULT_255_1_234
10
10.5192763
20
0.0542342
40
1.0682415
50
359.8090433
51
4.9407866
0
ARC
8
DEFAULT_255_1_234
10
10.9402777
20
0.0918113
40
0.6455691
50
4.8362157
51
12.2904523
0
ARC
8
DEFAULT_255_1_234
10
11.2157892
20
0.1531965
40
0.3633074
50
12.0805627
51
23.8173984
0
ARC
8
DEFAULT_255_1_234
10
11.3331597
20
0.2028919
40
0.2358723
50
24.2871213
51
31.3935614
0
ARC
8
DEFAULT_255_1_234
10
11.3856295
20
0.2372233
40
0.1732111
50
30.7407893
51
82.4657128
0
ARC
8
DEFAULT_255_1_234
10
11.3676429
20
0.1488691
40
0.263235
50
81.1060089
51
90.2184952
0
ARC
8
DEFAULT_255_1_234
10
11.3640728
20
0.1746924
40
0.2374236
50
89.3806855
51
105.6762551
0
ARC
8
DEFAULT_255_1_234
10
11.3457358
20
0.2413567
40
0.1682847
50
105.7981136
51
149.7388061
0
ARC
8
DEFAULT_255_1_234
10
11.4521437
20
0.177395
40
0.2924306
50
149.4208916
51
163.6286378
0
ARC
8
DEFAULT_255_1_234
10
11.6612325
20
0.113625
40
0.5110213
50
163.3763315
51
172.1410975
0
ARC
8
DEFAULT_255_1_234
10
11.9913044
20
0.0663518
40
0.8444586
50
172.0259487
51
178.0703232
0
ARC
8
DEFAULT_255_1_234
10
12.2943133
20
0.0519906
40
1.1477868
50
177.8631668
51
179.5044149
0
ARC
8
DEFAULT_255_1_234
10
12.1870538
20
-0.1794611
40
1.0404907
50
179.7995573
51
185.2460446
0
ARC
8
DEFAULT_255_1_234
10
11.7827577
20
-0.2177487
40
0.6343885
50
185.1411642
51
193.0079639
0
ARC
8
DEFAULT_255_1_234
10
11.518405
20
-0.2802359
40
0.3627568
50
192.7897626
51
205.2507664
0
ARC
8
DEFAULT_255_1_234
10
11.4137597
20
-0.3269585
40
0.2481908
50
205.8005384
51
211.2537509
0
ARC
8
DEFAULT_255_1_234
10
11.3614037
20
-0.362042
40
0.1852521
50
210.3789793
51
238.4008143
0
ARC
8
DEFAULT_255_1_234
10
11.3594559
20
-0.3573624
40
0.1882621
50
239.6520629
51
265.9793761
0
ARC
8
DEFAULT_255_1_234
10
11.3679759
20
-0.2901573
40
0.2559272
50
265.1315437
51
270.060332
0
ARC
8
DEFAULT_255_1_234
10
11.3708538
20
-0.3225466
40
0.2235528
50
269.3314664
51
287.2178029
0
ARC
8
DEFAULT_255_1_234
10
11.384639
20
-0.3728721
40
0.1714108
50
287.7958004
51
329.080874
0
ARC
8
DEFAULT_255_1_234
10
11.2888847
20
-0.313107
40
0.2842745
50
328.6634704
51
343.3325132
0
ARC
8
DEFAULT_255_1_234
10
11.0715867
20
-0.2454137
40
0.5118644
50
343.0499468
51
351.9393422
0
ARC
8
DEFAULT_255_1_234
10
10.7249167
20
-0.1943051
40
0.8622784
50
351.8069023
51
357.7959224
0
ARC
8
DEFAULT_255_1_234
10
10.4013723
20
-0.1775279
40
1.1862365
50
357.5871873
51
359.2677531
0
LINE
8
DEFAULT_255_1_234
10
12.142505
20
-0.1155831
11
12.142505
21
0.0056962
0
LINE
8
DEFAULT_255_1_234
10
12.142505
20
0.0056962
11
12.2541461
21
0.0056962
0
LINE
8
DEFAULT_255_1_234
10
12.0637939
20
0.2113087
11
11.9152068
21
0.2113087
0
LINE
8
DEFAULT_255_1_234
10
11.9047655
20
-0.3428812
11
12.0541559
21
-0.3428812
0
LINE
8
DEFAULT_255_1_234
10
12.2541461
20
-0.1155831
11
12.142505
21
-0.1155831
0
ARC
8
DEFAULT_255_1_234
10
12.2512328
20
0.3449713
40
0.3392876
50
270.4919872
51
281.8951556
0
ARC
8
DEFAULT_255_1_234
10
12.2753589
20
0.2347702
40
0.2264817
50
281.6691735
51
301.2943132
0
ARC
8
DEFAULT_255_1_234
10
12.29238
20
0.2036304
40
0.1910381
50
301.7833094
51
311.7545298
0
ARC
8
DEFAULT_255_1_234
10
12.3015375
20
0.1934748
40
0.1773635
50
311.7323931
51
354.2802411
0
ARC
8
DEFAULT_255_1_234
10
12.2289001
20
0.2059722
40
0.2509385
50
353.0937916
51
0.1181479
0
ARC
8
DEFAULT_255_1_234
10
12.1827786
20
0.2107386
40
0.2970898
50
359.1805295
51
15.0453146
0
ARC
8
DEFAULT_255_1_234
10
12.3173623
20
0.2499992
40
0.1569564
50
13.9577229
51
77.6713066
0
ARC
8
DEFAULT_255_1_234
10
12.2787152
20
0.1114949
40
0.3006298
50
76.1116566
51
90.7026153
0
ARC
8
DEFAULT_255_1_234
10
12.272799
20
0.1388545
40
0.2732568
50
89.5324876
51
103.531937
0
ARC
8
DEFAULT_255_1_234
10
12.2527434
20
0.2187884
40
0.1908508
50
103.2931773
51
133.5619022
0
ARC
8
DEFAULT_255_1_234
10
12.2482922
20
0.2247375
40
0.1834746
50
133.8349307
51
173.5344437
0
ARC
8
DEFAULT_255_1_234
10
12.3205966
20
0.2119213
40
0.2568033
50
172.5096846
51
180.1366907
0
ARC
8
DEFAULT_255_1_234
10
12.2254859
20
0.2153622
40
0.3103056
50
155.3484492
51
180.7484736
0
ARC
8
DEFAULT_255_1_234
10
12.2205949
20
0.2124846
40
0.3070957
50
131.5744599
51
154.4798489
0
ARC
8
DEFAULT_255_1_234
10
12.2519096
20
0.180831
40
0.3515643
50
96.9875458
51
131.9690667
0
ARC
8
DEFAULT_255_1_234
10
12.2738576
20
0.0562636
40
0.4779224
50
89.8596053
51
97.7825159
0
ARC
8
DEFAULT_255_1_234
10
12.2786639
20
0.0300616
40
0.5041361
50
78.3655447
51
90.4131539
0
ARC
8
DEFAULT_255_1_234
10
12.3144557
20
0.1959887
40
0.3344039
50
56.6229102
51
78.638727
0
ARC
8
DEFAULT_255_1_234
10
12.33595
20
0.2335805
40
0.2912001
50
47.0253525
51
56.0854072
0
ARC
8
DEFAULT_255_1_234
10
12.337928
20
0.2375223
40
0.2869704
50
10.9208013
51
46.7778124
0
ARC
8
DEFAULT_255_1_234
10
12.2015347
20
0.2059857
40
0.426899
50
359.6364486
51
11.6087304
0
ARC
8
DEFAULT_255_1_234
10
12.3850191
20
0.2044752
40
0.243409
50
332.3549906
51
359.7179418
0
ARC
8
DEFAULT_255_1_234
10
12.3199792
20
0.2353142
40
0.3153459
50
325.2333722
51
332.8745602
0
ARC
8
DEFAULT_255_1_234
10
12.3352416
20
0.2246828
40
0.2967456
50
292.9802137
51
325.2392345
0
ARC
8
DEFAULT_255_1_234
10
12.307779
20
0.2780863
40
0.3566604
50
292.5402179
51
293.6924929
0
ARC
8
DEFAULT_255_1_234
10
12.3470386
20
-0.3673909
40
0.3307468
50
57.6435486
51
72.8625112
0
ARC
8
DEFAULT_255_1_234
10
12.3824886
20
-0.3099451
40
0.2632492
50
36.7248896
51
57.4697979
0
ARC
8
DEFAULT_255_1_234
10
12.3813518
20
-0.308678
40
0.2634081
50
8.0545065
51
36.356114
0
ARC
8
DEFAULT_255_1_234
10
12.2950704
20
-0.3241826
40
0.3510261
50
359.8320645
51
8.5869982
0
ARC
8
DEFAULT_255_1_234
10
12.257548
20
-0.3289899
40
0.3885653
50
343.9829931
51
0.5571613
0
ARC
8
DEFAULT_255_1_234
10
12.3461677
20
-0.3532562
40
0.2966924
50
311.6359546
51
343.7651759
0
ARC
8
DEFAULT_255_1_234
10
12.3083246
20
-0.3105898
40
0.3537231
50
279.7829875
51
311.6255694
0
ARC
8
DEFAULT_255_1_234
10
12.2782022
20
-0.166872
40
0.5004971
50
269.7286406
51
280.3856417
0
ARC
8
DEFAULT_255_1_234
10
12.2720095
20
-0.1710004
40
0.4963778
50
256.6828919
51
270.4412052
0
ARC
8
DEFAULT_255_1_234
10
12.2381391
20
-0.3094606
40
0.3538406
50
229.4223008
51
256.8556159
0
ARC
8
DEFAULT_255_1_234
10
12.1966784
20
-0.3561264
40
0.2914296
50
181.818294
51
229.6455059
0
ARC
8
DEFAULT_255_1_234
10
12.300674
20
-0.3430504
40
0.3959084
50
179.9755256
51
183.2323064
0
ARC
8
DEFAULT_255_1_234
10
12.2834486
20
-0.3450963
40
0.2293034
50
179.4465117
51
196.2869258
0
ARC
8
DEFAULT_255_1_234
10
12.2346894
20
-0.3584349
40
0.1787621
50
196.5661473
51
227.705904
0
ARC
8
DEFAULT_255_1_234
10
12.2510989
20
-0.3400845
40
0.2033784
50
227.7652068
51
257.8762805
0
ARC
8
DEFAULT_255_1_234
10
12.2735959
20
-0.2457844
40
0.3003081
50
257.4584385
51
270.426602
0
ARC
8
DEFAULT_255_1_234
10
12.2781525
20
-0.2168004
40
0.329292
50
269.5962073
51
280.8789248
0
ARC
8
DEFAULT_255_1_234
10
12.3011054
20
-0.3314315
40
0.2123908
50
280.6346389
51
299.8595945
0
ARC
8
DEFAULT_255_1_234
10
12.320196
20
-0.3676788
40
0.171457
50
300.3576302
51
314.5517981
0
ARC
8
DEFAULT_255_1_234
10
12.311902
20
-0.3616081
40
0.1816095
50
315.0728369
51
345.0431014
0
ARC
8
DEFAULT_255_1_234
10
12.2195835
20
-0.3347159
40
0.2777492
50
344.5986631
51
357.9269593
0
ARC
8
DEFAULT_255_1_234
10
12.1300161
20
-0.3285724
40
0.3674917
50
357.4748886
51
0.0231117
0
ARC
8
DEFAULT_255_1_234
10
12.232327
20
-0.3261321
40
0.2651907
50
359.5047933
51
13.4239635
0
ARC
8
DEFAULT_255_1_234
10
12.3189914
20
-0.3039522
40
0.1757509
50
12.9498199
51
48.7551375
0
ARC
8
DEFAULT_255_1_234
10
12.3007648
20
-0.32886
40
0.2065134
50
49.5088623
51
72.1836453
0
ARC
8
DEFAULT_255_1_234
10
12.2649801
20
-0.4350709
40
0.3185836
50
71.9010081
51
84.3554254
0
ARC
8
DEFAULT_255_1_234
10
12.2488433
20
-0.5711674
40
0.4556151
50
84.0193428
51
89.333121
0
LINE
8
DEFAULT_255_1_234
10
13.1745833
20
-0.0938974
11
13.1745833
21
-0.2151766
0
LINE
8
DEFAULT_255_1_234
10
13.1745833
20
-0.2151766
11
12.7826345
21
-0.2151766
0
LINE
8
DEFAULT_255_1_234
10
12.7826345
20
-0.2151766
11
12.7826345
21
-0.0938974
0
LINE
8
DEFAULT_255_1_234
10
12.7826345
20
-0.0938974
11
13.1745833
21
-0.0938974
0
LINE
8
DEFAULT_255_1_234
10
13.9311731
20
0.5181211
11
13.9311731
21
-0.258548
0
LINE
8
DEFAULT_255_1_234
10
13.9311731
20
-0.258548
11
14.0934142
21
-0.258548
0
LINE
8
DEFAULT_255_1_234
10
14.0934142
20
-0.258548
11
14.0934142
21
-0.3798272
0
LINE
8
DEFAULT_255_1_234
10
14.0934142
20
-0.3798272
11
13.9311731
21
-0.3798272
0
LINE
8
DEFAULT_255_1_234
10
13.9311731
20
-0.3798272
11
13.9311731
21
-0.6513
0
LINE
8
DEFAULT_255_1_234
10
13.9311731
20
-0.6513
11
13.7817828
21
-0.6513
0
LINE
8
DEFAULT_255_1_234
10
13.7817828
20
-0.6513
11
13.7817828
21
-0.3798272
0
LINE
8
DEFAULT_255_1_234
10
13.7817828
20
-0.3798272
11
13.2492785
21
-0.3798272
0
LINE
8
DEFAULT_255_1_234
10
13.2492785
20
-0.3798272
11
13.2492785
21
-0.2922813
0
LINE
8
DEFAULT_255_1_234
10
13.2492785
20
-0.2922813
11
13.7729479
21
0.5181211
0
LINE
8
DEFAULT_255_1_234
10
13.7729479
20
0.5181211
11
13.9311731
21
0.5181211
0
LINE
8
DEFAULT_255_1_234
10
13.7641129
20
0.2827912
11
13.417945
21
-0.258548
0
LINE
8
DEFAULT_255_1_234
10
13.417945
20
-0.258548
11
13.7817828
21
-0.258548
0
LINE
8
DEFAULT_255_1_234
10
13.7817828
20
-0.258548
11
13.7817828
21
0.3149181
0
LINE
8
DEFAULT_255_1_234
10
13.7817828
20
0.3149181
11
13.7641129
21
0.2827912
0
LINE
8
DEFAULT_255_1_234
10
14.6716994
20
-0.6513
11
14.2660966
21
-0.6513
0
LINE
8
DEFAULT_255_1_234
10
14.2660966
20
-0.6513
11
14.2660966
21
0.5181211
0
LINE
8
DEFAULT_255_1_234
10
14.2660966
20
0.5181211
11
14.6484073
21
0.5181211
0
LINE
8
DEFAULT_255_1_234
10
14.6773216
20
-0.1043386
11
14.420306
21
-0.1043386
0
LINE
8
DEFAULT_255_1_234
10
14.420306
20
-0.1043386
11
14.420306
21
-0.5252017
0
LINE
8
DEFAULT_255_1_234
10
14.420306
20
-0.5252017
11
14.6749121
21
-0.5252017
0
LINE
8
DEFAULT_255_1_234
10
14.420306
20
0.3912196
11
14.420306
21
0.0193501
0
LINE
8
DEFAULT_255_1_234
10
14.420306
20
0.0193501
11
14.6532264
21
0.0193501
0
LINE
8
DEFAULT_255_1_234
10
14.6484073
20
0.3912196
11
14.420306
21
0.3912196
0
ARC
8
DEFAULT_255_1_234
10
14.6521782
20
-0.2186099
40
0.7367406
50
82.1257326
51
90.2932599
0
ARC
8
DEFAULT_255_1_234
10
14.6910737
20
0.0532013
40
0.4621653
50
69.9044149
51
82.2857423
0
ARC
8
DEFAULT_255_1_234
10
14.7481415
20
0.2074637
40
0.2976871
50
51.1838526
51
70.0181538
0
ARC
8
DEFAULT_255_1_234
10
14.7736381
20
0.244524
40
0.2528517
50
12.1017251
51
50.4214761
0
ARC
8
DEFAULT_255_1_234
10
14.6352255
20
0.2097676
40
0.3955061
50
359.5251267
51
12.8211707
0
ARC
8
DEFAULT_255_1_234
10
14.7932181
20
0.2028344
40
0.2375281
50
323.4908128
51
0.8817314
0
ARC
8
DEFAULT_255_1_234
10
14.7513868
20
0.235155
40
0.2903817
50
298.6825083
51
323.2756573
0
ARC
8
DEFAULT_255_1_234
10
14.7152231
20
0.2952649
40
0.3604842
50
293.1999386
51
299.1396394
0
ARC
8
DEFAULT_255_1_234
10
14.7825204
20
-0.3132874
40
0.2871098
50
54.0011765
51
74.9167975
0
ARC
8
DEFAULT_255_1_234
10
14.7941563
20
-0.2935668
40
0.2643248
50
36.3580696
51
53.5291921
0
ARC
8
DEFAULT_255_1_234
10
14.7814805
20
-0.3026002
40
0.2798884
50
4.8189881
51
36.3089977
0
ARC
8
DEFAULT_255_1_234
10
14.703564
20
-0.313573
40
0.358478
50
359.9370252
51
5.5204067
0
ARC
8
DEFAULT_255_1_234
10
14.6711162
20
-0.3176333
40
0.3909429
50
344.7478609
51
0.5373281
0
ARC
8
DEFAULT_255_1_234
10
14.7702133
20
-0.3443456
40
0.2883093
50
311.1786488
51
344.6886812
0
ARC
8
DEFAULT_255_1_234
10
14.741018
20
-0.3080013
40
0.3348923
50
286.0418249
51
310.8441291
0
ARC
8
DEFAULT_255_1_234
10
14.6903012
20
-0.1433193
40
0.5071869
50
274.1042341
51
286.4071509
0
ARC
8
DEFAULT_255_1_234
10
14.6726268
20
0.0450229
40
0.6963234
50
269.9236873
51
274.445647
0
ARC
8
DEFAULT_255_1_234
10
14.6772269
20
-0.1889463
40
0.3362634
50
269.6055768
51
281.3740047
0
ARC
8
DEFAULT_255_1_234
10
14.7002907
20
-0.2982647
40
0.224546
50
281.1055983
51
302.5132223
0
ARC
8
DEFAULT_255_1_234
10
14.7149806
20
-0.3246177
40
0.1944357
50
303.0368945
51
311.8811219
0
ARC
8
DEFAULT_255_1_234
10
14.7221213
20
-0.333111
40
0.1833454
50
311.9916004
51
351.7143462
0
ARC
8
DEFAULT_255_1_234
10
14.6404443
20
-0.316607
40
0.2665871
50
350.7339597
51
0.2221581
0
ARC
8
DEFAULT_255_1_234
10
14.6296889
20
-0.3109533
40
0.2773789
50
359.0456241
51
17.2296242
0
ARC
8
DEFAULT_255_1_234
10
14.7336006
20
-0.2800837
40
0.1689915
50
17.6685481
51
78.9940892
0
ARC
8
DEFAULT_255_1_234
10
14.681917
20
-0.4655776
40
0.3612658
50
76.5635957
51
90.6980921
0
LINE
8
DEFAULT_255_1_234
10
14.6775154
20
-0.1043387
11
14.6773216
21
-0.1043386
0
ARC
8
DEFAULT_255_1_234
10
14.655483
20
0.3479036
40
0.3285612
50
269.6064736
51
281.4533503
0
ARC
8
DEFAULT_255_1_234
10
14.677765
20
0.2427688
40
0.2210975
50
281.2041486
51
302.5148063
0
ARC
8
DEFAULT_255_1_234
10
14.69145
20
0.2181241
40
0.1929674
50
303.021671
51
309.8369575
0
ARC
8
DEFAULT_255_1_234
10
14.7097961
20
0.1975488
40
0.1654181
50
309.5228395
51
356.9509836
0
ARC
8
DEFAULT_255_1_234
10
14.6434544
20
0.2070932
40
0.2322512
50
355.4701227
51
0.0492546
0
ARC
8
DEFAULT_255_1_234
10
14.6155635
20
0.2093094
40
0.2601498
50
359.5558597
51
11.2096359
0
ARC
8
DEFAULT_255_1_234
10
14.7112925
20
0.229123
40
0.1623975
50
10.9182341
51
31.3230275
0
ARC
8
DEFAULT_255_1_234
10
14.7398658
20
0.2450214
40
0.1297302
50
31.8852677
51
52.1412565
0
ARC
8
DEFAULT_255_1_234
10
14.7124391
20
0.206275
40
0.1771663
50
52.8285564
51
71.9850297
0
ARC
8
DEFAULT_255_1_234
10
14.6748567
20
0.0956664
40
0.2939794
50
71.6863486
51
82.8455995
0
ARC
8
DEFAULT_255_1_234
10
14.6509103
20
-0.0852851
40
0.476506
50
82.6984714
51
90.1729175
0
ARC
8
DEFAULT_255_1_234
10
14.6486738
20
0.0370623
40
0.3541573
50
89.8708275
51
90.0431131
0
LINE
8
DEFAULT_255_1_234
10
16.0475361
20
-0.6513
11
15.935895
21
-0.3460939
0
LINE
8
DEFAULT_255_1_234
10
15.935895
20
-0.3460939
11
15.4459589
21
-0.3460939
0
LINE
8
DEFAULT_255_1_234
10
15.4459589
20
-0.3460939
11
15.3359241
21
-0.6513
0
LINE
8
DEFAULT_255_1_234
10
15.3359241
20
-0.6513
11
15.1768957
21
-0.6513
0
LINE
8
DEFAULT_255_1_234
10
15.1768957
20
-0.6513
11
15.6234604
21
0.5181211
0
LINE
8
DEFAULT_255_1_234
10
15.6234604
20
0.5181211
11
15.7583936
21
0.5181211
0
LINE
8
DEFAULT_255_1_234
10
15.7583936
20
0.5181211
11
16.2057614
21
-0.6513
0
LINE
8
DEFAULT_255_1_234
10
16.2057614
20
-0.6513
11
16.0475361
21
-0.6513
0
LINE
8
DEFAULT_255_1_234
10
15.690927
20
0.3277689
11
15.492543
21
-0.2191925
0
LINE
8
DEFAULT_255_1_234
10
15.492543
20
-0.2191925
11
15.8901141
21
-0.2191925
0
LINE
8
DEFAULT_255_1_234
10
15.8901141
20
-0.2191925
11
15.690927
21
0.3277689
0
LINE
8
DEFAULT_255_1_234
10
17.0579288
20
0.0402327
11
17.0579288
21
-0.1525291
0
LINE
8
DEFAULT_255_1_234
10
16.3198121
20
-0.1726084
11
16.3198121
21
0.0257755
0
LINE
8
DEFAULT_255_1_234
10
16.9093417
20
-0.1926877
11
16.9093417
21
0.0506739
0
LINE
8
DEFAULT_255_1_234
10
16.4683992
20
0.0619184
11
16.4683992
21
-0.1758211
0
ARC
8
DEFAULT_255_1_234
10
15.8332178
20
-0.1574195
40
1.2247208
50
353.8441951
51
0.2287902
0
ARC
8
DEFAULT_255_1_234
10
16.2971681
20
-0.2092194
40
0.7578929
50
344.4934747
51
353.9765454
0
ARC
8
DEFAULT_255_1_234
10
16.5964272
20
-0.2943019
40
0.4467846
50
329.2803592
51
344.7472793
0
ARC
8
DEFAULT_255_1_234
10
16.6957096
20
-0.3487982
40
0.3336173
50
324.9352394
51
328.6160465
0
ARC
8
DEFAULT_255_1_234
10
16.7334205
20
-0.3751573
40
0.2876076
50
280.580143
51
324.9173126
0
ARC
8
DEFAULT_255_1_234
10
16.6932998
20
-0.2080901
40
0.4592847
50
269.5977311
51
281.6734359
0
ARC
8
DEFAULT_255_1_234
10
16.6860903
20
-0.2200827
40
0.4472986
50
256.6228859
51
270.51044
0
ARC
8
DEFAULT_255_1_234
10
16.6458881
20
-0.3749123
40
0.2873874
50
215.8618325
51
257.2788573
0
ARC
8
DEFAULT_255_1_234
10
16.7479913
20
-0.3064023
40
0.4102928
50
197.9693508
51
215.2623606
0
ARC
8
DEFAULT_255_1_234
10
16.9965028
20
-0.2225291
40
0.6725652
50
187.8816417
51
198.2346507
0
ARC
8
DEFAULT_255_1_234
10
17.3923237
20
-0.1653921
40
1.0724845
50
180.8976217
51
188.0055519
0
ARC
8
DEFAULT_255_1_234
10
17.6723425
20
-0.1550223
40
1.3526448
50
180.7449369
51
181.1510016
0
ARC
8
DEFAULT_255_1_234
10
17.5146154
20
0.0306042
40
1.1948131
50
173.7675579
51
180.231553
0
ARC
8
DEFAULT_255_1_234
10
17.06283
20
0.0816666
40
0.7401564
50
164.3058563
51
173.9002247
0
ARC
8
DEFAULT_255_1_234
10
16.7716369
20
0.1655656
40
0.4371288
50
148.7922025
51
164.568378
0
ARC
8
DEFAULT_255_1_234
10
16.6764821
20
0.2186929
40
0.3282386
50
144.5883898
51
148.1176286
0
ARC
8
DEFAULT_255_1_234
10
16.6421719
20
0.2426315
40
0.2864044
50
101.6440918
51
144.514236
0
ARC
8
DEFAULT_255_1_234
10
16.6846786
20
0.0737069
40
0.4604934
50
89.5284041
51
102.5819763
0
ARC
8
DEFAULT_255_1_234
10
16.6925874
20
0.0698018
40
0.464401
50
77.0437873
51
90.5081339
0
ARC
8
DEFAULT_255_1_234
10
16.7327876
20
0.2340615
40
0.2953195
50
48.2778575
51
77.4994676
0
ARC
8
DEFAULT_255_1_234
10
16.7400507
20
0.2469746
40
0.2808655
50
36.3142134
51
47.6305865
0
ARC
8
DEFAULT_255_1_234
10
16.6531814
20
0.1884515
40
0.3855453
50
18.2931786
51
35.6769206
0
ARC
8
DEFAULT_255_1_234
10
16.3988573
20
0.1011593
40
0.654423
50
8.024666
51
18.5605216
0
ARC
8
DEFAULT_255_1_234
10
15.9825493
20
0.0396792
40
1.0752407
50
1.1274072
51
8.1718305
0
ARC
8
DEFAULT_255_1_234
10
15.6589683
20
0.0269885
40
1.3990231
50
0.5424119
51
1.3863029
0
ARC
8
DEFAULT_255_1_234
10
15.8411061
20
0.0542342
40
1.0682415
50
359.8090433
51
4.9407866
0
ARC
8
DEFAULT_255_1_234
10
16.2621075
20
0.0918113
40
0.6455691
50
4.8362157
51
12.2904523
0
ARC
8
DEFAULT_255_1_234
10
16.537619
20
0.1531965
40
0.3633074
50
12.0805627
51
23.8173984
0
ARC
8
DEFAULT_255_1_234
10
16.6549895
20
0.2028919
40
0.2358723
50
24.2871213
51
31.3935614
0
ARC
8
DEFAULT_255_1_234
10
16.7074592
20
0.2372233
40
0.1732111
50
30.7407893
51
82.4657128
0
ARC
8
DEFAULT_255_1_234
10
16.6894727
20
0.1488691
40
0.263235
50
81.1060089
51
90.2184952
0
ARC
8
DEFAULT_255_1_234
10
16.6859026
20
0.1746924
40
0.2374236
50
89.3806855
51
105.6762551
0
ARC
8
DEFAULT_255_1_234
10
16.6675656
20
0.2413567
40
0.1682847
50
105.7981136
51
149.7388061
0
ARC
8
DEFAULT_255_1_234
10
16.7739735
20
0.177395
40
0.2924306
50
149.4208916
51
163.6286378
0
ARC
8
DEFAULT_255_1_234
10
16.9830623
20
0.113625
40
0.5110213
50
163.3763315
51
172.1410975
0
ARC
8
DEFAULT_255_1_234
10
17.3131342
20
0.0663518
40
0.8444586
50
172.0259487
51
178.0703232
0
ARC
8
DEFAULT_255_1_234
10
17.6161431
20
0.0519906
40
1.1477868
50
177.8631668
51
179.5044149
0
ARC
8
DEFAULT_255_1_234
10
17.5088836
20
-0.1794611
40
1.0404907
50
179.7995573
51
185.2460446
0
ARC
8
DEFAULT_255_1_234
10
17.1045875
20
-0.2177487
40
0.6343885
50
185.1411642
51
193.0079639
0
ARC
8
DEFAULT_255_1_234
10
16.8402347
20
-0.2802359
40
0.3627568
50
192.7897626
51
205.2507664
0
ARC
8
DEFAULT_255_1_234
10
16.7355894
20
-0.3269585
40
0.2481908
50
205.8005384
51
211.2537509
0
ARC
8
DEFAULT_255_1_234
10
16.6832335
20
-0.362042
40
0.1852521
50
210.3789793
51
238.4008143
0
ARC
8
DEFAULT_255_1_234
10
16.6812857
20
-0.3573624
40
0.1882621
50
239.6520629
51
265.9793761
0
ARC
8
DEFAULT_255_1_234
10
16.6898057
20
-0.2901573
40
0.2559272
50
265.1315437
51
270.060332
0
ARC
8
DEFAULT_255_1_234
10
16.6926836
20
-0.3225466
40
0.2235528
50
269.3314664
51
287.2178029
0
ARC
8
DEFAULT_255_1_234
10
16.7064688
20
-0.3728721
40
0.1714108
50
287.7958004
51
329.080874
0
ARC
8
DEFAULT_255_1_234
10
16.6107144
20
-0.313107
40
0.2842745
50
328.6634704
51
343.3325132
0
ARC
8
DEFAULT_255_1_234
10
16.3934165
20
-0.2454137
40
0.5118644
50
343.0499468
51
351.9393422
0
ARC
8
DEFAULT_255_1_234
10
16.0467465
20
-0.1943051
40
0.8622784
50
351.8069023
51
357.7959224
0
ARC
8
DEFAULT_255_1_234
10
15.7232021
20
-0.1775279
40
1.1862365
50
357.5871873
51
359.2677531
0
LINE
8
DEFAULT_255_1_234
10
17.9815787
20
0.0402327
11
17.9815787
21
-0.1525291
0
LINE
8
DEFAULT_255_1_234
10
17.243462
20
-0.1726084
11
17.243462
21
0.0257755
0
LINE
8
DEFAULT_255_1_234
10
17.8329916
20
-0.1926877
11
17.8329916
21
0.0506739
0
LINE
8
DEFAULT_255_1_234
10
17.3920491
20
0.0619184
11
17.3920491
21
-0.1758211
0
ARC
8
DEFAULT_255_1_234
10
16.7568677
20
-0.1574195
40
1.2247208
50
353.8441951
51
0.2287902
0
ARC
8
DEFAULT_255_1_234
10
17.220818
20
-0.2092194
40
0.7578929
50
344.4934747
51
353.9765454
0
ARC
8
DEFAULT_255_1_234
10
17.5200771
20
-0.2943019
40
0.4467846
50
329.2803592
51
344.7472793
0
ARC
8
DEFAULT_255_1_234
10
17.6193595
20
-0.3487982
40
0.3336173
50
324.9352394
51
328.6160465
0
ARC
8
DEFAULT_255_1_234
10
17.6570704
20
-0.3751573
40
0.2876076
50
280.580143
51
324.9173126
0
ARC
8
DEFAULT_255_1_234
10
17.6169497
20
-0.2080901
40
0.4592847
50
269.5977311
51
281.6734359
0
ARC
8
DEFAULT_255_1_234
10
17.6097402
20
-0.2200827
40
0.4472986
50
256.6228859
51
270.51044
0
ARC
8
DEFAULT_255_1_234
10
17.569538
20
-0.3749123
40
0.2873874
50
215.8618325
51
257.2788573
0
ARC
8
DEFAULT_255_1_234
10
17.6716412
20
-0.3064023
40
0.4102928
50
197.9693508
51
215.2623606
0
ARC
8
DEFAULT_255_1_234
10
17.9201527
20
-0.2225291
40
0.6725652
50
187.8816417
51
198.2346507
0
ARC
8
DEFAULT_255_1_234
10
18.3159736
20
-0.1653921
40
1.0724845
50
180.8976217
51
188.0055519
0
ARC
8
DEFAULT_255_1_234
10
18.5959924
20
-0.1550223
40
1.3526448
50
180.7449369
51
181.1510016
0
ARC
8
DEFAULT_255_1_234
10
18.4382653
20
0.0306042
40
1.1948131
50
173.7675579
51
180.231553
0
ARC
8
DEFAULT_255_1_234
10
17.9864799
20
0.0816666
40
0.7401564
50
164.3058563
51
173.9002247
0
ARC
8
DEFAULT_255_1_234
10
17.6952868
20
0.1655656
40
0.4371288
50
148.7922025
51
164.568378
0
ARC
8
DEFAULT_255_1_234
10
17.600132
20
0.2186929
40
0.3282386
50
144.5883898
51
148.1176286
0
ARC
8
DEFAULT_255_1_234
10
17.5658218
20
0.2426315
40
0.2864044
50
101.6440918
51
144.514236
0
ARC
8
DEFAULT_255_1_234
10
17.6083285
20
0.0737069
40
0.4604934
50
89.5284041
51
102.5819763
0
ARC
8
DEFAULT_255_1_234
10
17.6162373
20
0.0698018
40
0.464401
50
77.0437873
51
90.5081339
0
ARC
8
DEFAULT_255_1_234
10
17.6564375
20
0.2340615
40
0.2953195
50
48.2778575
51
77.4994676
0
ARC
8
DEFAULT_255_1_234
10
17.6637006
20
0.2469746
40
0.2808655
50
36.3142134
51
47.6305865
0
ARC
8
DEFAULT_255_1_234
10
17.5768313
20
0.1884515
40
0.3855453
50
18.2931786
51
35.6769206
0
ARC
8
DEFAULT_255_1_234
10
17.3225072
20
0.1011593
40
0.654423
50
8.024666
51
18.5605216
0
ARC
8
DEFAULT_255_1_234
10
16.9061992
20
0.0396792
40
1.0752407
50
1.1274072
51
8.1718305
0
ARC
8
DEFAULT_255_1_234
10
16.5826182
20
0.0269885
40
1.3990231
50
0.5424119
51
1.3863029
0
ARC
8
DEFAULT_255_1_234
10
16.764756
20
0.0542342
40
1.0682415
50
359.8090433
51
4.9407866
0
ARC
8
DEFAULT_255_1_234
10
17.1857574
20
0.0918113
40
0.6455691
50
4.8362157
51
12.2904523
0
ARC
8
DEFAULT_255_1_234
10
17.4612689
20
0.1531965
40
0.3633074
50
12.0805627
51
23.8173984
0
ARC
8
DEFAULT_255_1_234
10
17.5786394
20
0.2028919
40
0.2358723
50
24.2871213
51
31.3935614
0
ARC
8
DEFAULT_255_1_234
10
17.6311091
20
0.2372233
40
0.1732111
50
30.7407893
51
82.4657128
0
ARC
8
DEFAULT_255_1_234
10
17.6131226
20
0.1488691
40
0.263235
50
81.1060089
51
90.2184952
0
ARC
8
DEFAULT_255_1_234
10
17.6095525
20
0.1746924
40
0.2374236
50
89.3806855
51
105.6762551
0
ARC
8
DEFAULT_255_1_234
10
17.5912155
20
0.2413567
40
0.1682847
50
105.7981136
51
149.7388061
0
ARC
8
DEFAULT_255_1_234
10
17.6976234
20
0.177395
40
0.2924306
50
149.4208916
51
163.6286378
0
ARC
8
DEFAULT_255_1_234
10
17.9067122
20
0.113625
40
0.5110213
50
163.3763315
51
172.1410975
0
ARC
8
DEFAULT_255_1_234
10
18.2367841
20
0.0663518
40
0.8444586
50
172.0259487
51
178.0703232
0
ARC
8
DEFAULT_255_1_234
10
18.539793
20
0.0519906
40
1.1477868
50
177.8631668
51
179.5044149
0
ARC
8
DEFAULT_255_1_234
10
18.4325335
20
-0.1794611
40
1.0404907
50
179.7995573
51
185.2460446
0
ARC
8
DEFAULT_255_1_234
10
18.0282374
20
-0.2177487
40
0.6343885
50
185.1411642
51
193.0079639
0
ARC
8
DEFAULT_255_1_234
10
17.7638846
20
-0.2802359
40
0.3627568
50
192.7897626
51
205.2507664
0
ARC
8
DEFAULT_255_1_234
10
17.6592393
20
-0.3269585
40
0.2481908
50
205.8005384
51
211.2537509
0
ARC
8
DEFAULT_255_1_234
10
17.6068834
20
-0.362042
40
0.1852521
50
210.3789793
51
238.4008143
0
ARC
8
DEFAULT_255_1_234
10
17.6049356
20
-0.3573624
40
0.1882621
50
239.6520629
51
265.9793761
0
ARC
8
DEFAULT_255_1_234
10
17.6134556
20
-0.2901573
40
0.2559272
50
265.1315437
51
270.060332
0
ARC
8
DEFAULT_255_1_234
10
17.6163335
20
-0.3225466
40
0.2235528
50
269.3314664
51
287.2178029
0
ARC
8
DEFAULT_255_1_234
10
17.6301187
20
-0.3728721
40
0.1714108
50
287.7958004
51
329.080874
0
ARC
8
DEFAULT_255_1_234
10
17.5343644
20
-0.313107
40
0.2842745
50
328.6634704
51
343.3325132
0
ARC
8
DEFAULT_255_1_234
10
17.3170664
20
-0.2454137
40
0.5118644
50
343.0499468
51
351.9393422
0
ARC
8
DEFAULT_255_1_234
10
16.9703964
20
-0.1943051
40
0.8622784
50
351.8069023
51
357.7959224
0
ARC
8
DEFAULT_255_1_234
10
16.646852
20
-0.1775279
40
1.1862365
50
357.5871873
51
359.2677531
0
LINE
8
DEFAULT_255_1_234
10
18.4964131
20
-0.0938974
11
18.4964131
21
-0.2151766
0
LINE
8
DEFAULT_255_1_234
10
18.4964131
20
-0.2151766
11
18.1044643
21
-0.2151766
0
LINE
8
DEFAULT_255_1_234
10
18.1044643
20
-0.2151766
11
18.1044643
21
-0.0938974
0
LINE
8
DEFAULT_255_1_234
10
18.1044643
20
-0.0938974
11
18.4964131
21
-0.0938974
0
LINE
8
DEFAULT_255_1_234
10
19.3590218
20
0.0402327
11
19.3590218
21
-0.1525291
0
LINE
8
DEFAULT_255_1_234
10
18.6209051
20
-0.1726084
11
18.6209051
21
0.0257755
0
LINE
8
DEFAULT_255_1_234
10
19.2104347
20
-0.1926877
11
19.2104347
21
0.0506739
0
LINE
8
DEFAULT_255_1_234
10
18.7694922
20
0.0619184
11
18.7694922
21
-0.1758211
0
ARC
8
DEFAULT_255_1_234
10
18.1343108
20
-0.1574195
40
1.2247208
50
353.8441951
51
0.2287902
0
ARC
8
DEFAULT_255_1_234
10
18.5982611
20
-0.2092194
40
0.7578929
50
344.4934747
51
353.9765454
0
ARC
8
DEFAULT_255_1_234
10
18.8975202
20
-0.2943019
40
0.4467846
50
329.2803592
51
344.7472793
0
ARC
8
DEFAULT_255_1_234
10
18.9968027
20
-0.3487982
40
0.3336173
50
324.9352394
51
328.6160465
0
ARC
8
DEFAULT_255_1_234
10
19.0345135
20
-0.3751573
40
0.2876076
50
280.580143
51
324.9173126
0
ARC
8
DEFAULT_255_1_234
10
18.9943928
20
-0.2080901
40
0.4592847
50
269.5977311
51
281.6734359
0
ARC
8
DEFAULT_255_1_234
10
18.9871833
20
-0.2200827
40
0.4472986
50
256.6228859
51
270.51044
0
ARC
8
DEFAULT_255_1_234
10
18.9469811
20
-0.3749123
40
0.2873874
50
215.8618325
51
257.2788573
0
ARC
8
DEFAULT_255_1_234
10
19.0490843
20
-0.3064023
40
0.4102928
50
197.9693508
51
215.2623606
0
ARC
8
DEFAULT_255_1_234
10
19.2975959
20
-0.2225291
40
0.6725652
50
187.8816417
51
198.2346507
0
ARC
8
DEFAULT_255_1_234
10
19.6934167
20
-0.1653921
40
1.0724845
50
180.8976217
51
188.0055519
0
ARC
8
DEFAULT_255_1_234
10
19.9734355
20
-0.1550223
40
1.3526448
50
180.7449369
51
181.1510016
0
ARC
8
DEFAULT_255_1_234
10
19.8157084
20
0.0306042
40
1.1948131
50
173.7675579
51
180.231553
0
ARC
8
DEFAULT_255_1_234
10
19.3639231
20
0.0816666
40
0.7401564
50
164.3058563
51
173.9002247
0
ARC
8
DEFAULT_255_1_234
10
19.0727299
20
0.1655656
40
0.4371288
50
148.7922025
51
164.568378
0
ARC
8
DEFAULT_255_1_234
10
18.9775752
20
0.2186929
40
0.3282386
50
144.5883898
51
148.1176286
0
ARC
8
DEFAULT_255_1_234
10
18.9432649
20
0.2426315
40
0.2864044
50
101.6440918
51
144.514236
0
ARC
8
DEFAULT_255_1_234
10
18.9857716
20
0.0737069
40
0.4604934
50
89.5284041
51
102.5819763
0
ARC
8
DEFAULT_255_1_234
10
18.9936804
20
0.0698018
40
0.464401
50
77.0437873
51
90.5081339
0
ARC
8
DEFAULT_255_1_234
10
19.0338806
20
0.2340615
40
0.2953195
50
48.2778575
51
77.4994676
0
ARC
8
DEFAULT_255_1_234
10
19.0411437
20
0.2469746
40
0.2808655
50
36.3142134
51
47.6305865
0
ARC
8
DEFAULT_255_1_234
10
18.9542744
20
0.1884515
40
0.3855453
50
18.2931786
51
35.6769206
0
ARC
8
DEFAULT_255_1_234
10
18.6999503
20
0.1011593
40
0.654423
50
8.024666
51
18.5605216
0
ARC
8
DEFAULT_255_1_234
10
18.2836423
20
0.0396792
40
1.0752407
50
1.1274072
51
8.1718305
0
ARC
8
DEFAULT_255_1_234
10
17.9600613
20
0.0269885
40
1.3990231
50
0.5424119
51
1.3863029
0
ARC
8
DEFAULT_255_1_234
10
18.1421991
20
0.0542342
40
1.0682415
50
359.8090433
51
4.9407866
0
ARC
8
DEFAULT_255_1_234
10
18.5632005
20
0.0918113
40
0.6455691
50
4.8362157
51
12.2904523
0
ARC
8
DEFAULT_255_1_234
10
18.838712
20
0.1531965
40
0.3633074
50
12.0805627
51
23.8173984
0
ARC
8
DEFAULT_255_1_234
10
18.9560825
20
0.2028919
40
0.2358723
50
24.2871213
51
31.3935614
0
ARC
8
DEFAULT_255_1_234
10
19.0085523
20
0.2372233
40
0.1732111
50
30.7407893
51
82.4657128
0
ARC
8
DEFAULT_255_1_234
10
18.9905657
20
0.1488691
40
0.263235
50
81.1060089
51
90.2184952
0
ARC
8
DEFAULT_255_1_234
10
18.9869956
20
0.1746924
40
0.2374236
50
89.3806855
51
105.6762551
0
ARC
8
DEFAULT_255_1_234
10
18.9686587
20
0.2413567
40
0.1682847
50
105.7981136
51
149.7388061
0
ARC
8
DEFAULT_255_1_234
10
19.0750665
20
0.177395
40
0.2924306
50
149.4208916
51
163.6286378
0
ARC
8
DEFAULT_255_1_234
10
19.2841553
20
0.113625
40
0.5110213
50
163.3763315
51
172.1410975
0
ARC
8
DEFAULT_255_1_234
10
19.6142272
20
0.0663518
40
0.8444586
50
172.0259487
51
178.0703232
0
ARC
8
DEFAULT_255_1_234
10
19.9172361
20
0.0519906
40
1.1477868
50
177.8631668
51
179.5044149
0
ARC
8
DEFAULT_255_1_234
10
19.8099766
20
-0.1794611
40
1.0404907
50
179.7995573
51
185.2460446
0
ARC
8
DEFAULT_255_1_234
10
19.4056805
20
-0.2177487
40
0.6343885
50
185.1411642
51
193.0079639
0
ARC
8
DEFAULT_255_1_234
10
19.1413278
20
-0.2802359
40
0.3627568
50
192.7897626
51
205.2507664
0
ARC
8
DEFAULT_255_1_234
10
19.0366825
20
-0.3269585
40
0.2481908
50
205.8005384
51
211.2537509
0
ARC
8
DEFAULT_255_1_234
10
18.9843265
20
-0.362042
40
0.1852521
50
210.3789793
51
238.4008143
0
ARC
8
DEFAULT_255_1_234
10
18.9823787
20
-0.3573624
40
0.1882621
50
239.6520629
51
265.9793761
0
ARC
8
DEFAULT_255_1_234
10
18.9908987
20
-0.2901573
40
0.2559272
50
265.1315437
51
270.060332
0
ARC
8
DEFAULT_255_1_234
10
18.9937766
20
-0.3225466
40
0.2235528
50
269.3314664
51
287.2178029
0
ARC
8
DEFAULT_255_1_234
10
19.0075618
20
-0.3728721
40
0.1714108
50
287.7958004
51
329.080874
0
ARC
8
DEFAULT_255_1_234
10
18.9118075
20
-0.313107
40
0.2842745
50
328.6634704
51
343.3325132
0
ARC
8
DEFAULT_255_1_234
10
18.6945095
20
-0.2454137
40
0.5118644
50
343.0499468
51
351.9393422
0
ARC
8
DEFAULT_255_1_234
10
18.3478395
20
-0.1943051
40
0.8622784
50
351.8069023
51
357.7959224
0
ARC
8
DEFAULT_255_1_234
10
18.0242951
20
-0.1775279
40
1.1862365
50
357.5871873
51
359.2677531
0
LINE
8
DEFAULT_255_1_234
10
20.3453193
20
-0.6513
11
20.2336781
21
-0.3460939
0
LINE
8
DEFAULT_255_1_234
10
20.2336781
20
-0.3460939
11
19.7437421
21
-0.3460939
0
LINE
8
DEFAULT_255_1_234
10
19.7437421
20
-0.3460939
11
19.6337073
21
-0.6513
0
LINE
8
DEFAULT_255_1_234
10
19.6337073
20
-0.6513
11
19.4746789
21
-0.6513
0
LINE
8
DEFAULT_255_1_234
10
19.4746789
20
-0.6513
11
19.9212435
21
0.5181211
0
LINE
8
DEFAULT_255_1_234
10
19.9212435
20
0.5181211
11
20.0561767
21
0.5181211
0
LINE
8
DEFAULT_255_1_234
10
20.0561767
20
0.5181211
11
20.5035445
21
-0.6513
0
LINE
8
DEFAULT_255_1_234
10
20.5035445
20
-0.6513
11
20.3453193
21
-0.6513
0
LINE
8
DEFAULT_255_1_234
10
19.9887101
20
0.3277689
11
19.7903262
21
-0.2191925
0
LINE
8
DEFAULT_255_1_234
10
19.7903262
20
-0.2191925
11
20.1878972
21
-0.2191925
0
LINE
8
DEFAULT_255_1_234
10
20.1878972
20
-0.2191925
11
19.9887101
21
0.3277689
0
LINE
8
DEFAULT_255_1_234
10
21.4183595
20
-0.6513
11
21.3067184
21
-0.3460939
0
LINE
8
DEFAULT_255_1_234
10
21.3067184
20
-0.3460939
11
20.8167823
21
-0.3460939
0
LINE
8
DEFAULT_255_1_234
10
20.8167823
20
-0.3460939
11
20.7067475
21
-0.6513
0
LINE
8
DEFAULT_255_1_234
10
20.7067475
20
-0.6513
11
20.5477191
21
-0.6513
0
LINE
8
DEFAULT_255_1_234
10
20.5477191
20
-0.6513
11
20.9942837
21
0.5181211
0
LINE
8
DEFAULT_255_1_234
10
20.9942837
20
0.5181211
11
21.1292169
21
0.5181211
0
LINE
8
DEFAULT_255_1_234
10
21.1292169
20
0.5181211
11
21.5765848
21
-0.6513
0
LINE
8
DEFAULT_255_1_234
10
21.5765848
20
-0.6513
11
21.4183595
21
-0.6513
0
LINE
8
DEFAULT_255_1_234
10
21.0617503
20
0.3277689
11
20.8633664
21
-0.2191925
0
LINE
8
DEFAULT_255_1_234
10
20.8633664
20
-0.2191925
11
21.2609375
21
-0.2191925
0
LINE
8
DEFAULT_255_1_234
10
21.2609375
20
-0.2191925
11
21.0617503
21
0.3277689
0
LINE
8
DEFAULT_255_1_234
10
22.4287522
20
0.0402327
11
22.4287522
21
-0.1525291
0
LINE
8
DEFAULT_255_1_234
10
21.6906354
20
-0.1726084
11
21.6906354
21
0.0257755
0
LINE
8
DEFAULT_255_1_234
10
22.280165
20
-0.1926877
11
22.280165
21
0.0506739
0
LINE
8
DEFAULT_255_1_234
10
21.8392226
20
0.0619184
11
21.8392226
21
-0.1758211
0
ARC
8
DEFAULT_255_1_234
10
21.2040412
20
-0.1574195
40
1.2247208
50
353.8441951
51
0.2287902
0
ARC
8
DEFAULT_255_1_234
10
21.6679915
20
-0.2092194
40
0.7578929
50
344.4934747
51
353.9765454
0
ARC
8
DEFAULT_255_1_234
10
21.9672505
20
-0.2943019
40
0.4467846
50
329.2803592
51
344.7472793
0
ARC
8
DEFAULT_255_1_234
10
22.066533
20
-0.3487982
40
0.3336173
50
324.9352394
51
328.6160465
0
ARC
8
DEFAULT_255_1_234
10
22.1042439
20
-0.3751573
40
0.2876076
50
280.580143
51
324.9173126
0
ARC
8
DEFAULT_255_1_234
10
22.0641232
20
-0.2080901
40
0.4592847
50
269.5977311
51
281.6734359
0
ARC
8
DEFAULT_255_1_234
10
22.0569137
20
-0.2200827
40
0.4472986
50
256.6228859
51
270.51044
0
ARC
8
DEFAULT_255_1_234
10
22.0167115
20
-0.3749123
40
0.2873874
50
215.8618325
51
257.2788573
0
ARC
8
DEFAULT_255_1_234
10
22.1188147
20
-0.3064023
40
0.4102928
50
197.9693508
51
215.2623606
0
ARC
8
DEFAULT_255_1_234
10
22.3673262
20
-0.2225291
40
0.6725652
50
187.8816417
51
198.2346507
0
ARC
8
DEFAULT_255_1_234
10
22.763147
20
-0.1653921
40
1.0724845
50
180.8976217
51
188.0055519
0
ARC
8
DEFAULT_255_1_234
10
23.0431659
20
-0.1550223
40
1.3526448
50
180.7449369
51
181.1510016
0
ARC
8
DEFAULT_255_1_234
10
22.8854388
20
0.0306042
40
1.1948131
50
173.7675579
51
180.231553
0
ARC
8
DEFAULT_255_1_234
10
22.4336534
20
0.0816666
40
0.7401564
50
164.3058563
51
173.9002247
0
ARC
8
DEFAULT_255_1_234
10
22.1424603
20
0.1655656
40
0.4371288
50
148.7922025
51
164.568378
0
ARC
8
DEFAULT_255_1_234
10
22.0473055
20
0.2186929
40
0.3282386
50
144.5883898
51
148.1176286
0
ARC
8
DEFAULT_255_1_234
10
22.0129953
20
0.2426315
40
0.2864044
50
101.6440918
51
144.514236
0
ARC
8
DEFAULT_255_1_234
10
22.055502
20
0.0737069
40
0.4604934
50
89.5284041
51
102.5819763
0
ARC
8
DEFAULT_255_1_234
10
22.0634108
20
0.0698018
40
0.464401
50
77.0437873
51
90.5081339
0
ARC
8
DEFAULT_255_1_234
10
22.1036109
20
0.2340615
40
0.2953195
50
48.2778575
51
77.4994676
0
ARC
8
DEFAULT_255_1_234
10
22.1108741
20
0.2469746
40
0.2808655
50
36.3142134
51
47.6305865
0
ARC
8
DEFAULT_255_1_234
10
22.0240048
20
0.1884515
40
0.3855453
50
18.2931786
51
35.6769206
0
ARC
8
DEFAULT_255_1_234
10
21.7696807
20
0.1011593
40
0.654423
50
8.024666
51
18.5605216
0
ARC
8
DEFAULT_255_1_234
10
21.3533727
20
0.0396792
40
1.0752407
50
1.1274072
51
8.1718305
0
ARC
8
DEFAULT_255_1_234
10
21.0297917
20
0.0269885
40
1.3990231
50
0.5424119
51
1.3863029
0
ARC
8
DEFAULT_255_1_234
10
21.2119295
20
0.0542342
40
1.0682415
50
359.8090433
51
4.9407866
0
ARC
8
DEFAULT_255_1_234
10
21.6329309
20
0.0918113
40
0.6455691
50
4.8362157
51
12.2904523
0
ARC
8
DEFAULT_255_1_234
10
21.9084424
20
0.1531965
40
0.3633074
50
12.0805627
51
23.8173984
0
ARC
8
DEFAULT_255_1_234
10
22.0258129
20
0.2028919
40
0.2358723
50
24.2871213
51
31.3935614
0
ARC
8
DEFAULT_255_1_234
10
22.0782826
20
0.2372233
40
0.1732111
50
30.7407893
51
82.4657128
0
ARC
8
DEFAULT_255_1_234
10
22.0602961
20
0.1488691
40
0.263235
50
81.1060089
51
90.2184952
0
ARC
8
DEFAULT_255_1_234
10
22.056726
20
0.1746924
40
0.2374236
50
89.3806855
51
105.6762551
0
ARC
8
DEFAULT_255_1_234
10
22.038389
20
0.2413567
40
0.1682847
50
105.7981136
51
149.7388061
0
ARC
8
DEFAULT_255_1_234
10
22.1447969
20
0.177395
40
0.2924306
50
149.4208916
51
163.6286378
0
ARC
8
DEFAULT_255_1_234
10
22.3538857
20
0.113625
40
0.5110213
50
163.3763315
51
172.1410975
0
ARC
8
DEFAULT_255_1_234
10
22.6839575
20
0.0663518
40
0.8444586
50
172.0259487
51
178.0703232
0
ARC
8
DEFAULT_255_1_234
10
22.9869665
20
0.0519906
40
1.1477868
50
177.8631668
51
179.5044149
0
ARC
8
DEFAULT_255_1_234
10
22.8797069
20
-0.1794611
40
1.0404907
50
179.7995573
51
185.2460446
0
ARC
8
DEFAULT_255_1_234
10
22.4754109
20
-0.2177487
40
0.6343885
50
185.1411642
51
193.0079639
0
ARC
8
DEFAULT_255_1_234
10
22.2110581
20
-0.2802359
40
0.3627568
50
192.7897626
51
205.2507664
0
ARC
8
DEFAULT_255_1_234
10
22.1064128
20
-0.3269585
40
0.2481908
50
205.8005384
51
211.2537509
0
ARC
8
DEFAULT_255_1_234
10
22.0540569
20
-0.362042
40
0.1852521
50
210.3789793
51
238.4008143
0
ARC
8
DEFAULT_255_1_234
10
22.0521091
20
-0.3573624
40
0.1882621
50
239.6520629
51
265.9793761
0
ARC
8
DEFAULT_255_1_234
10
22.0606291
20
-0.2901573
40
0.2559272
50
265.1315437
51
270.060332
0
ARC
8
DEFAULT_255_1_234
10
22.063507
20
-0.3225466
40
0.2235528
50
269.3314664
51
287.2178029
0
ARC
8
DEFAULT_255_1_234
10
22.0772922
20
-0.3728721
40
0.1714108
50
287.7958004
51
329.080874
0
ARC
8
DEFAULT_255_1_234
10
21.9815378
20
-0.313107
40
0.2842745
50
328.6634704
51
343.3325132
0
ARC
8
DEFAULT_255_1_234
10
21.7642398
20
-0.2454137
40
0.5118644
50
343.0499468
51
351.9393422
0
ARC
8
DEFAULT_255_1_234
10
21.4175698
20
-0.1943051
40
0.8622784
50
351.8069023
51
357.7959224
0
ARC
8
DEFAULT_255_1_234
10
21.0940254
20
-0.1775279
40
1.1862365
50
357.5871873
51
359.2677531
0
ARC
8
DEFAULT_255_2_778
10
7.7537338
20
44.4012992
40
3.0484709
50
251.6854144
51
258.6071955
0
ARC
8
DEFAULT_255_2_778
10
7.539521
20
43.3196738
40
1.9458471
50
258.4992492
51
268.3986479
0
ARC
8
DEFAULT_255_2_778
10
7.5172314
20
42.8894206
40
1.5151737
50
268.7865272
51
269.9950384
0
ARC
8
DEFAULT_255_2_778
10
7.5277432
20
42.4382355
40
1.0640417
50
269.426895
51
279.6711067
0
ARC
8
DEFAULT_255_2_778
10
7.6417753
20
41.8086746
40
0.4243233
50
278.7731084
51
300.3324923
0
ARC
8
DEFAULT_255_2_778
10
7.760746
20
41.6060552
40
0.1893587
50
300.2240287
51
1.9041213
0
ARC
8
DEFAULT_255_2_778
10
7.7452705
20
41.6152089
40
0.2047497
50
359.1991369
51
359.99965
0
ARC
8
DEFAULT_255_2_778
10
7.7523233
20
41.6160378
40
0.1976988
50
359.7594145
51
47.1793976
0
ARC
8
DEFAULT_255_2_778
10
7.6187277
20
41.467431
40
0.3975169
50
47.6144502
51
60.8366176
0
ARC
8
DEFAULT_255_2_778
10
7.0190958
20
40.4514865
40
1.5771337
50
59.799464
51
64.8885807
0
ARC
8
DEFAULT_255_2_778
10
6.0948833
20
38.5224682
40
3.7160912
50
64.6076081
51
66.8386974
0
ARC
8
DEFAULT_255_2_778
10
9.6419609
20
46.8855052
40
5.368109
50
244.3032309
51
247.1393781
0
ARC
8
DEFAULT_255_2_778
10
8.5507088
20
44.625518
40
2.8584574
50
240.2323579
51
244.3709759
0
ARC
8
DEFAULT_255_2_778
10
7.7800475
20
43.2886591
40
1.315392
50
233.2209971
51
240.4606284
0
ARC
8
DEFAULT_255_2_778
10
7.3561477
20
42.7175187
40
0.6041399
50
225.6990744
51
232.9899679
0
ARC
8
DEFAULT_255_2_778
10
7.3965073
20
42.7419214
40
0.6499005
50
178.2783416
51
224.6550883
0
ARC
8
DEFAULT_255_2_778
10
7.5059624
20
42.7752974
40
0.7591885
50
157.033673
51
181.0453383
0
ARC
8
DEFAULT_255_2_778
10
7.378439
20
42.8161396
40
0.6259551
50
124.9113017
51
155.9211516
0
ARC
8
DEFAULT_255_2_778
10
7.5960466
20
42.5075681
40
1.0035357
50
100.4079723
51
125.0168617
0
ARC
8
DEFAULT_255_2_778
10
7.6991199
20
42.0135046
40
1.5081396
50
89.6483922
51
100.8684975
0
ARC
8
DEFAULT_255_2_778
10
7.7083242
20
41.6612988
40
1.8603169
50
89.5079487
51
89.9984402
0
ARC
8
DEFAULT_255_2_778
10
7.7099573
20
41.5960694
40
1.9255311
50
83.9170631
51
89.5732113
0
ARC
8
DEFAULT_255_2_778
10
7.5071517
20
39.5884957
40
3.9433074
50
80.7325723
51
84.0779772
0
ARC
8
DEFAULT_255_2_778
10
7.0208457
20
36.565582
40
7.0050837
50
78.5086351
51
80.7886813
0
ARC
8
DEFAULT_255_2_778
10
7.6620177
20
41.1650544
40
1.9415426
50
67.135818
51
78.0934208
0
ARC
8
DEFAULT_255_2_778
10
7.7851814
20
41.7354809
40
1.3579807
50
78.2126325
51
89.7333975
0
ARC
8
DEFAULT_255_2_778
10
7.7793853
20
42.1506211
40
0.9429038
50
89.2638155
51
100.5666868
0
ARC
8
DEFAULT_255_2_778
10
7.6660949
20
42.7204419
40
0.362036
50
99.4784875
51
124.329414
0
ARC
8
DEFAULT_255_2_778
10
7.5705593
20
42.868551
40
0.1859067
50
125.7571195
51
182.2824883
0
ARC
8
DEFAULT_255_2_778
10
7.5493239
20
42.8618629
40
0.1645253
50
180.2492993
51
239.8144161
0
ARC
8
DEFAULT_255_2_778
10
7.932718
20
43.4619128
40
0.876484
50
237.8725734
51
242.8068846
0
ARC
8
DEFAULT_255_2_778
10
9.4175857
20
46.2784958
40
4.0604642
50
242.3328458
51
244.031083
0
ARC
8
DEFAULT_255_2_778
10
12.3804066
20
52.3269314
40
10.7955807
50
243.950624
51
244.8024316
0
ARC
8
DEFAULT_255_2_778
10
15.4009918
20
58.7109175
40
17.8580926
50
244.7535425
51
244.9563234
0
ARC
8
DEFAULT_255_2_778
10
5.8652927
20
38.2093264
40
4.7527588
50
62.2505456
51
65.4301556
0
ARC
8
DEFAULT_255_2_778
10
6.9275435
20
40.2174172
40
2.4810291
50
57.2951304
51
62.3684211
0
ARC
8
DEFAULT_255_2_778
10
7.6807233
20
41.3807235
40
1.0952081
50
48.7345704
51
57.5685367
0
ARC
8
DEFAULT_255_2_778
10
8.0117486
20
41.7682722
40
0.5856147
50
44.3236031
51
48.0704418
0
ARC
8
DEFAULT_255_2_778
10
7.9783002
20
41.7482468
40
0.6236013
50
1.3523843
51
43.4925744
0
ARC
8
DEFAULT_255_2_778
10
7.7103531
20
41.7153151
40
0.8926473
50
359.9763756
51
3.0599076
0
ARC
8
DEFAULT_255_2_778
10
7.8645343
20
41.7002407
40
0.7386124
50
333.0361889
51
1.1408766
0
ARC
8
DEFAULT_255_2_778
10
7.8947908
20
41.7071919
40
0.7150741
50
300.8430083
51
331.4403095
0
ARC
8
DEFAULT_255_2_778
10
7.694568
20
42.0207162
40
1.0869673
50
281.4258583
51
301.4316118
0
ARC
8
DEFAULT_255_2_778
10
7.5632666
20
42.6289414
40
1.7091691
50
270.2273513
51
281.7010805
0
ARC
8
DEFAULT_255_2_778
10
7.5453797
20
43.1056043
40
2.1859577
50
269.9983113
51
270.6466065
0
LINE
8
DEFAULT_255_2_778
10
7.5453153
20
40.9196465
11
7.5438002
21
40.919647
0
ARC
8
DEFAULT_255_2_778
10
7.5509161
20
44.1025969
40
3.1829579
50
256.2431122
51
269.871909
0
ARC
8
DEFAULT_255_2_778
10
21.7538511
20
44.3271629
40
2.9720345
50
251.5709223
51
258.7508181
0
ARC
8
DEFAULT_255_2_778
10
21.5538128
20
43.3039385
40
1.9294488
50
258.6495077
51
268.8281511
0
ARC
8
DEFAULT_255_2_778
10
21.5355488
20
42.9091193
40
1.5343723
50
269.2085037
51
269.9981866
0
ARC
8
DEFAULT_255_2_778
10
21.5473849
20
42.4407184
40
1.0660376
50
269.3612297
51
279.5899087
0
ARC
8
DEFAULT_255_2_778
10
21.6608439
20
41.8092324
40
0.424527
50
278.6895227
51
300.2363944
0
ARC
8
DEFAULT_255_2_778
10
21.7799083
20
41.6057793
40
0.188796
50
300.1108484
51
1.9024905
0
ARC
8
DEFAULT_255_2_778
10
21.7439577
20
41.6164221
40
0.2246851
50
358.8842611
51
0.0019649
0
ARC
8
DEFAULT_255_2_778
10
21.7769791
20
41.6203385
40
0.1917038
50
358.831716
51
47.0900458
0
ARC
8
DEFAULT_255_2_778
10
21.6364654
20
41.460984
40
0.4041259
50
47.8812665
51
61.174665
0
ARC
8
DEFAULT_255_2_778
10
21.0418848
20
40.4410117
40
1.5846568
50
60.1210877
51
65.1917015
0
ARC
8
DEFAULT_255_2_778
10
20.1415278
20
38.5354122
40
3.6922188
50
64.9168629
51
67.1565628
0
ARC
8
DEFAULT_255_2_778
10
23.6275467
20
46.8069888
40
5.2839333
50
244.2656926
51
247.1407051
0
ARC
8
DEFAULT_255_2_778
10
22.5594997
20
44.598765
40
2.8309849
50
240.1545061
51
244.3326325
0
ARC
8
DEFAULT_255_2_778
10
21.7856548
20
43.2627346
40
1.2870531
50
232.697515
51
240.4357497
0
ARC
8
DEFAULT_255_2_778
10
21.3705506
20
42.7117218
40
0.5972006
50
225.5850892
51
232.3393736
0
ARC
8
DEFAULT_255_2_778
10
21.4133941
20
42.7412933
40
0.6483829
50
178.7795739
51
224.7095916
0
ARC
8
DEFAULT_255_2_778
10
21.6669319
20
42.7653135
40
0.9018316
50
179.997867
51
180.6487041
0
ARC
8
DEFAULT_255_2_778
10
21.5167738
20
42.7791249
40
0.7517998
50
156.9195758
51
181.050088
0
ARC
8
DEFAULT_255_2_778
10
21.3928482
20
42.8185712
40
0.6224513
50
124.7111133
51
155.7879672
0
ARC
8
DEFAULT_255_2_778
10
21.6055459
20
42.5266942
40
0.9835402
50
101.7934503
51
125.2143527
0
ARC
8
DEFAULT_255_2_778
10
21.729848
20
41.9741326
40
1.5498677
50
89.5248728
51
102.1166783
0
ARC
8
DEFAULT_255_2_778
10
21.7283109
20
41.4205834
40
2.1034129
50
83.2889725
51
89.6080411
0
ARC
8
DEFAULT_255_2_778
10
21.529975
20
39.6527668
40
3.8823067
50
79.4764054
51
83.4308492
0
ARC
8
DEFAULT_255_2_778
10
21.2186357
20
37.8995673
40
5.6628977
50
78.2224868
51
79.6190915
0
ARC
8
DEFAULT_255_2_778
10
21.6838473
20
41.1770715
40
1.9311543
50
67.1323814
51
78.3148813
0
ARC
8
DEFAULT_255_2_778
10
21.801359
20
41.7285614
40
1.3672981
50
78.4565774
51
89.7552271
0
ARC
8
DEFAULT_255_2_778
10
21.7951366
20
42.159447
40
0.9364778
50
89.2619009
51
100.5950934
0
ARC
8
DEFAULT_255_2_778
10
21.6824182
20
42.7249169
40
0.3599879
50
99.5087086
51
124.406715
0
ARC
8
DEFAULT_255_2_778
10
21.5878565
20
42.871343
40
0.1858061
50
125.8630185
51
182.2986975
0
ARC
8
DEFAULT_255_2_778
10
21.5497296
20
42.8638047
40
0.1475296
50
179.9666559
51
180.100057
0
ARC
8
DEFAULT_255_2_778
10
21.566185
20
42.863793
40
0.163985
50
180.0859454
51
239.8819968
0
ARC
8
DEFAULT_255_2_778
10
21.9379018
20
43.4505619
40
0.8584853
50
238.072871
51
243.0442008
0
ARC
8
DEFAULT_255_2_778
10
23.4872034
20
46.4155845
40
4.2038426
50
242.5409111
51
244.1884903
0
ARC
8
DEFAULT_255_2_778
10
26.6463384
20
52.910196
40
11.4260319
50
244.1076525
51
244.9219574
0
ARC
8
DEFAULT_255_2_778
10
29.9038827
20
59.833855
40
19.0777309
50
244.8743531
51
245.066969
0
ARC
8
DEFAULT_255_2_778
10
19.8865272
20
38.2416274
40
4.7250654
50
62.0340028
51
65.293009
0
ARC
8
DEFAULT_255_2_778
10
20.9507744
20
40.2365758
40
2.464003
50
57.1127289
51
62.13736
0
ARC
8
DEFAULT_255_2_778
10
21.7037139
20
41.3902906
40
1.0863604
50
48.3695509
51
57.4197129
0
ARC
8
DEFAULT_255_2_778
10
22.0286268
20
41.7670419
40
0.5889589
50
44.472493
51
47.6467012
0
ARC
8
DEFAULT_255_2_778
10
21.9979457
20
41.7499032
40
0.6229283
50
1.2061613
51
43.6203607
0
ARC
8
DEFAULT_255_2_778
10
21.7312413
20
41.7174903
40
0.890659
50
359.9779196
51
2.9299178
0
ARC
8
DEFAULT_255_2_778
10
21.8802547
20
41.7023837
40
0.7417924
50
333.172934
51
1.140392
0
ARC
8
DEFAULT_255_2_778
10
21.9146167
20
41.7070736
40
0.7135172
50
300.9808035
51
331.5913995
0
ARC
8
DEFAULT_255_2_778
10
21.7182603
20
42.0169862
40
1.0803281
50
281.9040909
51
301.4483918
0
ARC
8
DEFAULT_255_2_778
10
21.5848425
20
42.6155518
40
1.6935565
50
270.5796874
51
282.1436175
0
ARC
8
DEFAULT_255_2_778
10
21.5636722
20
43.1104735
40
2.1887267
50
269.9959074
51
271.0027751
0
LINE
8
DEFAULT_255_2_778
10
21.5635158
20
40.9217468
11
21.5625002
21
40.921747
0
ARC
8
DEFAULT_255_2_778
10
21.5700221
20
44.1105174
40
3.1887792
50
256.2556596
51
269.8648469
0
LINE
8
DEFAULT_255_2_778
10
6.7958002
20
41.012547
11
6.7958002
21
41.507247
0
LINE
8
DEFAULT_255_2_778
10
8.4164002
20
43.430247
11
8.4164002
21
42.954047
0
LINE
8
DEFAULT_255_2_778
10
6.7940002
20
41.010947
11
6.7958002
21
41.012547
0
LINE
8
DEFAULT_255_2_778
10
8.9866002
20
43.479747
11
9.6629002
21
43.479747
0
LINE
8
DEFAULT_255_2_778
10
9.6629002
20
43.479747
11
9.6629002
21
40.972347
0
LINE
8
DEFAULT_255_2_778
10
9.6629002
20
40.972347
11
8.9866002
21
40.972347
0
LINE
8
DEFAULT_255_2_778
10
8.9866002
20
40.972347
11
8.9866002
21
43.479747
0
LINE
8
DEFAULT_255_2_778
10
10.2809002
20
40.972347
11
10.2809002
21
43.479747
0
LINE
8
DEFAULT_255_2_778
10
10.2809002
20
43.479747
11
12.0132002
21
43.479747
0
LINE
8
DEFAULT_255_2_778
10
12.0132002
20
43.479747
11
12.0132002
21
43.026047
0
LINE
8
DEFAULT_255_2_778
10
12.0132002
20
43.026047
11
10.9321002
21
43.026047
0
LINE
8
DEFAULT_255_2_778
10
10.9321002
20
43.026047
11
10.9321002
21
42.459747
0
LINE
8
DEFAULT_255_2_778
10
10.9321002
20
42.459747
11
11.8735002
21
42.459747
0
LINE
8
DEFAULT_255_2_778
10
11.8735002
20
42.459747
11
11.8735002
21
42.046247
0
LINE
8
DEFAULT_255_2_778
10
11.8735002
20
42.046247
11
10.9321002
21
42.046247
0
LINE
8
DEFAULT_255_2_778
10
10.9321002
20
42.046247
11
10.9321002
21
41.450947
0
LINE
8
DEFAULT_255_2_778
10
10.9321002
20
41.450947
11
12.0412002
21
41.450947
0
LINE
8
DEFAULT_255_2_778
10
12.0412002
20
41.450947
11
12.0412002
21
40.970747
0
LINE
8
DEFAULT_255_2_778
10
12.0412002
20
40.970747
11
10.2809002
21
40.972347
0
LINE
8
DEFAULT_255_2_778
10
12.4817002
20
40.972347
11
12.4817002
21
43.479747
0
LINE
8
DEFAULT_255_2_778
10
12.4817002
20
43.479747
11
13.3575002
21
43.479747
0
LINE
8
DEFAULT_255_2_778
10
13.3575002
20
43.479747
11
13.9671002
21
41.877447
0
LINE
8
DEFAULT_255_2_778
10
13.9671002
20
41.877447
11
14.5897002
21
43.479747
0
LINE
8
DEFAULT_255_2_778
10
14.5897002
20
43.479747
11
15.4215002
21
43.479747
0
LINE
8
DEFAULT_255_2_778
10
15.4215002
20
43.479747
11
15.4215002
21
40.972347
0
LINE
8
DEFAULT_255_2_778
10
15.4215002
20
40.972347
11
14.7812002
21
40.972347
0
LINE
8
DEFAULT_255_2_778
10
14.7812002
20
40.972347
11
14.7812002
21
42.748147
0
LINE
8
DEFAULT_255_2_778
10
14.7812002
20
42.748147
11
14.0724002
21
40.947947
0
LINE
8
DEFAULT_255_2_778
10
14.0724002
20
40.947947
11
13.6515002
21
40.947947
0
LINE
8
DEFAULT_255_2_778
10
13.6515002
20
40.947947
11
12.9559002
21
42.748147
0
LINE
8
DEFAULT_255_2_778
10
12.9559002
20
42.748147
11
12.9559002
21
40.972047
0
LINE
8
DEFAULT_255_2_778
10
12.9559002
20
40.972047
11
12.4817002
21
40.972347
0
LINE
8
DEFAULT_255_2_778
10
16.0409002
20
40.972347
11
16.0409002
21
43.479747
0
LINE
8
DEFAULT_255_2_778
10
16.0409002
20
43.479747
11
17.7731002
21
43.479747
0
LINE
8
DEFAULT_255_2_778
10
17.7731002
20
43.479747
11
17.7731002
21
43.026047
0
LINE
8
DEFAULT_255_2_778
10
17.7731002
20
43.026047
11
16.6921002
21
43.026047
0
LINE
8
DEFAULT_255_2_778
10
16.6921002
20
43.026047
11
16.6921002
21
42.459747
0
LINE
8
DEFAULT_255_2_778
10
16.6921002
20
42.459747
11
17.6334002
21
42.459747
0
LINE
8
DEFAULT_255_2_778
10
17.6334002
20
42.459747
11
17.6334002
21
42.046247
0
LINE
8
DEFAULT_255_2_778
10
17.6334002
20
42.046247
11
16.6921002
21
42.046247
0
LINE
8
DEFAULT_255_2_778
10
16.6921002
20
42.046247
11
16.6921002
21
41.450947
0
LINE
8
DEFAULT_255_2_778
10
16.6921002
20
41.450947
11
17.8030002
21
41.450947
0
LINE
8
DEFAULT_255_2_778
10
17.8030002
20
41.450947
11
17.8030002
21
40.970747
0
LINE
8
DEFAULT_255_2_778
10
17.8030002
20
40.970747
11
16.0409002
21
40.972347
0
LINE
8
DEFAULT_255_2_778
10
18.2454002
20
40.972347
11
18.2454002
21
43.479747
0
LINE
8
DEFAULT_255_2_778
10
18.2454002
20
43.479747
11
19.0283002
21
43.479747
0
LINE
8
DEFAULT_255_2_778
10
19.0283002
20
43.479747
11
19.8586002
21
41.800947
0
LINE
8
DEFAULT_255_2_778
10
19.8586002
20
41.800947
11
19.8586002
21
43.479747
0
LINE
8
DEFAULT_255_2_778
10
19.8586002
20
43.479747
11
20.3343002
21
43.479747
0
LINE
8
DEFAULT_255_2_778
10
20.3343002
20
43.479747
11
20.3343002
21
40.972347
0
LINE
8
DEFAULT_255_2_778
10
20.3343002
20
40.972347
11
19.5739002
21
40.972347
0
LINE
8
DEFAULT_255_2_778
10
19.5739002
20
40.972347
11
18.7214002
21
42.673547
0
LINE
8
DEFAULT_255_2_778
10
18.7214002
20
42.673547
11
18.7214002
21
40.972347
0
LINE
8
DEFAULT_255_2_778
10
18.7214002
20
40.972347
11
18.2454002
21
40.972347
0
LINE
8
DEFAULT_255_2_778
10
20.8143002
20
41.012747
11
20.8143002
21
41.507547
0
LINE
8
DEFAULT_255_2_778
10
22.3745002
20
43.443247
11
22.4343002
21
43.432647
0
LINE
8
DEFAULT_255_2_778
10
22.4343002
20
43.432647
11
22.4343002
21
42.956447
0
LINE
8
DEFAULT_255_2_778
10
20.8124002
20
41.013047
11
20.8143002
21
41.012747
0
LINE
8
DEFAULT_255_1_234
10
9.1302023
20
39.2059849
11
8.9751897
21
39.2059849
0
LINE
8
DEFAULT_255_1_234
10
8.2828539
20
38.7136394
11
8.4378665
21
38.7136394
0
ARC
8
DEFAULT_255_1_234
10
9.041071
20
40.1006768
40
1.252368
50
248.9199003
51
254.1439814
0
ARC
8
DEFAULT_255_1_234
10
8.8730205
20
39.6680234
40
0.788226
50
241.633709
51
249.0064503
0
ARC
8
DEFAULT_255_1_234
10
8.72016
20
39.3879317
40
0.4691427
50
230.498225
51
241.8087113
0
ARC
8
DEFAULT_255_1_234
10
8.6417174
20
39.2879906
40
0.3421437
50
227.4064532
51
229.9881192
0
ARC
8
DEFAULT_255_1_234
10
8.5929694
20
39.2404088
40
0.2741476
50
200.6781896
51
228.1763934
0
ARC
8
DEFAULT_255_1_234
10
8.6002005
20
39.2389077
40
0.2804109
50
179.5061581
51
199.8694617
0
ARC
8
DEFAULT_255_1_234
10
8.5992757
20
39.246321
40
0.2795204
50
132.4834203
51
181.0242172
0
ARC
8
DEFAULT_255_1_234
10
8.6588339
20
39.1900704
40
0.3612768
50
129.2532479
51
133.4242687
0
ARC
8
DEFAULT_255_1_234
10
8.6734789
20
39.1680965
40
0.3875675
50
101.98776
51
128.8742646
0
ARC
8
DEFAULT_255_1_234
10
8.7133399
20
38.9959741
40
0.5642249
50
89.5906553
51
102.3169264
0
ARC
8
DEFAULT_255_1_234
10
8.7203891
20
39.0278148
40
0.5323783
50
77.2360837
51
90.3248275
0
ARC
8
DEFAULT_255_1_234
10
8.7410971
20
39.12454
40
0.4334697
50
63.837784
51
77.0809408
0
ARC
8
DEFAULT_255_1_234
10
8.7688732
20
39.1762911
40
0.3747796
50
45.9864267
51
64.1607727
0
ARC
8
DEFAULT_255_1_234
10
8.7949614
20
39.2060866
40
0.3352302
50
32.2747395
51
45.6547121
0
ARC
8
DEFAULT_255_1_234
10
8.8016054
20
39.207988
40
0.328603
50
359.6507365
51
32.6130309
0
ARC
8
DEFAULT_255_1_234
10
8.707315
20
39.208466
40
0.2678863
50
359.469343
51
14.9832209
0
ARC
8
DEFAULT_255_1_234
10
8.7778212
20
39.2273539
40
0.1948938
50
14.9781179
51
48.2004265
0
ARC
8
DEFAULT_255_1_234
10
8.7613856
20
39.2066983
40
0.2212521
50
48.5927837
51
74.1241538
0
ARC
8
DEFAULT_255_1_234
10
8.7280346
20
39.0966248
40
0.3362561
50
73.7888341
51
86.6652678
0
ARC
8
DEFAULT_255_1_234
10
8.7177911
20
38.9758881
40
0.4573953
50
86.2640471
51
90.0526343
0
ARC
8
DEFAULT_255_1_234
10
8.7149624
20
39.0154192
40
0.4178709
50
89.6697524
51
99.2309573
0
ARC
8
DEFAULT_255_1_234
10
8.6907075
20
39.1598964
40
0.2713749
50
99.069534
51
113.7658566
0
ARC
8
DEFAULT_255_1_234
10
8.6633266
20
39.2244677
40
0.2012469
50
114.0401004
51
127.9850673
0
ARC
8
DEFAULT_255_1_234
10
8.639283
20
39.254073
40
0.1631167
50
127.7287463
51
176.7105154
0
ARC
8
DEFAULT_255_1_234
10
8.7071547
20
39.2439693
40
0.2315392
50
175.1779447
51
180.0581938
0
ARC
8
DEFAULT_255_1_234
10
8.6228394
20
39.2427428
40
0.1472271
50
179.6142195
51
228.1246017
0
ARC
8
DEFAULT_255_1_234
10
8.6670063
20
39.2836308
40
0.2072299
50
226.5779593
51
230.8800004
0
ARC
8
DEFAULT_255_1_234
10
8.7141141
20
39.3461636
40
0.2854818
50
231.4635071
51
241.9260842
0
ARC
8
DEFAULT_255_1_234
10
8.8338319
20
39.56648
40
0.53622
50
241.7178533
51
248.3259551
0
ARC
8
DEFAULT_255_1_234
10
8.9723691
20
39.9097064
40
0.9063478
50
248.2007737
51
252.4528373
0
ARC
8
DEFAULT_255_1_234
10
9.0927416
20
40.2818441
40
1.2974635
50
252.3391078
51
254.3469452
0
ARC
8
DEFAULT_255_1_234
10
8.3385119
20
37.5841148
40
1.5037162
50
71.0197183
51
74.4087047
0
ARC
8
DEFAULT_255_1_234
10
8.5079804
20
38.0733111
40
0.9859993
50
66.1847285
51
71.086374
0
ARC
8
DEFAULT_255_1_234
10
8.6636116
20
38.42372
40
0.6025855
50
59.3536294
51
66.2691831
0
ARC
8
DEFAULT_255_1_234
10
8.7524769
20
38.5740609
40
0.4279449
50
49.1020879
51
59.3293958
0
ARC
8
DEFAULT_255_1_234
10
8.8343509
20
38.6673834
40
0.3038015
50
32.7919921
51
49.2505539
0
ARC
8
DEFAULT_255_1_234
10
8.8664599
20
38.6902191
40
0.264448
50
31.1181161
51
32.4005348
0
ARC
8
DEFAULT_255_1_234
10
8.8576136
20
38.6866779
40
0.2738556
50
8.1116974
51
30.7958831
0
ARC
8
DEFAULT_255_1_234
10
8.7765804
20
38.6728753
40
0.3560327
50
359.8389159
51
8.4706516
0
ARC
8
DEFAULT_255_1_234
10
8.8391596
20
38.6680137
40
0.2934776
50
337.4731098
51
0.7537279
0
ARC
8
DEFAULT_255_1_234
10
8.8570291
20
38.6660387
40
0.2762607
50
307.5917067
51
336.4315538
0
ARC
8
DEFAULT_255_1_234
10
8.8110119
20
38.7173102
40
0.3449979
50
307.6551545
51
308.4529766
0
ARC
8
DEFAULT_255_1_234
10
8.7879838
20
38.752825
40
0.3871988
50
284.3734338
51
307.1424381
0
ARC
8
DEFAULT_255_1_234
10
8.7384668
20
38.9349932
40
0.5759636
50
272.4382747
51
284.646547
0
ARC
8
DEFAULT_255_1_234
10
8.7257876
20
39.1149893
40
0.7563528
50
269.9708387
51
272.8178037
0
ARC
8
DEFAULT_255_1_234
10
8.7214916
20
38.9111716
40
0.5525489
50
248.2707594
51
270.4055579
0
ARC
8
DEFAULT_255_1_234
10
8.7160657
20
38.8921192
40
0.5328452
50
246.1383403
51
248.0542782
0
ARC
8
DEFAULT_255_1_234
10
8.6742036
20
38.8041843
40
0.4355005
50
233.1670131
51
246.4950969
0
ARC
8
DEFAULT_255_1_234
10
8.6187941
20
38.7293812
40
0.3424126
50
215.3403242
51
233.0843104
0
ARC
8
DEFAULT_255_1_234
10
8.5915372
20
38.7095549
40
0.3087104
50
179.2419209
51
215.2648451
0
ARC
8
DEFAULT_255_1_234
10
8.6682966
20
38.7109666
40
0.2304457
50
179.335461
51
199.1045811
0
ARC
8
DEFAULT_255_1_234
10
8.6350643
20
38.7022766
40
0.1962176
50
199.8828939
51
232.7063202
0
ARC
8
DEFAULT_255_1_234
10
8.6822911
20
38.7616788
40
0.2720938
50
232.3738199
51
255.5136649
0
ARC
8
DEFAULT_255_1_234
10
8.7163778
20
38.8860835
40
0.4010747
50
255.2446292
51
267.5320849
0
ARC
8
DEFAULT_255_1_234
10
8.7251401
20
39.0093702
40
0.5246356
50
267.1557994
51
270.0286766
0
ARC
8
DEFAULT_255_1_234
10
8.7279173
20
38.964995
40
0.4802668
50
269.7000017
51
278.1660162
0
ARC
8
DEFAULT_255_1_234
10
8.7535178
20
38.7919515
40
0.3053425
50
278.0231263
51
290.625471
0
ARC
8
DEFAULT_255_1_234
10
8.7882865
20
38.6992025
40
0.206291
50
290.6619762
51
307.0370976
0
ARC
8
DEFAULT_255_1_234
10
8.8183254
20
38.6623504
40
0.1587906
50
306.3943566
51
355.3030547
0
ARC
8
DEFAULT_255_1_234
10
8.7671186
20
38.6700113
40
0.2104809
50
354.3660432
51
0.0698737
0
ARC
8
DEFAULT_255_1_234
10
8.7813531
20
38.6722617
40
0.1962563
50
359.417946
51
16.1971788
0
ARC
8
DEFAULT_255_1_234
10
8.8268841
20
38.6847418
40
0.149053
50
16.4723299
51
52.6262157
0
ARC
8
DEFAULT_255_1_234
10
8.7447895
20
38.5763433
40
0.2850296
50
52.7386432
51
62.4979148
0
ARC
8
DEFAULT_255_1_234
10
8.6062972
20
38.3157283
40
0.5801521
50
62.2515216
51
68.1220564
0
ARC
8
DEFAULT_255_1_234
10
8.4342883
20
37.8929872
40
1.0365451
50
68.0062803
51
71.8053402
0
ARC
8
DEFAULT_255_1_234
10
8.2547255
20
37.3544758
40
1.6042013
50
71.7183119
51
73.9258742
0
LINE
8
DEFAULT_255_1_234
10
9.4956464
20
39.5441211
11
9.4956464
21
38.3747
0
LINE
8
DEFAULT_255_1_234
10
9.4956464
20
38.3747
11
9.341437
21
38.3747
0
LINE
8
DEFAULT_255_1_234
10
9.341437
20
38.3747
11
9.341437
21
39.5441211
0
LINE
8
DEFAULT_255_1_234
10
9.341437
20
39.5441211
11
9.4956464
21
39.5441211
0
LINE
8
DEFAULT_255_1_234
10
9.7775604
20
39.5441211
11
9.9767475
21
39.5441211
0
LINE
8
DEFAULT_255_1_234
10
9.9767475
20
39.5441211
11
10.3590583
21
38.5899506
0
LINE
8
DEFAULT_255_1_234
10
10.3590583
20
38.5899506
11
10.741369
21
39.5441211
0
LINE
8
DEFAULT_255_1_234
10
10.741369
20
39.5441211
11
10.9413593
21
39.5441211
0
LINE
8
DEFAULT_255_1_234
10
10.9413593
20
39.5441211
11
10.9413593
21
38.3747
0
LINE
8
DEFAULT_255_1_234
10
10.9413593
20
38.3747
11
10.7871499
21
38.3747
0
LINE
8
DEFAULT_255_1_234
10
10.7871499
20
38.3747
11
10.7871499
21
38.8300996
0
LINE
8
DEFAULT_255_1_234
10
10.7871499
20
38.8300996
11
10.801607
21
39.3216419
0
LINE
8
DEFAULT_255_1_234
10
10.801607
20
39.3216419
11
10.4176899
21
38.3747
0
LINE
8
DEFAULT_255_1_234
10
10.4176899
20
38.3747
11
10.2996234
21
38.3747
0
LINE
8
DEFAULT_255_1_234
10
10.2996234
20
38.3747
11
9.9165095
21
39.3192324
0
LINE
8
DEFAULT_255_1_234
10
9.9165095
20
39.3192324
11
9.9317698
21
38.8300996
0
LINE
8
DEFAULT_255_1_234
10
9.9317698
20
38.8300996
11
9.9317698
21
38.3747
0
LINE
8
DEFAULT_255_1_234
10
9.9317698
20
38.3747
11
9.7775604
21
38.3747
0
LINE
8
DEFAULT_255_1_234
10
9.7775604
20
38.3747
11
9.7775604
21
39.5441211
0
LINE
8
DEFAULT_255_1_234
10
11.9854853
20
38.3747
11
11.8738441
21
38.6799061
0
LINE
8
DEFAULT_255_1_234
10
11.8738441
20
38.6799061
11
11.3839081
21
38.6799061
0
LINE
8
DEFAULT_255_1_234
10
11.3839081
20
38.6799061
11
11.2738732
21
38.3747
0
LINE
8
DEFAULT_255_1_234
10
11.2738732
20
38.3747
11
11.1148448
21
38.3747
0
LINE
8
DEFAULT_255_1_234
10
11.1148448
20
38.3747
11
11.5614095
21
39.5441211
0
LINE
8
DEFAULT_255_1_234
10
11.5614095
20
39.5441211
11
11.6963427
21
39.5441211
0
LINE
8
DEFAULT_255_1_234
10
11.6963427
20
39.5441211
11
12.1437105
21
38.3747
0
LINE
8
DEFAULT_255_1_234
10
12.1437105
20
38.3747
11
11.9854853
21
38.3747
0
LINE
8
DEFAULT_255_1_234
10
11.6288761
20
39.3537689
11
11.4304921
21
38.8068075
0
LINE
8
DEFAULT_255_1_234
10
11.4304921
20
38.8068075
11
11.8280632
21
38.8068075
0
LINE
8
DEFAULT_255_1_234
10
11.8280632
20
38.8068075
11
11.6288761
21
39.3537689
0
LINE
8
DEFAULT_255_1_234
10
13.005516
20
39.5441211
11
13.005516
21
39.4172196
0
LINE
8
DEFAULT_255_1_234
10
13.005516
20
39.4172196
11
12.6296307
21
39.4172196
0
LINE
8
DEFAULT_255_1_234
10
12.6296307
20
39.4172196
11
12.6296307
21
38.3747
0
LINE
8
DEFAULT_255_1_234
10
12.6296307
20
38.3747
11
12.4762245
21
38.3747
0
LINE
8
DEFAULT_255_1_234
10
12.4762245
20
38.3747
11
12.4762245
21
39.4172196
0
LINE
8
DEFAULT_255_1_234
10
12.4762245
20
39.4172196
11
12.1011423
21
39.4172196
0
LINE
8
DEFAULT_255_1_234
10
12.1011423
20
39.4172196
11
12.1011423
21
39.5441211
0
LINE
8
DEFAULT_255_1_234
10
12.1011423
20
39.5441211
11
13.005516
21
39.5441211
0
LINE
8
DEFAULT_255_1_234
10
13.3444554
20
39.5441211
11
13.3444554
21
38.3747
0
LINE
8
DEFAULT_255_1_234
10
13.3444554
20
38.3747
11
13.190246
21
38.3747
0
LINE
8
DEFAULT_255_1_234
10
13.190246
20
38.3747
11
13.190246
21
39.5441211
0
LINE
8
DEFAULT_255_1_234
10
13.190246
20
39.5441211
11
13.3444554
21
39.5441211
0
LINE
8
DEFAULT_255_1_234
10
14.331556
20
38.7457663
11
14.4865686
21
38.7457663
0
LINE
8
DEFAULT_255_1_234
10
13.5862107
20
38.9047947
11
13.5862107
21
39.0172391
0
LINE
8
DEFAULT_255_1_234
10
14.4865686
20
39.1682357
11
14.331556
21
39.1682357
0
LINE
8
DEFAULT_255_1_234
10
13.7412232
20
39.0132232
11
13.7412232
21
38.8999757
0
ARC
8
DEFAULT_255_1_234
10
13.9385072
20
38.8054846
40
0.5513052
50
340.1774281
51
353.7814284
0
ARC
8
DEFAULT_255_1_234
10
14.0956425
20
38.7469582
40
0.3836379
50
311.4558989
51
340.4421614
0
ARC
8
DEFAULT_255_1_234
10
14.0923093
20
38.7580528
40
0.3941894
50
282.4333181
51
310.7513653
0
ARC
8
DEFAULT_255_1_234
10
14.0483832
20
38.9395679
40
0.5809175
50
269.9358511
51
282.809604
0
ARC
8
DEFAULT_255_1_234
10
14.0431899
20
39.0853212
40
0.7266847
50
270.0021091
51
270.3581957
0
ARC
8
DEFAULT_255_1_234
10
14.0379315
20
38.8252585
40
0.4666519
50
250.7884749
51
270.6489167
0
ARC
8
DEFAULT_255_1_234
10
14.021115
20
38.7615319
40
0.4009729
50
219.3627325
51
250.0611886
0
ARC
8
DEFAULT_255_1_234
10
14.1040361
20
38.8320042
40
0.5097822
50
193.5479632
51
219.5756669
0
ARC
8
DEFAULT_255_1_234
10
14.3411982
20
38.8935919
40
0.7547848
50
181.1218675
51
193.87563
0
ARC
8
DEFAULT_255_1_234
10
14.5482163
20
38.904658
40
0.9620055
50
179.9918545
51
181.5394234
0
ARC
8
DEFAULT_255_1_234
10
14.3631265
20
39.0209788
40
0.7769248
50
169.5837241
51
180.2757934
0
ARC
8
DEFAULT_255_1_234
10
14.1794203
20
39.0549229
40
0.590109
50
155.0365899
51
169.6003176
0
ARC
8
DEFAULT_255_1_234
10
14.0658667
20
39.1096677
40
0.4640625
50
136.783148
51
155.2472683
0
ARC
8
DEFAULT_255_1_234
10
14.0269144
20
39.1427562
40
0.4130255
50
121.7633186
51
136.428115
0
ARC
8
DEFAULT_255_1_234
10
14.0404106
20
39.1178227
40
0.4413323
50
95.6459699
51
121.5490577
0
ARC
8
DEFAULT_255_1_234
10
14.0561388
20
39.0069949
40
0.55319
50
89.924208
51
96.1377933
0
ARC
8
DEFAULT_255_1_234
10
14.0611821
20
39.0188542
40
0.5413475
50
76.6779277
51
90.4563316
0
ARC
8
DEFAULT_255_1_234
10
14.1005444
20
39.1779114
40
0.3775041
50
47.485847
51
76.9287264
0
ARC
8
DEFAULT_255_1_234
10
14.0858417
20
39.1679159
40
0.3948286
50
16.5424086
51
46.8933463
0
ARC
8
DEFAULT_255_1_234
10
13.9250574
20
39.1150861
40
0.564021
50
5.4072051
51
17.0365086
0
ARC
8
DEFAULT_255_1_234
10
13.7811591
20
39.0919679
40
0.5556559
50
7.8891745
51
15.9239216
0
ARC
8
DEFAULT_255_1_234
10
13.9798605
20
39.1496631
40
0.3487515
50
15.7653144
51
27.9410532
0
ARC
8
DEFAULT_255_1_234
10
14.0902822
20
39.208779
40
0.2235026
50
27.8166557
51
46.4008329
0
ARC
8
DEFAULT_255_1_234
10
14.0952465
20
39.2082082
40
0.2205286
50
47.4371857
51
75.0698205
0
ARC
8
DEFAULT_255_1_234
10
14.064386
20
39.1007765
40
0.3322915
50
74.7008593
51
87.8124495
0
ARC
8
DEFAULT_255_1_234
10
14.0570547
20
38.9951844
40
0.4380987
50
87.3814673
51
90.0240855
0
ARC
8
DEFAULT_255_1_234
10
14.0532091
20
39.1129291
40
0.3203749
50
89.3451631
51
108.5745436
0
ARC
8
DEFAULT_255_1_234
10
14.0395196
20
39.1642908
40
0.2673494
50
109.2998449
51
143.3037509
0
ARC
8
DEFAULT_255_1_234
10
14.1157268
20
39.1056881
40
0.3634757
50
143.0753173
51
163.1916937
0
ARC
8
DEFAULT_255_1_234
10
14.3108996
20
39.0440967
40
0.5681262
50
162.9373603
51
174.6208611
0
ARC
8
DEFAULT_255_1_234
10
14.5735038
20
39.015301
40
0.8322832
50
174.3419979
51
180.1430411
0
ARC
8
DEFAULT_255_1_234
10
14.4804194
20
38.8958698
40
0.7392076
50
179.6817502
51
189.150529
0
ARC
8
DEFAULT_255_1_234
10
14.2303443
20
38.854219
40
0.4856932
50
188.9910863
51
203.5773039
0
ARC
8
DEFAULT_255_1_234
10
14.1223775
20
38.8094211
40
0.3688271
50
203.9077269
51
215.1312379
0
ARC
8
DEFAULT_255_1_234
10
14.0300869
20
38.7378941
40
0.2522457
50
213.9071664
51
263.8849284
0
ARC
8
DEFAULT_255_1_234
10
14.0426198
20
38.8163518
40
0.3316174
50
263.1758525
51
270.1031083
0
ARC
8
DEFAULT_255_1_234
10
14.045829
20
38.9410365
40
0.4563091
50
269.6719807
51
279.0609165
0
ARC
8
DEFAULT_255_1_234
10
14.0725058
20
38.7797907
40
0.2928759
50
278.8750225
51
293.6346586
0
ARC
8
DEFAULT_255_1_234
10
14.1045266
20
38.70459
40
0.2111472
50
293.8553404
51
310.0518804
0
ARC
8
DEFAULT_255_1_234
10
14.105012
20
38.6983516
40
0.2060917
50
311.0646779
51
332.0108348
0
ARC
8
DEFAULT_255_1_234
10
13.9857847
20
38.7640978
40
0.3422352
50
331.6588543
51
343.2878891
0
ARC
8
DEFAULT_255_1_234
10
13.7795362
20
38.8274798
40
0.5580003
50
343.1446044
51
351.010618
0
ARC
8
DEFAULT_255_1_234
10
13.6254008
20
38.8555871
40
0.7146438
50
350.7157277
51
351.1602153
0
LINE
8
DEFAULT_255_1_234
10
15.8800751
20
39.2059849
11
15.7250626
21
39.2059849
0
LINE
8
DEFAULT_255_1_234
10
15.0327268
20
38.7136394
11
15.1877393
21
38.7136394
0
ARC
8
DEFAULT_255_1_234
10
15.7909439
20
40.1006768
40
1.252368
50
248.9199003
51
254.1439814
0
ARC
8
DEFAULT_255_1_234
10
15.6228934
20
39.6680234
40
0.788226
50
241.633709
51
249.0064503
0
ARC
8
DEFAULT_255_1_234
10
15.4700328
20
39.3879317
40
0.4691427
50
230.498225
51
241.8087113
0
ARC
8
DEFAULT_255_1_234
10
15.3915902
20
39.2879906
40
0.3421437
50
227.4064532
51
229.9881192
0
ARC
8
DEFAULT_255_1_234
10
15.3428423
20
39.2404088
40
0.2741476
50
200.6781896
51
228.1763934
0
ARC
8
DEFAULT_255_1_234
10
15.3500734
20
39.2389077
40
0.2804109
50
179.5061581
51
199.8694617
0
ARC
8
DEFAULT_255_1_234
10
15.3491485
20
39.246321
40
0.2795204
50
132.4834203
51
181.0242172
0
ARC
8
DEFAULT_255_1_234
10
15.4087068
20
39.1900704
40
0.3612768
50
129.2532479
51
133.4242687
0
ARC
8
DEFAULT_255_1_234
10
15.4233517
20
39.1680965
40
0.3875675
50
101.98776
51
128.8742646
0
ARC
8
DEFAULT_255_1_234
10
15.4632128
20
38.9959741
40
0.5642249
50
89.5906553
51
102.3169264
0
ARC
8
DEFAULT_255_1_234
10
15.470262
20
39.0278148
40
0.5323783
50
77.2360837
51
90.3248275
0
ARC
8
DEFAULT_255_1_234
10
15.4909699
20
39.12454
40
0.4334697
50
63.837784
51
77.0809408
0
ARC
8
DEFAULT_255_1_234
10
15.5187461
20
39.1762911
40
0.3747796
50
45.9864267
51
64.1607727
0
ARC
8
DEFAULT_255_1_234
10
15.5448342
20
39.2060866
40
0.3352302
50
32.2747395
51
45.6547121
0
ARC
8
DEFAULT_255_1_234
10
15.5514783
20
39.207988
40
0.328603
50
359.6507365
51
32.6130309
0
ARC
8
DEFAULT_255_1_234
10
15.4571878
20
39.208466
40
0.2678863
50
359.469343
51
14.9832209
0
ARC
8
DEFAULT_255_1_234
10
15.5276941
20
39.2273539
40
0.1948938
50
14.9781179
51
48.2004265
0
ARC
8
DEFAULT_255_1_234
10
15.5112585
20
39.2066983
40
0.2212521
50
48.5927837
51
74.1241538
0
ARC
8
DEFAULT_255_1_234
10
15.4779074
20
39.0966248
40
0.3362561
50
73.7888341
51
86.6652678
0
ARC
8
DEFAULT_255_1_234
10
15.467664
20
38.9758881
40
0.4573953
50
86.2640471
51
90.0526343
0
ARC
8
DEFAULT_255_1_234
10
15.4648352
20
39.0154192
40
0.4178709
50
89.6697524
51
99.2309573
0
ARC
8
DEFAULT_255_1_234
10
15.4405803
20
39.1598964
40
0.2713749
50
99.069534
51
113.7658566
0
ARC
8
DEFAULT_255_1_234
10
15.4131994
20
39.2244677
40
0.2012469
50
114.0401004
51
127.9850673
0
ARC
8
DEFAULT_255_1_234
10
15.3891558
20
39.254073
40
0.1631167
50
127.7287463
51
176.7105154
0
ARC
8
DEFAULT_255_1_234
10
15.4570276
20
39.2439693
40
0.2315392
50
175.1779447
51
180.0581938
0
ARC
8
DEFAULT_255_1_234
10
15.3727123
20
39.2427428
40
0.1472271
50
179.6142195
51
228.1246017
0
ARC
8
DEFAULT_255_1_234
10
15.4168791
20
39.2836308
40
0.2072299
50
226.5779593
51
230.8800004
0
ARC
8
DEFAULT_255_1_234
10
15.463987
20
39.3461636
40
0.2854818
50
231.4635071
51
241.9260842
0
ARC
8
DEFAULT_255_1_234
10
15.5837048
20
39.56648
40
0.53622
50
241.7178533
51
248.3259551
0
ARC
8
DEFAULT_255_1_234
10
15.722242
20
39.9097064
40
0.9063478
50
248.2007737
51
252.4528373
0
ARC
8
DEFAULT_255_1_234
10
15.8426145
20
40.2818441
40
1.2974635
50
252.3391078
51
254.3469452
0
ARC
8
DEFAULT_255_1_234
10
15.0883847
20
37.5841148
40
1.5037162
50
71.0197183
51
74.4087047
0
ARC
8
DEFAULT_255_1_234
10
15.2578532
20
38.0733111
40
0.9859993
50
66.1847285
51
71.086374
0
ARC
8
DEFAULT_255_1_234
10
15.4134845
20
38.42372
40
0.6025855
50
59.3536294
51
66.2691831
0
ARC
8
DEFAULT_255_1_234
10
15.5023497
20
38.5740609
40
0.4279449
50
49.1020879
51
59.3293958
0
ARC
8
DEFAULT_255_1_234
10
15.5842237
20
38.6673834
40
0.3038015
50
32.7919921
51
49.2505539
0
ARC
8
DEFAULT_255_1_234
10
15.6163327
20
38.6902191
40
0.264448
50
31.1181161
51
32.4005348
0
ARC
8
DEFAULT_255_1_234
10
15.6074865
20
38.6866779
40
0.2738556
50
8.1116974
51
30.7958831
0
ARC
8
DEFAULT_255_1_234
10
15.5264533
20
38.6728753
40
0.3560327
50
359.8389159
51
8.4706516
0
ARC
8
DEFAULT_255_1_234
10
15.5890324
20
38.6680137
40
0.2934776
50
337.4731098
51
0.7537279
0
ARC
8
DEFAULT_255_1_234
10
15.6069019
20
38.6660387
40
0.2762607
50
307.5917067
51
336.4315538
0
ARC
8
DEFAULT_255_1_234
10
15.5608847
20
38.7173102
40
0.3449979
50
307.6551545
51
308.4529766
0
ARC
8
DEFAULT_255_1_234
10
15.5378566
20
38.752825
40
0.3871988
50
284.3734338
51
307.1424381
0
ARC
8
DEFAULT_255_1_234
10
15.4883396
20
38.9349932
40
0.5759636
50
272.4382747
51
284.646547
0
ARC
8
DEFAULT_255_1_234
10
15.4756605
20
39.1149893
40
0.7563528
50
269.9708387
51
272.8178037
0
ARC
8
DEFAULT_255_1_234
10
15.4713645
20
38.9111716
40
0.5525489
50
248.2707594
51
270.4055579
0
ARC
8
DEFAULT_255_1_234
10
15.4659386
20
38.8921192
40
0.5328452
50
246.1383403
51
248.0542782
0
ARC
8
DEFAULT_255_1_234
10
15.4240765
20
38.8041843
40
0.4355005
50
233.1670131
51
246.4950969
0
ARC
8
DEFAULT_255_1_234
10
15.368667
20
38.7293812
40
0.3424126
50
215.3403242
51
233.0843104
0
ARC
8
DEFAULT_255_1_234
10
15.3414101
20
38.7095549
40
0.3087104
50
179.2419209
51
215.2648451
0
ARC
8
DEFAULT_255_1_234
10
15.4181695
20
38.7109666
40
0.2304457
50
179.335461
51
199.1045811
0
ARC
8
DEFAULT_255_1_234
10
15.3849371
20
38.7022766
40
0.1962176
50
199.8828939
51
232.7063202
0
ARC
8
DEFAULT_255_1_234
10
15.432164
20
38.7616788
40
0.2720938
50
232.3738199
51
255.5136649
0
ARC
8
DEFAULT_255_1_234
10
15.4662506
20
38.8860835
40
0.4010747
50
255.2446292
51
267.5320849
0
ARC
8
DEFAULT_255_1_234
10
15.475013
20
39.0093702
40
0.5246356
50
267.1557994
51
270.0286766
0
ARC
8
DEFAULT_255_1_234
10
15.4777902
20
38.964995
40
0.4802668
50
269.7000017
51
278.1660162
0
ARC
8
DEFAULT_255_1_234
10
15.5033907
20
38.7919515
40
0.3053425
50
278.0231263
51
290.625471
0
ARC
8
DEFAULT_255_1_234
10
15.5381594
20
38.6992025
40
0.206291
50
290.6619762
51
307.0370976
0
ARC
8
DEFAULT_255_1_234
10
15.5681983
20
38.6623504
40
0.1587906
50
306.3943566
51
355.3030547
0
ARC
8
DEFAULT_255_1_234
10
15.5169914
20
38.6700113
40
0.2104809
50
354.3660432
51
0.0698737
0
ARC
8
DEFAULT_255_1_234
10
15.531226
20
38.6722617
40
0.1962563
50
359.417946
51
16.1971788
0
ARC
8
DEFAULT_255_1_234
10
15.576757
20
38.6847418
40
0.149053
50
16.4723299
51
52.6262157
0
ARC
8
DEFAULT_255_1_234
10
15.4946624
20
38.5763433
40
0.2850296
50
52.7386432
51
62.4979148
0
ARC
8
DEFAULT_255_1_234
10
15.3561701
20
38.3157283
40
0.5801521
50
62.2515216
51
68.1220564
0
ARC
8
DEFAULT_255_1_234
10
15.1841612
20
37.8929872
40
1.0365451
50
68.0062803
51
71.8053402
0
ARC
8
DEFAULT_255_1_234
10
15.0045983
20
37.3544758
40
1.6042013
50
71.7183119
51
73.9258742
0
LINE
8
DEFAULT_255_1_234
10
16.7964965
20
39.5441211
11
16.7964965
21
39.460591
0
LINE
8
DEFAULT_255_1_234
10
16.7964965
20
39.460591
11
16.3121827
21
38.3747
0
LINE
8
DEFAULT_255_1_234
10
16.3121827
20
38.3747
11
16.1563669
21
38.3747
0
LINE
8
DEFAULT_255_1_234
10
16.1563669
20
38.3747
11
16.6390744
21
39.4220387
0
LINE
8
DEFAULT_255_1_234
10
16.6390744
20
39.4220387
11
16.0061734
21
39.4220387
0
LINE
8
DEFAULT_255_1_234
10
16.0061734
20
39.4220387
11
16.0061734
21
39.5441211
0
LINE
8
DEFAULT_255_1_234
10
16.0061734
20
39.5441211
11
16.7964965
21
39.5441211
0
LINE
8
DEFAULT_255_1_234
10
17.2896452
20
38.9321026
11
17.2896452
21
38.8108234
0
LINE
8
DEFAULT_255_1_234
10
17.2896452
20
38.8108234
11
16.8976964
21
38.8108234
0
LINE
8
DEFAULT_255_1_234
10
16.8976964
20
38.8108234
11
16.8976964
21
38.9321026
0
LINE
8
DEFAULT_255_1_234
10
16.8976964
20
38.9321026
11
17.2896452
21
38.9321026
0
LINE
8
DEFAULT_255_1_234
10
18.046235
20
39.5441211
11
18.046235
21
38.767452
0
LINE
8
DEFAULT_255_1_234
10
18.046235
20
38.767452
11
18.2084761
21
38.767452
0
LINE
8
DEFAULT_255_1_234
10
18.2084761
20
38.767452
11
18.2084761
21
38.6461728
0
LINE
8
DEFAULT_255_1_234
10
18.2084761
20
38.6461728
11
18.046235
21
38.6461728
0
LINE
8
DEFAULT_255_1_234
10
18.046235
20
38.6461728
11
18.046235
21
38.3747
0
LINE
8
DEFAULT_255_1_234
10
18.046235
20
38.3747
11
17.8968446
21
38.3747
0
LINE
8
DEFAULT_255_1_234
10
17.8968446
20
38.3747
11
17.8968446
21
38.6461728
0
LINE
8
DEFAULT_255_1_234
10
17.8968446
20
38.6461728
11
17.3643404
21
38.6461728
0
LINE
8
DEFAULT_255_1_234
10
17.3643404
20
38.6461728
11
17.3643404
21
38.7337187
0
LINE
8
DEFAULT_255_1_234
10
17.3643404
20
38.7337187
11
17.8880097
21
39.5441211
0
LINE
8
DEFAULT_255_1_234
10
17.8880097
20
39.5441211
11
18.046235
21
39.5441211
0
LINE
8
DEFAULT_255_1_234
10
17.8791748
20
39.3087912
11
17.5330069
21
38.767452
0
LINE
8
DEFAULT_255_1_234
10
17.5330069
20
38.767452
11
17.8968446
21
38.767452
0
LINE
8
DEFAULT_255_1_234
10
17.8968446
20
38.767452
11
17.8968446
21
39.3409181
0
LINE
8
DEFAULT_255_1_234
10
17.8968446
20
39.3409181
11
17.8791748
21
39.3087912
0
LINE
8
DEFAULT_255_1_234
10
19.0759038
20
39.0662327
11
19.0759038
21
38.8734709
0
LINE
8
DEFAULT_255_1_234
10
18.3377871
20
38.8533916
11
18.3377871
21
39.0517755
0
LINE
8
DEFAULT_255_1_234
10
18.9273167
20
38.8333123
11
18.9273167
21
39.0766739
0
LINE
8
DEFAULT_255_1_234
10
18.4863742
20
39.0879184
11
18.4863742
21
38.8501789
0
ARC
8
DEFAULT_255_1_234
10
17.8511928
20
38.8685805
40
1.2247208
50
353.8441951
51
0.2287902
0
ARC
8
DEFAULT_255_1_234
10
18.3151431
20
38.8167806
40
0.7578929
50
344.4934747
51
353.9765454
0
ARC
8
DEFAULT_255_1_234
10
18.6144022
20
38.7316981
40
0.4467846
50
329.2803592
51
344.7472793
0
ARC
8
DEFAULT_255_1_234
10
18.7136846
20
38.6772018
40
0.3336173
50
324.9352394
51
328.6160465
0
ARC
8
DEFAULT_255_1_234
10
18.7513955
20
38.6508427
40
0.2876076
50
280.580143
51
324.9173126
0
ARC
8
DEFAULT_255_1_234
10
18.7112748
20
38.8179099
40
0.4592847
50
269.5977311
51
281.6734359
0
ARC
8
DEFAULT_255_1_234
10
18.7040653
20
38.8059173
40
0.4472986
50
256.6228859
51
270.51044
0
ARC
8
DEFAULT_255_1_234
10
18.6638631
20
38.6510877
40
0.2873874
50
215.8618325
51
257.2788573
0
ARC
8
DEFAULT_255_1_234
10
18.7659663
20
38.7195977
40
0.4102928
50
197.9693508
51
215.2623606
0
ARC
8
DEFAULT_255_1_234
10
19.0144778
20
38.8034709
40
0.6725652
50
187.8816417
51
198.2346507
0
ARC
8
DEFAULT_255_1_234
10
19.4102987
20
38.8606079
40
1.0724845
50
180.8976217
51
188.0055519
0
ARC
8
DEFAULT_255_1_234
10
19.6903175
20
38.8709777
40
1.3526448
50
180.7449369
51
181.1510016
0
ARC
8
DEFAULT_255_1_234
10
19.5325904
20
39.0566042
40
1.1948131
50
173.7675579
51
180.231553
0
ARC
8
DEFAULT_255_1_234
10
19.080805
20
39.1076666
40
0.7401564
50
164.3058563
51
173.9002247
0
ARC
8
DEFAULT_255_1_234
10
18.7896119
20
39.1915656
40
0.4371288
50
148.7922025
51
164.568378
0
ARC
8
DEFAULT_255_1_234
10
18.6944571
20
39.2446929
40
0.3282386
50
144.5883898
51
148.1176286
0
ARC
8
DEFAULT_255_1_234
10
18.6601469
20
39.2686315
40
0.2864044
50
101.6440918
51
144.514236
0
ARC
8
DEFAULT_255_1_234
10
18.7026536
20
39.0997069
40
0.4604934
50
89.5284041
51
102.5819763
0
ARC
8
DEFAULT_255_1_234
10
18.7105624
20
39.0958018
40
0.464401
50
77.0437873
51
90.5081339
0
ARC
8
DEFAULT_255_1_234
10
18.7507626
20
39.2600615
40
0.2953195
50
48.2778575
51
77.4994676
0
ARC
8
DEFAULT_255_1_234
10
18.7580257
20
39.2729746
40
0.2808655
50
36.3142134
51
47.6305865
0
ARC
8
DEFAULT_255_1_234
10
18.6711564
20
39.2144515
40
0.3855453
50
18.2931786
51
35.6769206
0
ARC
8
DEFAULT_255_1_234
10
18.4168323
20
39.1271593
40
0.654423
50
8.024666
51
18.5605216
0
ARC
8
DEFAULT_255_1_234
10
18.0005243
20
39.0656792
40
1.0752407
50
1.1274072
51
8.1718305
0
ARC
8
DEFAULT_255_1_234
10
17.6769433
20
39.0529885
40
1.3990231
50
0.5424119
51
1.3863029
0
ARC
8
DEFAULT_255_1_234
10
17.8590811
20
39.0802342
40
1.0682415
50
359.8090433
51
4.9407866
0
ARC
8
DEFAULT_255_1_234
10
18.2800825
20
39.1178113
40
0.6455691
50
4.8362157
51
12.2904523
0
ARC
8
DEFAULT_255_1_234
10
18.555594
20
39.1791965
40
0.3633074
50
12.0805627
51
23.8173984
0
ARC
8
DEFAULT_255_1_234
10
18.6729645
20
39.2288919
40
0.2358723
50
24.2871213
51
31.3935614
0
ARC
8
DEFAULT_255_1_234
10
18.7254342
20
39.2632233
40
0.1732111
50
30.7407893
51
82.4657128
0
ARC
8
DEFAULT_255_1_234
10
18.7074477
20
39.1748691
40
0.263235
50
81.1060089
51
90.2184952
0
ARC
8
DEFAULT_255_1_234
10
18.7038776
20
39.2006924
40
0.2374236
50
89.3806855
51
105.6762551
0
ARC
8
DEFAULT_255_1_234
10
18.6855406
20
39.2673567
40
0.1682847
50
105.7981136
51
149.7388061
0
ARC
8
DEFAULT_255_1_234
10
18.7919485
20
39.203395
40
0.2924306
50
149.4208916
51
163.6286378
0
ARC
8
DEFAULT_255_1_234
10
19.0010373
20
39.139625
40
0.5110213
50
163.3763315
51
172.1410975
0
ARC
8
DEFAULT_255_1_234
10
19.3311092
20
39.0923518
40
0.8444586
50
172.0259487
51
178.0703232
0
ARC
8
DEFAULT_255_1_234
10
19.6341181
20
39.0779906
40
1.1477868
50
177.8631668
51
179.5044149
0
ARC
8
DEFAULT_255_1_234
10
19.5268586
20
38.8465389
40
1.0404907
50
179.7995573
51
185.2460446
0
ARC
8
DEFAULT_255_1_234
10
19.1225625
20
38.8082513
40
0.6343885
50
185.1411642
51
193.0079639
0
ARC
8
DEFAULT_255_1_234
10
18.8582097
20
38.7457641
40
0.3627568
50
192.7897626
51
205.2507664
0
ARC
8
DEFAULT_255_1_234
10
18.7535644
20
38.6990415
40
0.2481908
50
205.8005384
51
211.2537509
0
ARC
8
DEFAULT_255_1_234
10
18.7012085
20
38.663958
40
0.1852521
50
210.3789793
51
238.4008143
0
ARC
8
DEFAULT_255_1_234
10
18.6992607
20
38.6686376
40
0.1882621
50
239.6520629
51
265.9793761
0
ARC
8
DEFAULT_255_1_234
10
18.7077807
20
38.7358427
40
0.2559272
50
265.1315437
51
270.060332
0
ARC
8
DEFAULT_255_1_234
10
18.7106586
20
38.7034534
40
0.2235528
50
269.3314664
51
287.2178029
0
ARC
8
DEFAULT_255_1_234
10
18.7244438
20
38.6531279
40
0.1714108
50
287.7958004
51
329.080874
0
ARC
8
DEFAULT_255_1_234
10
18.6286894
20
38.712893
40
0.2842745
50
328.6634704
51
343.3325132
0
ARC
8
DEFAULT_255_1_234
10
18.4113915
20
38.7805863
40
0.5118644
50
343.0499468
51
351.9393422
0
ARC
8
DEFAULT_255_1_234
10
18.0647215
20
38.8316949
40
0.8622784
50
351.8069023
51
357.7959224
0
ARC
8
DEFAULT_255_1_234
10
17.7411771
20
38.8484721
40
1.1862365
50
357.5871873
51
359.2677531
0
LINE
8
DEFAULT_255_1_234
10
19.9995537
20
39.0662327
11
19.9995537
21
38.8734709
0
LINE
8
DEFAULT_255_1_234
10
19.261437
20
38.8533916
11
19.261437
21
39.0517755
0
LINE
8
DEFAULT_255_1_234
10
19.8509666
20
38.8333123
11
19.8509666
21
39.0766739
0
LINE
8
DEFAULT_255_1_234
10
19.4100241
20
39.0879184
11
19.4100241
21
38.8501789
0
ARC
8
DEFAULT_255_1_234
10
18.7748427
20
38.8685805
40
1.2247208
50
353.8441951
51
0.2287902
0
ARC
8
DEFAULT_255_1_234
10
19.238793
20
38.8167806
40
0.7578929
50
344.4934747
51
353.9765454
0
ARC
8
DEFAULT_255_1_234
10
19.5380521
20
38.7316981
40
0.4467846
50
329.2803592
51
344.7472793
0
ARC
8
DEFAULT_255_1_234
10
19.6373345
20
38.6772018
40
0.3336173
50
324.9352394
51
328.6160465
0
ARC
8
DEFAULT_255_1_234
10
19.6750454
20
38.6508427
40
0.2876076
50
280.580143
51
324.9173126
0
ARC
8
DEFAULT_255_1_234
10
19.6349247
20
38.8179099
40
0.4592847
50
269.5977311
51
281.6734359
0
ARC
8
DEFAULT_255_1_234
10
19.6277152
20
38.8059173
40
0.4472986
50
256.6228859
51
270.51044
0
ARC
8
DEFAULT_255_1_234
10
19.587513
20
38.6510877
40
0.2873874
50
215.8618325
51
257.2788573
0
ARC
8
DEFAULT_255_1_234
10
19.6896162
20
38.7195977
40
0.4102928
50
197.9693508
51
215.2623606
0
ARC
8
DEFAULT_255_1_234
10
19.9381277
20
38.8034709
40
0.6725652
50
187.8816417
51
198.2346507
0
ARC
8
DEFAULT_255_1_234
10
20.3339486
20
38.8606079
40
1.0724845
50
180.8976217
51
188.0055519
0
ARC
8
DEFAULT_255_1_234
10
20.6139674
20
38.8709777
40
1.3526448
50
180.7449369
51
181.1510016
0
ARC
8
DEFAULT_255_1_234
10
20.4562403
20
39.0566042
40
1.1948131
50
173.7675579
51
180.231553
0
ARC
8
DEFAULT_255_1_234
10
20.0044549
20
39.1076666
40
0.7401564
50
164.3058563
51
173.9002247
0
ARC
8
DEFAULT_255_1_234
10
19.7132618
20
39.1915656
40
0.4371288
50
148.7922025
51
164.568378
0
ARC
8
DEFAULT_255_1_234
10
19.618107
20
39.2446929
40
0.3282386
50
144.5883898
51
148.1176286
0
ARC
8
DEFAULT_255_1_234
10
19.5837968
20
39.2686315
40
0.2864044
50
101.6440918
51
144.514236
0
ARC
8
DEFAULT_255_1_234
10
19.6263035
20
39.0997069
40
0.4604934
50
89.5284041
51
102.5819763
0
ARC
8
DEFAULT_255_1_234
10
19.6342123
20
39.0958018
40
0.464401
50
77.0437873
51
90.5081339
0
ARC
8
DEFAULT_255_1_234
10
19.6744125
20
39.2600615
40
0.2953195
50
48.2778575
51
77.4994676
0
ARC
8
DEFAULT_255_1_234
10
19.6816756
20
39.2729746
40
0.2808655
50
36.3142134
51
47.6305865
0
ARC
8
DEFAULT_255_1_234
10
19.5948063
20
39.2144515
40
0.3855453
50
18.2931786
51
35.6769206
0
ARC
8
DEFAULT_255_1_234
10
19.3404822
20
39.1271593
40
0.654423
50
8.024666
51
18.5605216
0
ARC
8
DEFAULT_255_1_234
10
18.9241742
20
39.0656792
40
1.0752407
50
1.1274072
51
8.1718305
0
ARC
8
DEFAULT_255_1_234
10
18.6005932
20
39.0529885
40
1.3990231
50
0.5424119
51
1.3863029
0
ARC
8
DEFAULT_255_1_234
10
18.782731
20
39.0802342
40
1.0682415
50
359.8090433
51
4.9407866
0
ARC
8
DEFAULT_255_1_234
10
19.2037324
20
39.1178113
40
0.6455691
50
4.8362157
51
12.2904523
0
ARC
8
DEFAULT_255_1_234
10
19.4792439
20
39.1791965
40
0.3633074
50
12.0805627
51
23.8173984
0
ARC
8
DEFAULT_255_1_234
10
19.5966144
20
39.2288919
40
0.2358723
50
24.2871213
51
31.3935614
0
ARC
8
DEFAULT_255_1_234
10
19.6490841
20
39.2632233
40
0.1732111
50
30.7407893
51
82.4657128
0
ARC
8
DEFAULT_255_1_234
10
19.6310976
20
39.1748691
40
0.263235
50
81.1060089
51
90.2184952
0
ARC
8
DEFAULT_255_1_234
10
19.6275275
20
39.2006924
40
0.2374236
50
89.3806855
51
105.6762551
0
ARC
8
DEFAULT_255_1_234
10
19.6091905
20
39.2673567
40
0.1682847
50
105.7981136
51
149.7388061
0
ARC
8
DEFAULT_255_1_234
10
19.7155984
20
39.203395
40
0.2924306
50
149.4208916
51
163.6286378
0
ARC
8
DEFAULT_255_1_234
10
19.9246872
20
39.139625
40
0.5110213
50
163.3763315
51
172.1410975
0
ARC
8
DEFAULT_255_1_234
10
20.2547591
20
39.0923518
40
0.8444586
50
172.0259487
51
178.0703232
0
ARC
8
DEFAULT_255_1_234
10
20.557768
20
39.0779906
40
1.1477868
50
177.8631668
51
179.5044149
0
ARC
8
DEFAULT_255_1_234
10
20.4505085
20
38.8465389
40
1.0404907
50
179.7995573
51
185.2460446
0
ARC
8
DEFAULT_255_1_234
10
20.0462124
20
38.8082513
40
0.6343885
50
185.1411642
51
193.0079639
0
ARC
8
DEFAULT_255_1_234
10
19.7818596
20
38.7457641
40
0.3627568
50
192.7897626
51
205.2507664
0
ARC
8
DEFAULT_255_1_234
10
19.6772143
20
38.6990415
40
0.2481908
50
205.8005384
51
211.2537509
0
ARC
8
DEFAULT_255_1_234
10
19.6248584
20
38.663958
40
0.1852521
50
210.3789793
51
238.4008143
0
ARC
8
DEFAULT_255_1_234
10
19.6229106
20
38.6686376
40
0.1882621
50
239.6520629
51
265.9793761
0
ARC
8
DEFAULT_255_1_234
10
19.6314306
20
38.7358427
40
0.2559272
50
265.1315437
51
270.060332
0
ARC
8
DEFAULT_255_1_234
10
19.6343085
20
38.7034534
40
0.2235528
50
269.3314664
51
287.2178029
0
ARC
8
DEFAULT_255_1_234
10
19.6480937
20
38.6531279
40
0.1714108
50
287.7958004
51
329.080874
0
ARC
8
DEFAULT_255_1_234
10
19.5523394
20
38.712893
40
0.2842745
50
328.6634704
51
343.3325132
0
ARC
8
DEFAULT_255_1_234
10
19.3350414
20
38.7805863
40
0.5118644
50
343.0499468
51
351.9393422
0
ARC
8
DEFAULT_255_1_234
10
18.9883714
20
38.8316949
40
0.8622784
50
351.8069023
51
357.7959224
0
ARC
8
DEFAULT_255_1_234
10
18.664827
20
38.8484721
40
1.1862365
50
357.5871873
51
359.2677531
0
LINE
8
DEFAULT_255_1_234
10
4.2462489
20
37.5598211
11
4.2462489
21
36.5164983
0
LINE
8
DEFAULT_255_1_234
10
4.2462489
20
36.5164983
11
4.8004389
21
36.5164983
0
LINE
8
DEFAULT_255_1_234
10
4.8004389
20
36.5164983
11
4.8004389
21
36.3904
0
LINE
8
DEFAULT_255_1_234
10
4.8004389
20
36.3904
11
4.0912364
21
36.3904
0
LINE
8
DEFAULT_255_1_234
10
4.0912364
20
36.3904
11
4.0912364
21
37.5598211
0
LINE
8
DEFAULT_255_1_234
10
4.0912364
20
37.5598211
11
4.2462489
21
37.5598211
0
LINE
8
DEFAULT_255_1_234
10
5.378724
20
37.3590276
11
5.378724
21
37.0176788
0
LINE
8
DEFAULT_255_1_234
10
5.378724
20
37.0176788
11
5.7048126
21
37.0176788
0
LINE
8
DEFAULT_255_1_234
10
5.7048126
20
37.0176788
11
5.7048126
21
36.8771233
0
LINE
8
DEFAULT_255_1_234
10
5.7048126
20
36.8771233
11
5.378724
21
36.8771233
0
LINE
8
DEFAULT_255_1_234
10
5.378724
20
36.8771233
11
5.378724
21
36.5076634
0
LINE
8
DEFAULT_255_1_234
10
5.378724
20
36.5076634
11
5.2293337
21
36.5076634
0
LINE
8
DEFAULT_255_1_234
10
5.2293337
20
36.5076634
11
5.2293337
21
36.8771233
0
LINE
8
DEFAULT_255_1_234
10
5.2293337
20
36.8771233
11
4.9032451
21
36.8771233
0
LINE
8
DEFAULT_255_1_234
10
4.9032451
20
36.8771233
11
4.9032451
21
37.0176788
0
LINE
8
DEFAULT_255_1_234
10
4.9032451
20
37.0176788
11
5.2293337
21
37.0176788
0
LINE
8
DEFAULT_255_1_234
10
5.2293337
20
37.0176788
11
5.2293337
21
37.3590276
0
LINE
8
DEFAULT_255_1_234
10
5.2293337
20
37.3590276
11
5.378724
21
37.3590276
0
LINE
8
DEFAULT_255_1_234
10
4.4153299
20
5.8098211
11
4.6972439
21
5.3616501
0
LINE
8
DEFAULT_255_1_234
10
4.6972439
20
5.3616501
11
4.9775516
21
5.8098211
0
LINE
8
DEFAULT_255_1_234
10
4.9775516
20
5.8098211
11
5.1590689
21
5.8098211
0
LINE
8
DEFAULT_255_1_234
10
5.1590689
20
5.8098211
11
4.7896089
21
5.2299296
0
LINE
8
DEFAULT_255_1_234
10
4.7896089
20
5.2299296
11
5.1679038
21
4.6404
0
LINE
8
DEFAULT_255_1_234
10
5.1679038
20
4.6404
11
4.9847802
21
4.6404
0
LINE
8
DEFAULT_255_1_234
10
4.9847802
20
4.6404
11
4.6972439
21
5.0966027
0
LINE
8
DEFAULT_255_1_234
10
4.6972439
20
5.0966027
11
4.4081014
21
4.6404
0
LINE
8
DEFAULT_255_1_234
10
4.4081014
20
4.6404
11
4.2257809
21
4.6404
0
LINE
8
DEFAULT_255_1_234
10
4.2257809
20
4.6404
11
4.604879
21
5.2299296
0
LINE
8
DEFAULT_255_1_234
10
4.604879
20
5.2299296
11
4.2346158
21
5.8098211
0
LINE
8
DEFAULT_255_1_234
10
4.2346158
20
5.8098211
11
4.4153299
21
5.8098211
0
LINE
8
DEFAULT_255_1_234
10
5.935738
20
5.8098211
11
5.935738
21
5.033152
0
LINE
8
DEFAULT_255_1_234
10
5.935738
20
5.033152
11
6.0979791
21
5.033152
0
LINE
8
DEFAULT_255_1_234
10
6.0979791
20
5.033152
11
6.0979791
21
4.9118728
0
LINE
8
DEFAULT_255_1_234
10
6.0979791
20
4.9118728
11
5.935738
21
4.9118728
0
LINE
8
DEFAULT_255_1_234
10
5.935738
20
4.9118728
11
5.935738
21
4.6404
0
LINE
8
DEFAULT_255_1_234
10
5.935738
20
4.6404
11
5.7863477
21
4.6404
0
LINE
8
DEFAULT_255_1_234
10
5.7863477
20
4.6404
11
5.7863477
21
4.9118728
0
LINE
8
DEFAULT_255_1_234
10
5.7863477
20
4.9118728
11
5.2538434
21
4.9118728
0
LINE
8
DEFAULT_255_1_234
10
5.2538434
20
4.9118728
11
5.2538434
21
4.9994187
0
LINE
8
DEFAULT_255_1_234
10
5.2538434
20
4.9994187
11
5.7775127
21
5.8098211
0
LINE
8
DEFAULT_255_1_234
10
5.7775127
20
5.8098211
11
5.935738
21
5.8098211
0
LINE
8
DEFAULT_255_1_234
10
5.7686778
20
5.5744912
11
5.4225099
21
5.033152
0
LINE
8
DEFAULT_255_1_234
10
5.4225099
20
5.033152
11
5.7863477
21
5.033152
0
LINE
8
DEFAULT_255_1_234
10
5.7863477
20
5.033152
11
5.7863477
21
5.6066181
0
LINE
8
DEFAULT_255_1_234
10
5.7863477
20
5.6066181
11
5.7686778
21
5.5744912
0
LINE
8
DEFAULT_255_1_234
10
4.3095299
20
13.7473211
11
4.5914439
21
13.2991501
0
LINE
8
DEFAULT_255_1_234
10
4.5914439
20
13.2991501
11
4.8717516
21
13.7473211
0
LINE
8
DEFAULT_255_1_234
10
4.8717516
20
13.7473211
11
5.0532689
21
13.7473211
0
LINE
8
DEFAULT_255_1_234
10
5.0532689
20
13.7473211
11
4.6838089
21
13.1674296
0
LINE
8
DEFAULT_255_1_234
10
4.6838089
20
13.1674296
11
5.0621038
21
12.5779
0
LINE
8
DEFAULT_255_1_234
10
5.0621038
20
12.5779
11
4.8789802
21
12.5779
0
LINE
8
DEFAULT_255_1_234
10
4.8789802
20
12.5779
11
4.5914439
21
13.0341027
0
LINE
8
DEFAULT_255_1_234
10
4.5914439
20
13.0341027
11
4.3023014
21
12.5779
0
LINE
8
DEFAULT_255_1_234
10
4.3023014
20
12.5779
11
4.1199809
21
12.5779
0
LINE
8
DEFAULT_255_1_234
10
4.1199809
20
12.5779
11
4.499079
21
13.1674296
0
LINE
8
DEFAULT_255_1_234
10
4.499079
20
13.1674296
11
4.1288158
21
13.7473211
0
LINE
8
DEFAULT_255_1_234
10
4.1288158
20
13.7473211
11
4.3095299
21
13.7473211
0
LINE
8
DEFAULT_255_1_234
10
5.418713
20
13.1136169
11
5.418713
21
13.2348962
0
LINE
8
DEFAULT_255_1_234
10
5.418713
20
13.2348962
11
5.5303542
21
13.2348962
0
LINE
8
DEFAULT_255_1_234
10
5.340002
20
13.4405087
11
5.1914148
21
13.4405087
0
LINE
8
DEFAULT_255_1_234
10
5.1809735
20
12.8863188
11
5.3303639
21
12.8863188
0
LINE
8
DEFAULT_255_1_234
10
5.5303542
20
13.1136169
11
5.418713
21
13.1136169
0
ARC
8
DEFAULT_255_1_234
10
5.5274408
20
13.5741713
40
0.3392876
50
270.4919872
51
281.8951556
0
ARC
8
DEFAULT_255_1_234
10
5.551567
20
13.4639702
40
0.2264817
50
281.6691735
51
301.2943132
0
ARC
8
DEFAULT_255_1_234
10
5.568588
20
13.4328304
40
0.1910381
50
301.7833094
51
311.7545298
0
ARC
8
DEFAULT_255_1_234
10
5.5777456
20
13.4226748
40
0.1773635
50
311.7323931
51
354.2802411
0
ARC
8
DEFAULT_255_1_234
10
5.5051081
20
13.4351722
40
0.2509385
50
353.0937916
51
0.1181479
0
ARC
8
DEFAULT_255_1_234
10
5.4589866
20
13.4399386
40
0.2970898
50
359.1805295
51
15.0453146
0
ARC
8
DEFAULT_255_1_234
10
5.5935703
20
13.4791992
40
0.1569564
50
13.9577229
51
77.6713066
0
ARC
8
DEFAULT_255_1_234
10
5.5549232
20
13.3406949
40
0.3006298
50
76.1116566
51
90.7026153
0
ARC
8
DEFAULT_255_1_234
10
5.549007
20
13.3680545
40
0.2732568
50
89.5324876
51
103.531937
0
ARC
8
DEFAULT_255_1_234
10
5.5289514
20
13.4479884
40
0.1908508
50
103.2931773
51
133.5619022
0
ARC
8
DEFAULT_255_1_234
10
5.5245003
20
13.4539375
40
0.1834746
50
133.8349307
51
173.5344437
0
ARC
8
DEFAULT_255_1_234
10
5.5968046
20
13.4411213
40
0.2568033
50
172.5096846
51
180.1366907
0
ARC
8
DEFAULT_255_1_234
10
5.501694
20
13.4445622
40
0.3103056
50
155.3484492
51
180.7484736
0
ARC
8
DEFAULT_255_1_234
10
5.4968029
20
13.4416846
40
0.3070957
50
131.5744599
51
154.4798489
0
ARC
8
DEFAULT_255_1_234
10
5.5281176
20
13.410031
40
0.3515643
50
96.9875458
51
131.9690667
0
ARC
8
DEFAULT_255_1_234
10
5.5500656
20
13.2854636
40
0.4779224
50
89.8596053
51
97.7825159
0
ARC
8
DEFAULT_255_1_234
10
5.5548719
20
13.2592616
40
0.5041361
50
78.3655447
51
90.4131539
0
ARC
8
DEFAULT_255_1_234
10
5.5906637
20
13.4251887
40
0.3344039
50
56.6229102
51
78.638727
0
ARC
8
DEFAULT_255_1_234
10
5.6121581
20
13.4627805
40
0.2912001
50
47.0253525
51
56.0854072
0
ARC
8
DEFAULT_255_1_234
10
5.6141361
20
13.4667223
40
0.2869704
50
10.9208013
51
46.7778124
0
ARC
8
DEFAULT_255_1_234
10
5.4777427
20
13.4351857
40
0.426899
50
359.6364486
51
11.6087304
0
ARC
8
DEFAULT_255_1_234
10
5.6612271
20
13.4336752
40
0.243409
50
332.3549906
51
359.7179418
0
ARC
8
DEFAULT_255_1_234
10
5.5961873
20
13.4645142
40
0.3153459
50
325.2333722
51
332.8745602
0
ARC
8
DEFAULT_255_1_234
10
5.6114496
20
13.4538828
40
0.2967456
50
292.9802137
51
325.2392345
0
ARC
8
DEFAULT_255_1_234
10
5.583987
20
13.5072863
40
0.3566604
50
292.5402179
51
293.6924929
0
ARC
8
DEFAULT_255_1_234
10
5.6232466
20
12.8618091
40
0.3307468
50
57.6435486
51
72.8625112
0
ARC
8
DEFAULT_255_1_234
10
5.6586966
20
12.9192549
40
0.2632492
50
36.7248896
51
57.4697979
0
ARC
8
DEFAULT_255_1_234
10
5.6575598
20
12.920522
40
0.2634081
50
8.0545065
51
36.356114
0
ARC
8
DEFAULT_255_1_234
10
5.5712784
20
12.9050174
40
0.3510261
50
359.8320645
51
8.5869982
0
ARC
8
DEFAULT_255_1_234
10
5.533756
20
12.9002101
40
0.3885653
50
343.9829931
51
0.5571613
0
ARC
8
DEFAULT_255_1_234
10
5.6223757
20
12.8759438
40
0.2966924
50
311.6359546
51
343.7651759
0
ARC
8
DEFAULT_255_1_234
10
5.5845326
20
12.9186102
40
0.3537231
50
279.7829875
51
311.6255694
0
ARC
8
DEFAULT_255_1_234
10
5.5544102
20
13.062328
40
0.5004971
50
269.7286406
51
280.3856417
0
ARC
8
DEFAULT_255_1_234
10
5.5482175
20
13.0581996
40
0.4963778
50
256.6828919
51
270.4412052
0
ARC
8
DEFAULT_255_1_234
10
5.5143471
20
12.9197394
40
0.3538406
50
229.4223008
51
256.8556159
0
ARC
8
DEFAULT_255_1_234
10
5.4728864
20
12.8730736
40
0.2914296
50
181.818294
51
229.6455059
0
ARC
8
DEFAULT_255_1_234
10
5.576882
20
12.8861496
40
0.3959084
50
179.9755256
51
183.2323064
0
ARC
8
DEFAULT_255_1_234
10
5.5596566
20
12.8841037
40
0.2293034
50
179.4465117
51
196.2869258
0
ARC
8
DEFAULT_255_1_234
10
5.5108974
20
12.8707651
40
0.1787621
50
196.5661473
51
227.705904
0
ARC
8
DEFAULT_255_1_234
10
5.5273069
20
12.8891155
40
0.2033784
50
227.7652068
51
257.8762805
0
ARC
8
DEFAULT_255_1_234
10
5.5498039
20
12.9834156
40
0.3003081
50
257.4584385
51
270.426602
0
ARC
8
DEFAULT_255_1_234
10
5.5543605
20
13.0123996
40
0.329292
50
269.5962073
51
280.8789248
0
ARC
8
DEFAULT_255_1_234
10
5.5773134
20
12.8977685
40
0.2123908
50
280.6346389
51
299.8595945
0
ARC
8
DEFAULT_255_1_234
10
5.596404
20
12.8615212
40
0.171457
50
300.3576302
51
314.5517981
0
ARC
8
DEFAULT_255_1_234
10
5.5881101
20
12.8675919
40
0.1816095
50
315.0728369
51
345.0431014
0
ARC
8
DEFAULT_255_1_234
10
5.4957915
20
12.8944841
40
0.2777492
50
344.5986631
51
357.9269593
0
ARC
8
DEFAULT_255_1_234
10
5.4062241
20
12.9006276
40
0.3674917
50
357.4748886
51
0.0231117
0
ARC
8
DEFAULT_255_1_234
10
5.5085351
20
12.9030679
40
0.2651907
50
359.5047933
51
13.4239635
0
ARC
8
DEFAULT_255_1_234
10
5.5951994
20
12.9252478
40
0.1757509
50
12.9498199
51
48.7551375
0
ARC
8
DEFAULT_255_1_234
10
5.5769728
20
12.90034
40
0.2065134
50
49.5088623
51
72.1836453
0
ARC
8
DEFAULT_255_1_234
10
5.5411881
20
12.7941291
40
0.3185836
50
71.9010081
51
84.3554254
0
ARC
8
DEFAULT_255_1_234
10
5.5250513
20
12.6580326
40
0.4556151
50
84.0193428
51
89.333121
0
LINE
8
DEFAULT_255_1_234
10
4.3095299
20
21.6848211
11
4.5914439
21
21.2366501
0
LINE
8
DEFAULT_255_1_234
10
4.5914439
20
21.2366501
11
4.8717516
21
21.6848211
0
LINE
8
DEFAULT_255_1_234
10
4.8717516
20
21.6848211
11
5.0532689
21
21.6848211
0
LINE
8
DEFAULT_255_1_234
10
5.0532689
20
21.6848211
11
4.6838089
21
21.1049296
0
LINE
8
DEFAULT_255_1_234
10
4.6838089
20
21.1049296
11
5.0621038
21
20.5154
0
LINE
8
DEFAULT_255_1_234
10
5.0621038
20
20.5154
11
4.8789802
21
20.5154
0
LINE
8
DEFAULT_255_1_234
10
4.8789802
20
20.5154
11
4.5914439
21
20.9716027
0
LINE
8
DEFAULT_255_1_234
10
4.5914439
20
20.9716027
11
4.3023014
21
20.5154
0
LINE
8
DEFAULT_255_1_234
10
4.3023014
20
20.5154
11
4.1199809
21
20.5154
0
LINE
8
DEFAULT_255_1_234
10
4.1199809
20
20.5154
11
4.499079
21
21.1049296
0
LINE
8
DEFAULT_255_1_234
10
4.499079
20
21.1049296
11
4.1288158
21
21.6848211
0
LINE
8
DEFAULT_255_1_234
10
4.1288158
20
21.6848211
11
4.3095299
21
21.6848211
0
LINE
8
DEFAULT_255_1_234
10
5.9688871
20
20.6366792
11
5.9688871
21
20.5154
0
LINE
8
DEFAULT_255_1_234
10
5.9688871
20
20.5154
11
5.2026592
21
20.5154
0
LINE
8
DEFAULT_255_1_234
10
5.2026592
20
20.5154
11
5.2026592
21
20.6222221
0
LINE
8
DEFAULT_255_1_234
10
5.2026592
20
20.6222221
11
5.6074588
21
21.0719995
0
LINE
8
DEFAULT_255_1_234
10
5.3287575
20
21.3402595
11
5.1801704
21
21.3402595
0
LINE
8
DEFAULT_255_1_234
10
5.6950048
20
20.9764218
11
5.381767
21
20.6366792
0
LINE
8
DEFAULT_255_1_234
10
5.381767
20
20.6366792
11
5.9688871
21
20.6366792
0
ARC
8
DEFAULT_255_1_234
10
4.2584422
20
22.2649527
40
1.8008286
50
318.5132453
51
320.7828378
0
ARC
8
DEFAULT_255_1_234
10
4.7871396
20
21.8346426
40
1.1191493
50
320.7372736
51
323.9737074
0
ARC
8
DEFAULT_255_1_234
10
5.1791252
20
21.5506361
40
0.6350923
50
323.8961724
51
328.6421089
0
ARC
8
DEFAULT_255_1_234
10
5.3837848
20
21.4244031
40
0.3946393
50
328.8299013
51
331.789948
0
ARC
8
DEFAULT_255_1_234
10
5.4835026
20
21.3729509
40
0.2824501
50
331.4255242
51
352.9364833
0
ARC
8
DEFAULT_255_1_234
10
5.4971527
20
21.3698976
40
0.2685315
50
353.2248685
51
0.0169286
0
ARC
8
DEFAULT_255_1_234
10
5.5181404
20
21.372195
40
0.2475536
50
359.4866256
51
15.9339782
0
ARC
8
DEFAULT_255_1_234
10
5.5688389
20
21.3858286
40
0.1950618
50
16.1714718
51
43.5284424
0
ARC
8
DEFAULT_255_1_234
10
5.5765698
20
21.3935573
40
0.184134
50
43.4415429
51
83.1661404
0
ARC
8
DEFAULT_255_1_234
10
5.5631616
20
21.3198771
40
0.258926
50
82.160215
51
90.1505798
0
ARC
8
DEFAULT_255_1_234
10
5.5600043
20
21.2661865
40
0.3126255
50
89.5460705
51
102.5418777
0
ARC
8
DEFAULT_255_1_234
10
5.5357129
20
21.3692665
40
0.2067346
50
102.1739365
51
129.2061916
0
ARC
8
DEFAULT_255_1_234
10
5.5278201
20
21.3817094
40
0.1921118
50
129.7279328
51
135.7542026
0
ARC
8
DEFAULT_255_1_234
10
5.5399729
20
21.3720045
40
0.2075944
50
136.175737
51
166.3674722
0
ARC
8
DEFAULT_255_1_234
10
5.6406648
20
21.3450182
40
0.3118201
50
165.9092917
51
178.8683903
0
ARC
8
DEFAULT_255_1_234
10
5.7271509
20
21.3403179
40
0.3983935
50
178.438168
51
180.0083905
0
ARC
8
DEFAULT_255_1_234
10
5.5870111
20
21.3442231
40
0.4068601
50
163.2878735
51
180.5581814
0
ARC
8
DEFAULT_255_1_234
10
5.5068373
20
21.366284
40
0.3237344
50
133.454115
51
162.9470031
0
ARC
8
DEFAULT_255_1_234
10
5.5246914
20
21.3473
40
0.349795
50
100.7869394
51
133.4384016
0
ARC
8
DEFAULT_255_1_234
10
5.5594686
20
21.1924319
40
0.5084616
50
89.6605301
51
101.3704185
0
ARC
8
DEFAULT_255_1_234
10
5.5661024
20
21.1985496
40
0.502348
50
78.2171172
51
90.4130393
0
ARC
8
DEFAULT_255_1_234
10
5.6016103
20
21.3609637
40
0.3361092
50
55.9268222
51
78.4888551
0
ARC
8
DEFAULT_255_1_234
10
5.6212543
20
21.3948324
40
0.2970617
50
47.9292255
51
55.4054003
0
ARC
8
DEFAULT_255_1_234
10
5.6314103
20
21.4051502
40
0.2825983
50
4.3347696
51
48.0560701
0
ARC
8
DEFAULT_255_1_234
10
5.5218497
20
21.3881601
40
0.393225
50
359.925209
51
5.5967654
0
ARC
8
DEFAULT_255_1_234
10
5.5647389
20
21.3937816
40
0.3503892
50
337.8914096
51
358.9967724
0
ARC
8
DEFAULT_255_1_234
10
5.2933801
20
21.4984706
40
0.6412172
50
326.9135351
51
338.3505194
0
ARC
8
DEFAULT_255_1_234
10
4.8948105
20
21.7539284
40
1.1146189
50
319.6472867
51
327.095818
0
ARC
8
DEFAULT_255_1_234
10
4.5115108
20
22.0701
40
1.6114559
50
317.2586784
51
319.9046139
0
LINE
8
DEFAULT_255_1_234
10
4.3011299
20
29.6223211
11
4.5830439
21
29.1741501
0
LINE
8
DEFAULT_255_1_234
10
4.5830439
20
29.1741501
11
4.8633516
21
29.6223211
0
LINE
8
DEFAULT_255_1_234
10
4.8633516
20
29.6223211
11
5.0448689
21
29.6223211
0
LINE
8
DEFAULT_255_1_234
10
5.0448689
20
29.6223211
11
4.6754089
21
29.0424296
0
LINE
8
DEFAULT_255_1_234
10
4.6754089
20
29.0424296
11
5.0537038
21
28.4529
0
LINE
8
DEFAULT_255_1_234
10
5.0537038
20
28.4529
11
4.8705802
21
28.4529
0
LINE
8
DEFAULT_255_1_234
10
4.8705802
20
28.4529
11
4.5830439
21
28.9091027
0
LINE
8
DEFAULT_255_1_234
10
4.5830439
20
28.9091027
11
4.2939014
21
28.4529
0
LINE
8
DEFAULT_255_1_234
10
4.2939014
20
28.4529
11
4.1115809
21
28.4529
0
LINE
8
DEFAULT_255_1_234
10
4.1115809
20
28.4529
11
4.490679
21
29.0424296
0
LINE
8
DEFAULT_255_1_234
10
4.490679
20
29.0424296
11
4.1204158
21
29.6223211
0
LINE
8
DEFAULT_255_1_234
10
4.1204158
20
29.6223211
11
4.3011299
21
29.6223211
0
LINE
8
DEFAULT_255_1_234
10
5.6825889
20
29.6279433
11
5.6825889
21
28.4529
0
LINE
8
DEFAULT_255_1_234
10
5.6825889
20
28.4529
11
5.5331986
21
28.4529
0
LINE
8
DEFAULT_255_1_234
10
5.5331986
20
28.4529
11
5.5331986
21
29.4432133
0
LINE
8
DEFAULT_255_1_234
10
5.5331986
20
29.4432133
11
5.2336147
21
29.3331785
0
LINE
8
DEFAULT_255_1_234
10
5.2336147
20
29.3331785
11
5.2336147
21
29.4681117
0
LINE
8
DEFAULT_255_1_234
10
5.2336147
20
29.4681117
11
5.6592969
21
29.6279433
0
LINE
8
DEFAULT_255_1_234
10
5.6592969
20
29.6279433
11
5.6825889
21
29.6279433
0
LINE
8
DEFAULT_255_1_234
10
23.0442364
20
37.5598211
11
23.2434235
21
37.5598211
0
LINE
8
DEFAULT_255_1_234
10
23.2434235
20
37.5598211
11
23.6257342
21
36.6056506
0
LINE
8
DEFAULT_255_1_234
10
23.6257342
20
36.6056506
11
24.008045
21
37.5598211
0
LINE
8
DEFAULT_255_1_234
10
24.008045
20
37.5598211
11
24.2080353
21
37.5598211
0
LINE
8
DEFAULT_255_1_234
10
24.2080353
20
37.5598211
11
24.2080353
21
36.3904
0
LINE
8
DEFAULT_255_1_234
10
24.2080353
20
36.3904
11
24.0538259
21
36.3904
0
LINE
8
DEFAULT_255_1_234
10
24.0538259
20
36.3904
11
24.0538259
21
36.8457996
0
LINE
8
DEFAULT_255_1_234
10
24.0538259
20
36.8457996
11
24.068283
21
37.3373419
0
LINE
8
DEFAULT_255_1_234
10
24.068283
20
37.3373419
11
23.6843659
21
36.3904
0
LINE
8
DEFAULT_255_1_234
10
23.6843659
20
36.3904
11
23.5662994
21
36.3904
0
LINE
8
DEFAULT_255_1_234
10
23.5662994
20
36.3904
11
23.1831854
21
37.3349324
0
LINE
8
DEFAULT_255_1_234
10
23.1831854
20
37.3349324
11
23.1984458
21
36.8457996
0
LINE
8
DEFAULT_255_1_234
10
23.1984458
20
36.8457996
11
23.1984458
21
36.3904
0
LINE
8
DEFAULT_255_1_234
10
23.1984458
20
36.3904
11
23.0442364
21
36.3904
0
LINE
8
DEFAULT_255_1_234
10
23.0442364
20
36.3904
11
23.0442364
21
37.5598211
0
ENDSEC
0
EOF