0
SECTION
2
HEADER
9
$MEASUREMENT
70
1
0
ENDSEC
0
SECTION
2
TABLES
0
TABLE
2
LTYPE
0
LTYPE
72
65
70
64
2
CONTINUOUS
3
______
73
0
40
0
0
ENDTAB
0
TABLE
2
LAYER
0
LAYER
2
DEFAULT_255_2_778
70
0
62
255
6
CONTINUOUS
0
ENDTAB
0
ENDSEC
0
SECTION
2
ENTITIES
0
ARC
8
DEFAULT_255_2_778
10
1.8489829
20
161.128586
40
0.4201049
50
93.408247
51
119.1879731
0
ARC
8
DEFAULT_255_2_778
10
1.8993976
20
160.9997951
40
0.5574456
50
117.2558033
51
131.832311
0
ARC
8
DEFAULT_255_2_778
10
1.8609661
20
161.0491269
40
0.495075
50
132.3261083
51
146.2538898
0
ARC
8
DEFAULT_255_2_778
10
1.9096744
20
161.0158843
40
0.5540434
50
146.1935604
51
156.6758707
0
ARC
8
DEFAULT_255_2_778
10
1.9680998
20
160.9948056
40
0.6160515
50
157.0270951
51
164.5859092
0
ARC
8
DEFAULT_255_2_778
10
2.1632179
20
160.9432804
40
0.8178492
50
164.7392774
51
169.6120835
0
ARC
8
DEFAULT_255_2_778
10
2.8412206
20
160.8115718
40
1.5085054
50
169.3348939
51
169.6400828
0
ARC
8
DEFAULT_255_2_778
10
3.0272846
20
160.8011318
40
1.6935723
50
170.424663
51
176.2143601
0
LINE
8
DEFAULT_255_2_778
10
23.2653076
20
161.5482479
11
1.8690076
21
161.5482479
0
LINE
8
DEFAULT_255_2_778
10
1.8690076
20
161.5482479
11
1.8240076
21
161.5479479
0
LINE
8
DEFAULT_255_2_778
10
1.3374076
20
160.9129479
11
1.3274076
21
160.7005479
0
LINE
8
DEFAULT_255_2_778
10
1.3274076
20
160.7005479
11
1.3263076
21
160.5600479
0
LINE
8
DEFAULT_255_2_778
10
1.3263076
20
160.5600479
11
1.3263076
21
160.5105479
0
ARC
8
DEFAULT_255_2_778
10
22.4106104
20
160.8721069
40
1.3845113
50
4.3883345
51
8.3330273
0
ARC
8
DEFAULT_255_2_778
10
23.1607738
20
160.979505
40
0.6267078
50
8.5574175
51
21.7507849
0
ARC
8
DEFAULT_255_2_778
10
23.1772276
20
160.9916496
40
0.6069471
50
21.2615406
51
32.9468393
0
ARC
8
DEFAULT_255_2_778
10
23.2810817
20
161.0559076
40
0.4848546
50
33.2491628
51
50.0582012
0
ARC
8
DEFAULT_255_2_778
10
23.2490664
20
161.0083998
40
0.5418656
50
50.6878239
51
68.4088201
0
ARC
8
DEFAULT_255_2_778
10
23.2719758
20
161.1069185
40
0.4420821
50
66.4707216
51
87.3957441
0
LINE
8
DEFAULT_255_2_778
10
23.8085628
20
160.5105442
11
23.8090628
21
160.5648442
0
LINE
8
DEFAULT_255_2_778
10
23.8090628
20
160.5648442
11
23.8042628
21
160.7836442
0
LINE
8
DEFAULT_255_2_778
10
23.8042628
20
160.7836442
11
23.7910628
21
160.9780442
0
LINE
8
DEFAULT_255_2_778
10
1.1932628
20
201.3950442
11
7.2659628
21
201.3950442
0
LINE
8
DEFAULT_255_2_778
10
7.2659628
20
201.3950442
11
7.2659628
21
197.8451442
0
LINE
8
DEFAULT_255_2_778
10
7.2659628
20
197.8451442
11
8.0660628
21
197.8451442
0
LINE
8
DEFAULT_255_2_778
10
8.0660628
20
197.8451442
11
8.0660628
21
199.0614442
0
LINE
8
DEFAULT_255_2_778
10
8.0660628
20
199.0614442
11
17.0661628
21
199.0614442
0
LINE
8
DEFAULT_255_2_778
10
17.0661628
20
199.0614442
11
17.0661628
21
197.8451442
0
LINE
8
DEFAULT_255_2_778
10
17.0661628
20
197.8451442
11
17.8662628
21
197.8451442
0
LINE
8
DEFAULT_255_2_778
10
17.8662628
20
197.8451442
11
17.8662628
21
201.3950442
0
LINE
8
DEFAULT_255_2_778
10
17.8662628
20
201.3950442
11
23.9421628
21
201.3950442
0
LINE
8
DEFAULT_255_2_778
10
16.9608628
20
201.8842442
11
16.9608628
21
201.7450442
0
ARC
8
DEFAULT_255_2_778
10
1.8971246
20
157.5313471
40
0.4846725
50
174.3878428
51
179.9988716
0
ARC
8
DEFAULT_255_2_778
10
1.896447
20
157.5313303
40
0.4839948
50
179.9968812
51
220.6021405
0
ARC
8
DEFAULT_255_2_778
10
1.8966802
20
157.5314096
40
0.4842235
50
220.5912993
51
266.7911375
0
ARC
8
DEFAULT_255_2_778
10
23.2377097
20
157.5313664
40
0.4838843
50
273.2183241
51
319.3029692
0
ARC
8
DEFAULT_255_2_778
10
23.2376639
20
157.5316917
40
0.4841312
50
319.2773054
51
359.9900339
0
ARC
8
DEFAULT_255_2_778
10
23.2378976
20
157.5316031
40
0.4838975
50
0.0005215
51
5.3647189
0
ARC
8
DEFAULT_255_2_778
10
1.6502815
20
160.0494361
40
0.6350068
50
180.0160774
51
180.0803824
0
ARC
8
DEFAULT_255_2_778
10
1.5141212
20
160.0489759
40
0.4988465
50
109.9303907
51
179.9676146
0
ARC
8
DEFAULT_255_2_778
10
23.619811
20
160.0488033
40
0.4993651
50
0.053925
51
68.4449373
0
ARC
8
DEFAULT_255_2_778
10
23.4566482
20
160.0494553
40
0.6625277
50
359.9212959
51
359.9842583
0
LINE
8
DEFAULT_255_2_778
10
8.1708753
20
201.8842452
11
8.1708753
21
201.7450452
0
LINE
8
DEFAULT_255_2_778
10
1.4147753
20
161.2654452
11
1.4147753
21
157.5787452
0
LINE
8
DEFAULT_255_2_778
10
23.7196753
20
157.5768452
11
23.7196753
21
161.2646452
0
LINE
8
DEFAULT_255_2_778
10
24.1209753
20
157.5477452
11
24.1191753
21
160.0485452
0
LINE
8
DEFAULT_255_2_778
10
1.0133753
20
157.5477452
11
1.0152753
21
160.0485452
0
ARC
8
DEFAULT_255_2_778
10
23.6193294
20
157.5483426
40
0.5018512
50
348.8339054
51
359.9674159
0
ARC
8
DEFAULT_255_2_778
10
23.6211158
20
157.548358
40
0.5001017
50
270.0027031
51
348.7925466
0
ARC
8
DEFAULT_255_2_778
10
23.6208748
20
157.398679
40
0.350423
50
269.8701305
51
270.0432621
0
ARC
8
DEFAULT_255_2_778
10
1.513417
20
157.3920441
40
0.3437882
50
269.9465249
51
270.160581
0
ARC
8
DEFAULT_255_2_778
10
1.5124441
20
157.5472605
40
0.4990053
50
191.1039534
51
270.0748659
0
ARC
8
DEFAULT_255_2_778
10
1.5247079
20
157.549282
40
0.5114289
50
180.1372147
51
191.0615853
0
ARC
8
DEFAULT_255_2_778
10
23.8649736
20
156.8646632
40
0.0160321
50
277.1912946
51
330.3124334
0
ARC
8
DEFAULT_255_2_778
10
23.8445425
20
156.8824616
40
0.0429303
50
323.1627606
51
324.2558345
0
ARC
8
DEFAULT_255_2_778
10
23.7382673
20
156.9423765
40
0.1647373
50
328.9401981
51
346.9708714
0
ARC
8
DEFAULT_255_2_778
10
22.9751057
20
157.1517981
40
0.956
50
345.0539726
51
350.7517979
0
ARC
8
DEFAULT_255_2_778
10
21.0129831
20
157.4880664
40
2.9467067
50
350.429775
51
353.091203
0
ARC
8
DEFAULT_255_2_778
10
19.1397713
20
157.7305272
40
4.8355068
50
352.9090491
51
353.181781
0
LINE
8
DEFAULT_255_2_778
10
5.5667805
20
157.0482572
11
5.5667805
21
156.7889572
0
LINE
8
DEFAULT_255_2_778
10
5.5667805
20
156.7889572
11
19.5671805
21
156.7889572
0
LINE
8
DEFAULT_255_2_778
10
19.5671805
20
156.7889572
11
19.5671805
21
156.8487572
0
LINE
8
DEFAULT_255_2_778
10
19.5671805
20
156.8487572
11
23.8669805
21
156.8487572
0
LINE
8
DEFAULT_255_2_778
10
5.5672805
20
161.5485572
11
5.5670805
21
162.5486572
0
LINE
8
DEFAULT_255_2_778
10
5.5670805
20
162.5486572
11
5.5670805
21
161.5485572
0
LINE
8
DEFAULT_255_2_778
10
5.5670805
20
161.5485572
11
0.2671805
21
161.5485572
0
LINE
8
DEFAULT_255_2_778
10
0.2671805
20
161.5485572
11
0.2671805
21
162.5486572
0
LINE
8
DEFAULT_255_2_778
10
0.2671805
20
162.5486572
11
5.5670805
21
162.5486572
0
ARC
8
DEFAULT_255_2_778
10
1.2690708
20
156.8646491
40
0.0160321
50
209.6875666
51
262.8087054
0
ARC
8
DEFAULT_255_2_778
10
1.2895019
20
156.8824474
40
0.0429303
50
215.7441655
51
216.8372394
0
ARC
8
DEFAULT_255_2_778
10
1.3957772
20
156.9423623
40
0.1647373
50
193.0291286
51
211.0598019
0
ARC
8
DEFAULT_255_2_778
10
2.1589387
20
157.1517839
40
0.956
50
189.2482021
51
194.9460274
0
ARC
8
DEFAULT_255_2_778
10
4.1210613
20
157.4880523
40
2.9467067
50
186.908797
51
189.570225
0
ARC
8
DEFAULT_255_2_778
10
5.9942731
20
157.730513
40
4.8355068
50
186.818219
51
187.0909509
0
ARC
8
DEFAULT_255_2_778
10
12.4916449
20
280.9440257
40
2.5004852
50
346.8401334
51
0.0000923
0
ARC
8
DEFAULT_255_2_778
10
12.4824464
20
280.9440297
40
2.5096836
50
1e-7
51
0.1446679
0
ARC
8
DEFAULT_255_2_778
10
12.4928713
20
280.9440764
40
2.4992585
50
0.1441996
51
12.2565626
0
LINE
8
DEFAULT_255_2_778
10
5.5670639
20
156.8487431
11
1.2670639
21
156.8487431
0
LINE
8
DEFAULT_255_2_778
10
1.2670639
20
156.8487431
11
1.2670639
21
156.8487431
0
LINE
8
DEFAULT_255_2_778
10
19.5672639
20
157.0482431
11
19.5672639
21
156.8487431
0
LINE
8
DEFAULT_255_2_778
10
19.5669639
20
157.0482431
11
19.5669639
21
156.7889431
0
LINE
8
DEFAULT_255_2_778
10
1.0281639
20
160.1110431
11
0.9834639
21
161.4866431
0
LINE
8
DEFAULT_255_2_778
10
24.1506639
20
161.4866431
11
24.1059639
21
160.1110431
0
LINE
8
DEFAULT_255_2_778
10
19.5672639
20
162.5486431
11
24.8671639
21
162.5486431
0
LINE
8
DEFAULT_255_2_778
10
24.8671639
20
162.5486431
11
24.8671639
21
161.5485431
0
LINE
8
DEFAULT_255_2_778
10
24.8671639
20
161.5485431
11
19.5672639
21
161.5485431
0
LINE
8
DEFAULT_255_2_778
10
19.5672639
20
161.5485431
11
19.5672639
21
162.5486431
0
LINE
8
DEFAULT_255_2_778
10
19.5672639
20
162.5486431
11
19.5669639
21
161.5485431
0
LINE
8
DEFAULT_255_2_778
10
1.1932639
20
162.6854431
11
23.9421639
21
162.6854431
0
LINE
8
DEFAULT_255_2_778
10
23.9421639
20
162.6854431
11
23.9421639
21
168.3816431
0
LINE
8
DEFAULT_255_2_778
10
23.9421639
20
168.3816431
11
1.1932639
21
168.3816431
0
ARC
8
DEFAULT_255_2_778
10
23.4491937
20
288.2464472
40
1.4930457
50
359.9175338
51
29.8647018
0
ARC
8
DEFAULT_255_2_778
10
23.4416804
20
288.2432836
40
1.5011369
50
29.826618
51
82.1278321
0
ARC
8
DEFAULT_255_2_778
10
23.4424516
20
288.2306873
40
1.513511
50
82.2220605
51
90.015662
0
ARC
8
DEFAULT_255_2_778
10
1.6908893
20
288.2510491
40
1.4931507
50
89.9175555
51
119.8594812
0
ARC
8
DEFAULT_255_2_778
10
1.6939098
20
288.2437362
40
1.500997
50
119.820494
51
172.1202577
0
ARC
8
DEFAULT_255_2_778
10
1.7064812
20
288.2445268
40
1.5133435
50
172.2151554
51
180.0086523
0
ARC
8
DEFAULT_255_2_778
10
0.2111278
20
162.6251165
40
0.0465025
50
87.2138192
51
112.7592512
0
ARC
8
DEFAULT_255_2_778
10
0.3127761
20
161.4121854
40
1.2632941
50
92.2899759
51
94.5123263
0
ARC
8
DEFAULT_255_2_778
10
0.5025773
20
156.9889877
40
5.690558
50
91.3749448
51
92.4199818
0
ARC
8
DEFAULT_255_2_778
10
0.7650952
20
146.6391831
40
16.0436879
50
90.8659211
51
91.4252944
0
ARC
8
DEFAULT_255_2_778
10
1.0123493
20
130.7777073
40
31.9070898
50
90.4809576
51
90.8794207
0
ARC
8
DEFAULT_255_2_778
10
1.167842
20
112.7119443
40
49.9735217
50
90.107671
51
90.4853599
0
ARC
8
DEFAULT_255_2_778
10
1.1927739
20
104.1307499
40
58.5547484
50
89.999546
51
90.1162876
0
LINE
8
DEFAULT_255_2_778
10
23.9421378
20
162.6854982
11
24.9422378
21
162.6679982
0
LINE
8
DEFAULT_255_2_778
10
24.9422378
20
162.6679982
11
24.9422378
21
288.2442982
0
LINE
8
DEFAULT_255_2_778
10
23.4420378
20
289.7441982
11
1.6930378
21
289.7441982
0
LINE
8
DEFAULT_255_2_778
10
0.1931378
20
288.2442982
11
0.1931378
21
162.6679982
0
LINE
8
DEFAULT_255_2_778
10
0.1931378
20
162.6679982
11
0.1931378
21
162.6679982
0
LINE
8
DEFAULT_255_2_778
10
1.1932378
20
162.6854982
11
1.1932378
21
201.8818982
0
LINE
8
DEFAULT_255_2_778
10
1.1932378
20
201.8818982
11
1.2009378
21
201.8818982
0
LINE
8
DEFAULT_255_2_778
10
1.2009378
20
201.8818982
11
1.2009378
21
201.8842982
0
LINE
8
DEFAULT_255_2_778
10
1.2009378
20
201.8842982
11
23.9421378
21
201.8842982
0
LINE
8
DEFAULT_255_2_778
10
23.9421378
20
201.8842982
11
23.9421378
21
168.3818982
0
ARC
8
DEFAULT_255_2_778
10
24.3976883
20
271.7162517
40
3.0978692
50
90.3553636
51
92.7442259
0
ARC
8
DEFAULT_255_2_778
10
24.3898772
20
273.9016741
40
0.9124584
50
81.314375
51
90.7160218
0
ARC
8
DEFAULT_255_2_778
10
24.4965105
20
274.5032712
40
0.3020088
50
38.0389847
51
84.0779929
0
ARC
8
DEFAULT_255_2_778
10
24.4430198
20
274.4841126
40
0.3563915
50
13.4268815
51
35.1646058
0
ARC
8
DEFAULT_255_2_778
10
24.1893959
20
274.4178909
40
0.6184847
50
0.0399427
51
13.9381824
0
ARC
8
DEFAULT_255_2_778
10
24.2006288
20
274.4183222
40
0.6072517
50
359.6646757
51
359.9999807
0
ARC
8
DEFAULT_255_2_778
10
24.186361
20
274.4111383
40
0.6215197
50
359.996893
51
0.334642
0
ARC
8
DEFAULT_255_2_778
10
24.1870112
20
274.4108276
40
0.6208697
50
346.1656798
51
0.0255577
0
ARC
8
DEFAULT_255_2_778
10
24.4375875
20
274.3463158
40
0.3621467
50
325.0909699
51
346.5966167
0
ARC
8
DEFAULT_255_2_778
10
24.4961583
20
274.3248223
40
0.3022329
50
276.0419122
51
322.0767455
0
ARC
8
DEFAULT_255_2_778
10
24.3901468
20
274.9265262
40
0.9127237
50
269.2762174
51
278.6850101
0
ARC
8
DEFAULT_255_2_778
10
24.3975022
20
277.0971075
40
3.08329
50
267.2499711
51
269.6490659
0
ARC
8
DEFAULT_255_2_778
10
0.737252
20
277.1116849
40
3.0978692
50
270.3553636
51
272.7442259
0
ARC
8
DEFAULT_255_2_778
10
0.745063
20
274.9262625
40
0.9124584
50
261.314375
51
270.7160218
0
ARC
8
DEFAULT_255_2_778
10
0.6384298
20
274.3246654
40
0.3020088
50
218.0389847
51
264.0779929
0
ARC
8
DEFAULT_255_2_778
10
0.6919242
20
274.3438258
40
0.3563956
50
193.4270309
51
215.1645054
0
ARC
8
DEFAULT_255_2_778
10
0.9455443
20
274.4100457
40
0.6184847
50
180.0399427
51
193.9381824
0
ARC
8
DEFAULT_255_2_778
10
0.9343114
20
274.4096144
40
0.6072517
50
179.6646757
51
179.9999807
0
ARC
8
DEFAULT_255_2_778
10
0.9510471
20
274.4168056
40
0.6239876
50
179.9968972
51
180.3339839
0
ARC
8
DEFAULT_255_2_778
10
0.9472974
20
274.4171854
40
0.6202381
50
166.1585846
51
180.0319685
0
ARC
8
DEFAULT_255_2_778
10
0.6973573
20
274.4816182
40
0.3621517
50
145.0910437
51
166.5963862
0
ARC
8
DEFAULT_255_2_778
10
0.6386699
20
274.5033158
40
0.3020207
50
96.0247992
51
142.0938272
0
ARC
8
DEFAULT_255_2_778
10
0.7447868
20
273.9014874
40
0.9126466
50
89.2768201
51
98.6853288
0
ARC
8
DEFAULT_255_2_778
10
0.7374691
20
271.7361199
40
3.0779991
50
87.2476821
51
89.6493601
0
ARC
8
DEFAULT_255_2_778
10
1.6862131
20
1.2419129
40
1.4930445
50
179.9172873
51
209.8171141
0
ARC
8
DEFAULT_255_2_778
10
1.6937402
20
1.2451217
40
1.5011709
50
209.7805207
51
262.1113798
0
ARC
8
DEFAULT_255_2_778
10
1.6930235
20
1.2579288
40
1.5137604
50
262.2047816
51
270.0017668
0
ARC
8
DEFAULT_255_2_778
10
23.4419006
20
1.2443283
40
1.50036
50
270.0064728
51
315.0029563
0
ARC
8
DEFAULT_255_2_778
10
23.4409981
20
1.2444325
40
1.501072
50
315.0245023
51
359.9975497
0
LINE
8
DEFAULT_255_2_778
10
1.1930701
20
274.8012683
11
23.9418701
21
274.8012683
0
LINE
8
DEFAULT_255_2_778
10
23.9418701
20
274.8012683
11
24.2493701
21
274.8105683
0
LINE
8
DEFAULT_255_2_778
10
24.2495701
20
274.0173683
11
23.9416701
21
274.0265683
0
LINE
8
DEFAULT_255_2_778
10
23.9416701
20
274.0265683
11
1.1930701
21
274.0265683
0
LINE
8
DEFAULT_255_2_778
10
1.1930701
20
274.0265683
11
0.8855701
21
274.0173683
0
LINE
8
DEFAULT_255_2_778
10
0.8852701
20
274.8105683
11
1.1932701
21
274.8012683
0
LINE
8
DEFAULT_255_2_778
10
24.8671701
20
161.8379683
11
24.9420701
21
161.8379683
0
LINE
8
DEFAULT_255_2_778
10
24.9420701
20
161.8379683
11
24.9420701
21
162.6679683
0
LINE
8
DEFAULT_255_2_778
10
0.1931701
20
162.6679683
11
0.1931701
21
161.6747683
0
LINE
8
DEFAULT_255_2_778
10
0.1931701
20
161.6747683
11
0.2672701
21
161.6747683
0
LINE
8
DEFAULT_255_2_778
10
22.9430701
20
201.3952683
11
22.9430701
21
201.8842683
0
LINE
8
DEFAULT_255_2_778
10
2.1830701
20
201.3952683
11
2.1830701
21
201.8842683
0
LINE
8
DEFAULT_255_2_778
10
7.4731701
20
201.8842683
11
7.4731701
21
198.1843683
0
LINE
8
DEFAULT_255_2_778
10
7.4731701
20
198.1843683
11
8.0658701
21
198.1843683
0
LINE
8
DEFAULT_255_2_778
10
0.1931701
20
161.6744683
11
0.1931701
21
1.2440683
0
LINE
8
DEFAULT_255_2_778
10
1.6930701
20
-0.2558317
11
1.6920701
21
-0.2560317
0
LINE
8
DEFAULT_255_2_778
10
1.6920701
20
-0.2560317
11
23.4420701
21
-0.2560317
0
LINE
8
DEFAULT_255_2_778
10
24.9420701
20
1.2443683
11
24.9420701
21
161.8377683
0
LINE
8
DEFAULT_255_2_778
10
24.9422502
20
1.2440701
11
24.9422502
21
1.2438701
0
LINE
8
DEFAULT_255_2_778
10
8.4335502
20
200.3697701
11
8.4195502
21
199.4151701
0
ARC
8
DEFAULT_255_2_778
10
11.1931013
20
210.3791987
40
0.5753378
50
90.003763
51
179.996237
0
ARC
8
DEFAULT_255_2_778
10
11.1931044
20
210.3791774
40
0.575359
50
0.0058797
51
90.0040688
0
ARC
8
DEFAULT_255_2_778
10
11.1930832
20
210.3792168
40
0.5753803
50
269.9980424
51
0.0019576
0
ARC
8
DEFAULT_255_2_778
10
11.1931225
20
210.3791953
40
0.5753589
50
179.9959022
51
269.9941323
0
LINE
8
DEFAULT_255_2_778
10
10.6177636
20
210.3792364
11
10.6177636
21
210.3792364
0
ARC
8
DEFAULT_255_2_778
10
11.1931013
20
235.3825987
40
0.5753378
50
90.003763
51
179.996237
0
ARC
8
DEFAULT_255_2_778
10
11.1931044
20
235.3825774
40
0.575359
50
0.0058797
51
90.0040688
0
ARC
8
DEFAULT_255_2_778
10
11.1930832
20
235.3826168
40
0.5753803
50
269.9980424
51
0.0019576
0
ARC
8
DEFAULT_255_2_778
10
11.1931225
20
235.3825953
40
0.5753589
50
179.9959022
51
269.9941323
0
LINE
8
DEFAULT_255_2_778
10
10.6177636
20
235.3826364
11
10.6177636
21
235.3826364
0
ARC
8
DEFAULT_255_2_778
10
9.2919066
20
201.6026288
40
1.2261353
50
175.1663801
51
180.364745
0
ARC
8
DEFAULT_255_2_778
10
8.1707234
20
201.7055113
40
0.1005925
50
157.3767738
51
179.7523553
0
ARC
8
DEFAULT_255_2_778
10
8.0792096
20
201.7430736
40
0.0017533
50
93.7112752
51
139.7665839
0
ARC
8
DEFAULT_255_2_778
10
17.0208712
20
201.7217441
40
0.0394746
50
356.4115073
51
35.7787745
0
ARC
8
DEFAULT_255_2_778
10
16.185421
20
201.6202761
40
0.8804308
50
0.7887774
51
6.4560986
0
ARC
8
DEFAULT_255_2_778
10
15.4430612
20
201.5951316
40
1.623135
50
359.989115
51
1.3155438
0
ARC
8
DEFAULT_255_2_778
10
17.5904469
20
162.3251573
40
0.0427133
50
240.9341357
51
272.9987008
0
ARC
8
DEFAULT_255_2_778
10
17.7270069
20
163.5998759
40
1.324204
50
264.1779767
51
267.2887389
0
ARC
8
DEFAULT_255_2_778
10
17.9851433
20
168.3938325
40
6.1250836
50
266.9980071
51
268.1120304
0
ARC
8
DEFAULT_255_2_778
10
18.2981926
20
177.4092051
40
15.145884
50
268.052014
51
268.5778417
0
ARC
8
DEFAULT_255_2_778
10
18.6612929
20
192.0035525
40
29.7447474
50
268.5763501
51
269.0133618
0
ARC
8
DEFAULT_255_2_778
10
19.050527
20
214.2261442
40
51.9707471
50
269.0061734
51
269.3324652
0
ARC
8
DEFAULT_255_2_778
10
19.3611984
20
240.5258147
40
78.2722523
50
269.3293554
51
269.6116421
0
ARC
8
DEFAULT_255_2_778
10
19.5183788
20
262.6073737
40
100.3543697
50
269.6073565
51
269.8106456
0
ARC
8
DEFAULT_255_2_778
10
19.5649514
20
276.0390896
40
113.7861663
50
269.8095466
51
270.0011807
0
ARC
8
DEFAULT_255_2_778
10
12.4898845
20
280.9476388
40
3.2476899
50
162.1309283
51
180.0567286
0
ARC
8
DEFAULT_255_2_778
10
12.4969748
20
280.9392799
40
3.2570082
50
105.7677879
51
162.0292494
0
ARC
8
DEFAULT_255_2_778
10
12.4893939
20
280.9416537
40
3.2526704
50
89.9524005
51
105.650638
0
ARC
8
DEFAULT_255_2_778
10
12.4953069
20
280.9469081
40
3.2474167
50
72.1301696
51
90.0566484
0
ARC
8
DEFAULT_255_2_778
10
12.4868416
20
280.9395569
40
3.257016
50
15.767522
51
72.0281184
0
ARC
8
DEFAULT_255_2_778
10
12.4892059
20
280.947124
40
3.2526912
50
359.9524258
51
15.6505614
0
ARC
8
DEFAULT_255_2_778
10
12.4943636
20
280.9412191
40
3.2475342
50
342.1305328
51
0.0565298
0
ARC
8
DEFAULT_255_2_778
10
12.4870101
20
280.9496482
40
3.2571245
50
285.770217
51
342.0291022
0
ARC
8
DEFAULT_255_2_778
10
12.4947924
20
280.9467328
40
3.2522107
50
269.9524984
51
285.6522326
0
ARC
8
DEFAULT_255_2_778
10
12.4888847
20
280.942056
40
3.2475343
50
252.1299684
51
270.0566595
0
ARC
8
DEFAULT_255_2_778
10
12.4973467
20
280.9494039
40
3.2571295
50
195.7684066
51
252.0279588
0
ARC
8
DEFAULT_255_2_778
10
12.4946632
20
280.9417283
40
3.252468
50
179.9525254
51
195.6511274
0
LINE
8
DEFAULT_255_2_778
10
12.9931961
20
231.6295232
11
12.9931961
21
229.1321232
0
LINE
8
DEFAULT_255_2_778
10
9.3932961
20
254.1294232
11
9.3932961
21
256.6295232
0
LINE
8
DEFAULT_255_2_778
10
16.7917961
20
200.8498232
11
16.6978961
21
200.3698232
0
LINE
8
DEFAULT_255_2_778
10
16.6978961
20
200.3698232
11
14.3155961
21
200.3698232
0
LINE
8
DEFAULT_255_2_778
10
14.3155961
20
200.3698232
11
14.3155961
21
200.8328232
0
LINE
8
DEFAULT_255_2_778
10
14.3155961
20
200.8328232
11
10.8156961
21
200.8328232
0
LINE
8
DEFAULT_255_2_778
10
10.8156961
20
200.8328232
11
10.8156961
21
200.3698232
0
LINE
8
DEFAULT_255_2_778
10
10.8156961
20
200.3698232
11
8.4333961
21
200.3698232
0
LINE
8
DEFAULT_255_2_778
10
8.4333961
20
200.3698232
11
8.3393961
21
200.8498232
0
LINE
8
DEFAULT_255_2_778
10
17.0658961
20
199.0614232
11
16.7121961
21
199.4152232
0
LINE
8
DEFAULT_255_2_778
10
16.7121961
20
199.4152232
11
14.3157961
21
199.4152232
0
LINE
8
DEFAULT_255_2_778
10
14.3157961
20
199.4152232
11
14.3157961
21
199.2803232
0
LINE
8
DEFAULT_255_2_778
10
14.3157961
20
199.2803232
11
10.8158961
21
199.2803232
0
LINE
8
DEFAULT_255_2_778
10
10.8158961
20
199.2803232
11
10.8158961
21
199.4152232
0
LINE
8
DEFAULT_255_2_778
10
10.8158961
20
199.4152232
11
8.4195961
21
199.4152232
0
LINE
8
DEFAULT_255_2_778
10
8.4195961
20
199.4152232
11
8.0657961
21
199.0614232
0
LINE
8
DEFAULT_255_2_778
10
17.0658961
20
201.5948232
11
17.0658961
21
200.8498232
0
LINE
8
DEFAULT_255_2_778
10
17.0658961
20
200.8498232
11
8.0657961
21
200.8498232
0
LINE
8
DEFAULT_255_2_778
10
8.0657961
20
200.8498232
11
8.0657961
21
201.5948232
0
LINE
8
DEFAULT_255_2_778
10
8.0790961
20
201.7448232
11
17.0528961
21
201.7448232
0
LINE
8
DEFAULT_255_2_778
10
17.0528961
20
201.7448232
11
17.0528961
21
201.7448232
0
LINE
8
DEFAULT_255_2_778
10
7.5670961
20
162.5487232
11
17.5669961
21
162.5487232
0
LINE
8
DEFAULT_255_2_778
10
5.5670961
20
162.2529232
11
7.5646961
21
162.2878232
0
LINE
8
DEFAULT_255_2_778
10
7.5646961
20
162.2878232
11
7.5670961
21
162.5487232
0
LINE
8
DEFAULT_255_2_778
10
7.5670961
20
162.5487232
11
7.5670961
21
161.5486232
0
LINE
8
DEFAULT_255_2_778
10
7.5670961
20
161.5486232
11
7.5673961
21
161.5486232
0
LINE
8
DEFAULT_255_2_778
10
7.5673961
20
161.5486232
11
17.5669961
21
161.5486232
0
LINE
8
DEFAULT_255_2_778
10
17.5669961
20
161.5486232
11
17.5672961
21
161.5486232
0
LINE
8
DEFAULT_255_2_778
10
17.5672961
20
161.5486232
11
17.5672961
21
162.5487232
0
LINE
8
DEFAULT_255_2_778
10
17.5672961
20
162.5487232
11
17.5696961
21
162.2878232
0
LINE
8
DEFAULT_255_2_778
10
19.5672961
20
162.2529232
11
19.5672961
21
162.2529232
0
LINE
8
DEFAULT_255_2_778
10
23.6198961
20
157.0483232
11
1.5144961
21
157.0483232
0
LINE
8
DEFAULT_255_2_778
10
9.2421961
20
280.9444232
11
9.2421961
21
280.9444232
0
ARC
8
DEFAULT_255_2_778
10
12.4911617
20
280.9440164
40
2.4989911
50
167.7427847
51
179.8509919
0
ARC
8
DEFAULT_255_2_778
10
12.5284128
20
280.9439103
40
2.5362423
50
179.8507833
51
179.9982444
0
ARC
8
DEFAULT_255_2_778
10
12.4923688
20
280.9440036
40
2.5001982
50
180.0003559
51
193.1606238
0
ARC
8
DEFAULT_255_2_778
10
12.49806
20
280.9457098
40
2.493796
50
12.2433329
51
36.816885
0
ARC
8
DEFAULT_255_2_778
10
12.4915521
20
280.9413607
40
2.5016122
50
36.8073057
51
82.2669789
0
ARC
8
DEFAULT_255_2_778
10
12.4925617
20
280.9321423
40
2.5106118
50
82.3181188
51
90.0097016
0
ARC
8
DEFAULT_255_2_778
10
12.4902951
20
280.9488089
40
2.4939458
50
89.9576934
51
114.5295531
0
ARC
8
DEFAULT_255_2_778
10
12.4930487
20
280.9417103
40
2.5015469
50
114.5194281
51
159.9803679
0
ARC
8
DEFAULT_255_2_778
10
12.5022017
20
280.9407787
40
2.5104669
50
160.0319039
51
167.7240658
0
ARC
8
DEFAULT_255_2_778
10
12.4977802
20
280.9422917
40
2.4940872
50
321.9724726
51
346.8469381
0
ARC
8
DEFAULT_255_2_778
10
12.4916722
20
280.9463793
40
2.5014168
50
277.5501836
51
321.9849077
0
ARC
8
DEFAULT_255_2_778
10
12.4925343
20
280.9555171
40
2.5103631
50
269.9909232
51
277.5032734
0
ARC
8
DEFAULT_255_2_778
10
12.4903756
20
280.9393412
40
2.4941877
50
245.1674917
51
270.0404551
0
ARC
8
DEFAULT_255_2_778
10
12.4928796
20
280.9460908
40
2.5013649
50
200.7444655
51
245.1803663
0
ARC
8
DEFAULT_255_2_778
10
12.502033
20
280.947343
40
2.5103693
50
193.1846198
51
200.6971961
0
LINE
8
DEFAULT_255_2_778
10
14.0334366
20
281.4745541
11
14.9351366
21
281.4745541
0
LINE
8
DEFAULT_255_2_778
10
10.0491366
20
281.4745541
11
14.0334366
21
281.4745541
0
LINE
8
DEFAULT_255_2_778
10
10.9648366
20
280.3747541
11
14.0194366
21
280.3747541
0
LINE
8
DEFAULT_255_2_778
10
14.0194366
20
280.3747541
11
14.9264366
21
280.3747541
0
LINE
8
DEFAULT_255_2_778
10
10.0578366
20
280.3747541
11
10.9648366
21
280.3747541
0
LINE
8
DEFAULT_255_2_778
10
7.2921366
20
278.3940541
11
7.2921366
21
283.4941541
0
LINE
8
DEFAULT_255_2_778
10
7.2921366
20
283.4941541
11
2.1920366
21
283.4941541
0
LINE
8
DEFAULT_255_2_778
10
2.1920366
20
283.4941541
11
2.1920366
21
278.3940541
0
LINE
8
DEFAULT_255_2_778
10
2.1920366
20
278.3940541
11
7.2921366
21
278.3940541
0
ARC
8
DEFAULT_255_2_778
10
4.694702
20
280.9572353
40
0.6528379
50
180.0007964
51
181.1451998
0
ARC
8
DEFAULT_255_2_778
10
4.6920815
20
280.9571815
40
0.6502173
50
120.3852044
51
179.9960512
0
ARC
8
DEFAULT_255_2_778
10
4.6918628
20
280.9580881
40
0.6493245
50
89.9883795
51
120.4090243
0
ARC
8
DEFAULT_255_2_778
10
4.6921262
20
280.9580881
40
0.6493245
50
59.5909757
51
90.0116205
0
ARC
8
DEFAULT_255_2_778
10
4.6918856
20
280.9572785
40
0.6501445
50
0.0180791
51
59.6088053
0
ARC
8
DEFAULT_255_2_778
10
4.6911104
20
280.9574734
40
0.6509198
50
358.8304661
51
0.0009036
0
ARC
8
DEFAULT_255_2_778
10
4.6911104
20
280.9309018
40
0.6509197
50
359.9990964
51
1.1695339
0
ARC
8
DEFAULT_255_2_778
10
4.6918856
20
280.9310967
40
0.6501446
50
300.3911947
51
359.9819209
0
ARC
8
DEFAULT_255_2_778
10
4.6921407
20
280.9307807
40
0.6497429
50
269.987109
51
300.3858909
0
ARC
8
DEFAULT_255_2_778
10
4.6918483
20
280.9307807
40
0.6497431
50
239.6141091
51
270.012891
0
ARC
8
DEFAULT_255_2_778
10
4.6920815
20
280.9311938
40
0.6502172
50
180.0039488
51
239.6147956
0
ARC
8
DEFAULT_255_2_778
10
4.694702
20
280.9311399
40
0.6528378
50
178.8548002
51
179.9992036
0
LINE
8
DEFAULT_255_2_778
10
4.0419945
20
280.9441876
11
4.0419945
21
280.9441876
0
LINE
8
DEFAULT_255_2_778
10
16.6980945
20
200.3697876
11
16.6980945
21
199.4151876
0
LINE
8
DEFAULT_255_2_778
10
10.8158945
20
200.3697876
11
10.8158945
21
199.4151876
0
LINE
8
DEFAULT_255_2_778
10
10.8158945
20
201.8842876
11
10.8158945
21
201.7450876
0
LINE
8
DEFAULT_255_2_778
10
14.3157945
20
200.3697876
11
14.3157945
21
199.4151876
0
LINE
8
DEFAULT_255_2_778
10
14.3157945
20
201.8842876
11
14.3157945
21
201.7450876
0
LINE
8
DEFAULT_255_2_778
10
9.3931945
20
261.6367876
11
9.3931945
21
256.6294876
0
LINE
8
DEFAULT_255_2_778
10
9.3931945
20
256.6294876
11
12.9931945
21
256.6294876
0
LINE
8
DEFAULT_255_2_778
10
12.9931945
20
256.6294876
11
12.9931945
21
259.1361876
0
LINE
8
DEFAULT_255_2_778
10
12.9931945
20
259.1361876
11
9.3931945
21
259.1361876
0
ARC
8
DEFAULT_255_2_778
10
11.1931013
20
215.3798987
40
0.5753378
50
90.003763
51
179.996237
0
ARC
8
DEFAULT_255_2_778
10
11.1931044
20
215.3798774
40
0.575359
50
0.0058797
51
90.0040688
0
ARC
8
DEFAULT_255_2_778
10
11.1930832
20
215.3799168
40
0.5753803
50
269.9980424
51
0.0019576
0
ARC
8
DEFAULT_255_2_778
10
11.1931225
20
215.3798953
40
0.5753589
50
179.9959022
51
269.9941323
0
LINE
8
DEFAULT_255_2_778
10
10.6177636
20
215.3799364
11
10.6177636
21
215.3799364
0
ARC
8
DEFAULT_255_2_778
10
11.1931013
20
220.3804987
40
0.5753378
50
90.003763
51
179.996237
0
ARC
8
DEFAULT_255_2_778
10
11.1931044
20
220.3804774
40
0.575359
50
0.0058797
51
90.0040688
0
ARC
8
DEFAULT_255_2_778
10
11.1930832
20
220.3805168
40
0.5753803
50
269.9980424
51
0.0019576
0
ARC
8
DEFAULT_255_2_778
10
11.1931225
20
220.3804953
40
0.5753589
50
179.9959022
51
269.9941323
0
LINE
8
DEFAULT_255_2_778
10
10.6177636
20
220.3805364
11
10.6177636
21
220.3805364
0
ARC
8
DEFAULT_255_2_778
10
11.1931013
20
260.3862987
40
0.5753378
50
90.003763
51
179.996237
0
ARC
8
DEFAULT_255_2_778
10
11.1931044
20
260.3862774
40
0.575359
50
0.0058797
51
90.0040688
0
ARC
8
DEFAULT_255_2_778
10
11.1930832
20
260.3863168
40
0.5753803
50
269.9980424
51
0.0019576
0
ARC
8
DEFAULT_255_2_778
10
11.1931225
20
260.3862953
40
0.5753589
50
179.9959022
51
269.9941323
0
LINE
8
DEFAULT_255_2_778
10
10.6177636
20
260.3863364
11
10.6177636
21
260.3863364
0
LINE
8
DEFAULT_255_2_778
10
12.9931396
20
259.1361093
11
12.9931396
21
262.3341093
0
LINE
8
DEFAULT_255_2_778
10
12.9931396
20
262.3341093
11
9.3932396
21
262.3341093
0
LINE
8
DEFAULT_255_2_778
10
9.3932396
20
262.3341093
11
9.3932396
21
261.6367093
0
LINE
8
DEFAULT_255_2_778
10
9.3932396
20
261.6367093
11
12.9931396
21
261.6367093
0
ARC
8
DEFAULT_255_2_778
10
11.1931013
20
230.3819987
40
0.5753378
50
90.003763
51
179.996237
0
ARC
8
DEFAULT_255_2_778
10
11.1931044
20
230.3819774
40
0.575359
50
0.0058797
51
90.0040688
0
ARC
8
DEFAULT_255_2_778
10
11.1930832
20
230.3820168
40
0.5753803
50
269.9980424
51
0.0019576
0
ARC
8
DEFAULT_255_2_778
10
11.1931225
20
230.3819953
40
0.5753589
50
179.9959022
51
269.9941323
0
LINE
8
DEFAULT_255_2_778
10
10.6177636
20
230.3820364
11
10.6177636
21
230.3820364
0
ARC
8
DEFAULT_255_2_778
10
11.1931013
20
225.3813987
40
0.5753378
50
90.003763
51
179.996237
0
ARC
8
DEFAULT_255_2_778
10
11.1931044
20
225.3813774
40
0.575359
50
0.0058797
51
90.0040688
0
ARC
8
DEFAULT_255_2_778
10
11.1930832
20
225.3814168
40
0.5753803
50
269.9980424
51
0.0019576
0
ARC
8
DEFAULT_255_2_778
10
11.1931225
20
225.3813953
40
0.5753589
50
179.9959022
51
269.9941323
0
LINE
8
DEFAULT_255_2_778
10
10.6177636
20
225.3814364
11
10.6177636
21
225.3814364
0
LINE
8
DEFAULT_255_2_778
10
12.9931073
20
236.6293568
11
12.9931073
21
234.1324568
0
LINE
8
DEFAULT_255_2_778
10
9.6975073
20
229.1318568
11
9.3932073
21
229.1294568
0
LINE
8
DEFAULT_255_2_778
10
9.3932073
20
229.1294568
11
9.3932073
21
226.6294568
0
LINE
8
DEFAULT_255_2_778
10
9.3932073
20
226.6294568
11
12.9931073
21
226.6294568
0
LINE
8
DEFAULT_255_2_778
10
12.9931073
20
226.6294568
11
12.9931073
21
229.1318568
0
LINE
8
DEFAULT_255_2_778
10
12.9931073
20
229.1318568
11
9.6975073
21
229.1318568
0
LINE
8
DEFAULT_255_2_778
10
9.6975073
20
234.1327568
11
9.4884073
21
234.1327568
0
LINE
8
DEFAULT_255_2_778
10
9.4884073
20
234.1327568
11
9.4884073
21
234.1295568
0
LINE
8
DEFAULT_255_2_778
10
9.4884073
20
234.1295568
11
9.3935073
21
234.1295568
0
LINE
8
DEFAULT_255_2_778
10
9.3935073
20
234.1295568
11
9.3935073
21
231.6295568
0
LINE
8
DEFAULT_255_2_778
10
9.3935073
20
231.6295568
11
12.9934073
21
231.6295568
0
LINE
8
DEFAULT_255_2_778
10
12.9934073
20
231.6295568
11
12.9934073
21
234.1327568
0
LINE
8
DEFAULT_255_2_778
10
12.9934073
20
234.1327568
11
9.6975073
21
234.1327568
0
LINE
8
DEFAULT_255_2_778
10
12.9931073
20
226.6294568
11
12.9931073
21
224.1312568
0
LINE
8
DEFAULT_255_2_778
10
12.9931073
20
221.6293568
11
12.9931073
21
219.1303568
0
LINE
8
DEFAULT_255_2_778
10
9.6975073
20
219.1306568
11
9.3932073
21
219.1295568
0
LINE
8
DEFAULT_255_2_778
10
9.3932073
20
219.1295568
11
9.3932073
21
216.6295568
0
LINE
8
DEFAULT_255_2_778
10
9.3932073
20
216.6295568
11
12.9931073
21
216.6295568
0
LINE
8
DEFAULT_255_2_778
10
12.9931073
20
216.6295568
11
12.9931073
21
219.1306568
0
LINE
8
DEFAULT_255_2_778
10
12.9931073
20
219.1306568
11
9.6975073
21
219.1306568
0
LINE
8
DEFAULT_255_2_778
10
9.6975073
20
224.1312568
11
9.3932073
21
224.1293568
0
LINE
8
DEFAULT_255_2_778
10
9.3932073
20
224.1293568
11
9.3932073
21
221.6293568
0
LINE
8
DEFAULT_255_2_778
10
9.3932073
20
221.6293568
11
12.9931073
21
221.6293568
0
LINE
8
DEFAULT_255_2_778
10
12.9931073
20
221.6293568
11
12.9931073
21
224.1312568
0
LINE
8
DEFAULT_255_2_778
10
12.9931073
20
224.1312568
11
9.6975073
21
224.1312568
0
LINE
8
DEFAULT_255_2_778
10
12.9931073
20
216.6295568
11
12.9931073
21
214.1299568
0
LINE
8
DEFAULT_255_2_778
10
12.9931073
20
211.6294568
11
12.9931073
21
209.1312568
0
LINE
8
DEFAULT_255_2_778
10
9.6975073
20
214.1297568
11
9.3932073
21
214.1294568
0
LINE
8
DEFAULT_255_2_778
10
9.3932073
20
214.1294568
11
9.3932073
21
211.6294568
0
LINE
8
DEFAULT_255_2_778
10
9.3932073
20
211.6294568
11
12.9931073
21
211.6294568
0
LINE
8
DEFAULT_255_2_778
10
12.9931073
20
211.6294568
11
12.9931073
21
214.1297568
0
LINE
8
DEFAULT_255_2_778
10
12.9931073
20
214.1297568
11
9.6975073
21
214.1297568
0
LINE
8
DEFAULT_255_2_778
10
9.3932073
20
208.4340568
11
12.9931073
21
208.4340568
0
LINE
8
DEFAULT_255_2_778
10
12.9931073
20
208.4340568
11
12.9931073
21
209.1312568
0
LINE
8
DEFAULT_255_2_778
10
12.9931073
20
209.1312568
11
9.3932073
21
209.1312568
0
LINE
8
DEFAULT_255_2_778
10
9.3932073
20
209.1312568
11
9.3932073
21
208.4340568
0
LINE
8
DEFAULT_255_2_778
10
12.9931073
20
246.6295568
11
12.9931073
21
244.1342568
0
LINE
8
DEFAULT_255_2_778
10
12.9931073
20
241.6294568
11
12.9931073
21
239.1333568
0
LINE
8
DEFAULT_255_2_778
10
9.6975073
20
239.1333568
11
9.4884073
21
239.1333568
0
LINE
8
DEFAULT_255_2_778
10
9.4884073
20
239.1333568
11
9.4884073
21
239.1294568
0
LINE
8
DEFAULT_255_2_778
10
9.4884073
20
239.1294568
11
9.3935073
21
239.1294568
0
LINE
8
DEFAULT_255_2_778
10
9.3935073
20
239.1294568
11
9.3935073
21
236.6293568
0
LINE
8
DEFAULT_255_2_778
10
9.3935073
20
236.6293568
11
12.9934073
21
236.6293568
0
LINE
8
DEFAULT_255_2_778
10
12.9934073
20
236.6293568
11
12.9934073
21
239.1333568
0
LINE
8
DEFAULT_255_2_778
10
12.9934073
20
239.1333568
11
9.6975073
21
239.1333568
0
LINE
8
DEFAULT_255_2_778
10
9.6975073
20
244.1340568
11
9.4884073
21
244.1340568
0
LINE
8
DEFAULT_255_2_778
10
9.4884073
20
244.1340568
11
9.4884073
21
244.1292568
0
LINE
8
DEFAULT_255_2_778
10
9.4884073
20
244.1292568
11
9.3935073
21
244.1292568
0
LINE
8
DEFAULT_255_2_778
10
9.3935073
20
244.1292568
11
9.3935073
21
241.6291568
0
LINE
8
DEFAULT_255_2_778
10
9.3935073
20
241.6291568
11
12.9934073
21
241.6291568
0
LINE
8
DEFAULT_255_2_778
10
12.9934073
20
241.6291568
11
12.9934073
21
244.1337568
0
LINE
8
DEFAULT_255_2_778
10
12.9934073
20
244.1337568
11
9.6975073
21
244.1337568
0
ARC
8
DEFAULT_255_2_778
10
11.1931013
20
245.3840987
40
0.5753378
50
90.003763
51
179.996237
0
ARC
8
DEFAULT_255_2_778
10
11.1931044
20
245.3840774
40
0.575359
50
0.0058797
51
90.0040688
0
ARC
8
DEFAULT_255_2_778
10
11.1930832
20
245.3841168
40
0.5753803
50
269.9980424
51
0.0019576
0
ARC
8
DEFAULT_255_2_778
10
11.1931225
20
245.3840953
40
0.5753589
50
179.9959022
51
269.9941323
0
LINE
8
DEFAULT_255_2_778
10
10.6177636
20
245.3841364
11
10.6177636
21
245.3841364
0
ARC
8
DEFAULT_255_2_778
10
11.1931013
20
240.3834987
40
0.5753378
50
90.003763
51
179.996237
0
ARC
8
DEFAULT_255_2_778
10
11.1931044
20
240.3834774
40
0.575359
50
0.0058797
51
90.0040688
0
ARC
8
DEFAULT_255_2_778
10
11.1930832
20
240.3835168
40
0.5753803
50
269.9980424
51
0.0019576
0
ARC
8
DEFAULT_255_2_778
10
11.1931225
20
240.3834953
40
0.5753589
50
179.9959022
51
269.9941323
0
LINE
8
DEFAULT_255_2_778
10
10.6177636
20
240.3835364
11
10.6177636
21
240.3835364
0
LINE
8
DEFAULT_255_2_778
10
12.9931073
20
256.6294957
11
12.9931073
21
254.1354957
0
LINE
8
DEFAULT_255_2_778
10
12.9931073
20
251.6293957
11
12.9931073
21
249.1345957
0
LINE
8
DEFAULT_255_2_778
10
9.3932073
20
251.6293957
11
9.3932073
21
246.6292957
0
LINE
8
DEFAULT_255_2_778
10
9.3932073
20
246.6292957
11
12.9931073
21
246.6292957
0
LINE
8
DEFAULT_255_2_778
10
12.9931073
20
246.6292957
11
12.9931073
21
249.1345957
0
LINE
8
DEFAULT_255_2_778
10
12.9931073
20
249.1345957
11
9.3932073
21
249.1345957
0
LINE
8
DEFAULT_255_2_778
10
9.6975073
20
254.1354957
11
9.4884073
21
254.1354957
0
LINE
8
DEFAULT_255_2_778
10
9.4884073
20
254.1354957
11
9.4884073
21
254.1294957
0
LINE
8
DEFAULT_255_2_778
10
9.4884073
20
254.1294957
11
9.3935073
21
254.1294957
0
LINE
8
DEFAULT_255_2_778
10
9.3935073
20
254.1294957
11
9.3935073
21
251.6293957
0
LINE
8
DEFAULT_255_2_778
10
9.3935073
20
251.6293957
11
12.9934073
21
251.6293957
0
LINE
8
DEFAULT_255_2_778
10
12.9934073
20
251.6293957
11
12.9934073
21
254.1354957
0
LINE
8
DEFAULT_255_2_778
10
12.9934073
20
254.1354957
11
9.6975073
21
254.1354957
0
ARC
8
DEFAULT_255_2_778
10
11.1931013
20
255.3856987
40
0.5753378
50
90.003763
51
179.996237
0
ARC
8
DEFAULT_255_2_778
10
11.1931044
20
255.3856774
40
0.575359
50
0.0058797
51
90.0040688
0
ARC
8
DEFAULT_255_2_778
10
11.1930832
20
255.3857168
40
0.5753803
50
269.9980424
51
0.0019576
0
ARC
8
DEFAULT_255_2_778
10
11.1931225
20
255.3856953
40
0.5753589
50
179.9959022
51
269.9941323
0
LINE
8
DEFAULT_255_2_778
10
10.6177636
20
255.3857364
11
10.6177636
21
255.3857364
0
ARC
8
DEFAULT_255_2_778
10
11.1931013
20
250.3847987
40
0.5753378
50
90.003763
51
179.996237
0
ARC
8
DEFAULT_255_2_778
10
11.1931044
20
250.3847774
40
0.575359
50
0.0058797
51
90.0040688
0
ARC
8
DEFAULT_255_2_778
10
11.1930832
20
250.3848168
40
0.5753803
50
269.9980424
51
0.0019576
0
ARC
8
DEFAULT_255_2_778
10
11.1931225
20
250.3847953
40
0.5753589
50
179.9959022
51
269.9941323
0
LINE
8
DEFAULT_255_2_778
10
10.6177636
20
250.3848364
11
10.6177636
21
250.3848364
0
LINE
8
DEFAULT_255_2_778
10
9.3932159
20
239.1293239
11
9.3932159
21
241.6294239
0
LINE
8
DEFAULT_255_2_778
10
9.3932159
20
244.1294239
11
9.3932159
21
246.6295239
0
LINE
8
DEFAULT_255_2_778
10
9.3932159
20
229.1294239
11
9.3932159
21
231.6295239
0
LINE
8
DEFAULT_255_2_778
10
9.3932159
20
234.1292239
11
9.3932159
21
236.6293239
0
LINE
8
DEFAULT_255_2_778
10
9.3932159
20
214.1294239
11
9.3932159
21
216.6294239
0
LINE
8
DEFAULT_255_2_778
10
9.3932159
20
209.1312239
11
9.3932159
21
211.6293239
0
LINE
8
DEFAULT_255_2_778
10
9.3932159
20
224.1293239
11
9.3932159
21
226.6294239
0
LINE
8
DEFAULT_255_2_778
10
9.3932159
20
219.1292239
11
9.3932159
21
221.6293239
0
LINE
8
DEFAULT_255_2_778
10
4.0758159
20
287.2602239
11
3.7761159
21
287.2602239
0
LINE
8
DEFAULT_255_2_778
10
3.7761159
20
287.2602239
11
3.7761159
21
286.6856239
0
LINE
8
DEFAULT_255_2_778
10
3.7761159
20
286.6856239
11
4.0150159
21
286.6856239
0
LINE
8
DEFAULT_255_2_778
10
4.0150159
20
286.6856239
11
4.1973159
21
286.7300239
0
LINE
8
DEFAULT_255_2_778
10
4.1973159
20
286.7300239
11
4.2862159
21
286.8268239
0
LINE
8
DEFAULT_255_2_778
10
4.2862159
20
286.8268239
11
4.3145159
21
286.9750239
0
LINE
8
DEFAULT_255_2_778
10
4.3145159
20
286.9750239
11
4.2984159
21
287.0890239
0
LINE
8
DEFAULT_255_2_778
10
4.2984159
20
287.0890239
11
4.2539159
21
287.1774239
0
LINE
8
DEFAULT_255_2_778
10
4.2539159
20
287.1774239
11
4.0758159
21
287.2600239
0
LINE
8
DEFAULT_255_2_778
10
5.8734159
20
286.3352239
11
6.2338159
21
286.3352239
0
LINE
8
DEFAULT_255_2_778
10
6.2338159
20
286.3352239
11
6.2338159
21
287.1851239
0
LINE
8
DEFAULT_255_2_778
10
6.2338159
20
287.1851239
11
5.8734159
21
286.3352239
0
LINE
8
DEFAULT_255_2_778
10
7.0273159
20
286.5091239
11
7.1974159
21
286.4924239
0
LINE
8
DEFAULT_255_2_778
10
7.1974159
20
286.4924239
11
7.3027159
21
286.4429239
0
LINE
8
DEFAULT_255_2_778
10
7.3027159
20
286.4429239
11
7.3593159
21
286.3474239
0
LINE
8
DEFAULT_255_2_778
10
7.3593159
20
286.3474239
11
7.3794159
21
286.1887239
0
LINE
8
DEFAULT_255_2_778
10
7.3794159
20
286.1887239
11
7.3633159
21
286.0633239
0
LINE
8
DEFAULT_255_2_778
10
7.3633159
20
286.0633239
11
7.3228159
21
285.9696239
0
LINE
8
DEFAULT_255_2_778
10
7.3228159
20
285.9696239
11
7.2458159
21
285.9132239
0
LINE
8
DEFAULT_255_2_778
10
7.2458159
20
285.9132239
11
7.1283159
21
285.8942239
0
LINE
8
DEFAULT_255_2_778
10
7.1283159
20
285.8942239
11
7.0148159
21
285.9172239
0
LINE
8
DEFAULT_255_2_778
10
7.0148159
20
285.9172239
11
6.9421159
21
285.9860239
0
LINE
8
DEFAULT_255_2_778
10
6.9421159
20
285.9860239
11
6.9138159
21
286.0717239
0
LINE
8
DEFAULT_255_2_778
10
6.9138159
20
286.0717239
11
6.9056159
21
286.1977239
0
LINE
8
DEFAULT_255_2_778
10
6.9056159
20
286.1977239
11
6.6910159
21
286.1977239
0
LINE
8
DEFAULT_255_2_778
10
6.6910159
20
286.1977239
11
6.6910159
21
286.1506239
0
LINE
8
DEFAULT_255_2_778
10
6.6910159
20
286.1506239
11
6.7032159
21
285.9984239
0
LINE
8
DEFAULT_255_2_778
10
6.7032159
20
285.9984239
11
6.7518159
21
285.8802239
0
LINE
8
DEFAULT_255_2_778
10
6.7518159
20
285.8802239
11
6.8368159
21
285.7870239
0
LINE
8
DEFAULT_255_2_778
10
6.8368159
20
285.7870239
11
6.9542159
21
285.7312239
0
LINE
8
DEFAULT_255_2_778
10
6.9542159
20
285.7312239
11
7.1122159
21
285.7129239
0
LINE
8
DEFAULT_255_2_778
10
7.1122159
20
285.7129239
11
7.3186159
21
285.7420239
0
LINE
8
DEFAULT_255_2_778
10
7.3186159
20
285.7420239
11
7.4726159
21
285.8302239
0
LINE
8
DEFAULT_255_2_778
10
7.4726159
20
285.8302239
11
7.5657159
21
285.9775239
0
LINE
8
DEFAULT_255_2_778
10
7.5657159
20
285.9775239
11
7.5940159
21
286.1836239
0
LINE
8
DEFAULT_255_2_778
10
7.5940159
20
286.1836239
11
7.5779159
21
286.3530239
0
LINE
8
DEFAULT_255_2_778
10
7.5779159
20
286.3530239
11
7.5212159
21
286.4757239
0
LINE
8
DEFAULT_255_2_778
10
7.5212159
20
286.4757239
11
7.4159159
21
286.5583239
0
LINE
8
DEFAULT_255_2_778
10
7.4159159
20
286.5583239
11
7.2580159
21
286.6054239
0
LINE
8
DEFAULT_255_2_778
10
7.2580159
20
286.6054239
11
7.3755159
21
286.6422239
0
LINE
8
DEFAULT_255_2_778
10
7.3755159
20
286.6422239
11
7.4564159
21
286.6877239
0
LINE
8
DEFAULT_255_2_778
10
7.4564159
20
286.6877239
11
7.5496159
21
286.8099239
0
LINE
8
DEFAULT_255_2_778
10
7.5496159
20
286.8099239
11
7.5779159
21
286.9840239
0
LINE
8
DEFAULT_255_2_778
10
7.5779159
20
286.9840239
11
7.5496159
21
287.1695239
0
LINE
8
DEFAULT_255_2_778
10
7.5496159
20
287.1695239
11
7.4646159
21
287.3023239
0
LINE
8
DEFAULT_255_2_778
10
7.4646159
20
287.3023239
11
7.3228159
21
287.3817239
0
LINE
8
DEFAULT_255_2_778
10
7.3228159
20
287.3817239
11
7.1365159
21
287.4079239
0
LINE
8
DEFAULT_255_2_778
10
7.1365159
20
287.4079239
11
6.9463159
21
287.3790239
0
LINE
8
DEFAULT_255_2_778
10
6.9463159
20
287.3790239
11
6.8127159
21
287.2925239
0
LINE
8
DEFAULT_255_2_778
10
6.8127159
20
287.2925239
11
6.7399159
21
287.1520239
0
LINE
8
DEFAULT_255_2_778
10
6.7399159
20
287.1520239
11
6.7156159
21
286.9605239
0
LINE
8
DEFAULT_255_2_778
10
6.7156159
20
286.9605239
11
6.9302159
21
286.9605239
0
LINE
8
DEFAULT_255_2_778
10
6.9302159
20
286.9605239
11
6.9667159
21
287.1443239
0
LINE
8
DEFAULT_255_2_778
10
6.9667159
20
287.1443239
11
7.1368159
21
287.2266239
0
LINE
8
DEFAULT_255_2_778
10
7.1368159
20
287.2266239
11
7.3109159
21
287.1539239
0
LINE
8
DEFAULT_255_2_778
10
7.3109159
20
287.1539239
11
7.3636159
21
286.9705239
0
LINE
8
DEFAULT_255_2_778
10
7.3636159
20
286.9705239
11
7.3434159
21
286.8491239
0
LINE
8
DEFAULT_255_2_778
10
7.3434159
20
286.8491239
11
7.2868159
21
286.7633239
0
LINE
8
DEFAULT_255_2_778
10
7.2868159
20
286.7633239
11
7.1977159
21
286.7139239
0
LINE
8
DEFAULT_255_2_778
10
7.1977159
20
286.7139239
11
7.0802159
21
286.6972239
0
LINE
8
DEFAULT_255_2_778
10
7.0802159
20
286.6972239
11
7.0275159
21
286.6996239
0
LINE
8
DEFAULT_255_2_778
10
7.0275159
20
286.6996239
11
7.0275159
21
286.5088239
0
LINE
8
DEFAULT_255_2_778
10
7.7644159
20
286.4808239
11
7.7644159
21
286.2995239
0
LINE
8
DEFAULT_255_2_778
10
7.7644159
20
286.2995239
11
8.2848159
21
286.2995239
0
LINE
8
DEFAULT_255_2_778
10
8.2848159
20
286.2995239
11
8.2848159
21
286.4808239
0
LINE
8
DEFAULT_255_2_778
10
8.2848159
20
286.4808239
11
7.7644159
21
286.4808239
0
LINE
8
DEFAULT_255_2_778
10
11.7162159
20
287.2602239
11
11.7162159
21
286.6856239
0
LINE
8
DEFAULT_255_2_778
10
11.7162159
20
286.6856239
11
11.9551159
21
286.6856239
0
LINE
8
DEFAULT_255_2_778
10
11.9551159
20
286.6856239
11
12.1374159
21
286.7300239
0
LINE
8
DEFAULT_255_2_778
10
12.1374159
20
286.7300239
11
12.2266159
21
286.8268239
0
LINE
8
DEFAULT_255_2_778
10
12.2266159
20
286.8268239
11
12.2549159
21
286.9750239
0
LINE
8
DEFAULT_255_2_778
10
12.2549159
20
286.9750239
11
12.2388159
21
287.0890239
0
LINE
8
DEFAULT_255_2_778
10
12.2388159
20
287.0890239
11
12.1943159
21
287.1774239
0
LINE
8
DEFAULT_255_2_778
10
12.1943159
20
287.1774239
11
12.0163159
21
287.2600239
0
LINE
8
DEFAULT_255_2_778
10
12.0163159
20
287.2600239
11
11.7165159
21
287.2600239
0
LINE
8
DEFAULT_255_2_778
10
14.5385159
20
287.4486239
11
14.5385159
21
286.3704239
0
LINE
8
DEFAULT_255_2_778
10
14.5385159
20
286.3704239
11
14.5507159
21
286.1582239
0
LINE
8
DEFAULT_255_2_778
10
14.5507159
20
286.1582239
11
14.5951159
21
285.9908239
0
LINE
8
DEFAULT_255_2_778
10
14.5951159
20
285.9908239
11
14.6682159
21
285.8664239
0
LINE
8
DEFAULT_255_2_778
10
14.6682159
20
285.8664239
11
14.7692159
21
285.7815239
0
LINE
8
DEFAULT_255_2_778
10
14.7692159
20
285.7815239
11
14.9029159
21
285.7304239
0
LINE
8
DEFAULT_255_2_778
10
14.9029159
20
285.7304239
11
15.0730159
21
285.7137239
0
LINE
8
DEFAULT_255_2_778
10
15.0730159
20
285.7137239
11
15.2389159
21
285.7307239
0
LINE
8
DEFAULT_255_2_778
10
15.2389159
20
285.7307239
11
15.3725159
21
285.7825239
0
LINE
8
DEFAULT_255_2_778
10
15.3725159
20
285.7825239
11
15.4778159
21
285.8688239
0
LINE
8
DEFAULT_255_2_778
10
15.4778159
20
285.8688239
11
15.5506159
21
285.9934239
0
LINE
8
DEFAULT_255_2_778
10
15.5506159
20
285.9934239
11
15.5950159
21
286.1606239
0
LINE
8
DEFAULT_255_2_778
10
15.5950159
20
286.1606239
11
15.6072159
21
286.3704239
0
LINE
8
DEFAULT_255_2_778
10
15.6072159
20
286.3704239
11
15.6072159
21
287.4486239
0
LINE
8
DEFAULT_255_2_778
10
15.6072159
20
287.4486239
11
15.3926159
21
287.4486239
0
LINE
8
DEFAULT_255_2_778
10
15.3926159
20
287.4486239
11
15.3926159
21
286.3606239
0
LINE
8
DEFAULT_255_2_778
10
15.3926159
20
286.3606239
11
15.3844159
21
286.1987239
0
LINE
8
DEFAULT_255_2_778
10
15.3844159
20
286.1987239
11
15.3561159
21
286.0741239
0
LINE
8
DEFAULT_255_2_778
10
15.3561159
20
286.0741239
11
15.3116159
21
285.9868239
0
LINE
8
DEFAULT_255_2_778
10
15.3116159
20
285.9868239
11
15.2185159
21
285.9180239
0
LINE
8
DEFAULT_255_2_778
10
15.2185159
20
285.9180239
11
15.0727159
21
285.8950239
0
LINE
8
DEFAULT_255_2_778
10
15.0727159
20
285.8950239
11
14.9269159
21
285.9185239
0
LINE
8
DEFAULT_255_2_778
10
14.9269159
20
285.9185239
11
14.8338159
21
285.9894239
0
LINE
8
DEFAULT_255_2_778
10
14.8338159
20
285.9894239
11
14.7732159
21
286.1352239
0
LINE
8
DEFAULT_255_2_778
10
14.7732159
20
286.1352239
11
14.7531159
21
286.3612239
0
LINE
8
DEFAULT_255_2_778
10
14.7531159
20
286.3612239
11
14.7531159
21
287.4486239
0
LINE
8
DEFAULT_255_2_778
10
14.7531159
20
287.4486239
11
14.5385159
21
287.4486239
0
LINE
8
DEFAULT_255_2_778
10
16.1379159
20
286.3419239
11
16.6806159
21
286.3419239
0
LINE
8
DEFAULT_255_2_778
10
16.6806159
20
286.3419239
11
16.4094159
21
287.2486239
0
LINE
8
DEFAULT_255_2_778
10
16.4094159
20
287.2486239
11
16.1382159
21
286.3419239
0
LINE
8
DEFAULT_255_2_778
10
3.7761159
20
285.7489239
11
3.7761159
21
286.4977239
0
LINE
8
DEFAULT_255_2_778
10
3.7761159
20
286.4977239
11
4.0637159
21
286.4977239
0
LINE
8
DEFAULT_255_2_778
10
4.0637159
20
286.4977239
11
4.2256159
21
286.5199239
0
LINE
8
DEFAULT_255_2_778
10
4.2256159
20
286.5199239
11
4.3674159
21
286.5871239
0
LINE
8
DEFAULT_255_2_778
10
4.3674159
20
286.5871239
11
4.4605159
21
286.6824239
0
LINE
8
DEFAULT_255_2_778
10
4.4605159
20
286.6824239
11
4.5172159
21
286.8078239
0
LINE
8
DEFAULT_255_2_778
10
4.5172159
20
286.8078239
11
4.5373159
21
286.9636239
0
LINE
8
DEFAULT_255_2_778
10
4.5373159
20
286.9636239
11
4.5211159
21
287.1290239
0
LINE
8
DEFAULT_255_2_778
10
4.5211159
20
287.1290239
11
4.4725159
21
287.2597239
0
LINE
8
DEFAULT_255_2_778
10
4.4725159
20
287.2597239
11
4.3875159
21
287.3568239
0
LINE
8
DEFAULT_255_2_778
10
4.3875159
20
287.3568239
11
4.2499159
21
287.4261239
0
LINE
8
DEFAULT_255_2_778
10
4.2499159
20
287.4261239
11
4.0637159
21
287.4489239
0
LINE
8
DEFAULT_255_2_778
10
4.0637159
20
287.4489239
11
3.5615159
21
287.4489239
0
LINE
8
DEFAULT_255_2_778
10
3.5615159
20
287.4489239
11
3.5615159
21
285.7489239
0
LINE
8
DEFAULT_255_2_778
10
3.5615159
20
285.7489239
11
3.7761159
21
285.7489239
0
LINE
8
DEFAULT_255_2_778
10
3.2660159
20
286.9800239
11
3.2538159
21
287.1372239
0
LINE
8
DEFAULT_255_2_778
10
3.2538159
20
287.1372239
11
3.2215159
21
287.2626239
0
LINE
8
DEFAULT_255_2_778
10
3.2215159
20
287.2626239
11
3.1689159
21
287.3565239
0
LINE
8
DEFAULT_255_2_778
10
3.1689159
20
287.3565239
11
3.0310159
21
287.4521239
0
LINE
8
DEFAULT_255_2_778
10
3.0310159
20
287.4521239
11
2.8204159
21
287.4835239
0
LINE
8
DEFAULT_255_2_778
10
2.8204159
20
287.4835239
11
2.6542159
21
287.4695239
0
LINE
8
DEFAULT_255_2_778
10
2.6542159
20
287.4695239
11
2.5246159
21
287.4261239
0
LINE
8
DEFAULT_255_2_778
10
2.5246159
20
287.4261239
11
2.4193159
21
287.3542239
0
LINE
8
DEFAULT_255_2_778
10
2.4193159
20
287.3542239
11
2.3383159
21
287.2356239
0
LINE
8
DEFAULT_255_2_778
10
2.3383159
20
287.2356239
11
2.2896159
21
287.0729239
0
LINE
8
DEFAULT_255_2_778
10
2.2896159
20
287.0729239
11
2.2735159
21
286.8673239
0
LINE
8
DEFAULT_255_2_778
10
2.2735159
20
286.8673239
11
2.2735159
21
286.3871239
0
LINE
8
DEFAULT_255_2_778
10
2.2735159
20
286.3871239
11
2.2857159
21
286.1887239
0
LINE
8
DEFAULT_255_2_778
10
2.2857159
20
286.1887239
11
2.3222159
21
286.0254239
0
LINE
8
DEFAULT_255_2_778
10
2.3222159
20
286.0254239
11
2.3828159
21
285.8966239
0
LINE
8
DEFAULT_255_2_778
10
2.3828159
20
285.8966239
11
2.4637159
21
285.8026239
0
LINE
8
DEFAULT_255_2_778
10
2.4637159
20
285.8026239
11
2.6095159
21
285.7357239
0
LINE
8
DEFAULT_255_2_778
10
2.6095159
20
285.7357239
11
2.8119159
21
285.7135239
0
LINE
8
DEFAULT_255_2_778
10
2.8119159
20
285.7135239
11
2.9577159
21
285.7280239
0
LINE
8
DEFAULT_255_2_778
10
2.9577159
20
285.7280239
11
3.0792159
21
285.7730239
0
LINE
8
DEFAULT_255_2_778
10
3.0792159
20
285.7730239
11
3.1723159
21
285.8476239
0
LINE
8
DEFAULT_255_2_778
10
3.1723159
20
285.8476239
11
3.2371159
21
285.9521239
0
LINE
8
DEFAULT_255_2_778
10
3.2371159
20
285.9521239
11
3.2776159
21
286.0863239
0
LINE
8
DEFAULT_255_2_778
10
3.2776159
20
286.0863239
11
3.2898159
21
286.2503239
0
LINE
8
DEFAULT_255_2_778
10
3.2898159
20
286.2503239
11
3.0670159
21
286.2503239
0
LINE
8
DEFAULT_255_2_778
10
3.0670159
20
286.2503239
11
3.0508159
21
286.0998239
0
LINE
8
DEFAULT_255_2_778
10
3.0508159
20
286.0998239
11
2.9982159
21
285.9868239
0
LINE
8
DEFAULT_255_2_778
10
2.9982159
20
285.9868239
11
2.9133159
21
285.9180239
0
LINE
8
DEFAULT_255_2_778
10
2.9133159
20
285.9180239
11
2.8000159
21
285.8950239
0
LINE
8
DEFAULT_255_2_778
10
2.8000159
20
285.8950239
11
2.6704159
21
285.9146239
0
LINE
8
DEFAULT_255_2_778
10
2.6704159
20
285.9146239
11
2.5852159
21
285.9728239
0
LINE
8
DEFAULT_255_2_778
10
2.5852159
20
285.9728239
11
2.5368159
21
286.0630239
0
LINE
8
DEFAULT_255_2_778
10
2.5368159
20
286.0630239
11
2.5042159
21
286.1926239
0
LINE
8
DEFAULT_255_2_778
10
2.5042159
20
286.1926239
11
2.4963159
21
286.3612239
0
LINE
8
DEFAULT_255_2_778
10
2.4963159
20
286.3612239
11
2.4963159
21
286.8178239
0
LINE
8
DEFAULT_255_2_778
10
2.4963159
20
286.8178239
11
2.5002159
21
286.9483239
0
LINE
8
DEFAULT_255_2_778
10
2.5002159
20
286.9483239
11
2.5085159
21
287.0531239
0
LINE
8
DEFAULT_255_2_778
10
2.5085159
20
287.0531239
11
2.5450159
21
287.1708239
0
LINE
8
DEFAULT_255_2_778
10
2.5450159
20
287.1708239
11
2.6098159
21
287.2462239
0
LINE
8
DEFAULT_255_2_778
10
2.6098159
20
287.2462239
11
2.6947159
21
287.2883239
0
LINE
8
DEFAULT_255_2_778
10
2.6947159
20
287.2883239
11
2.8040159
21
287.3028239
0
LINE
8
DEFAULT_255_2_778
10
2.8040159
20
287.3028239
11
2.9053159
21
287.2838239
0
LINE
8
DEFAULT_255_2_778
10
2.9053159
20
287.2838239
11
2.9903159
21
287.2319239
0
LINE
8
DEFAULT_255_2_778
10
2.9903159
20
287.2319239
11
3.0307159
21
287.1496239
0
LINE
8
DEFAULT_255_2_778
10
3.0307159
20
287.1496239
11
3.0429159
21
286.9800239
0
LINE
8
DEFAULT_255_2_778
10
3.0429159
20
286.9800239
11
3.2657159
21
286.9800239
0
LINE
8
DEFAULT_255_2_778
10
9.0561159
20
287.3825239
11
8.8698159
21
287.3825239
0
LINE
8
DEFAULT_255_2_778
10
8.8698159
20
287.3825239
11
8.7280159
21
287.2719239
0
LINE
8
DEFAULT_255_2_778
10
8.7280159
20
287.2719239
11
8.5944159
21
287.1869239
0
LINE
8
DEFAULT_255_2_778
10
8.5944159
20
287.1869239
11
8.5944159
21
286.9800239
0
LINE
8
DEFAULT_255_2_778
10
8.5944159
20
286.9800239
11
8.8373159
21
287.1449239
0
LINE
8
DEFAULT_255_2_778
10
8.8373159
20
287.1449239
11
8.8373159
21
285.7487239
0
LINE
8
DEFAULT_255_2_778
10
8.8373159
20
285.7487239
11
9.0558159
21
285.7487239
0
LINE
8
DEFAULT_255_2_778
10
9.0558159
20
285.7487239
11
9.0558159
21
287.3825239
0
LINE
8
DEFAULT_255_2_778
10
5.6872159
20
286.1463239
11
6.2338159
21
286.1463239
0
LINE
8
DEFAULT_255_2_778
10
6.2338159
20
286.1463239
11
6.2338159
21
285.7487239
0
LINE
8
DEFAULT_255_2_778
10
6.2338159
20
285.7487239
11
6.4362159
21
285.7487239
0
LINE
8
DEFAULT_255_2_778
10
6.4362159
20
285.7487239
11
6.4362159
21
286.1463239
0
LINE
8
DEFAULT_255_2_778
10
6.4362159
20
286.1463239
11
6.6264159
21
286.1463239
0
LINE
8
DEFAULT_255_2_778
10
6.6264159
20
286.1463239
11
6.6264159
21
286.3350239
0
LINE
8
DEFAULT_255_2_778
10
6.6264159
20
286.3350239
11
6.4362159
21
286.3350239
0
LINE
8
DEFAULT_255_2_778
10
6.4362159
20
286.3350239
11
6.4362159
21
287.3825239
0
LINE
8
DEFAULT_255_2_778
10
6.4362159
20
287.3825239
11
6.1486159
21
287.3825239
0
LINE
8
DEFAULT_255_2_778
10
6.1486159
20
287.3825239
11
5.6872159
21
286.3350239
0
LINE
8
DEFAULT_255_2_778
10
5.6872159
20
286.3350239
11
5.6872159
21
286.1463239
0
LINE
8
DEFAULT_255_2_778
10
10.4772159
20
285.9180239
11
10.6190159
21
285.8944239
0
LINE
8
DEFAULT_255_2_778
10
10.6190159
20
285.8944239
11
10.7648159
21
285.9175239
0
LINE
8
DEFAULT_255_2_778
10
10.7648159
20
285.9175239
11
10.8579159
21
285.9863239
0
LINE
8
DEFAULT_255_2_778
10
10.8579159
20
285.9863239
11
10.9024159
21
286.0736239
0
LINE
8
DEFAULT_255_2_778
10
10.9024159
20
286.0736239
11
10.9307159
21
286.1982239
0
LINE
8
DEFAULT_255_2_778
10
10.9307159
20
286.1982239
11
10.9389159
21
286.3601239
0
LINE
8
DEFAULT_255_2_778
10
10.9389159
20
286.3601239
11
10.9389159
21
286.9351239
0
LINE
8
DEFAULT_255_2_778
10
10.9389159
20
286.9351239
11
10.9188159
21
287.0925239
0
LINE
8
DEFAULT_255_2_778
10
10.9188159
20
287.0925239
11
10.8582159
21
287.2078239
0
LINE
8
DEFAULT_255_2_778
10
10.8582159
20
287.2078239
11
10.7568159
21
287.2782239
0
LINE
8
DEFAULT_255_2_778
10
10.7568159
20
287.2782239
11
10.6193159
21
287.3020239
0
LINE
8
DEFAULT_255_2_778
10
10.6193159
20
287.3020239
11
10.4856159
21
287.2782239
0
LINE
8
DEFAULT_255_2_778
10
10.4856159
20
287.2782239
11
10.3843159
21
287.2078239
0
LINE
8
DEFAULT_255_2_778
10
10.3843159
20
287.2078239
11
10.3237159
21
287.0925239
0
LINE
8
DEFAULT_255_2_778
10
10.3237159
20
287.0925239
11
10.3036159
21
286.9351239
0
LINE
8
DEFAULT_255_2_778
10
10.3036159
20
286.9351239
11
10.3036159
21
286.3601239
0
LINE
8
DEFAULT_255_2_778
10
10.3036159
20
286.3601239
11
10.3237159
21
286.1342239
0
LINE
8
DEFAULT_255_2_778
10
10.3237159
20
286.1342239
11
10.3803159
21
285.9884239
0
LINE
8
DEFAULT_255_2_778
10
10.3803159
20
285.9884239
11
10.4774159
21
285.9175239
0
LINE
8
DEFAULT_255_2_778
10
10.6190159
20
285.7135239
11
10.7849159
21
285.7304239
0
LINE
8
DEFAULT_255_2_778
10
10.7849159
20
285.7304239
11
10.9227159
21
285.7823239
0
LINE
8
DEFAULT_255_2_778
10
10.9227159
20
285.7823239
11
11.0238159
21
285.8685239
0
LINE
8
DEFAULT_255_2_778
10
11.0238159
20
285.8685239
11
11.0968159
21
285.9931239
0
LINE
8
DEFAULT_255_2_778
10
11.0968159
20
285.9931239
11
11.1413159
21
286.1604239
0
LINE
8
DEFAULT_255_2_778
10
11.1413159
20
286.1604239
11
11.1574159
21
286.3702239
0
LINE
8
DEFAULT_255_2_778
10
11.1574159
20
286.3702239
11
11.1574159
21
286.9282239
0
LINE
8
DEFAULT_255_2_778
10
11.1574159
20
286.9282239
11
11.1413159
21
287.0885239
0
LINE
8
DEFAULT_255_2_778
10
11.1413159
20
287.0885239
11
11.0968159
21
287.2242239
0
LINE
8
DEFAULT_255_2_778
10
11.0968159
20
287.2242239
11
11.0198159
21
287.3356239
0
LINE
8
DEFAULT_255_2_778
10
11.0198159
20
287.3356239
11
10.9145159
21
287.4179239
0
LINE
8
DEFAULT_255_2_778
10
10.9145159
20
287.4179239
11
10.7809159
21
287.4677239
0
LINE
8
DEFAULT_255_2_778
10
10.7809159
20
287.4677239
11
10.6190159
21
287.4838239
0
LINE
8
DEFAULT_255_2_778
10
10.6190159
20
287.4838239
11
10.4571159
21
287.4677239
0
LINE
8
DEFAULT_255_2_778
10
10.4571159
20
287.4677239
11
10.3234159
21
287.4179239
0
LINE
8
DEFAULT_255_2_778
10
10.3234159
20
287.4179239
11
10.2181159
21
287.3356239
0
LINE
8
DEFAULT_255_2_778
10
10.2181159
20
287.3356239
11
10.1451159
21
287.2256239
0
LINE
8
DEFAULT_255_2_778
10
10.1451159
20
287.2256239
11
10.1007159
21
287.0896239
0
LINE
8
DEFAULT_255_2_778
10
10.1007159
20
287.0896239
11
10.0845159
21
286.9284239
0
LINE
8
DEFAULT_255_2_778
10
10.0845159
20
286.9284239
11
10.0845159
21
286.3704239
0
LINE
8
DEFAULT_255_2_778
10
10.0845159
20
286.3704239
11
10.1007159
21
286.1582239
0
LINE
8
DEFAULT_255_2_778
10
10.1007159
20
286.1582239
11
10.1412159
21
285.9908239
0
LINE
8
DEFAULT_255_2_778
10
10.1412159
20
285.9908239
11
10.2139159
21
285.8664239
0
LINE
8
DEFAULT_255_2_778
10
10.2139159
20
285.8664239
11
10.3152159
21
285.7815239
0
LINE
8
DEFAULT_255_2_778
10
10.3152159
20
285.7815239
11
10.4528159
21
285.7304239
0
LINE
8
DEFAULT_255_2_778
10
10.4528159
20
285.7304239
11
10.6187159
21
285.7137239
0
LINE
8
DEFAULT_255_2_778
10
15.7371159
20
285.7489239
11
15.9556159
21
285.7489239
0
LINE
8
DEFAULT_255_2_778
10
15.9556159
20
285.7489239
11
16.0853159
21
286.1537239
0
LINE
8
DEFAULT_255_2_778
10
16.0853159
20
286.1537239
11
16.7412159
21
286.1537239
0
LINE
8
DEFAULT_255_2_778
10
16.7412159
20
286.1537239
11
16.8626159
21
285.7489239
0
LINE
8
DEFAULT_255_2_778
10
16.8626159
20
285.7489239
11
17.1055159
21
285.7489239
0
LINE
8
DEFAULT_255_2_778
10
17.1055159
20
285.7489239
11
16.5507159
21
287.4486239
0
LINE
8
DEFAULT_255_2_778
10
16.5507159
20
287.4486239
11
16.2753159
21
287.4486239
0
LINE
8
DEFAULT_255_2_778
10
16.2753159
20
287.4486239
11
15.7371159
21
285.7489239
0
LINE
8
DEFAULT_255_2_778
10
13.5141159
20
286.9800239
11
13.7408159
21
286.9800239
0
LINE
8
DEFAULT_255_2_778
10
13.7408159
20
286.9800239
11
13.7286159
21
287.1372239
0
LINE
8
DEFAULT_255_2_778
10
13.7286159
20
287.1372239
11
13.6964159
21
287.2626239
0
LINE
8
DEFAULT_255_2_778
10
13.6964159
20
287.2626239
11
13.6437159
21
287.3565239
0
LINE
8
DEFAULT_255_2_778
10
13.6437159
20
287.3565239
11
13.5019159
21
287.4521239
0
LINE
8
DEFAULT_255_2_778
10
13.5019159
20
287.4521239
11
13.2955159
21
287.4835239
0
LINE
8
DEFAULT_255_2_778
10
13.2955159
20
287.4835239
11
13.1296159
21
287.4695239
0
LINE
8
DEFAULT_255_2_778
10
13.1296159
20
287.4695239
11
12.9960159
21
287.4261239
0
LINE
8
DEFAULT_255_2_778
10
12.9960159
20
287.4261239
11
12.8949159
21
287.3542239
0
LINE
8
DEFAULT_255_2_778
10
12.8949159
20
287.3542239
11
12.8140159
21
287.2356239
0
LINE
8
DEFAULT_255_2_778
10
12.8140159
20
287.2356239
11
12.7653159
21
287.0729239
0
LINE
8
DEFAULT_255_2_778
10
12.7653159
20
287.0729239
11
12.7491159
21
286.8673239
0
LINE
8
DEFAULT_255_2_778
10
12.7491159
20
286.8673239
11
12.7491159
21
286.3871239
0
LINE
8
DEFAULT_255_2_778
10
12.7491159
20
286.3871239
11
12.7613159
21
286.1887239
0
LINE
8
DEFAULT_255_2_778
10
12.7613159
20
286.1887239
11
12.7978159
21
286.0254239
0
LINE
8
DEFAULT_255_2_778
10
12.7978159
20
286.0254239
11
12.8545159
21
285.8966239
0
LINE
8
DEFAULT_255_2_778
10
12.8545159
20
285.8966239
11
12.9394159
21
285.8026239
0
LINE
8
DEFAULT_255_2_778
10
12.9394159
20
285.8026239
11
13.0812159
21
285.7357239
0
LINE
8
DEFAULT_255_2_778
10
13.0812159
20
285.7357239
11
13.2836159
21
285.7135239
0
LINE
8
DEFAULT_255_2_778
10
13.2836159
20
285.7135239
11
13.4334159
21
285.7280239
0
LINE
8
DEFAULT_255_2_778
10
13.4334159
20
285.7280239
11
13.5508159
21
285.7730239
0
LINE
8
DEFAULT_255_2_778
10
13.5508159
20
285.7730239
11
13.6440159
21
285.8476239
0
LINE
8
DEFAULT_255_2_778
10
13.6440159
20
285.8476239
11
13.7128159
21
285.9521239
0
LINE
8
DEFAULT_255_2_778
10
13.7128159
20
285.9521239
11
13.7532159
21
286.0863239
0
LINE
8
DEFAULT_255_2_778
10
13.7532159
20
286.0863239
11
13.7654159
21
286.2503239
0
LINE
8
DEFAULT_255_2_778
10
13.7654159
20
286.2503239
11
13.5426159
21
286.2503239
0
LINE
8
DEFAULT_255_2_778
10
13.5426159
20
286.2503239
11
13.5225159
21
286.0998239
0
LINE
8
DEFAULT_255_2_778
10
13.5225159
20
286.0998239
11
13.4699159
21
285.9868239
0
LINE
8
DEFAULT_255_2_778
10
13.4699159
20
285.9868239
11
13.3889159
21
285.9180239
0
LINE
8
DEFAULT_255_2_778
10
13.3889159
20
285.9180239
11
13.2714159
21
285.8950239
0
LINE
8
DEFAULT_255_2_778
10
13.2714159
20
285.8950239
11
13.1460159
21
285.9146239
0
LINE
8
DEFAULT_255_2_778
10
13.1460159
20
285.9146239
11
13.0611159
21
285.9728239
0
LINE
8
DEFAULT_255_2_778
10
13.0611159
20
285.9728239
11
13.0084159
21
286.0630239
0
LINE
8
DEFAULT_255_2_778
10
13.0084159
20
286.0630239
11
12.9801159
21
286.1926239
0
LINE
8
DEFAULT_255_2_778
10
12.9801159
20
286.1926239
11
12.9680159
21
286.3612239
0
LINE
8
DEFAULT_255_2_778
10
12.9680159
20
286.3612239
11
12.9680159
21
286.8178239
0
LINE
8
DEFAULT_255_2_778
10
12.9680159
20
286.8178239
11
12.9719159
21
286.9483239
0
LINE
8
DEFAULT_255_2_778
10
12.9719159
20
286.9483239
11
12.9841159
21
287.0531239
0
LINE
8
DEFAULT_255_2_778
10
12.9841159
20
287.0531239
11
13.0206159
21
287.1708239
0
LINE
8
DEFAULT_255_2_778
10
13.0206159
20
287.1708239
11
13.0812159
21
287.2462239
0
LINE
8
DEFAULT_255_2_778
10
13.0812159
20
287.2462239
11
13.1704159
21
287.2883239
0
LINE
8
DEFAULT_255_2_778
10
13.1704159
20
287.2883239
11
13.2757159
21
287.3028239
0
LINE
8
DEFAULT_255_2_778
10
13.2757159
20
287.3028239
11
13.3770159
21
287.2838239
0
LINE
8
DEFAULT_255_2_778
10
13.3770159
20
287.2838239
11
13.4662159
21
287.2319239
0
LINE
8
DEFAULT_255_2_778
10
13.4662159
20
287.2319239
11
13.5027159
21
287.1496239
0
LINE
8
DEFAULT_255_2_778
10
13.5027159
20
287.1496239
11
13.5149159
21
286.9800239
0
LINE
8
DEFAULT_255_2_778
10
11.5016159
20
285.7489239
11
11.7162159
21
285.7489239
0
LINE
8
DEFAULT_255_2_778
10
11.7162159
20
285.7489239
11
11.7162159
21
286.4977239
0
LINE
8
DEFAULT_255_2_778
10
11.7162159
20
286.4977239
11
11.9996159
21
286.4977239
0
LINE
8
DEFAULT_255_2_778
10
11.9996159
20
286.4977239
11
12.1657159
21
286.5199239
0
LINE
8
DEFAULT_255_2_778
10
12.1657159
20
286.5199239
11
12.3033159
21
286.5871239
0
LINE
8
DEFAULT_255_2_778
10
12.3033159
20
286.5871239
11
12.4004159
21
286.6824239
0
LINE
8
DEFAULT_255_2_778
10
12.4004159
20
286.6824239
11
12.4570159
21
286.8078239
0
LINE
8
DEFAULT_255_2_778
10
12.4570159
20
286.8078239
11
12.4772159
21
286.9636239
0
LINE
8
DEFAULT_255_2_778
10
12.4772159
20
286.9636239
11
12.4610159
21
287.1290239
0
LINE
8
DEFAULT_255_2_778
10
12.4610159
20
287.1290239
11
12.4084159
21
287.2597239
0
LINE
8
DEFAULT_255_2_778
10
12.4084159
20
287.2597239
11
12.3274159
21
287.3568239
0
LINE
8
DEFAULT_255_2_778
10
12.3274159
20
287.3568239
11
12.1898159
21
287.4261239
0
LINE
8
DEFAULT_255_2_778
10
12.1898159
20
287.4261239
11
12.0036159
21
287.4489239
0
LINE
8
DEFAULT_255_2_778
10
12.0036159
20
287.4489239
11
11.5014159
21
287.4489239
0
LINE
8
DEFAULT_255_2_778
10
11.5014159
20
287.4489239
11
11.5014159
21
285.7489239
0
LINE
8
DEFAULT_255_2_778
10
5.2297159
20
287.1851239
11
4.8733159
21
286.3352239
0
LINE
8
DEFAULT_255_2_778
10
4.8733159
20
286.3352239
11
5.2297159
21
286.3352239
0
LINE
8
DEFAULT_255_2_778
10
5.2297159
20
286.3352239
11
5.2297159
21
287.1851239
0
LINE
8
DEFAULT_255_2_778
10
5.2297159
20
286.1466239
11
5.2297159
21
285.7489239
0
LINE
8
DEFAULT_255_2_778
10
5.2297159
20
285.7489239
11
5.4321159
21
285.7489239
0
LINE
8
DEFAULT_255_2_778
10
5.4321159
20
285.7489239
11
5.4321159
21
286.1466239
0
LINE
8
DEFAULT_255_2_778
10
5.4321159
20
286.1466239
11
5.6266159
21
286.1466239
0
LINE
8
DEFAULT_255_2_778
10
5.6266159
20
286.1466239
11
5.6266159
21
286.3352239
0
LINE
8
DEFAULT_255_2_778
10
5.6266159
20
286.3352239
11
5.4321159
21
286.3352239
0
LINE
8
DEFAULT_255_2_778
10
5.4321159
20
286.3352239
11
5.4321159
21
287.3827239
0
LINE
8
DEFAULT_255_2_778
10
5.4321159
20
287.3827239
11
5.1445159
21
287.3827239
0
LINE
8
DEFAULT_255_2_778
10
5.1445159
20
287.3827239
11
4.6831159
21
286.3352239
0
LINE
8
DEFAULT_255_2_778
10
4.6831159
20
286.3352239
11
4.6831159
21
286.1466239
0
LINE
8
DEFAULT_255_2_778
10
4.6831159
20
286.1466239
11
5.2297159
21
286.1466239
0
LINE
8
DEFAULT_255_2_778
10
18.1191159
20
280.9661239
11
18.1191159
21
282.8959239
0
LINE
8
DEFAULT_255_2_778
10
18.1191159
20
282.8959239
11
17.9792159
21
282.8959239
0
LINE
8
DEFAULT_255_2_778
10
17.9792159
20
282.8959239
11
17.9792159
21
280.9661239
0
LINE
8
DEFAULT_255_2_778
10
17.9792159
20
280.9661239
11
16.0530159
21
280.9661239
0
LINE
8
DEFAULT_255_2_778
10
16.0530159
20
280.9661239
11
16.0530159
21
280.8261239
0
LINE
8
DEFAULT_255_2_778
10
16.0530159
20
280.8261239
11
17.9792159
21
280.8261239
0
LINE
8
DEFAULT_255_2_778
10
17.9792159
20
280.8261239
11
17.9792159
21
278.8962239
0
LINE
8
DEFAULT_255_2_778
10
17.9792159
20
278.8962239
11
18.1191159
21
278.8962239
0
LINE
8
DEFAULT_255_2_778
10
18.1191159
20
278.8962239
11
18.1191159
21
280.8261239
0
LINE
8
DEFAULT_255_2_778
10
18.1191159
20
280.8261239
11
20.0493159
21
280.8261239
0
LINE
8
DEFAULT_255_2_778
10
20.0493159
20
280.8261239
11
20.0493159
21
280.9661239
0
LINE
8
DEFAULT_255_2_778
10
20.0493159
20
280.9661239
11
18.1191159
21
280.9661239
0
LINE
8
DEFAULT_255_2_778
10
16.5875159
20
279.3833239
11
16.5996159
21
279.2352239
0
LINE
8
DEFAULT_255_2_778
10
16.5996159
20
279.2352239
11
16.6645159
21
279.0939239
0
LINE
8
DEFAULT_255_2_778
10
16.6645159
20
279.0939239
11
16.7332159
21
279.0169239
0
LINE
8
DEFAULT_255_2_778
10
16.7332159
20
279.0169239
11
16.8142159
21
278.9647239
0
LINE
8
DEFAULT_255_2_778
10
16.8142159
20
278.9647239
11
16.9153159
21
278.9343239
0
LINE
8
DEFAULT_255_2_778
10
16.9153159
20
278.9343239
11
17.0206159
21
278.9243239
0
LINE
8
DEFAULT_255_2_778
10
17.0206159
20
278.9243239
11
17.1542159
21
278.9417239
0
LINE
8
DEFAULT_255_2_778
10
17.1542159
20
278.9417239
11
17.2677159
21
278.9936239
0
LINE
8
DEFAULT_255_2_778
10
17.2677159
20
278.9936239
11
17.3608159
21
279.0798239
0
LINE
8
DEFAULT_255_2_778
10
17.3608159
20
279.0798239
11
17.4458159
21
279.2296239
0
LINE
8
DEFAULT_255_2_778
10
17.4458159
20
279.2296239
11
17.4741159
21
279.4050239
0
LINE
8
DEFAULT_255_2_778
10
17.4741159
20
279.4050239
11
17.4579159
21
279.5468239
0
LINE
8
DEFAULT_255_2_778
10
17.4579159
20
279.5468239
11
17.4053159
21
279.6662239
0
LINE
8
DEFAULT_255_2_778
10
17.4053159
20
279.6662239
11
17.3161159
21
279.7553239
0
LINE
8
DEFAULT_255_2_778
10
17.3161159
20
279.7553239
11
17.1947159
21
279.8006239
0
LINE
8
DEFAULT_255_2_778
10
17.1947159
20
279.8006239
11
17.3161159
21
279.8614239
0
LINE
8
DEFAULT_255_2_778
10
17.3161159
20
279.8614239
11
17.4011159
21
279.9630239
0
LINE
8
DEFAULT_255_2_778
10
17.4011159
20
279.9630239
11
17.4415159
21
280.0667239
0
LINE
8
DEFAULT_255_2_778
10
17.4415159
20
280.0667239
11
17.4537159
21
280.1845239
0
LINE
8
DEFAULT_255_2_778
10
17.4537159
20
280.1845239
11
17.4294159
21
280.3525239
0
LINE
8
DEFAULT_255_2_778
10
17.4294159
20
280.3525239
11
17.3484159
21
280.4906239
0
LINE
8
DEFAULT_255_2_778
10
17.3484159
20
280.4906239
11
17.2592159
21
280.5652239
0
LINE
8
DEFAULT_255_2_778
10
17.2592159
20
280.5652239
11
17.1539159
21
280.6097239
0
LINE
8
DEFAULT_255_2_778
10
17.1539159
20
280.6097239
11
17.0285159
21
280.6247239
0
LINE
8
DEFAULT_255_2_778
10
17.0285159
20
280.6247239
11
16.9031159
21
280.6107239
0
LINE
8
DEFAULT_255_2_778
10
16.9031159
20
280.6107239
11
16.7978159
21
280.5681239
0
LINE
8
DEFAULT_255_2_778
10
16.7978159
20
280.5681239
11
16.7086159
21
280.4977239
0
LINE
8
DEFAULT_255_2_778
10
16.7086159
20
280.4977239
11
16.6316159
21
280.3617239
0
LINE
8
DEFAULT_255_2_778
10
16.6316159
20
280.3617239
11
16.6073159
21
280.1800239
0
LINE
8
DEFAULT_255_2_778
10
16.6073159
20
280.1800239
11
16.7975159
21
280.1800239
0
LINE
8
DEFAULT_255_2_778
10
16.7975159
20
280.1800239
11
16.8258159
21
280.3006239
0
LINE
8
DEFAULT_255_2_778
10
16.8258159
20
280.3006239
11
16.8864159
21
280.3848239
0
LINE
8
DEFAULT_255_2_778
10
16.8864159
20
280.3848239
11
17.0322159
21
280.4366239
0
LINE
8
DEFAULT_255_2_778
10
17.0322159
20
280.4366239
11
17.1293159
21
280.4207239
0
LINE
8
DEFAULT_255_2_778
10
17.1293159
20
280.4207239
11
17.2024159
21
280.3729239
0
LINE
8
DEFAULT_255_2_778
10
17.2024159
20
280.3729239
11
17.2510159
21
280.2940239
0
LINE
8
DEFAULT_255_2_778
10
17.2510159
20
280.2940239
11
17.2672159
21
280.1800239
0
LINE
8
DEFAULT_255_2_778
10
17.2672159
20
280.1800239
11
17.2389159
21
280.0435239
0
LINE
8
DEFAULT_255_2_778
10
17.2389159
20
280.0435239
11
17.1661159
21
279.9490239
0
LINE
8
DEFAULT_255_2_778
10
17.1661159
20
279.9490239
11
17.0769159
21
279.9085239
0
LINE
8
DEFAULT_255_2_778
10
17.0769159
20
279.9085239
11
16.9677159
21
279.8950239
0
LINE
8
DEFAULT_255_2_778
10
16.9677159
20
279.8950239
11
16.9150159
21
279.8971239
0
LINE
8
DEFAULT_255_2_778
10
16.9150159
20
279.8971239
11
16.9150159
21
279.7064239
0
LINE
8
DEFAULT_255_2_778
10
16.9150159
20
279.7064239
11
16.9838159
21
279.7064239
0
LINE
8
DEFAULT_255_2_778
10
16.9838159
20
279.7064239
11
17.0970159
21
279.6947239
0
LINE
8
DEFAULT_255_2_778
10
17.0970159
20
279.6947239
11
17.2267159
21
279.6053239
0
LINE
8
DEFAULT_255_2_778
10
17.2267159
20
279.6053239
11
17.2711159
21
279.5169239
0
LINE
8
DEFAULT_255_2_778
10
17.2711159
20
279.5169239
11
17.2833159
21
279.4077239
0
LINE
8
DEFAULT_255_2_778
10
17.2833159
20
279.4077239
11
17.2711159
21
279.2976239
0
LINE
8
DEFAULT_255_2_778
10
17.2711159
20
279.2976239
11
17.2225159
21
279.2074239
0
LINE
8
DEFAULT_255_2_778
10
17.2225159
20
279.2074239
11
17.1375159
21
279.1404239
0
LINE
8
DEFAULT_255_2_778
10
17.1375159
20
279.1404239
11
17.0240159
21
279.1177239
0
LINE
8
DEFAULT_255_2_778
10
17.0240159
20
279.1177239
11
16.9230159
21
279.1362239
0
LINE
8
DEFAULT_255_2_778
10
16.9230159
20
279.1362239
11
16.8460159
21
279.1904239
0
LINE
8
DEFAULT_255_2_778
10
16.8460159
20
279.1904239
11
16.8015159
21
279.2756239
0
LINE
8
DEFAULT_255_2_778
10
16.8015159
20
279.2756239
11
16.7854159
21
279.3838239
0
LINE
8
DEFAULT_255_2_778
10
16.7854159
20
279.3838239
11
16.5869159
21
279.3838239
0
LINE
8
DEFAULT_255_2_778
10
19.2841159
20
280.3797239
11
18.8346159
21
279.5206239
0
LINE
8
DEFAULT_255_2_778
10
18.8346159
20
279.5206239
11
19.2841159
21
279.5206239
0
LINE
8
DEFAULT_255_2_778
10
19.2841159
20
279.5206239
11
19.2841159
21
280.3797239
0
LINE
8
DEFAULT_255_2_778
10
19.2799159
20
278.9856239
11
19.4622159
21
278.9856239
0
LINE
8
DEFAULT_255_2_778
10
19.4622159
20
278.9856239
11
19.4622159
21
279.3299239
0
LINE
8
DEFAULT_255_2_778
10
19.4622159
20
279.3299239
11
19.6524159
21
279.3299239
0
LINE
8
DEFAULT_255_2_778
10
19.6524159
20
279.3299239
11
19.6524159
21
279.5206239
0
LINE
8
DEFAULT_255_2_778
10
19.6524159
20
279.5206239
11
19.4622159
21
279.5206239
0
LINE
8
DEFAULT_255_2_778
10
19.4622159
20
279.5206239
11
19.4622159
21
280.6155239
0
LINE
8
DEFAULT_255_2_778
10
19.4622159
20
280.6155239
11
19.2515159
21
280.6155239
0
LINE
8
DEFAULT_255_2_778
10
19.2515159
20
280.6155239
11
18.6927159
21
279.6098239
0
LINE
8
DEFAULT_255_2_778
10
18.6927159
20
279.6098239
11
18.6927159
21
279.3301239
0
LINE
8
DEFAULT_255_2_778
10
18.6927159
20
279.3301239
11
19.2799159
21
279.3301239
0
LINE
8
DEFAULT_255_2_778
10
19.2799159
20
279.3301239
11
19.2799159
21
278.9859239
0
LINE
8
DEFAULT_255_2_778
10
18.7496159
20
281.1137239
11
19.5757159
21
281.1137239
0
LINE
8
DEFAULT_255_2_778
10
19.5757159
20
281.1137239
11
19.5757159
21
281.3021239
0
LINE
8
DEFAULT_255_2_778
10
19.5757159
20
281.3021239
11
18.9563159
21
281.3021239
0
LINE
8
DEFAULT_255_2_778
10
18.9563159
20
281.3021239
11
19.1870159
21
281.5730239
0
LINE
8
DEFAULT_255_2_778
10
19.1870159
20
281.5730239
11
19.2963159
21
281.7053239
0
LINE
8
DEFAULT_255_2_778
10
19.2963159
20
281.7053239
11
19.4381159
21
281.8977239
0
LINE
8
DEFAULT_255_2_778
10
19.4381159
20
281.8977239
11
19.5111159
21
282.0403239
0
LINE
8
DEFAULT_255_2_778
10
19.5111159
20
282.0403239
11
19.5598159
21
282.1749239
0
LINE
8
DEFAULT_255_2_778
10
19.5598159
20
282.1749239
11
19.5720159
21
282.3030239
0
LINE
8
DEFAULT_255_2_778
10
19.5720159
20
282.3030239
11
19.5598159
21
282.4527239
0
LINE
8
DEFAULT_255_2_778
10
19.5598159
20
282.4527239
11
19.5193159
21
282.5758239
0
LINE
8
DEFAULT_255_2_778
10
19.5193159
20
282.5758239
11
19.4465159
21
282.6721239
0
LINE
8
DEFAULT_255_2_778
10
19.4465159
20
282.6721239
11
19.3251159
21
282.7517239
0
LINE
8
DEFAULT_255_2_778
10
19.3251159
20
282.7517239
11
19.1711159
21
282.7782239
0
LINE
8
DEFAULT_255_2_778
10
19.1711159
20
282.7782239
11
19.0214159
21
282.7523239
0
LINE
8
DEFAULT_255_2_778
10
19.0214159
20
282.7523239
11
18.8877159
21
282.6583239
0
LINE
8
DEFAULT_255_2_778
10
18.8877159
20
282.6583239
11
18.7946159
21
282.5096239
0
LINE
8
DEFAULT_255_2_778
10
18.7946159
20
282.5096239
11
18.7745159
21
282.4178239
0
LINE
8
DEFAULT_255_2_778
10
18.7745159
20
282.4178239
11
18.7663159
21
282.3027239
0
LINE
8
DEFAULT_255_2_778
10
18.7663159
20
282.3027239
11
18.9647159
21
282.3027239
0
LINE
8
DEFAULT_255_2_778
10
18.9647159
20
282.3027239
11
18.9769159
21
282.4250239
0
LINE
8
DEFAULT_255_2_778
10
18.9769159
20
282.4250239
11
19.0174159
21
282.5144239
0
LINE
8
DEFAULT_255_2_778
10
19.0174159
20
282.5144239
11
19.0862159
21
282.5708239
0
LINE
8
DEFAULT_255_2_778
10
19.0862159
20
282.5708239
11
19.1793159
21
282.5898239
0
LINE
8
DEFAULT_255_2_778
10
19.1793159
20
282.5898239
11
19.2807159
21
282.5631239
0
LINE
8
DEFAULT_255_2_778
10
19.2807159
20
282.5631239
11
19.3534159
21
282.4837239
0
LINE
8
DEFAULT_255_2_778
10
19.3534159
20
282.4837239
11
19.3857159
21
282.3213239
0
LINE
8
DEFAULT_255_2_778
10
19.3857159
20
282.3213239
11
19.3574159
21
282.1739239
0
LINE
8
DEFAULT_255_2_778
10
19.3574159
20
282.1739239
11
19.2764159
21
282.0059239
0
LINE
8
DEFAULT_255_2_778
10
19.2764159
20
282.0059239
11
19.2037159
21
281.8934239
0
LINE
8
DEFAULT_255_2_778
10
19.2037159
20
281.8934239
11
19.0904159
21
281.7492239
0
LINE
8
DEFAULT_255_2_778
10
19.0904159
20
281.7492239
11
18.7502159
21
281.3301239
0
LINE
8
DEFAULT_255_2_778
10
18.7502159
20
281.3301239
11
18.7502159
21
281.1134239
0
LINE
8
DEFAULT_255_2_778
10
16.4009159
20
282.8105239
11
16.8706159
21
282.0003239
0
LINE
8
DEFAULT_255_2_778
10
16.8706159
20
282.0003239
11
16.3443159
21
281.1103239
0
LINE
8
DEFAULT_255_2_778
10
16.3443159
20
281.1103239
11
16.5711159
21
281.1103239
0
LINE
8
DEFAULT_255_2_778
10
16.5711159
20
281.1103239
11
16.9841159
21
281.8402239
0
LINE
8
DEFAULT_255_2_778
10
16.9841159
20
281.8402239
11
17.3889159
21
281.1103239
0
LINE
8
DEFAULT_255_2_778
10
17.3889159
20
281.1103239
11
17.6278159
21
281.1103239
0
LINE
8
DEFAULT_255_2_778
10
17.6278159
20
281.1103239
11
17.1177159
21
281.9958239
0
LINE
8
DEFAULT_255_2_778
10
17.1177159
20
281.9958239
11
17.6035159
21
282.8105239
0
LINE
8
DEFAULT_255_2_778
10
17.6035159
20
282.8105239
11
17.3727159
21
282.8105239
0
LINE
8
DEFAULT_255_2_778
10
17.3727159
20
282.8105239
11
17.0084159
21
282.1556239
0
LINE
8
DEFAULT_255_2_778
10
17.0084159
20
282.1556239
11
16.6398159
21
282.8105239
0
LINE
8
DEFAULT_255_2_778
10
16.6398159
20
282.8105239
11
16.4009159
21
282.8105239
0
LINE
8
DEFAULT_255_2_778
10
2.6058159
20
275.5199239
11
2.7434159
21
275.5381239
0
LINE
8
DEFAULT_255_2_778
10
2.7434159
20
275.5381239
11
2.8566159
21
275.5940239
0
LINE
8
DEFAULT_255_2_778
10
2.8566159
20
275.5940239
11
2.9416159
21
275.6871239
0
LINE
8
DEFAULT_255_2_778
10
2.9416159
20
275.6871239
11
2.9982159
21
275.7924239
0
LINE
8
DEFAULT_255_2_778
10
2.9982159
20
275.7924239
11
3.0305159
21
275.9205239
0
LINE
8
DEFAULT_255_2_778
10
3.0305159
20
275.9205239
11
3.0387159
21
276.0707239
0
LINE
8
DEFAULT_255_2_778
10
3.0387159
20
276.0707239
11
3.0265159
21
276.2522239
0
LINE
8
DEFAULT_255_2_778
10
3.0265159
20
276.2522239
11
2.9900159
21
276.3975239
0
LINE
8
DEFAULT_255_2_778
10
2.9900159
20
276.3975239
11
2.9252159
21
276.5065239
0
LINE
8
DEFAULT_255_2_778
10
2.9252159
20
276.5065239
11
2.8077159
21
276.5912239
0
LINE
8
DEFAULT_255_2_778
10
2.8077159
20
276.5912239
11
2.6497159
21
276.6195239
0
LINE
8
DEFAULT_255_2_778
10
2.6497159
20
276.6195239
11
2.4960159
21
276.5814239
0
LINE
8
DEFAULT_255_2_778
10
2.4960159
20
276.5814239
11
2.3825159
21
276.4663239
0
LINE
8
DEFAULT_255_2_778
10
2.3825159
20
276.4663239
11
2.3865159
21
276.6663239
0
LINE
8
DEFAULT_255_2_778
10
2.3865159
20
276.6663239
11
2.3986159
21
276.8203239
0
LINE
8
DEFAULT_255_2_778
10
2.3986159
20
276.8203239
11
2.4270159
21
276.9280239
0
LINE
8
DEFAULT_255_2_778
10
2.4270159
20
276.9280239
11
2.4918159
21
277.0251239
0
LINE
8
DEFAULT_255_2_778
10
2.4918159
20
277.0251239
11
2.6011159
21
277.0574239
0
LINE
8
DEFAULT_255_2_778
10
2.6011159
20
277.0574239
11
2.7468159
21
276.9796239
0
LINE
8
DEFAULT_255_2_778
10
2.7468159
20
276.9796239
11
2.7913159
21
276.8171239
0
LINE
8
DEFAULT_255_2_778
10
2.7913159
20
276.8171239
11
3.0098159
21
276.8171239
0
LINE
8
DEFAULT_255_2_778
10
3.0098159
20
276.8171239
11
2.9815159
21
276.9812239
0
LINE
8
DEFAULT_255_2_778
10
2.9815159
20
276.9812239
11
2.8966159
21
277.1066239
0
LINE
8
DEFAULT_255_2_778
10
2.8966159
20
277.1066239
11
2.7712159
21
277.1881239
0
LINE
8
DEFAULT_255_2_778
10
2.7712159
20
277.1881239
11
2.6053159
21
277.2148239
0
LINE
8
DEFAULT_255_2_778
10
2.6053159
20
277.2148239
11
2.4190159
21
277.1844239
0
LINE
8
DEFAULT_255_2_778
10
2.4190159
20
277.1844239
11
2.2894159
21
277.0926239
0
LINE
8
DEFAULT_255_2_778
10
2.2894159
20
277.0926239
11
2.2206159
21
276.9642239
0
LINE
8
DEFAULT_255_2_778
10
2.2206159
20
276.9642239
11
2.1801159
21
276.7817239
0
LINE
8
DEFAULT_255_2_778
10
2.1801159
20
276.7817239
11
2.1719159
21
276.6840239
0
LINE
8
DEFAULT_255_2_778
10
2.1719159
20
276.6840239
11
2.1637159
21
276.5451239
0
LINE
8
DEFAULT_255_2_778
10
2.1637159
20
276.5451239
11
2.1637159
21
276.1938239
0
LINE
8
DEFAULT_255_2_778
10
2.1637159
20
276.1938239
11
2.1719159
21
276.0572239
0
LINE
8
DEFAULT_255_2_778
10
2.1719159
20
276.0572239
11
2.1801159
21
275.9551239
0
LINE
8
DEFAULT_255_2_778
10
2.1801159
20
275.9551239
11
2.2246159
21
275.7710239
0
LINE
8
DEFAULT_255_2_778
10
2.2246159
20
275.7710239
11
2.2933159
21
275.6421239
0
LINE
8
DEFAULT_255_2_778
10
2.2933159
20
275.6421239
11
2.4230159
21
275.5503239
0
LINE
8
DEFAULT_255_2_778
10
2.4230159
20
275.5503239
11
2.6053159
21
275.5199239
0
LINE
8
DEFAULT_255_2_778
10
2.395493
20
276.2160635
11
2.387293
21
276.0848635
0
LINE
8
DEFAULT_255_2_778
10
2.387293
20
276.0848635
11
2.395493
21
275.9382635
0
LINE
8
DEFAULT_255_2_778
10
2.395493
20
275.9382635
11
2.419793
21
275.8329635
0
LINE
8
DEFAULT_255_2_778
10
2.419793
20
275.8329635
11
2.496793
21
275.7342635
0
LINE
8
DEFAULT_255_2_778
10
2.496793
20
275.7342635
11
2.618293
21
275.7009635
0
LINE
8
DEFAULT_255_2_778
10
2.618293
20
275.7009635
11
2.719593
21
275.7316635
0
LINE
8
DEFAULT_255_2_778
10
2.719593
20
275.7316635
11
2.788393
21
275.8234635
0
LINE
8
DEFAULT_255_2_778
10
2.788393
20
275.8234635
11
2.816693
21
275.9416635
0
LINE
8
DEFAULT_255_2_778
10
2.816693
20
275.9416635
11
2.824893
21
276.1081635
0
LINE
8
DEFAULT_255_2_778
10
2.824893
20
276.1081635
11
2.808793
21
276.2676635
0
LINE
8
DEFAULT_255_2_778
10
2.808793
20
276.2676635
11
2.760093
21
276.3745635
0
LINE
8
DEFAULT_255_2_778
10
2.760093
20
276.3745635
11
2.602093
21
276.4380635
0
LINE
8
DEFAULT_255_2_778
10
2.602093
20
276.4380635
11
2.492893
21
276.4076635
0
LINE
8
DEFAULT_255_2_778
10
2.492893
20
276.4076635
11
2.424093
21
276.3176635
0
LINE
8
DEFAULT_255_2_778
10
2.424093
20
276.3176635
11
2.395793
21
276.2155635
0
LINE
8
DEFAULT_255_2_778
10
4.318793
20
276.8008635
11
4.306593
21
276.9598635
0
LINE
8
DEFAULT_255_2_778
10
4.306593
20
276.9598635
11
4.266093
21
277.0852635
0
LINE
8
DEFAULT_255_2_778
10
4.266093
20
277.0852635
11
4.197293
21
277.1770635
0
LINE
8
DEFAULT_255_2_778
10
4.197293
20
277.1770635
11
4.100193
21
277.2397635
0
LINE
8
DEFAULT_255_2_778
10
4.100193
20
277.2397635
11
3.966593
21
277.2773635
0
LINE
8
DEFAULT_255_2_778
10
3.966593
20
277.2773635
11
3.800393
21
277.2897635
0
LINE
8
DEFAULT_255_2_778
10
3.800393
20
277.2897635
11
3.638493
21
277.2736635
0
LINE
8
DEFAULT_255_2_778
10
3.638493
20
277.2736635
11
3.504893
21
277.2241635
0
LINE
8
DEFAULT_255_2_778
10
3.504893
20
277.2241635
11
3.399593
21
277.1415635
0
LINE
8
DEFAULT_255_2_778
10
3.399593
20
277.1415635
11
3.326793
21
277.0315635
0
LINE
8
DEFAULT_255_2_778
10
3.326793
20
277.0315635
11
3.282393
21
276.8957635
0
LINE
8
DEFAULT_255_2_778
10
3.282393
20
276.8957635
11
3.266193
21
276.7341635
0
LINE
8
DEFAULT_255_2_778
10
3.266193
20
276.7341635
11
3.266193
21
276.1761635
0
LINE
8
DEFAULT_255_2_778
10
3.266193
20
276.1761635
11
3.282393
21
275.9639635
0
LINE
8
DEFAULT_255_2_778
10
3.282393
20
275.9639635
11
3.322893
21
275.7964635
0
LINE
8
DEFAULT_255_2_778
10
3.322893
20
275.7964635
11
3.395893
21
275.6720635
0
LINE
8
DEFAULT_255_2_778
10
3.395893
20
275.6720635
11
3.496993
21
275.5874635
0
LINE
8
DEFAULT_255_2_778
10
3.496993
20
275.5874635
11
3.634793
21
275.5363635
0
LINE
8
DEFAULT_255_2_778
10
3.634793
20
275.5363635
11
3.800693
21
275.5194635
0
LINE
8
DEFAULT_255_2_778
10
3.800693
20
275.5194635
11
3.950493
21
275.5276635
0
LINE
8
DEFAULT_255_2_778
10
3.950493
20
275.5276635
11
4.084093
21
275.5522635
0
LINE
8
DEFAULT_255_2_778
10
4.084093
20
275.5522635
11
4.205493
21
275.5924635
0
LINE
8
DEFAULT_255_2_778
10
4.205493
20
275.5924635
11
4.318993
21
275.6466635
0
LINE
8
DEFAULT_255_2_778
10
4.318993
20
275.6466635
11
4.318993
21
276.4729635
0
LINE
8
DEFAULT_255_2_778
10
4.318993
20
276.4729635
11
3.792793
21
276.4729635
0
LINE
8
DEFAULT_255_2_778
10
3.792793
20
276.4729635
11
3.792793
21
276.2843635
0
LINE
8
DEFAULT_255_2_778
10
3.792793
20
276.2843635
11
4.104393
21
276.2843635
0
LINE
8
DEFAULT_255_2_778
10
4.104393
20
276.2843635
11
4.104393
21
275.7758635
0
LINE
8
DEFAULT_255_2_778
10
4.104393
20
275.7758635
11
3.986993
21
275.7220635
0
LINE
8
DEFAULT_255_2_778
10
3.986993
20
275.7220635
11
3.800693
21
275.7006635
0
LINE
8
DEFAULT_255_2_778
10
3.800693
20
275.7006635
11
3.663093
21
275.7242635
0
LINE
8
DEFAULT_255_2_778
10
3.663093
20
275.7242635
11
3.569993
21
275.7951635
0
LINE
8
DEFAULT_255_2_778
10
3.569993
20
275.7951635
11
3.509093
21
275.9409635
0
LINE
8
DEFAULT_255_2_778
10
3.509093
20
275.9409635
11
3.488993
21
276.1671635
0
LINE
8
DEFAULT_255_2_778
10
3.488993
20
276.1671635
11
3.488993
21
276.7417635
0
LINE
8
DEFAULT_255_2_778
10
3.488993
20
276.7417635
11
3.509093
21
276.8976635
0
LINE
8
DEFAULT_255_2_778
10
3.509093
20
276.8976635
11
3.569993
21
277.0122635
0
LINE
8
DEFAULT_255_2_778
10
3.569993
20
277.0122635
11
3.671093
21
277.0846635
0
LINE
8
DEFAULT_255_2_778
10
3.671093
20
277.0846635
11
3.800693
21
277.1090635
0
LINE
8
DEFAULT_255_2_778
10
3.800693
20
277.1090635
11
3.934293
21
277.0894635
0
LINE
8
DEFAULT_255_2_778
10
3.934293
20
277.0894635
11
4.023493
21
277.0312635
0
LINE
8
DEFAULT_255_2_778
10
4.023493
20
277.0312635
11
4.076093
21
276.9357635
0
LINE
8
DEFAULT_255_2_778
10
4.076093
20
276.9357635
11
4.092293
21
276.8005635
0
LINE
8
DEFAULT_255_2_778
10
4.092293
20
276.8005635
11
4.318993
21
276.8005635
0
LINE
8
DEFAULT_255_2_778
10
9.060393
20
276.3155635
11
9.226193
21
276.2988635
0
LINE
8
DEFAULT_255_2_778
10
9.226193
20
276.2988635
11
9.331593
21
276.2494635
0
LINE
8
DEFAULT_255_2_778
10
9.331593
20
276.2494635
11
9.388193
21
276.1541635
0
LINE
8
DEFAULT_255_2_778
10
9.388193
20
276.1541635
11
9.408293
21
275.9951635
0
LINE
8
DEFAULT_255_2_778
10
9.408293
20
275.9951635
11
9.396093
21
275.8697635
0
LINE
8
DEFAULT_255_2_778
10
9.396093
20
275.8697635
11
9.351693
21
275.7760635
0
LINE
8
DEFAULT_255_2_778
10
9.351693
20
275.7760635
11
9.274693
21
275.7197635
0
LINE
8
DEFAULT_255_2_778
10
9.274693
20
275.7197635
11
9.161193
21
275.7006635
0
LINE
8
DEFAULT_255_2_778
10
9.161193
20
275.7006635
11
9.047893
21
275.7236635
0
LINE
8
DEFAULT_255_2_778
10
9.047893
20
275.7236635
11
8.974893
21
275.7924635
0
LINE
8
DEFAULT_255_2_778
10
8.974893
20
275.7924635
11
8.946593
21
275.8781635
0
LINE
8
DEFAULT_255_2_778
10
8.946593
20
275.8781635
11
8.934393
21
276.0041635
0
LINE
8
DEFAULT_255_2_778
10
8.934393
20
276.0041635
11
8.719793
21
276.0041635
0
LINE
8
DEFAULT_255_2_778
10
8.719793
20
276.0041635
11
8.719793
21
275.9570635
0
LINE
8
DEFAULT_255_2_778
10
8.719793
20
275.9570635
11
8.735993
21
275.8049635
0
LINE
8
DEFAULT_255_2_778
10
8.735993
20
275.8049635
11
8.780393
21
275.6866635
0
LINE
8
DEFAULT_255_2_778
10
8.780393
20
275.6866635
11
8.865593
21
275.5935635
0
LINE
8
DEFAULT_255_2_778
10
8.865593
20
275.5935635
11
8.987093
21
275.5376635
0
LINE
8
DEFAULT_255_2_778
10
8.987093
20
275.5376635
11
9.141093
21
275.5194635
0
LINE
8
DEFAULT_255_2_778
10
9.141093
20
275.5194635
11
9.347393
21
275.5485635
0
LINE
8
DEFAULT_255_2_778
10
9.347393
20
275.5485635
11
9.501393
21
275.6368635
0
LINE
8
DEFAULT_255_2_778
10
9.501393
20
275.6368635
11
9.594493
21
275.7842635
0
LINE
8
DEFAULT_255_2_778
10
9.594493
20
275.7842635
11
9.626793
21
275.9903635
0
LINE
8
DEFAULT_255_2_778
10
9.626793
20
275.9903635
11
9.606693
21
276.1597635
0
LINE
8
DEFAULT_255_2_778
10
9.606693
20
276.1597635
11
9.550093
21
276.2824635
0
LINE
8
DEFAULT_255_2_778
10
9.550093
20
276.2824635
11
9.448993
21
276.3655635
0
LINE
8
DEFAULT_255_2_778
10
9.448993
20
276.3655635
11
9.287093
21
276.4121635
0
LINE
8
DEFAULT_255_2_778
10
9.287093
20
276.4121635
11
9.404593
21
276.4489635
0
LINE
8
DEFAULT_255_2_778
10
9.404593
20
276.4489635
11
9.485493
21
276.4941635
0
LINE
8
DEFAULT_255_2_778
10
9.485493
20
276.4941635
11
9.578693
21
276.6163635
0
LINE
8
DEFAULT_255_2_778
10
9.578693
20
276.6163635
11
9.610993
21
276.7910635
0
LINE
8
DEFAULT_255_2_778
10
9.610993
20
276.7910635
11
9.582593
21
276.9764635
0
LINE
8
DEFAULT_255_2_778
10
9.582593
20
276.9764635
11
9.493493
21
277.1087635
0
LINE
8
DEFAULT_255_2_778
10
9.493493
20
277.1087635
11
9.355593
21
277.1881635
0
LINE
8
DEFAULT_255_2_778
10
9.355593
20
277.1881635
11
9.165393
21
277.2143635
0
LINE
8
DEFAULT_255_2_778
10
9.165393
20
277.2143635
11
8.975193
21
277.1855635
0
LINE
8
DEFAULT_255_2_778
10
8.975193
20
277.1855635
11
8.845493
21
277.0992635
0
LINE
8
DEFAULT_255_2_778
10
8.845493
20
277.0992635
11
8.768493
21
276.9582635
0
LINE
8
DEFAULT_255_2_778
10
8.768493
20
276.9582635
11
8.744193
21
276.7671635
0
LINE
8
DEFAULT_255_2_778
10
8.744193
20
276.7671635
11
8.962693
21
276.7671635
0
LINE
8
DEFAULT_255_2_778
10
8.962693
20
276.7671635
11
8.999193
21
276.9505635
0
LINE
8
DEFAULT_255_2_778
10
8.999193
20
276.9505635
11
9.165093
21
277.0331635
0
LINE
8
DEFAULT_255_2_778
10
9.165093
20
277.0331635
11
9.339193
21
276.9598635
0
LINE
8
DEFAULT_255_2_778
10
9.339193
20
276.9598635
11
9.391893
21
276.7764635
0
LINE
8
DEFAULT_255_2_778
10
9.391893
20
276.7764635
11
9.371793
21
276.6550635
0
LINE
8
DEFAULT_255_2_778
10
9.371793
20
276.6550635
11
9.315093
21
276.5690635
0
LINE
8
DEFAULT_255_2_778
10
9.315093
20
276.5690635
11
9.225993
21
276.5195635
0
LINE
8
DEFAULT_255_2_778
10
9.225993
20
276.5195635
11
9.108493
21
276.5028635
0
LINE
8
DEFAULT_255_2_778
10
9.108493
20
276.5028635
11
9.059793
21
276.5052635
0
LINE
8
DEFAULT_255_2_778
10
9.059793
20
276.5052635
11
9.059793
21
276.3144635
0
LINE
8
DEFAULT_255_2_778
10
11.084693
20
277.1892635
11
10.898393
21
277.1892635
0
LINE
8
DEFAULT_255_2_778
10
10.898393
20
277.1892635
11
10.756593
21
277.0786635
0
LINE
8
DEFAULT_255_2_778
10
10.756593
20
277.0786635
11
10.622993
21
276.9939635
0
LINE
8
DEFAULT_255_2_778
10
10.622993
20
276.9939635
11
10.622993
21
276.7867635
0
LINE
8
DEFAULT_255_2_778
10
10.622993
20
276.7867635
11
10.870093
21
276.9516635
0
LINE
8
DEFAULT_255_2_778
10
10.870093
20
276.9516635
11
10.870093
21
275.5554635
0
LINE
8
DEFAULT_255_2_778
10
10.870093
20
275.5554635
11
11.084693
21
275.5554635
0
LINE
8
DEFAULT_255_2_778
10
11.084693
20
275.5554635
11
11.084693
21
277.1892635
0
LINE
8
DEFAULT_255_2_778
10
11.590793
20
276.1769635
11
11.606993
21
275.9647635
0
LINE
8
DEFAULT_255_2_778
10
11.606993
20
275.9647635
11
11.651393
21
275.7972635
0
LINE
8
DEFAULT_255_2_778
10
11.651393
20
275.7972635
11
11.720193
21
275.6728635
0
LINE
8
DEFAULT_255_2_778
10
11.720193
20
275.6728635
11
11.825493
21
275.5882635
0
LINE
8
DEFAULT_255_2_778
10
11.825493
20
275.5882635
11
11.959093
21
275.5371635
0
LINE
8
DEFAULT_255_2_778
10
11.959093
20
275.5371635
11
12.125293
21
275.5202635
0
LINE
8
DEFAULT_255_2_778
10
12.125293
20
275.5202635
11
12.295393
21
275.5371635
0
LINE
8
DEFAULT_255_2_778
10
12.295393
20
275.5371635
11
12.428993
21
275.5890635
0
LINE
8
DEFAULT_255_2_778
10
12.428993
20
275.5890635
11
12.530093
21
275.6752635
0
LINE
8
DEFAULT_255_2_778
10
12.530093
20
275.6752635
11
12.602893
21
275.7998635
0
LINE
8
DEFAULT_255_2_778
10
12.602893
20
275.7998635
11
12.647293
21
275.9670635
0
LINE
8
DEFAULT_255_2_778
10
12.647293
20
275.9670635
11
12.663493
21
276.1769635
0
LINE
8
DEFAULT_255_2_778
10
12.663493
20
276.1769635
11
12.663493
21
277.2550635
0
LINE
8
DEFAULT_255_2_778
10
12.663493
20
277.2550635
11
12.444893
21
277.2550635
0
LINE
8
DEFAULT_255_2_778
10
12.444893
20
277.2550635
11
12.444893
21
276.1673635
0
LINE
8
DEFAULT_255_2_778
10
12.444893
20
276.1673635
11
12.436993
21
276.0054635
0
LINE
8
DEFAULT_255_2_778
10
12.436993
20
276.0054635
11
12.412593
21
275.8808635
0
LINE
8
DEFAULT_255_2_778
10
12.412593
20
275.8808635
11
12.368193
21
275.7930635
0
LINE
8
DEFAULT_255_2_778
10
12.368193
20
275.7930635
11
12.271093
21
275.7242635
0
LINE
8
DEFAULT_255_2_778
10
12.271093
20
275.7242635
11
12.125293
21
275.7011635
0
LINE
8
DEFAULT_255_2_778
10
12.125293
20
275.7011635
11
11.983493
21
275.7247635
0
LINE
8
DEFAULT_255_2_778
10
11.983493
20
275.7247635
11
11.890293
21
275.7956635
0
LINE
8
DEFAULT_255_2_778
10
11.890293
20
275.7956635
11
11.829693
21
275.9414635
0
LINE
8
DEFAULT_255_2_778
10
11.829693
20
275.9414635
11
11.809593
21
276.1676635
0
LINE
8
DEFAULT_255_2_778
10
11.809593
20
276.1676635
11
11.809593
21
277.2553635
0
LINE
8
DEFAULT_255_2_778
10
11.809593
20
277.2553635
11
11.591093
21
277.2553635
0
LINE
8
DEFAULT_255_2_778
10
11.591093
20
277.2553635
11
11.591093
21
276.1771635
0
LINE
8
DEFAULT_255_2_778
10
16.340393
20
276.2875635
11
16.340393
21
276.1062635
0
LINE
8
DEFAULT_255_2_778
10
16.340393
20
276.1062635
11
16.860793
21
276.1062635
0
LINE
8
DEFAULT_255_2_778
10
16.860793
20
276.1062635
11
16.860793
21
276.2875635
0
LINE
8
DEFAULT_255_2_778
10
16.860793
20
276.2875635
11
16.340393
21
276.2875635
0
LINE
8
DEFAULT_255_2_778
10
8.262593
20
276.9915635
11
7.906193
21
276.1417635
0
LINE
8
DEFAULT_255_2_778
10
7.906193
20
276.1417635
11
8.262593
21
276.1417635
0
LINE
8
DEFAULT_255_2_778
10
8.262593
20
276.1417635
11
8.262593
21
276.9915635
0
LINE
8
DEFAULT_255_2_778
10
7.258293
20
276.9915635
11
6.901893
21
276.1417635
0
LINE
8
DEFAULT_255_2_778
10
6.901893
20
276.1417635
11
7.258293
21
276.1417635
0
LINE
8
DEFAULT_255_2_778
10
7.258293
20
276.1417635
11
7.258293
21
276.9915635
0
LINE
8
DEFAULT_255_2_778
10
20.312793
20
275.5554635
11
20.312793
21
275.7435635
0
LINE
8
DEFAULT_255_2_778
10
20.312793
20
275.7435635
11
19.636493
21
275.7435635
0
LINE
8
DEFAULT_255_2_778
10
19.636493
20
275.7435635
11
19.636493
21
276.3322635
0
LINE
8
DEFAULT_255_2_778
10
19.636493
20
276.3322635
11
20.251993
21
276.3322635
0
LINE
8
DEFAULT_255_2_778
10
20.251993
20
276.3322635
11
20.251993
21
276.5206635
0
LINE
8
DEFAULT_255_2_778
10
20.251993
20
276.5206635
11
19.636493
21
276.5206635
0
LINE
8
DEFAULT_255_2_778
10
19.636493
20
276.5206635
11
19.636493
21
277.0669635
0
LINE
8
DEFAULT_255_2_778
10
19.636493
20
277.0669635
11
20.296393
21
277.0669635
0
LINE
8
DEFAULT_255_2_778
10
20.296393
20
277.0669635
11
20.296393
21
277.2550635
0
LINE
8
DEFAULT_255_2_778
10
20.296393
20
277.2550635
11
19.421693
21
277.2550635
0
LINE
8
DEFAULT_255_2_778
10
19.421693
20
277.2550635
11
19.421693
21
275.5554635
0
LINE
8
DEFAULT_255_2_778
10
19.421693
20
275.5554635
11
20.312593
21
275.5554635
0
LINE
8
DEFAULT_255_2_778
10
18.729593
20
276.4359635
11
19.186993
21
277.2550635
0
LINE
8
DEFAULT_255_2_778
10
19.186993
20
277.2550635
11
18.952093
21
277.2550635
0
LINE
8
DEFAULT_255_2_778
10
18.952093
20
277.2550635
11
18.595693
21
276.5960635
0
LINE
8
DEFAULT_255_2_778
10
18.595693
20
276.5960635
11
18.247493
21
277.2550635
0
LINE
8
DEFAULT_255_2_778
10
18.247493
20
277.2550635
11
18.000393
21
277.2550635
0
LINE
8
DEFAULT_255_2_778
10
18.000393
20
277.2550635
11
18.462093
21
276.4359635
0
LINE
8
DEFAULT_255_2_778
10
18.462093
20
276.4359635
11
17.972093
21
275.5554635
0
LINE
8
DEFAULT_255_2_778
10
17.972093
20
275.5554635
11
18.206993
21
275.5554635
0
LINE
8
DEFAULT_255_2_778
10
18.206993
20
275.5554635
11
18.583493
21
276.2830635
0
LINE
8
DEFAULT_255_2_778
10
18.583493
20
276.2830635
11
18.980393
21
275.5554635
0
LINE
8
DEFAULT_255_2_778
10
18.980393
20
275.5554635
11
19.239393
21
275.5554635
0
LINE
8
DEFAULT_255_2_778
10
19.239393
20
275.5554635
11
18.729293
21
276.4359635
0
LINE
8
DEFAULT_255_2_778
10
14.093293
20
275.5554635
11
13.583093
21
276.4359635
0
LINE
8
DEFAULT_255_2_778
10
13.583093
20
276.4359635
11
14.040593
21
277.2550635
0
LINE
8
DEFAULT_255_2_778
10
14.040593
20
277.2550635
11
13.801693
21
277.2550635
0
LINE
8
DEFAULT_255_2_778
10
13.801693
20
277.2550635
11
13.449493
21
276.5960635
0
LINE
8
DEFAULT_255_2_778
10
13.449493
20
276.5960635
11
13.101293
21
277.2550635
0
LINE
8
DEFAULT_255_2_778
10
13.101293
20
277.2550635
11
12.850193
21
277.2550635
0
LINE
8
DEFAULT_255_2_778
10
12.850193
20
277.2550635
11
13.315893
21
276.4359635
0
LINE
8
DEFAULT_255_2_778
10
13.315893
20
276.4359635
11
12.825893
21
275.5554635
0
LINE
8
DEFAULT_255_2_778
10
12.825893
20
275.5554635
11
13.060893
21
275.5554635
0
LINE
8
DEFAULT_255_2_778
10
13.060893
20
275.5554635
11
13.437393
21
276.2830635
0
LINE
8
DEFAULT_255_2_778
10
13.437393
20
276.2830635
11
13.830293
21
275.5554635
0
LINE
8
DEFAULT_255_2_778
10
13.830293
20
275.5554635
11
14.093493
21
275.5554635
0
LINE
8
DEFAULT_255_2_778
10
20.980893
20
277.0010635
11
20.875593
21
277.0338635
0
LINE
8
DEFAULT_255_2_778
10
20.875593
20
277.0338635
11
20.754093
21
276.9860635
0
LINE
8
DEFAULT_255_2_778
10
20.754093
20
276.9860635
11
20.681393
21
276.8431635
0
LINE
8
DEFAULT_255_2_778
10
20.681393
20
276.8431635
11
20.665193
21
276.7309635
0
LINE
8
DEFAULT_255_2_778
10
20.665193
20
276.7309635
11
20.657293
21
276.5571635
0
LINE
8
DEFAULT_255_2_778
10
20.657293
20
276.5571635
11
20.653293
21
276.3221635
0
LINE
8
DEFAULT_255_2_778
10
20.653293
20
276.3221635
11
20.657293
21
276.1359635
0
LINE
8
DEFAULT_255_2_778
10
20.657293
20
276.1359635
11
20.661293
21
275.9977635
0
LINE
8
DEFAULT_255_2_778
10
20.661293
20
275.9977635
11
20.673393
21
275.9078635
0
LINE
8
DEFAULT_255_2_778
10
20.673393
20
275.9078635
11
20.746493
21
275.7522635
0
LINE
8
DEFAULT_255_2_778
10
20.746493
20
275.7522635
11
20.876093
21
275.7003635
0
LINE
8
DEFAULT_255_2_778
10
20.876093
20
275.7003635
11
21.005793
21
275.7522635
0
LINE
8
DEFAULT_255_2_778
10
21.005793
20
275.7522635
11
21.078493
21
275.9078635
0
LINE
8
DEFAULT_255_2_778
10
21.078493
20
275.9078635
11
21.090693
21
275.9977635
0
LINE
8
DEFAULT_255_2_778
10
21.090693
20
275.9977635
11
21.098893
21
276.1359635
0
LINE
8
DEFAULT_255_2_778
10
21.098893
20
276.1359635
11
21.098893
21
276.5139635
0
LINE
8
DEFAULT_255_2_778
10
21.098893
20
276.5139635
11
21.094893
21
276.6528635
0
LINE
8
DEFAULT_255_2_778
10
21.094893
20
276.6528635
11
21.090993
21
276.7391635
0
LINE
8
DEFAULT_255_2_778
10
21.090993
20
276.7391635
11
21.054393
21
276.9026635
0
LINE
8
DEFAULT_255_2_778
10
21.054393
20
276.9026635
11
20.981693
21
277.0005635
0
LINE
8
DEFAULT_255_2_778
10
20.875293
20
277.2148635
11
20.692993
21
277.1844635
0
LINE
8
DEFAULT_255_2_778
10
20.692993
20
277.1844635
11
20.559393
21
277.0926635
0
LINE
8
DEFAULT_255_2_778
10
20.559393
20
277.0926635
11
20.490593
21
276.9643635
0
LINE
8
DEFAULT_255_2_778
10
20.490593
20
276.9643635
11
20.450093
21
276.7817635
0
LINE
8
DEFAULT_255_2_778
10
20.450093
20
276.7817635
11
20.441893
21
276.6841635
0
LINE
8
DEFAULT_255_2_778
10
20.441893
20
276.6841635
11
20.437993
21
276.5452635
0
LINE
8
DEFAULT_255_2_778
10
20.437993
20
276.5452635
11
20.433993
21
276.3650635
0
LINE
8
DEFAULT_255_2_778
10
20.433993
20
276.3650635
11
20.437993
21
276.1938635
0
LINE
8
DEFAULT_255_2_778
10
20.437993
20
276.1938635
11
20.441893
21
276.0573635
0
LINE
8
DEFAULT_255_2_778
10
20.441893
20
276.0573635
11
20.454093
21
275.9551635
0
LINE
8
DEFAULT_255_2_778
10
20.454093
20
275.9551635
11
20.494593
21
275.7710635
0
LINE
8
DEFAULT_255_2_778
10
20.494593
20
275.7710635
11
20.563393
21
275.6421635
0
LINE
8
DEFAULT_255_2_778
10
20.563393
20
275.6421635
11
20.692993
21
275.5503635
0
LINE
8
DEFAULT_255_2_778
10
20.692993
20
275.5503635
11
20.875293
21
275.5199635
0
LINE
8
DEFAULT_255_2_778
10
20.875293
20
275.5199635
11
21.057593
21
275.5511635
0
LINE
8
DEFAULT_255_2_778
10
21.057593
20
275.5511635
11
21.191193
21
275.6448635
0
LINE
8
DEFAULT_255_2_778
10
21.191193
20
275.6448635
11
21.259993
21
275.7747635
0
LINE
8
DEFAULT_255_2_778
10
21.259993
20
275.7747635
11
21.300493
21
275.9578635
0
LINE
8
DEFAULT_255_2_778
10
21.300493
20
275.9578635
11
21.308693
21
276.0522635
0
LINE
8
DEFAULT_255_2_778
10
21.308693
20
276.0522635
11
21.316893
21
276.1882635
0
LINE
8
DEFAULT_255_2_778
10
21.316893
20
276.1882635
11
21.316893
21
276.3652635
0
LINE
8
DEFAULT_255_2_778
10
21.316893
20
276.3652635
11
21.312893
21
276.5380635
0
LINE
8
DEFAULT_255_2_778
10
21.312893
20
276.5380635
11
21.308993
21
276.6769635
0
LINE
8
DEFAULT_255_2_778
10
21.308993
20
276.6769635
11
21.300793
21
276.7817635
0
LINE
8
DEFAULT_255_2_778
10
21.300793
20
276.7817635
11
21.260293
21
276.9656635
0
LINE
8
DEFAULT_255_2_778
10
21.260293
20
276.9656635
11
21.191493
21
277.0926635
0
LINE
8
DEFAULT_255_2_778
10
21.191493
20
277.0926635
11
21.057893
21
277.1844635
0
LINE
8
DEFAULT_255_2_778
10
21.057893
20
277.1844635
11
20.875593
21
277.2148635
0
LINE
8
DEFAULT_255_2_778
10
17.575393
20
277.0010635
11
17.470093
21
277.0338635
0
LINE
8
DEFAULT_255_2_778
10
17.470093
20
277.0338635
11
17.348693
21
276.9860635
0
LINE
8
DEFAULT_255_2_778
10
17.348693
20
276.9860635
11
17.275893
21
276.8431635
0
LINE
8
DEFAULT_255_2_778
10
17.275893
20
276.8431635
11
17.259793
21
276.7309635
0
LINE
8
DEFAULT_255_2_778
10
17.259793
20
276.7309635
11
17.251593
21
276.5571635
0
LINE
8
DEFAULT_255_2_778
10
17.251593
20
276.5571635
11
17.247593
21
276.3221635
0
LINE
8
DEFAULT_255_2_778
10
17.247593
20
276.3221635
11
17.251593
21
276.1359635
0
LINE
8
DEFAULT_255_2_778
10
17.251593
20
276.1359635
11
17.255593
21
275.9977635
0
LINE
8
DEFAULT_255_2_778
10
17.255593
20
275.9977635
11
17.267693
21
275.9078635
0
LINE
8
DEFAULT_255_2_778
10
17.267693
20
275.9078635
11
17.340493
21
275.7522635
0
LINE
8
DEFAULT_255_2_778
10
17.340493
20
275.7522635
11
17.470093
21
275.7003635
0
LINE
8
DEFAULT_255_2_778
10
17.470093
20
275.7003635
11
17.599793
21
275.7522635
0
LINE
8
DEFAULT_255_2_778
10
17.599793
20
275.7522635
11
17.672493
21
275.9078635
0
LINE
8
DEFAULT_255_2_778
10
17.672493
20
275.9078635
11
17.684693
21
275.9977635
0
LINE
8
DEFAULT_255_2_778
10
17.684693
20
275.9977635
11
17.692893
21
276.1359635
0
LINE
8
DEFAULT_255_2_778
10
17.692893
20
276.1359635
11
17.696893
21
276.3221635
0
LINE
8
DEFAULT_255_2_778
10
17.696893
20
276.3221635
11
17.692893
21
276.5139635
0
LINE
8
DEFAULT_255_2_778
10
17.692893
20
276.5139635
11
17.692893
21
276.6528635
0
LINE
8
DEFAULT_255_2_778
10
17.692893
20
276.6528635
11
17.684693
21
276.7391635
0
LINE
8
DEFAULT_255_2_778
10
17.684693
20
276.7391635
11
17.648193
21
276.9026635
0
LINE
8
DEFAULT_255_2_778
10
17.648193
20
276.9026635
11
17.575193
21
277.0005635
0
LINE
8
DEFAULT_255_2_778
10
17.470093
20
277.2148635
11
17.287793
21
277.1844635
0
LINE
8
DEFAULT_255_2_778
10
17.287793
20
277.1844635
11
17.154193
21
277.0926635
0
LINE
8
DEFAULT_255_2_778
10
17.154193
20
277.0926635
11
17.085393
21
276.9643635
0
LINE
8
DEFAULT_255_2_778
10
17.085393
20
276.9643635
11
17.044993
21
276.7817635
0
LINE
8
DEFAULT_255_2_778
10
17.044993
20
276.7817635
11
17.036693
21
276.6841635
0
LINE
8
DEFAULT_255_2_778
10
17.036693
20
276.6841635
11
17.032793
21
276.5452635
0
LINE
8
DEFAULT_255_2_778
10
17.032793
20
276.5452635
11
17.032793
21
276.1938635
0
LINE
8
DEFAULT_255_2_778
10
17.032793
20
276.1938635
11
17.036693
21
276.0573635
0
LINE
8
DEFAULT_255_2_778
10
17.036693
20
276.0573635
11
17.048893
21
275.9551635
0
LINE
8
DEFAULT_255_2_778
10
17.048893
20
275.9551635
11
17.089393
21
275.7710635
0
LINE
8
DEFAULT_255_2_778
10
17.089393
20
275.7710635
11
17.162393
21
275.6421635
0
LINE
8
DEFAULT_255_2_778
10
17.162393
20
275.6421635
11
17.292093
21
275.5503635
0
LINE
8
DEFAULT_255_2_778
10
17.292093
20
275.5503635
11
17.470093
21
275.5199635
0
LINE
8
DEFAULT_255_2_778
10
17.470093
20
275.5199635
11
17.656393
21
275.5511635
0
LINE
8
DEFAULT_255_2_778
10
17.656393
20
275.5511635
11
17.785993
21
275.6448635
0
LINE
8
DEFAULT_255_2_778
10
17.785993
20
275.6448635
11
17.854793
21
275.7747635
0
LINE
8
DEFAULT_255_2_778
10
17.854793
20
275.7747635
11
17.899293
21
275.9578635
0
LINE
8
DEFAULT_255_2_778
10
17.899293
20
275.9578635
11
17.907493
21
276.0522635
0
LINE
8
DEFAULT_255_2_778
10
17.907493
20
276.0522635
11
17.911493
21
276.1882635
0
LINE
8
DEFAULT_255_2_778
10
17.911493
20
276.1882635
11
17.911493
21
276.5380635
0
LINE
8
DEFAULT_255_2_778
10
17.911493
20
276.5380635
11
17.903493
21
276.6769635
0
LINE
8
DEFAULT_255_2_778
10
17.903493
20
276.6769635
11
17.895293
21
276.7817635
0
LINE
8
DEFAULT_255_2_778
10
17.895293
20
276.7817635
11
17.854793
21
276.9656635
0
LINE
8
DEFAULT_255_2_778
10
17.854793
20
276.9656635
11
17.785993
21
277.0926635
0
LINE
8
DEFAULT_255_2_778
10
17.785993
20
277.0926635
11
17.656393
21
277.1844635
0
LINE
8
DEFAULT_255_2_778
10
17.656393
20
277.1844635
11
17.470093
21
277.2148635
0
LINE
8
DEFAULT_255_2_778
10
15.834493
20
277.0010635
11
15.725193
21
277.0338635
0
LINE
8
DEFAULT_255_2_778
10
15.725193
20
277.0338635
11
15.603793
21
276.9860635
0
LINE
8
DEFAULT_255_2_778
10
15.603793
20
276.9860635
11
15.530993
21
276.8431635
0
LINE
8
DEFAULT_255_2_778
10
15.530993
20
276.8431635
11
15.514893
21
276.7309635
0
LINE
8
DEFAULT_255_2_778
10
15.514893
20
276.7309635
11
15.506693
21
276.5571635
0
LINE
8
DEFAULT_255_2_778
10
15.506693
20
276.5571635
11
15.502693
21
276.3221635
0
LINE
8
DEFAULT_255_2_778
10
15.502693
20
276.3221635
11
15.506693
21
276.1359635
0
LINE
8
DEFAULT_255_2_778
10
15.506693
20
276.1359635
11
15.514893
21
275.9977635
0
LINE
8
DEFAULT_255_2_778
10
15.514893
20
275.9977635
11
15.522793
21
275.9078635
0
LINE
8
DEFAULT_255_2_778
10
15.522793
20
275.9078635
11
15.595793
21
275.7522635
0
LINE
8
DEFAULT_255_2_778
10
15.595793
20
275.7522635
11
15.725493
21
275.7003635
0
LINE
8
DEFAULT_255_2_778
10
15.725493
20
275.7003635
11
15.855093
21
275.7522635
0
LINE
8
DEFAULT_255_2_778
10
15.855093
20
275.7522635
11
15.928093
21
275.9078635
0
LINE
8
DEFAULT_255_2_778
10
15.928093
20
275.9078635
11
15.940293
21
275.9977635
0
LINE
8
DEFAULT_255_2_778
10
15.940293
20
275.9977635
11
15.948493
21
276.1359635
0
LINE
8
DEFAULT_255_2_778
10
15.948493
20
276.1359635
11
15.952493
21
276.3221635
0
LINE
8
DEFAULT_255_2_778
10
15.952493
20
276.3221635
11
15.948493
21
276.5139635
0
LINE
8
DEFAULT_255_2_778
10
15.948493
20
276.5139635
11
15.948493
21
276.6528635
0
LINE
8
DEFAULT_255_2_778
10
15.948493
20
276.6528635
11
15.940293
21
276.7391635
0
LINE
8
DEFAULT_255_2_778
10
15.940293
20
276.7391635
11
15.903793
21
276.9026635
0
LINE
8
DEFAULT_255_2_778
10
15.903793
20
276.9026635
11
15.834993
21
277.0005635
0
LINE
8
DEFAULT_255_2_778
10
15.724893
20
277.2148635
11
15.542593
21
277.1844635
0
LINE
8
DEFAULT_255_2_778
10
15.542593
20
277.1844635
11
15.412993
21
277.0926635
0
LINE
8
DEFAULT_255_2_778
10
15.412993
20
277.0926635
11
15.339993
21
276.9643635
0
LINE
8
DEFAULT_255_2_778
10
15.339993
20
276.9643635
11
15.299493
21
276.7817635
0
LINE
8
DEFAULT_255_2_778
10
15.299493
20
276.7817635
11
15.291593
21
276.6841635
0
LINE
8
DEFAULT_255_2_778
10
15.291593
20
276.6841635
11
15.287593
21
276.5452635
0
LINE
8
DEFAULT_255_2_778
10
15.287593
20
276.5452635
11
15.287593
21
276.1938635
0
LINE
8
DEFAULT_255_2_778
10
15.287593
20
276.1938635
11
15.295793
21
276.0573635
0
LINE
8
DEFAULT_255_2_778
10
15.295793
20
276.0573635
11
15.303993
21
275.9551635
0
LINE
8
DEFAULT_255_2_778
10
15.303993
20
275.9551635
11
15.344493
21
275.7710635
0
LINE
8
DEFAULT_255_2_778
10
15.344493
20
275.7710635
11
15.417493
21
275.6421635
0
LINE
8
DEFAULT_255_2_778
10
15.417493
20
275.6421635
11
15.547093
21
275.5503635
0
LINE
8
DEFAULT_255_2_778
10
15.547093
20
275.5503635
11
15.725193
21
275.5199635
0
LINE
8
DEFAULT_255_2_778
10
15.725193
20
275.5199635
11
15.911493
21
275.5511635
0
LINE
8
DEFAULT_255_2_778
10
15.911493
20
275.5511635
11
16.041093
21
275.6448635
0
LINE
8
DEFAULT_255_2_778
10
16.041093
20
275.6448635
11
16.113893
21
275.7747635
0
LINE
8
DEFAULT_255_2_778
10
16.113893
20
275.7747635
11
16.154393
21
275.9578635
0
LINE
8
DEFAULT_255_2_778
10
16.154393
20
275.9578635
11
16.162593
21
276.0522635
0
LINE
8
DEFAULT_255_2_778
10
16.162593
20
276.0522635
11
16.166493
21
276.1882635
0
LINE
8
DEFAULT_255_2_778
10
16.166493
20
276.1882635
11
16.166493
21
276.5380635
0
LINE
8
DEFAULT_255_2_778
10
16.166493
20
276.5380635
11
16.158293
21
276.6769635
0
LINE
8
DEFAULT_255_2_778
10
16.158293
20
276.6769635
11
16.150093
21
276.7817635
0
LINE
8
DEFAULT_255_2_778
10
16.150093
20
276.7817635
11
16.109593
21
276.9656635
0
LINE
8
DEFAULT_255_2_778
10
16.109593
20
276.9656635
11
16.040893
21
277.0926635
0
LINE
8
DEFAULT_255_2_778
10
16.040893
20
277.0926635
11
15.911193
21
277.1844635
0
LINE
8
DEFAULT_255_2_778
10
15.911193
20
277.1844635
11
15.724893
21
277.2148635
0
LINE
8
DEFAULT_255_2_778
10
14.595193
20
277.2148635
11
14.408893
21
277.1844635
0
LINE
8
DEFAULT_255_2_778
10
14.408893
20
277.1844635
11
14.279293
21
277.0926635
0
LINE
8
DEFAULT_255_2_778
10
14.279293
20
277.0926635
11
14.210493
21
276.9643635
0
LINE
8
DEFAULT_255_2_778
10
14.210493
20
276.9643635
11
14.169993
21
276.7817635
0
LINE
8
DEFAULT_255_2_778
10
14.169993
20
276.7817635
11
14.161793
21
276.6841635
0
LINE
8
DEFAULT_255_2_778
10
14.161793
20
276.6841635
11
14.153593
21
276.5452635
0
LINE
8
DEFAULT_255_2_778
10
14.153593
20
276.5452635
11
14.153593
21
276.1938635
0
LINE
8
DEFAULT_255_2_778
10
14.153593
20
276.1938635
11
14.161793
21
276.0573635
0
LINE
8
DEFAULT_255_2_778
10
14.161793
20
276.0573635
11
14.169993
21
275.9551635
0
LINE
8
DEFAULT_255_2_778
10
14.169993
20
275.9551635
11
14.214393
21
275.7710635
0
LINE
8
DEFAULT_255_2_778
10
14.214393
20
275.7710635
11
14.283193
21
275.6421635
0
LINE
8
DEFAULT_255_2_778
10
14.283193
20
275.6421635
11
14.412893
21
275.5503635
0
LINE
8
DEFAULT_255_2_778
10
14.412893
20
275.5503635
11
14.595193
21
275.5199635
0
LINE
8
DEFAULT_255_2_778
10
14.595193
20
275.5199635
11
14.777493
21
275.5511635
0
LINE
8
DEFAULT_255_2_778
10
14.777493
20
275.5511635
11
14.907093
21
275.6448635
0
LINE
8
DEFAULT_255_2_778
10
14.907093
20
275.6448635
11
14.979893
21
275.7747635
0
LINE
8
DEFAULT_255_2_778
10
14.979893
20
275.7747635
11
15.020393
21
275.9578635
0
LINE
8
DEFAULT_255_2_778
10
15.020393
20
275.9578635
11
15.028593
21
276.0522635
0
LINE
8
DEFAULT_255_2_778
10
15.028593
20
276.0522635
11
15.032493
21
276.1882635
0
LINE
8
DEFAULT_255_2_778
10
15.032493
20
276.1882635
11
15.036493
21
276.3652635
0
LINE
8
DEFAULT_255_2_778
10
15.036493
20
276.3652635
11
15.032493
21
276.5380635
0
LINE
8
DEFAULT_255_2_778
10
15.032493
20
276.5380635
11
15.028593
21
276.6769635
0
LINE
8
DEFAULT_255_2_778
10
15.028593
20
276.6769635
11
15.016393
21
276.7817635
0
LINE
8
DEFAULT_255_2_778
10
15.016393
20
276.7817635
11
14.975893
21
276.9656635
0
LINE
8
DEFAULT_255_2_778
10
14.975893
20
276.9656635
11
14.907093
21
277.0926635
0
LINE
8
DEFAULT_255_2_778
10
14.907093
20
277.0926635
11
14.777493
21
277.1844635
0
LINE
8
DEFAULT_255_2_778
10
14.777493
20
277.1844635
11
14.595193
21
277.2148635
0
LINE
8
DEFAULT_255_2_778
10
14.7007856
20
277.0009855
11
14.5953856
21
277.0337855
0
LINE
8
DEFAULT_255_2_778
10
14.5953856
20
277.0337855
11
14.4699856
21
276.9859855
0
LINE
8
DEFAULT_255_2_778
10
14.4699856
20
276.9859855
11
14.4011856
21
276.8430855
0
LINE
8
DEFAULT_255_2_778
10
14.4011856
20
276.8430855
11
14.3850856
21
276.7308855
0
LINE
8
DEFAULT_255_2_778
10
14.3850856
20
276.7308855
11
14.3728856
21
276.5570855
0
LINE
8
DEFAULT_255_2_778
10
14.3728856
20
276.5570855
11
14.3728856
21
276.1357855
0
LINE
8
DEFAULT_255_2_778
10
14.3728856
20
276.1357855
11
14.3810856
21
275.9976855
0
LINE
8
DEFAULT_255_2_778
10
14.3810856
20
275.9976855
11
14.3932856
21
275.9077855
0
LINE
8
DEFAULT_255_2_778
10
14.3932856
20
275.9077855
11
14.4660856
21
275.7521855
0
LINE
8
DEFAULT_255_2_778
10
14.4660856
20
275.7521855
11
14.5956856
21
275.7002855
0
LINE
8
DEFAULT_255_2_778
10
14.5956856
20
275.7002855
11
14.7253856
21
275.7521855
0
LINE
8
DEFAULT_255_2_778
10
14.7253856
20
275.7521855
11
14.7980856
21
275.9077855
0
LINE
8
DEFAULT_255_2_778
10
14.7980856
20
275.9077855
11
14.8102856
21
275.9976855
0
LINE
8
DEFAULT_255_2_778
10
14.8102856
20
275.9976855
11
14.8142856
21
276.1357855
0
LINE
8
DEFAULT_255_2_778
10
14.8142856
20
276.1357855
11
14.8181856
21
276.3220855
0
LINE
8
DEFAULT_255_2_778
10
14.8181856
20
276.3220855
11
14.8181856
21
276.5138855
0
LINE
8
DEFAULT_255_2_778
10
14.8181856
20
276.5138855
11
14.8142856
21
276.6527855
0
LINE
8
DEFAULT_255_2_778
10
14.8142856
20
276.6527855
11
14.8102856
21
276.7390855
0
LINE
8
DEFAULT_255_2_778
10
14.8102856
20
276.7390855
11
14.7697856
21
276.9025855
0
LINE
8
DEFAULT_255_2_778
10
14.7697856
20
276.9025855
11
14.7009856
21
277.0004855
0
LINE
8
DEFAULT_255_2_778
10
9.7971856
20
276.2874855
11
9.7971856
21
276.1061855
0
LINE
8
DEFAULT_255_2_778
10
9.7971856
20
276.1061855
11
10.3176856
21
276.1061855
0
LINE
8
DEFAULT_255_2_778
10
10.3176856
20
276.1061855
11
10.3176856
21
276.2874855
0
LINE
8
DEFAULT_255_2_778
10
10.3176856
20
276.2874855
11
9.7971856
21
276.2874855
0
LINE
8
DEFAULT_255_2_778
10
8.2623856
20
275.9529855
11
8.2623856
21
275.5550855
0
LINE
8
DEFAULT_255_2_778
10
8.2623856
20
275.5550855
11
8.4647856
21
275.5550855
0
LINE
8
DEFAULT_255_2_778
10
8.4647856
20
275.5550855
11
8.4647856
21
275.9529855
0
LINE
8
DEFAULT_255_2_778
10
8.4647856
20
275.9529855
11
8.6592856
21
275.9529855
0
LINE
8
DEFAULT_255_2_778
10
8.6592856
20
275.9529855
11
8.6592856
21
276.1413855
0
LINE
8
DEFAULT_255_2_778
10
8.6592856
20
276.1413855
11
8.4647856
21
276.1413855
0
LINE
8
DEFAULT_255_2_778
10
8.4647856
20
276.1413855
11
8.4647856
21
277.1888855
0
LINE
8
DEFAULT_255_2_778
10
8.4647856
20
277.1888855
11
8.1771856
21
277.1888855
0
LINE
8
DEFAULT_255_2_778
10
8.1771856
20
277.1888855
11
7.7154856
21
276.1413855
0
LINE
8
DEFAULT_255_2_778
10
7.7154856
20
276.1413855
11
7.7154856
21
275.9529855
0
LINE
8
DEFAULT_255_2_778
10
7.7154856
20
275.9529855
11
8.2620856
21
275.9529855
0
LINE
8
DEFAULT_255_2_778
10
7.2582856
20
275.9529855
11
7.2582856
21
275.5550855
0
LINE
8
DEFAULT_255_2_778
10
7.2582856
20
275.5550855
11
7.4606856
21
275.5550855
0
LINE
8
DEFAULT_255_2_778
10
7.4606856
20
275.5550855
11
7.4606856
21
275.9529855
0
LINE
8
DEFAULT_255_2_778
10
7.4606856
20
275.9529855
11
7.6551856
21
275.9529855
0
LINE
8
DEFAULT_255_2_778
10
7.6551856
20
275.9529855
11
7.6551856
21
276.1413855
0
LINE
8
DEFAULT_255_2_778
10
7.6551856
20
276.1413855
11
7.4606856
21
276.1413855
0
LINE
8
DEFAULT_255_2_778
10
7.4606856
20
276.1413855
11
7.4606856
21
277.1888855
0
LINE
8
DEFAULT_255_2_778
10
7.4606856
20
277.1888855
11
7.1733856
21
277.1888855
0
LINE
8
DEFAULT_255_2_778
10
7.1733856
20
277.1888855
11
6.7116856
21
276.1413855
0
LINE
8
DEFAULT_255_2_778
10
6.7116856
20
276.1413855
11
6.7116856
21
275.9529855
0
LINE
8
DEFAULT_255_2_778
10
6.7116856
20
275.9529855
11
7.2582856
21
275.9529855
0
LINE
8
DEFAULT_255_2_778
10
5.8167856
20
277.1888855
11
5.8167856
21
277.0004855
0
LINE
8
DEFAULT_255_2_778
10
5.8167856
20
277.0004855
11
6.4361856
21
277.0004855
0
LINE
8
DEFAULT_255_2_778
10
6.4361856
20
277.0004855
11
5.9826856
21
275.5550855
0
LINE
8
DEFAULT_255_2_778
10
5.9826856
20
275.5550855
11
6.2255856
21
275.5550855
0
LINE
8
DEFAULT_255_2_778
10
6.2255856
20
275.5550855
11
6.6629856
21
277.0004855
0
LINE
8
DEFAULT_255_2_778
10
6.6629856
20
277.0004855
11
6.6629856
21
277.1888855
0
LINE
8
DEFAULT_255_2_778
10
6.6629856
20
277.1888855
11
5.8167856
21
277.1888855
0
LINE
8
DEFAULT_255_2_778
10
4.6830856
20
277.2549855
11
4.6830856
21
275.5553855
0
LINE
8
DEFAULT_255_2_778
10
4.6830856
20
275.5553855
11
4.8976856
21
275.5553855
0
LINE
8
DEFAULT_255_2_778
10
4.8976856
20
275.5553855
11
4.9058856
21
276.4427855
0
LINE
8
DEFAULT_255_2_778
10
4.9058856
20
276.4427855
11
5.5011856
21
275.5553855
0
LINE
8
DEFAULT_255_2_778
10
5.5011856
20
275.5553855
11
5.7805856
21
275.5553855
0
LINE
8
DEFAULT_255_2_778
10
5.7805856
20
275.5553855
11
5.1286856
21
276.4874855
0
LINE
8
DEFAULT_255_2_778
10
5.1286856
20
276.4874855
11
5.7440856
21
277.2552855
0
LINE
8
DEFAULT_255_2_778
10
5.7440856
20
277.2552855
11
5.4971856
21
277.2552855
0
LINE
8
DEFAULT_255_2_778
10
5.4971856
20
277.2552855
11
4.8978856
21
276.5091855
0
LINE
8
DEFAULT_255_2_778
10
4.8978856
20
276.5091855
11
4.8978856
21
277.2552855
0
LINE
8
DEFAULT_255_2_778
10
4.8978856
20
277.2552855
11
4.6833856
21
277.2552855
0
LINE
8
DEFAULT_255_2_778
10
19.5229856
20
210.9985855
11
19.1343856
21
210.9985855
0
LINE
8
DEFAULT_255_2_778
10
19.1343856
20
210.9985855
11
19.1343856
21
210.2550855
0
LINE
8
DEFAULT_255_2_778
10
19.1343856
20
210.2550855
11
19.4420856
21
210.2550855
0
LINE
8
DEFAULT_255_2_778
10
19.4420856
20
210.2550855
11
19.6809856
21
210.3130855
0
LINE
8
DEFAULT_255_2_778
10
19.6809856
20
210.3130855
11
19.7941856
21
210.4381855
0
LINE
8
DEFAULT_255_2_778
10
19.7941856
20
210.4381855
11
19.8346856
21
210.6299855
0
LINE
8
DEFAULT_255_2_778
10
19.8346856
20
210.6299855
11
19.8145856
21
210.7778855
0
LINE
8
DEFAULT_255_2_778
10
19.8145856
20
210.7778855
11
19.7497856
21
210.8921855
0
LINE
8
DEFAULT_255_2_778
10
19.7497856
20
210.8921855
11
19.5229856
21
210.9988855
0
LINE
8
DEFAULT_255_2_778
10
14.1863856
20
214.0156855
11
14.4657856
21
214.0156855
0
LINE
8
DEFAULT_255_2_778
10
14.4657856
20
214.0156855
11
14.4657856
21
215.0212855
0
LINE
8
DEFAULT_255_2_778
10
14.4657856
20
215.0212855
11
14.7938856
21
215.0212855
0
LINE
8
DEFAULT_255_2_778
10
14.7938856
20
215.0212855
11
14.9962856
21
214.9810855
0
LINE
8
DEFAULT_255_2_778
10
14.9962856
20
214.9810855
11
15.0933856
21
214.8892855
0
LINE
8
DEFAULT_255_2_778
10
15.0933856
20
214.8892855
11
15.1256856
21
214.7466855
0
LINE
8
DEFAULT_255_2_778
10
15.1256856
20
214.7466855
11
15.1295856
21
214.4518855
0
LINE
8
DEFAULT_255_2_778
10
15.1295856
20
214.4518855
11
15.1457856
21
214.2502855
0
LINE
8
DEFAULT_255_2_778
10
15.1457856
20
214.2502855
11
15.2105856
21
214.0153855
0
LINE
8
DEFAULT_255_2_778
10
15.2105856
20
214.0153855
11
15.5021856
21
214.0153855
0
LINE
8
DEFAULT_255_2_778
10
15.5021856
20
214.0153855
11
15.4738856
21
214.1365855
0
LINE
8
DEFAULT_255_2_778
10
15.4738856
20
214.1365855
11
15.4494856
21
214.3050855
0
LINE
8
DEFAULT_255_2_778
10
15.4494856
20
214.3050855
11
15.4333856
21
214.4743855
0
LINE
8
DEFAULT_255_2_778
10
15.4333856
20
214.4743855
11
15.4293856
21
214.5918855
0
LINE
8
DEFAULT_255_2_778
10
15.4293856
20
214.5918855
11
15.4050856
21
214.8590855
0
LINE
8
DEFAULT_255_2_778
10
15.4050856
20
214.8590855
11
15.3402856
21
215.0276855
0
LINE
8
DEFAULT_255_2_778
10
15.3402856
20
215.0276855
11
15.2388856
21
215.1117855
0
LINE
8
DEFAULT_255_2_778
10
15.2388856
20
215.1117855
11
15.0687856
21
215.1644855
0
LINE
8
DEFAULT_255_2_778
10
15.0687856
20
215.1644855
11
15.2388856
21
215.2231855
0
LINE
8
DEFAULT_255_2_778
10
15.2388856
20
215.2231855
11
15.3642856
21
215.3321855
0
LINE
8
DEFAULT_255_2_778
10
15.3642856
20
215.3321855
11
15.4452856
21
215.4843855
0
LINE
8
DEFAULT_255_2_778
10
15.4452856
20
215.4843855
11
15.4695856
21
215.6673855
0
LINE
8
DEFAULT_255_2_778
10
15.4695856
20
215.6673855
11
15.4412856
21
215.8774855
0
LINE
8
DEFAULT_255_2_778
10
15.4412856
20
215.8774855
11
15.3523856
21
216.0452855
0
LINE
8
DEFAULT_255_2_778
10
15.3523856
20
216.0452855
11
15.1822856
21
216.1732855
0
LINE
8
DEFAULT_255_2_778
10
15.1822856
20
216.1732855
11
14.9433856
21
216.2161855
0
LINE
8
DEFAULT_255_2_778
10
14.9433856
20
216.2161855
11
14.1860856
21
216.2161855
0
LINE
8
DEFAULT_255_2_778
10
14.1860856
20
216.2161855
11
14.1860856
21
214.0158855
0
LINE
8
DEFAULT_255_2_778
10
15.8302856
20
216.2158855
11
15.8302856
21
214.8201855
0
LINE
8
DEFAULT_255_2_778
10
15.8302856
20
214.8201855
11
15.8463856
21
214.5460855
0
LINE
8
DEFAULT_255_2_778
10
15.8463856
20
214.5460855
11
15.9029856
21
214.3286855
0
LINE
8
DEFAULT_255_2_778
10
15.9029856
20
214.3286855
11
15.9961856
21
214.1677855
0
LINE
8
DEFAULT_255_2_778
10
15.9961856
20
214.1677855
11
16.1297856
21
214.0579855
0
LINE
8
DEFAULT_255_2_778
10
16.1297856
20
214.0579855
11
16.3038856
21
213.9920855
0
LINE
8
DEFAULT_255_2_778
10
16.3038856
20
213.9920855
11
16.5223856
21
213.9698855
0
LINE
8
DEFAULT_255_2_778
10
16.5223856
20
213.9698855
11
16.7369856
21
213.9925855
0
LINE
8
DEFAULT_255_2_778
10
16.7369856
20
213.9925855
11
16.9110856
21
214.0595855
0
LINE
8
DEFAULT_255_2_778
10
16.9110856
20
214.0595855
11
17.0446856
21
214.1711855
0
LINE
8
DEFAULT_255_2_778
10
17.0446856
20
214.1711855
11
17.1417856
21
214.3328855
0
LINE
8
DEFAULT_255_2_778
10
17.1417856
20
214.3328855
11
17.1983856
21
214.5490855
0
LINE
8
DEFAULT_255_2_778
10
17.1983856
20
214.5490855
11
17.2145856
21
214.8201855
0
LINE
8
DEFAULT_255_2_778
10
17.2145856
20
214.8201855
11
17.2145856
21
216.2158855
0
LINE
8
DEFAULT_255_2_778
10
17.2145856
20
216.2158855
11
16.9351856
21
216.2158855
0
LINE
8
DEFAULT_255_2_778
10
16.9351856
20
216.2158855
11
16.9351856
21
214.8080855
0
LINE
8
DEFAULT_255_2_778
10
16.9351856
20
214.8080855
11
16.9229856
21
214.5982855
0
LINE
8
DEFAULT_255_2_778
10
16.9229856
20
214.5982855
11
16.8903856
21
214.4365855
0
LINE
8
DEFAULT_255_2_778
10
16.8903856
20
214.4365855
11
16.8298856
21
214.3230855
0
LINE
8
DEFAULT_255_2_778
10
16.8298856
20
214.3230855
11
16.7083856
21
214.2338855
0
LINE
8
DEFAULT_255_2_778
10
16.7083856
20
214.2338855
11
16.5220856
21
214.2042855
0
LINE
8
DEFAULT_255_2_778
10
16.5220856
20
214.2042855
11
16.3358856
21
214.2346855
0
LINE
8
DEFAULT_255_2_778
10
16.3358856
20
214.2346855
11
16.2143856
21
214.3262855
0
LINE
8
DEFAULT_255_2_778
10
16.2143856
20
214.3262855
11
16.1373856
21
214.5148855
0
LINE
8
DEFAULT_255_2_778
10
16.1373856
20
214.5148855
11
16.1090856
21
214.8074855
0
LINE
8
DEFAULT_255_2_778
10
16.1090856
20
214.8074855
11
16.1090856
21
216.2153855
0
LINE
8
DEFAULT_255_2_778
10
16.1090856
20
216.2153855
11
15.8296856
21
216.2153855
0
LINE
8
DEFAULT_255_2_778
10
14.3726856
20
236.0075855
11
14.3726856
21
235.3005855
0
LINE
8
DEFAULT_255_2_778
10
14.3726856
20
235.3005855
11
14.7896856
21
235.3005855
0
LINE
8
DEFAULT_255_2_778
10
14.7896856
20
235.3005855
11
15.0123856
21
235.4042855
0
LINE
8
DEFAULT_255_2_778
10
15.0123856
20
235.4042855
11
15.0690856
21
235.5246855
0
LINE
8
DEFAULT_255_2_778
10
15.0690856
20
235.5246855
11
15.0891856
21
235.6725855
0
LINE
8
DEFAULT_255_2_778
10
15.0891856
20
235.6725855
11
15.0242856
21
235.8979855
0
LINE
8
DEFAULT_255_2_778
10
15.0242856
20
235.8979855
11
14.9271856
21
235.9802855
0
LINE
8
DEFAULT_255_2_778
10
14.9271856
20
235.9802855
11
14.7935856
21
236.0077855
0
LINE
8
DEFAULT_255_2_778
10
14.7935856
20
236.0077855
11
14.3726856
21
236.0077855
0
LINE
8
DEFAULT_255_2_778
10
17.8426856
20
241.0028855
11
17.4782856
21
241.0028855
0
LINE
8
DEFAULT_255_2_778
10
17.4782856
20
241.0028855
11
17.4782856
21
239.2904855
0
LINE
8
DEFAULT_255_2_778
10
17.4782856
20
239.2904855
11
17.7415856
21
239.2904855
0
LINE
8
DEFAULT_255_2_778
10
17.7415856
20
239.2904855
11
17.9926856
21
239.3253855
0
LINE
8
DEFAULT_255_2_778
10
17.9926856
20
239.3253855
11
18.1545856
21
239.4306855
0
LINE
8
DEFAULT_255_2_778
10
18.1545856
20
239.4306855
11
18.2233856
21
239.5505855
0
LINE
8
DEFAULT_255_2_778
10
18.2233856
20
239.5505855
11
18.2598856
21
239.7230855
0
LINE
8
DEFAULT_255_2_778
10
18.2598856
20
239.7230855
11
18.2760856
21
239.9484855
0
LINE
8
DEFAULT_255_2_778
10
18.2760856
20
239.9484855
11
18.2760856
21
240.3935855
0
LINE
8
DEFAULT_255_2_778
10
18.2760856
20
240.3935855
11
18.2477856
21
240.6752855
0
LINE
8
DEFAULT_255_2_778
10
18.2477856
20
240.6752855
11
18.1707856
21
240.8623855
0
LINE
8
DEFAULT_255_2_778
10
18.1707856
20
240.8623855
11
18.0370856
21
240.9676855
0
LINE
8
DEFAULT_255_2_778
10
18.0370856
20
240.9676855
11
17.8426856
21
241.0028855
0
LINE
8
DEFAULT_255_2_778
10
14.3847856
20
250.0703855
11
14.3847856
21
249.2845855
0
LINE
8
DEFAULT_255_2_778
10
14.3847856
20
249.2845855
11
14.7734856
21
249.2845855
0
LINE
8
DEFAULT_255_2_778
10
14.7734856
20
249.2845855
11
14.9557856
21
249.3157855
0
LINE
8
DEFAULT_255_2_778
10
14.9557856
20
249.3157855
11
15.0893856
21
249.4091855
0
LINE
8
DEFAULT_255_2_778
10
15.0893856
20
249.4091855
11
15.1581856
21
249.5250855
0
LINE
8
DEFAULT_255_2_778
10
15.1581856
20
249.5250855
11
15.1782856
21
249.6592855
0
LINE
8
DEFAULT_255_2_778
10
15.1782856
20
249.6592855
11
15.1459856
21
249.8637855
0
LINE
8
DEFAULT_255_2_778
10
15.1459856
20
249.8637855
11
15.0367856
21
249.9944855
0
LINE
8
DEFAULT_255_2_778
10
15.0367856
20
249.9944855
11
14.8909856
21
250.0515855
0
LINE
8
DEFAULT_255_2_778
10
14.8909856
20
250.0515855
11
14.6763856
21
250.0706855
0
LINE
8
DEFAULT_255_2_778
10
14.6763856
20
250.0706855
11
14.3847856
21
250.0706855
0
LINE
8
DEFAULT_255_2_778
10
14.3847856
20
250.9969855
11
14.3847856
21
250.3143855
0
LINE
8
DEFAULT_255_2_778
10
14.3847856
20
250.3143855
11
14.7856856
21
250.3143855
0
LINE
8
DEFAULT_255_2_778
10
14.7856856
20
250.3143855
11
14.9274856
21
250.3373855
0
LINE
8
DEFAULT_255_2_778
10
14.9274856
20
250.3373855
11
15.0285856
21
250.4058855
0
LINE
8
DEFAULT_255_2_778
10
15.0285856
20
250.4058855
11
15.0933856
21
250.5180855
0
LINE
8
DEFAULT_255_2_778
10
15.0933856
20
250.5180855
11
15.1134856
21
250.6651855
0
LINE
8
DEFAULT_255_2_778
10
15.1134856
20
250.6651855
11
15.0324856
21
250.8995855
0
LINE
8
DEFAULT_255_2_778
10
15.0324856
20
250.8995855
11
14.9232856
21
250.9728855
0
LINE
8
DEFAULT_255_2_778
10
14.9232856
20
250.9728855
11
14.7734856
21
250.9972855
0
LINE
8
DEFAULT_255_2_778
10
14.7734856
20
250.9972855
11
14.3847856
21
250.9972855
0
LINE
8
DEFAULT_255_2_778
10
15.8868856
20
249.8449855
11
15.9069856
21
249.5708855
0
LINE
8
DEFAULT_255_2_778
10
15.9069856
20
249.5708855
11
15.9595856
21
249.3533855
0
LINE
8
DEFAULT_255_2_778
10
15.9595856
20
249.3533855
11
16.0527856
21
249.1930855
0
LINE
8
DEFAULT_255_2_778
10
16.0527856
20
249.1930855
11
16.1863856
21
249.0829855
0
LINE
8
DEFAULT_255_2_778
10
16.1863856
20
249.0829855
11
16.3604856
21
249.0170855
0
LINE
8
DEFAULT_255_2_778
10
16.3604856
20
249.0170855
11
16.5789856
21
248.9951855
0
LINE
8
DEFAULT_255_2_778
10
16.5789856
20
248.9951855
11
16.7935856
21
249.0173855
0
LINE
8
DEFAULT_255_2_778
10
16.7935856
20
249.0173855
11
16.9718856
21
249.0845855
0
LINE
8
DEFAULT_255_2_778
10
16.9718856
20
249.0845855
11
17.1015856
21
249.1961855
0
LINE
8
DEFAULT_255_2_778
10
17.1015856
20
249.1961855
11
17.1986856
21
249.3573855
0
LINE
8
DEFAULT_255_2_778
10
17.1986856
20
249.3573855
11
17.2552856
21
249.5740855
0
LINE
8
DEFAULT_255_2_778
10
17.2552856
20
249.5740855
11
17.2713856
21
249.8449855
0
LINE
8
DEFAULT_255_2_778
10
17.2713856
20
249.8449855
11
17.2713856
21
251.2406855
0
LINE
8
DEFAULT_255_2_778
10
17.2713856
20
251.2406855
11
16.9919856
21
251.2406855
0
LINE
8
DEFAULT_255_2_778
10
16.9919856
20
251.2406855
11
16.9919856
21
249.8327855
0
LINE
8
DEFAULT_255_2_778
10
16.9919856
20
249.8327855
11
16.9798856
21
249.6234855
0
LINE
8
DEFAULT_255_2_778
10
16.9798856
20
249.6234855
11
16.9475856
21
249.4618855
0
LINE
8
DEFAULT_255_2_778
10
16.9475856
20
249.4618855
11
16.8909856
21
249.3483855
0
LINE
8
DEFAULT_255_2_778
10
16.8909856
20
249.3483855
11
16.7655856
21
249.2591855
0
LINE
8
DEFAULT_255_2_778
10
16.7655856
20
249.2591855
11
16.5792856
21
249.2295855
0
LINE
8
DEFAULT_255_2_778
10
16.5792856
20
249.2295855
11
16.3929856
21
249.2599855
0
LINE
8
DEFAULT_255_2_778
10
16.3929856
20
249.2599855
11
16.2715856
21
249.3509855
0
LINE
8
DEFAULT_255_2_778
10
16.2715856
20
249.3509855
11
16.1945856
21
249.5401855
0
LINE
8
DEFAULT_255_2_778
10
16.1945856
20
249.5401855
11
16.1662856
21
249.8325855
0
LINE
8
DEFAULT_255_2_778
10
16.1662856
20
249.8325855
11
16.1662856
21
251.2403855
0
LINE
8
DEFAULT_255_2_778
10
16.1662856
20
251.2403855
11
15.8868856
21
251.2403855
0
LINE
8
DEFAULT_255_2_778
10
15.8868856
20
251.2403855
11
15.8868856
21
249.8446855
0
LINE
8
DEFAULT_255_2_778
10
17.6441856
20
249.6959855
11
17.6603856
21
249.4692855
0
LINE
8
DEFAULT_255_2_778
10
17.6603856
20
249.4692855
11
17.7129856
21
249.2893855
0
LINE
8
DEFAULT_255_2_778
10
17.7129856
20
249.2893855
11
17.7979856
21
249.1565855
0
LINE
8
DEFAULT_255_2_778
10
17.7979856
20
249.1565855
11
17.9233856
21
249.0665855
0
LINE
8
DEFAULT_255_2_778
10
17.9233856
20
249.0665855
11
18.0852856
21
249.0125855
0
LINE
8
DEFAULT_255_2_778
10
18.0852856
20
249.0125855
11
18.2836856
21
248.9948855
0
LINE
8
DEFAULT_255_2_778
10
18.2836856
20
248.9948855
11
18.4699856
21
249.0099855
0
LINE
8
DEFAULT_255_2_778
10
18.4699856
20
249.0099855
11
18.6318856
21
249.0543855
0
LINE
8
DEFAULT_255_2_778
10
18.6318856
20
249.0543855
11
18.7615856
21
249.1289855
0
LINE
8
DEFAULT_255_2_778
10
18.7615856
20
249.1289855
11
18.8750856
21
249.2512855
0
LINE
8
DEFAULT_255_2_778
10
18.8750856
20
249.2512855
11
18.9438856
21
249.4107855
0
LINE
8
DEFAULT_255_2_778
10
18.9438856
20
249.4107855
11
18.9639856
21
249.6070855
0
LINE
8
DEFAULT_255_2_778
10
18.9639856
20
249.6070855
11
18.9356856
21
249.7928855
0
LINE
8
DEFAULT_255_2_778
10
18.9356856
20
249.7928855
11
18.8506856
21
249.9563855
0
LINE
8
DEFAULT_255_2_778
10
18.8506856
20
249.9563855
11
18.7088856
21
250.0976855
0
LINE
8
DEFAULT_255_2_778
10
18.7088856
20
250.0976855
11
18.2350856
21
250.3717855
0
LINE
8
DEFAULT_255_2_778
10
18.2350856
20
250.3717855
11
18.0447856
21
250.5349855
0
LINE
8
DEFAULT_255_2_778
10
18.0447856
20
250.5349855
11
17.9799856
21
250.7191855
0
LINE
8
DEFAULT_255_2_778
10
17.9799856
20
250.7191855
11
18.0082856
21
250.8662855
0
LINE
8
DEFAULT_255_2_778
10
18.0082856
20
250.8662855
11
18.0852856
21
250.9723855
0
LINE
8
DEFAULT_255_2_778
10
18.0852856
20
250.9723855
11
18.3202856
21
251.0424855
0
LINE
8
DEFAULT_255_2_778
10
18.3202856
20
251.0424855
11
18.4821856
21
251.0149855
0
LINE
8
DEFAULT_255_2_778
10
18.4821856
20
251.0149855
11
18.5914856
21
250.9326855
0
LINE
8
DEFAULT_255_2_778
10
18.5914856
20
250.9326855
11
18.6400856
21
250.8143855
0
LINE
8
DEFAULT_255_2_778
10
18.6400856
20
250.8143855
11
18.6562856
21
250.6431855
0
LINE
8
DEFAULT_255_2_778
10
18.6562856
20
250.6431855
11
18.9477856
21
250.6431855
0
LINE
8
DEFAULT_255_2_778
10
18.9477856
20
250.6431855
11
18.9316856
21
250.8448855
0
LINE
8
DEFAULT_255_2_778
10
18.9316856
20
250.8448855
11
18.8829856
21
251.0075855
0
LINE
8
DEFAULT_255_2_778
10
18.8829856
20
251.0075855
11
18.7980856
21
251.1305855
0
LINE
8
DEFAULT_255_2_778
10
18.7980856
20
251.1305855
11
18.6078856
21
251.2472855
0
LINE
8
DEFAULT_255_2_778
10
18.6078856
20
251.2472855
11
18.3405856
21
251.2861855
0
LINE
8
DEFAULT_255_2_778
10
18.3405856
20
251.2861855
11
18.1582856
21
251.2686855
0
LINE
8
DEFAULT_255_2_778
10
18.1582856
20
251.2686855
11
18.0045856
21
251.2168855
0
LINE
8
DEFAULT_255_2_778
10
18.0045856
20
251.2168855
11
17.8709856
21
251.1305855
0
LINE
8
DEFAULT_255_2_778
10
17.8709856
20
251.1305855
11
17.7373856
21
250.9421855
0
LINE
8
DEFAULT_255_2_778
10
17.7373856
20
250.9421855
11
17.6928856
21
250.6887855
0
LINE
8
DEFAULT_255_2_778
10
17.6928856
20
250.6887855
11
17.7211856
21
250.5116855
0
LINE
8
DEFAULT_255_2_778
10
17.7211856
20
250.5116855
11
17.8061856
21
250.3553855
0
LINE
8
DEFAULT_255_2_778
10
17.8061856
20
250.3553855
11
17.9519856
21
250.2193855
0
LINE
8
DEFAULT_255_2_778
10
17.9519856
20
250.2193855
11
18.4257856
21
249.9481855
0
LINE
8
DEFAULT_255_2_778
10
18.4257856
20
249.9481855
11
18.6160856
21
249.7822855
0
LINE
8
DEFAULT_255_2_778
10
18.6160856
20
249.7822855
11
18.6768856
21
249.5946855
0
LINE
8
DEFAULT_255_2_778
10
18.6768856
20
249.5946855
11
18.6485856
21
249.4327855
0
LINE
8
DEFAULT_255_2_778
10
18.6485856
20
249.4327855
11
18.5675856
21
249.3173855
0
LINE
8
DEFAULT_255_2_778
10
18.5675856
20
249.3173855
11
18.4461856
21
249.2583855
0
LINE
8
DEFAULT_255_2_778
10
18.4461856
20
249.2583855
11
18.2881856
21
249.2385855
0
LINE
8
DEFAULT_255_2_778
10
18.2881856
20
249.2385855
11
18.1463856
21
249.2599855
0
LINE
8
DEFAULT_255_2_778
10
18.1463856
20
249.2599855
11
18.0370856
21
249.3239855
0
LINE
8
DEFAULT_255_2_778
10
18.0370856
20
249.3239855
11
17.9479856
21
249.4509855
0
LINE
8
DEFAULT_255_2_778
10
17.9479856
20
249.4509855
11
17.9196856
21
249.6316855
0
LINE
8
DEFAULT_255_2_778
10
17.9196856
20
249.6316855
11
17.9196856
21
249.6957855
0
LINE
8
DEFAULT_255_2_778
10
17.9196856
20
249.6957855
11
17.6441856
21
249.6957855
0
LINE
8
DEFAULT_255_2_778
10
18.0411594
20
261.2440729
11
16.6036594
21
261.2440729
0
LINE
8
DEFAULT_255_2_778
10
16.6036594
20
261.2440729
11
16.6036594
21
261.0003729
0
LINE
8
DEFAULT_255_2_778
10
16.6036594
20
261.0003729
11
17.1825594
21
261.0003729
0
LINE
8
DEFAULT_255_2_778
10
17.1825594
20
261.0003729
11
17.1825594
21
259.0443729
0
LINE
8
DEFAULT_255_2_778
10
17.1825594
20
259.0443729
11
17.4619594
21
259.0443729
0
LINE
8
DEFAULT_255_2_778
10
17.4619594
20
259.0443729
11
17.4619594
21
261.0003729
0
LINE
8
DEFAULT_255_2_778
10
17.4619594
20
261.0003729
11
18.0408594
21
261.0003729
0
LINE
8
DEFAULT_255_2_778
10
18.0408594
20
261.0003729
11
18.0408594
21
261.2440729
0
LINE
8
DEFAULT_255_2_778
10
17.4182251
20
221.2118268
11
17.1380251
21
221.2118268
0
LINE
8
DEFAULT_255_2_778
10
17.1380251
20
221.2118268
11
17.1380251
21
219.0118268
0
LINE
8
DEFAULT_255_2_778
10
17.1380251
20
219.0118268
11
17.4182251
21
219.0118268
0
LINE
8
DEFAULT_255_2_778
10
17.4182251
20
219.0118268
11
17.4182251
21
221.2118268
0
LINE
8
DEFAULT_255_2_778
10
15.1701251
20
220.6053268
11
15.4577251
21
220.6053268
0
LINE
8
DEFAULT_255_2_778
10
15.4577251
20
220.6053268
11
15.4455251
21
220.8083268
0
LINE
8
DEFAULT_255_2_778
10
15.4455251
20
220.8083268
11
15.4050251
21
220.9710268
0
LINE
8
DEFAULT_255_2_778
10
15.4050251
20
220.9710268
11
15.3362251
21
221.0930268
0
LINE
8
DEFAULT_255_2_778
10
15.3362251
20
221.0930268
11
15.1539251
21
221.2165268
0
LINE
8
DEFAULT_255_2_778
10
15.1539251
20
221.2165268
11
14.8827251
21
221.2575268
0
LINE
8
DEFAULT_255_2_778
10
14.8827251
20
221.2575268
11
14.6721251
21
221.2390268
0
LINE
8
DEFAULT_255_2_778
10
14.6721251
20
221.2390268
11
14.4980251
21
221.1832268
0
LINE
8
DEFAULT_255_2_778
10
14.4980251
20
221.1832268
11
14.3644251
21
221.0901268
0
LINE
8
DEFAULT_255_2_778
10
14.3644251
20
221.0901268
11
14.2591251
21
220.9361268
0
LINE
8
DEFAULT_255_2_778
10
14.2591251
20
220.9361268
11
14.1983251
21
220.7260268
0
LINE
8
DEFAULT_255_2_778
10
14.1983251
20
220.7260268
11
14.1782251
21
220.4596268
0
LINE
8
DEFAULT_255_2_778
10
14.1782251
20
220.4596268
11
14.1782251
21
219.8375268
0
LINE
8
DEFAULT_255_2_778
10
14.1782251
20
219.8375268
11
14.1903251
21
219.5817268
0
LINE
8
DEFAULT_255_2_778
10
14.1903251
20
219.5817268
11
14.2390251
21
219.3700268
0
LINE
8
DEFAULT_255_2_778
10
14.2390251
20
219.3700268
11
14.3160251
21
219.2036268
0
LINE
8
DEFAULT_255_2_778
10
14.3160251
20
219.2036268
11
14.4253251
21
219.0821268
0
LINE
8
DEFAULT_255_2_778
10
14.4253251
20
219.0821268
11
14.6076251
21
218.9956268
0
LINE
8
DEFAULT_255_2_778
10
14.6076251
20
218.9956268
11
14.8708251
21
218.9665268
0
LINE
8
DEFAULT_255_2_778
10
14.8708251
20
218.9665268
11
15.0610251
21
218.9858268
0
LINE
8
DEFAULT_255_2_778
10
15.0610251
20
218.9858268
11
15.2190251
21
219.0438268
0
LINE
8
DEFAULT_255_2_778
10
15.2190251
20
219.0438268
11
15.3365251
21
219.1401268
0
LINE
8
DEFAULT_255_2_778
10
15.3365251
20
219.1401268
11
15.4257251
21
219.2753268
0
LINE
8
DEFAULT_255_2_778
10
15.4257251
20
219.2753268
11
15.4743251
21
219.4491268
0
LINE
8
DEFAULT_255_2_778
10
15.4743251
20
219.4491268
11
15.4945251
21
219.6613268
0
LINE
8
DEFAULT_255_2_778
10
15.4945251
20
219.6613268
11
15.2029251
21
219.6613268
0
LINE
8
DEFAULT_255_2_778
10
15.2029251
20
219.6613268
11
15.1828251
21
219.4660268
0
LINE
8
DEFAULT_255_2_778
10
15.1828251
20
219.4660268
11
15.1140251
21
219.3200268
0
LINE
8
DEFAULT_255_2_778
10
15.1140251
20
219.3200268
11
15.0047251
21
219.2308268
0
LINE
8
DEFAULT_255_2_778
10
15.0047251
20
219.2308268
11
14.8550251
21
219.2012268
0
LINE
8
DEFAULT_255_2_778
10
14.8550251
20
219.2012268
11
14.6930251
21
219.2263268
0
LINE
8
DEFAULT_255_2_778
10
14.6930251
20
219.2263268
11
14.5795251
21
219.3017268
0
LINE
8
DEFAULT_255_2_778
10
14.5795251
20
219.3017268
11
14.5147251
21
219.4187268
0
LINE
8
DEFAULT_255_2_778
10
14.5147251
20
219.4187268
11
14.4782251
21
219.5864268
0
LINE
8
DEFAULT_255_2_778
10
14.4782251
20
219.5864268
11
14.4620251
21
219.8047268
0
LINE
8
DEFAULT_255_2_778
10
14.4620251
20
219.8047268
11
14.4620251
21
220.3958268
0
LINE
8
DEFAULT_255_2_778
10
14.4620251
20
220.3958268
11
14.4700251
21
220.5646268
0
LINE
8
DEFAULT_255_2_778
10
14.4700251
20
220.5646268
11
14.4822251
21
220.7003268
0
LINE
8
DEFAULT_255_2_778
10
14.4822251
20
220.7003268
11
14.5266251
21
220.8525268
0
LINE
8
DEFAULT_255_2_778
10
14.5266251
20
220.8525268
11
14.6076251
21
220.9501268
0
LINE
8
DEFAULT_255_2_778
10
14.6076251
20
220.9501268
11
14.7211251
21
221.0051268
0
LINE
8
DEFAULT_255_2_778
10
14.7211251
20
221.0051268
11
14.8587251
21
221.0234268
0
LINE
8
DEFAULT_255_2_778
10
14.8587251
20
221.0234268
11
14.9923251
21
220.9990268
0
LINE
8
DEFAULT_255_2_778
10
14.9923251
20
220.9990268
11
15.1015251
21
220.9318268
0
LINE
8
DEFAULT_255_2_778
10
15.1015251
20
220.9318268
11
15.1542251
21
220.8252268
0
LINE
8
DEFAULT_255_2_778
10
15.1542251
20
220.8252268
11
15.1703251
21
220.6059268
0
LINE
8
DEFAULT_255_2_778
10
22.5519251
20
221.2120268
11
21.1145251
21
221.2120268
0
LINE
8
DEFAULT_255_2_778
10
21.1145251
20
221.2120268
11
21.1145251
21
220.9678268
0
LINE
8
DEFAULT_255_2_778
10
21.1145251
20
220.9678268
11
21.6934251
21
220.9678268
0
LINE
8
DEFAULT_255_2_778
10
21.6934251
20
220.9678268
11
21.6934251
21
219.0118268
0
LINE
8
DEFAULT_255_2_778
10
21.6934251
20
219.0118268
11
21.9728251
21
219.0118268
0
LINE
8
DEFAULT_255_2_778
10
21.9728251
20
219.0118268
11
21.9728251
21
220.9678268
0
LINE
8
DEFAULT_255_2_778
10
21.9728251
20
220.9678268
11
22.5517251
21
220.9678268
0
LINE
8
DEFAULT_255_2_778
10
22.5517251
20
220.9678268
11
22.5517251
21
221.2120268
0
LINE
8
DEFAULT_255_2_778
10
20.8634251
20
221.2120268
11
20.6044251
21
221.2120268
0
LINE
8
DEFAULT_255_2_778
10
20.6044251
20
221.2120268
11
20.6044251
21
219.3348268
0
LINE
8
DEFAULT_255_2_778
10
20.6044251
20
219.3348268
11
19.7540251
21
221.2120268
0
LINE
8
DEFAULT_255_2_778
10
19.7540251
20
221.2120268
11
19.3571251
21
221.2120268
0
LINE
8
DEFAULT_255_2_778
10
19.3571251
20
221.2120268
11
19.3571251
21
219.0118268
0
LINE
8
DEFAULT_255_2_778
10
19.3571251
20
219.0118268
11
19.6204251
21
219.0118268
0
LINE
8
DEFAULT_255_2_778
10
19.6204251
20
219.0118268
11
19.6204251
21
220.9133268
0
LINE
8
DEFAULT_255_2_778
10
19.6204251
20
220.9133268
11
20.4829251
21
219.0118268
0
LINE
8
DEFAULT_255_2_778
10
20.4829251
20
219.0118268
11
20.8636251
21
219.0118268
0
LINE
8
DEFAULT_255_2_778
10
20.8636251
20
219.0118268
11
20.8636251
21
221.2120268
0
LINE
8
DEFAULT_255_2_778
10
19.0409251
20
219.0118268
11
19.0409251
21
219.2554268
0
LINE
8
DEFAULT_255_2_778
10
19.0409251
20
219.2554268
11
18.1662251
21
219.2554268
0
LINE
8
DEFAULT_255_2_778
10
18.1662251
20
219.2554268
11
18.1662251
21
220.0174268
0
LINE
8
DEFAULT_255_2_778
10
18.1662251
20
220.0174268
11
18.9597251
21
220.0174268
0
LINE
8
DEFAULT_255_2_778
10
18.9597251
20
220.0174268
11
18.9597251
21
220.2611268
0
LINE
8
DEFAULT_255_2_778
10
18.9597251
20
220.2611268
11
18.1662251
21
220.2611268
0
LINE
8
DEFAULT_255_2_778
10
18.1662251
20
220.2611268
11
18.1662251
21
220.9676268
0
LINE
8
DEFAULT_255_2_778
10
18.1662251
20
220.9676268
11
19.0206251
21
220.9676268
0
LINE
8
DEFAULT_255_2_778
10
19.0206251
20
220.9676268
11
19.0206251
21
221.2118268
0
LINE
8
DEFAULT_255_2_778
10
19.0206251
20
221.2118268
11
17.8868251
21
221.2118268
0
LINE
8
DEFAULT_255_2_778
10
17.8868251
20
221.2118268
11
17.8868251
21
219.0115268
0
LINE
8
DEFAULT_255_2_778
10
17.8868251
20
219.0115268
11
19.0407251
21
219.0115268
0
LINE
8
DEFAULT_255_2_778
10
22.7623251
20
225.9126268
11
22.3371251
21
225.9126268
0
LINE
8
DEFAULT_255_2_778
10
22.3371251
20
225.9126268
11
22.3371251
21
225.2057268
0
LINE
8
DEFAULT_255_2_778
10
22.3371251
20
225.2057268
11
22.7581251
21
225.2057268
0
LINE
8
DEFAULT_255_2_778
10
22.7581251
20
225.2057268
11
22.9808251
21
225.3094268
0
LINE
8
DEFAULT_255_2_778
10
22.9808251
20
225.3094268
11
23.0375251
21
225.4298268
0
LINE
8
DEFAULT_255_2_778
10
23.0375251
20
225.4298268
11
23.0536251
21
225.5777268
0
LINE
8
DEFAULT_255_2_778
10
23.0536251
20
225.5777268
11
22.9927251
21
225.8031268
0
LINE
8
DEFAULT_255_2_778
10
22.9927251
20
225.8031268
11
22.8956251
21
225.8854268
0
LINE
8
DEFAULT_255_2_778
10
22.8956251
20
225.8854268
11
22.7620251
21
225.9129268
0
LINE
8
DEFAULT_255_2_778
10
18.0128251
20
225.9126268
11
17.5876251
21
225.9126268
0
LINE
8
DEFAULT_255_2_778
10
17.5876251
20
225.9126268
11
17.5876251
21
225.2057268
0
LINE
8
DEFAULT_255_2_778
10
17.5876251
20
225.2057268
11
18.0088251
21
225.2057268
0
LINE
8
DEFAULT_255_2_778
10
18.0088251
20
225.2057268
11
18.2316251
21
225.3094268
0
LINE
8
DEFAULT_255_2_778
10
18.2316251
20
225.3094268
11
18.2882251
21
225.4298268
0
LINE
8
DEFAULT_255_2_778
10
18.2882251
20
225.4298268
11
18.3083251
21
225.5777268
0
LINE
8
DEFAULT_255_2_778
10
18.3083251
20
225.5777268
11
18.2435251
21
225.8031268
0
LINE
8
DEFAULT_255_2_778
10
18.2435251
20
225.8031268
11
18.1464251
21
225.8854268
0
LINE
8
DEFAULT_255_2_778
10
18.1464251
20
225.8854268
11
18.0128251
21
225.9129268
0
LINE
8
DEFAULT_255_2_778
10
22.0577251
20
223.9563268
11
22.3371251
21
223.9563268
0
LINE
8
DEFAULT_255_2_778
10
22.3371251
20
223.9563268
11
22.3371251
21
224.9617268
0
LINE
8
DEFAULT_255_2_778
10
22.3371251
20
224.9617268
11
22.6649251
21
224.9617268
0
LINE
8
DEFAULT_255_2_778
10
22.6649251
20
224.9617268
11
22.8673251
21
224.9220268
0
LINE
8
DEFAULT_255_2_778
10
22.8673251
20
224.9220268
11
22.9644251
21
224.8302268
0
LINE
8
DEFAULT_255_2_778
10
22.9644251
20
224.8302268
11
22.9967251
21
224.6876268
0
LINE
8
DEFAULT_255_2_778
10
22.9967251
20
224.6876268
11
23.0049251
21
224.3929268
0
LINE
8
DEFAULT_255_2_778
10
23.0049251
20
224.3929268
11
23.0171251
21
224.1907268
0
LINE
8
DEFAULT_255_2_778
10
23.0171251
20
224.1907268
11
23.0819251
21
223.9563268
0
LINE
8
DEFAULT_255_2_778
10
23.0819251
20
223.9563268
11
23.3774251
21
223.9563268
0
LINE
8
DEFAULT_255_2_778
10
23.3774251
20
223.9563268
11
23.3452251
21
224.0775268
0
LINE
8
DEFAULT_255_2_778
10
23.3452251
20
224.0775268
11
23.3208251
21
224.2460268
0
LINE
8
DEFAULT_255_2_778
10
23.3208251
20
224.2460268
11
23.3047251
21
224.4153268
0
LINE
8
DEFAULT_255_2_778
10
23.3047251
20
224.4153268
11
23.3007251
21
224.5323268
0
LINE
8
DEFAULT_255_2_778
10
23.3007251
20
224.5323268
11
23.2764251
21
224.8000268
0
LINE
8
DEFAULT_255_2_778
10
23.2764251
20
224.8000268
11
23.2158251
21
224.9681268
0
LINE
8
DEFAULT_255_2_778
10
23.2158251
20
224.9681268
11
23.1105251
21
225.0527268
0
LINE
8
DEFAULT_255_2_778
10
23.1105251
20
225.0527268
11
22.9404251
21
225.1054268
0
LINE
8
DEFAULT_255_2_778
10
22.9404251
20
225.1054268
11
23.1105251
21
225.1641268
0
LINE
8
DEFAULT_255_2_778
10
23.1105251
20
225.1641268
11
23.2359251
21
225.2731268
0
LINE
8
DEFAULT_255_2_778
10
23.2359251
20
225.2731268
11
23.3169251
21
225.4253268
0
LINE
8
DEFAULT_255_2_778
10
23.3169251
20
225.4253268
11
23.3412251
21
225.6083268
0
LINE
8
DEFAULT_255_2_778
10
23.3412251
20
225.6083268
11
23.3129251
21
225.8184268
0
LINE
8
DEFAULT_255_2_778
10
23.3129251
20
225.8184268
11
23.2237251
21
225.9862268
0
LINE
8
DEFAULT_255_2_778
10
23.2237251
20
225.9862268
11
23.0536251
21
226.1142268
0
LINE
8
DEFAULT_255_2_778
10
23.0536251
20
226.1142268
11
22.8147251
21
226.1568268
0
LINE
8
DEFAULT_255_2_778
10
22.8147251
20
226.1568268
11
22.0574251
21
226.1568268
0
LINE
8
DEFAULT_255_2_778
10
22.0574251
20
226.1568268
11
22.0574251
21
223.9568268
0
LINE
8
DEFAULT_255_2_778
10
20.5879251
20
223.9563268
11
21.7378251
21
223.9563268
0
LINE
8
DEFAULT_255_2_778
10
21.7378251
20
223.9563268
11
21.7378251
21
224.2000268
0
LINE
8
DEFAULT_255_2_778
10
21.7378251
20
224.2000268
11
20.8673251
21
224.2000268
0
LINE
8
DEFAULT_255_2_778
10
20.8673251
20
224.2000268
11
20.8673251
21
224.9617268
0
LINE
8
DEFAULT_255_2_778
10
20.8673251
20
224.9617268
11
21.6611251
21
224.9617268
0
LINE
8
DEFAULT_255_2_778
10
21.6611251
20
224.9617268
11
21.6611251
21
225.2054268
0
LINE
8
DEFAULT_255_2_778
10
21.6611251
20
225.2054268
11
20.8673251
21
225.2054268
0
LINE
8
DEFAULT_255_2_778
10
20.8673251
20
225.2054268
11
20.8673251
21
225.9124268
0
LINE
8
DEFAULT_255_2_778
10
20.8673251
20
225.9124268
11
21.7217251
21
225.9124268
0
LINE
8
DEFAULT_255_2_778
10
21.7217251
20
225.9124268
11
21.7217251
21
226.1560268
0
LINE
8
DEFAULT_255_2_778
10
21.7217251
20
226.1560268
11
20.5879251
21
226.1560268
0
LINE
8
DEFAULT_255_2_778
10
20.5879251
20
226.1560268
11
20.5879251
21
223.9560268
0
LINE
8
DEFAULT_255_2_778
10
20.3408251
20
226.1563268
11
20.0535251
21
226.1563268
0
LINE
8
DEFAULT_255_2_778
10
20.0535251
20
226.1563268
11
19.5352251
21
224.2211268
0
LINE
8
DEFAULT_255_2_778
10
19.5352251
20
224.2211268
11
19.0290251
21
226.1563268
0
LINE
8
DEFAULT_255_2_778
10
19.0290251
20
226.1563268
11
18.7253251
21
226.1563268
0
LINE
8
DEFAULT_255_2_778
10
18.7253251
20
226.1563268
11
19.3611251
21
223.9563268
0
LINE
8
DEFAULT_255_2_778
10
19.3611251
20
223.9563268
11
19.6971251
21
223.9563268
0
LINE
8
DEFAULT_255_2_778
10
19.6971251
20
223.9563268
11
20.3408251
21
226.1563268
0
LINE
8
DEFAULT_255_2_778
10
17.3082251
20
223.9563268
11
17.5876251
21
223.9563268
0
LINE
8
DEFAULT_255_2_778
10
17.5876251
20
223.9563268
11
17.5876251
21
224.9617268
0
LINE
8
DEFAULT_255_2_778
10
17.5876251
20
224.9617268
11
17.9196251
21
224.9617268
0
LINE
8
DEFAULT_255_2_778
10
17.9196251
20
224.9617268
11
18.1181251
21
224.9220268
0
LINE
8
DEFAULT_255_2_778
10
18.1181251
20
224.9220268
11
18.2194251
21
224.8302268
0
LINE
8
DEFAULT_255_2_778
10
18.2194251
20
224.8302268
11
18.2517251
21
224.6876268
0
LINE
8
DEFAULT_255_2_778
10
18.2517251
20
224.6876268
11
18.2556251
21
224.3929268
0
LINE
8
DEFAULT_255_2_778
10
18.2556251
20
224.3929268
11
18.2718251
21
224.1907268
0
LINE
8
DEFAULT_255_2_778
10
18.2718251
20
224.1907268
11
18.3366251
21
223.9563268
0
LINE
8
DEFAULT_255_2_778
10
18.3366251
20
223.9563268
11
18.6282251
21
223.9563268
0
LINE
8
DEFAULT_255_2_778
10
18.6282251
20
223.9563268
11
18.5998251
21
224.0775268
0
LINE
8
DEFAULT_255_2_778
10
18.5998251
20
224.0775268
11
18.5755251
21
224.2460268
0
LINE
8
DEFAULT_255_2_778
10
18.5755251
20
224.2460268
11
18.5594251
21
224.4153268
0
LINE
8
DEFAULT_255_2_778
10
18.5594251
20
224.4153268
11
18.5512251
21
224.5323268
0
LINE
8
DEFAULT_255_2_778
10
18.5512251
20
224.5323268
11
18.5311251
21
224.8000268
0
LINE
8
DEFAULT_255_2_778
10
18.5311251
20
224.8000268
11
18.4663251
21
224.9681268
0
LINE
8
DEFAULT_255_2_778
10
18.4663251
20
224.9681268
11
18.3649251
21
225.0527268
0
LINE
8
DEFAULT_255_2_778
10
18.3649251
20
225.0527268
11
18.1908251
21
225.1054268
0
LINE
8
DEFAULT_255_2_778
10
18.1908251
20
225.1054268
11
18.3609251
21
225.1641268
0
LINE
8
DEFAULT_255_2_778
10
18.3609251
20
225.1641268
11
18.4864251
21
225.2731268
0
LINE
8
DEFAULT_255_2_778
10
18.4864251
20
225.2731268
11
18.5673251
21
225.4253268
0
LINE
8
DEFAULT_255_2_778
10
18.5673251
20
225.4253268
11
18.5956251
21
225.6083268
0
LINE
8
DEFAULT_255_2_778
10
18.5956251
20
225.6083268
11
18.5634251
21
225.8184268
0
LINE
8
DEFAULT_255_2_778
10
18.5634251
20
225.8184268
11
18.4742251
21
225.9862268
0
LINE
8
DEFAULT_255_2_778
10
18.4742251
20
225.9862268
11
18.3041251
21
226.1142268
0
LINE
8
DEFAULT_255_2_778
10
18.3041251
20
226.1142268
11
18.0691251
21
226.1568268
0
LINE
8
DEFAULT_255_2_778
10
18.0691251
20
226.1568268
11
17.3079251
21
226.1568268
0
LINE
8
DEFAULT_255_2_778
10
17.3079251
20
226.1568268
11
17.3079251
21
223.9568268
0
LINE
8
DEFAULT_255_2_778
10
15.8384251
20
223.9563268
11
16.9923251
21
223.9563268
0
LINE
8
DEFAULT_255_2_778
10
16.9923251
20
223.9563268
11
16.9923251
21
224.2000268
0
LINE
8
DEFAULT_255_2_778
10
16.9923251
20
224.2000268
11
16.1218251
21
224.2000268
0
LINE
8
DEFAULT_255_2_778
10
16.1218251
20
224.2000268
11
16.1218251
21
224.9617268
0
LINE
8
DEFAULT_255_2_778
10
16.1218251
20
224.9617268
11
16.9113251
21
224.9617268
0
LINE
8
DEFAULT_255_2_778
10
16.9113251
20
224.9617268
11
16.9113251
21
225.2054268
0
LINE
8
DEFAULT_255_2_778
10
16.9113251
20
225.2054268
11
16.1218251
21
225.2054268
0
LINE
8
DEFAULT_255_2_778
10
16.1218251
20
225.2054268
11
16.1218251
21
225.9124268
0
LINE
8
DEFAULT_255_2_778
10
16.1218251
20
225.9124268
11
16.9722251
21
225.9124268
0
LINE
8
DEFAULT_255_2_778
10
16.9722251
20
225.9124268
11
16.9722251
21
226.1560268
0
LINE
8
DEFAULT_255_2_778
10
16.9722251
20
226.1560268
11
15.8384251
21
226.1560268
0
LINE
8
DEFAULT_255_2_778
10
15.8384251
20
226.1560268
11
15.8384251
21
223.9560268
0
LINE
8
DEFAULT_255_2_778
10
14.1255251
20
224.6117268
11
14.1416251
21
224.3849268
0
LINE
8
DEFAULT_255_2_778
10
14.1416251
20
224.3849268
11
14.1943251
21
224.2055268
0
LINE
8
DEFAULT_255_2_778
10
14.1943251
20
224.2055268
11
14.2792251
21
224.0724268
0
LINE
8
DEFAULT_255_2_778
10
14.2792251
20
224.0724268
11
14.4046251
21
223.9825268
0
LINE
8
DEFAULT_255_2_778
10
14.4046251
20
223.9825268
11
14.5666251
21
223.9285268
0
LINE
8
DEFAULT_255_2_778
10
14.5666251
20
223.9285268
11
14.7690251
21
223.9108268
0
LINE
8
DEFAULT_255_2_778
10
14.7690251
20
223.9108268
11
14.9552251
21
223.9259268
0
LINE
8
DEFAULT_255_2_778
10
14.9552251
20
223.9259268
11
15.1132251
21
223.9703268
0
LINE
8
DEFAULT_255_2_778
10
15.1132251
20
223.9703268
11
15.2428251
21
224.0449268
0
LINE
8
DEFAULT_255_2_778
10
15.2428251
20
224.0449268
11
15.3561251
21
224.1672268
0
LINE
8
DEFAULT_255_2_778
10
15.3561251
20
224.1672268
11
15.4248251
21
224.3267268
0
LINE
8
DEFAULT_255_2_778
10
15.4248251
20
224.3267268
11
15.4450251
21
224.5236268
0
LINE
8
DEFAULT_255_2_778
10
15.4450251
20
224.5236268
11
15.4167251
21
224.7090268
0
LINE
8
DEFAULT_255_2_778
10
15.4167251
20
224.7090268
11
15.3317251
21
224.8731268
0
LINE
8
DEFAULT_255_2_778
10
15.3317251
20
224.8731268
11
15.1902251
21
225.0141268
0
LINE
8
DEFAULT_255_2_778
10
15.1902251
20
225.0141268
11
14.7163251
21
225.2882268
0
LINE
8
DEFAULT_255_2_778
10
14.7163251
20
225.2882268
11
14.5261251
21
225.4514268
0
LINE
8
DEFAULT_255_2_778
10
14.5261251
20
225.4514268
11
14.4613251
21
225.6356268
0
LINE
8
DEFAULT_255_2_778
10
14.4613251
20
225.6356268
11
14.4896251
21
225.7827268
0
LINE
8
DEFAULT_255_2_778
10
14.4896251
20
225.7827268
11
14.5705251
21
225.8888268
0
LINE
8
DEFAULT_255_2_778
10
14.5705251
20
225.8888268
11
14.8012251
21
225.9589268
0
LINE
8
DEFAULT_255_2_778
10
14.8012251
20
225.9589268
11
14.9632251
21
225.9314268
0
LINE
8
DEFAULT_255_2_778
10
14.9632251
20
225.9314268
11
15.0724251
21
225.8491268
0
LINE
8
DEFAULT_255_2_778
10
15.0724251
20
225.8491268
11
15.1211251
21
225.7308268
0
LINE
8
DEFAULT_255_2_778
10
15.1211251
20
225.7308268
11
15.1373251
21
225.5597268
0
LINE
8
DEFAULT_255_2_778
10
15.1373251
20
225.5597268
11
15.4328251
21
225.5597268
0
LINE
8
DEFAULT_255_2_778
10
15.4328251
20
225.5597268
11
15.4127251
21
225.7613268
0
LINE
8
DEFAULT_255_2_778
10
15.4127251
20
225.7613268
11
15.3640251
21
225.9240268
0
LINE
8
DEFAULT_255_2_778
10
15.3640251
20
225.9240268
11
15.2791251
21
226.0470268
0
LINE
8
DEFAULT_255_2_778
10
15.2791251
20
226.0470268
11
15.0888251
21
226.1637268
0
LINE
8
DEFAULT_255_2_778
10
15.0888251
20
226.1637268
11
14.8216251
21
226.2026268
0
LINE
8
DEFAULT_255_2_778
10
14.8216251
20
226.2026268
11
14.6436251
21
226.1851268
0
LINE
8
DEFAULT_255_2_778
10
14.6436251
20
226.1851268
11
14.4856251
21
226.1333268
0
LINE
8
DEFAULT_255_2_778
10
14.4856251
20
226.1333268
11
14.3520251
21
226.0470268
0
LINE
8
DEFAULT_255_2_778
10
14.3520251
20
226.0470268
11
14.2223251
21
225.8586268
0
LINE
8
DEFAULT_255_2_778
10
14.2223251
20
225.8586268
11
14.1779251
21
225.6052268
0
LINE
8
DEFAULT_255_2_778
10
14.1779251
20
225.6052268
11
14.2062251
21
225.4282268
0
LINE
8
DEFAULT_255_2_778
10
14.2062251
20
225.4282268
11
14.2914251
21
225.2718268
0
LINE
8
DEFAULT_255_2_778
10
14.2914251
20
225.2718268
11
14.4329251
21
225.1358268
0
LINE
8
DEFAULT_255_2_778
10
14.4329251
20
225.1358268
11
14.9068251
21
224.8646268
0
LINE
8
DEFAULT_255_2_778
10
14.9068251
20
224.8646268
11
15.0970251
21
224.6984268
0
LINE
8
DEFAULT_255_2_778
10
15.0970251
20
224.6984268
11
15.1619251
21
224.5111268
0
LINE
8
DEFAULT_255_2_778
10
15.1619251
20
224.5111268
11
15.1336251
21
224.3487268
0
LINE
8
DEFAULT_255_2_778
10
15.1336251
20
224.3487268
11
15.0486251
21
224.2336268
0
LINE
8
DEFAULT_255_2_778
10
15.0486251
20
224.2336268
11
14.9312251
21
224.1746268
0
LINE
8
DEFAULT_255_2_778
10
14.9312251
20
224.1746268
11
14.7692251
21
224.1547268
0
LINE
8
DEFAULT_255_2_778
10
14.7692251
20
224.1547268
11
14.6316251
21
224.1762268
0
LINE
8
DEFAULT_255_2_778
10
14.6316251
20
224.1762268
11
14.5184251
21
224.2402268
0
LINE
8
DEFAULT_255_2_778
10
14.5184251
20
224.2402268
11
14.4292251
21
224.3675268
0
LINE
8
DEFAULT_255_2_778
10
14.4292251
20
224.3675268
11
14.4009251
21
224.5482268
0
LINE
8
DEFAULT_255_2_778
10
14.4009251
20
224.5482268
11
14.4009251
21
224.6122268
0
LINE
8
DEFAULT_255_2_778
10
14.4009251
20
224.6122268
11
14.1255251
21
224.6122268
0
LINE
8
DEFAULT_255_2_778
10
19.1343251
20
209.0423268
11
19.1343251
21
210.0112268
0
LINE
8
DEFAULT_255_2_778
10
19.1343251
20
210.0112268
11
19.5029251
21
210.0112268
0
LINE
8
DEFAULT_255_2_778
10
19.5029251
20
210.0112268
11
19.7174251
21
210.0403268
0
LINE
8
DEFAULT_255_2_778
10
19.7174251
20
210.0403268
11
19.8998251
21
210.1270268
0
LINE
8
DEFAULT_255_2_778
10
19.8998251
20
210.1270268
11
20.0212251
21
210.2501268
0
LINE
8
DEFAULT_255_2_778
10
20.0212251
20
210.2501268
11
20.0940251
21
210.4128268
0
LINE
8
DEFAULT_255_2_778
10
20.0940251
20
210.4128268
11
20.1183251
21
210.6144268
0
LINE
8
DEFAULT_255_2_778
10
20.1183251
20
210.6144268
11
20.0979251
21
210.8282268
0
LINE
8
DEFAULT_255_2_778
10
20.0979251
20
210.8282268
11
20.0331251
21
210.9978268
0
LINE
8
DEFAULT_255_2_778
10
20.0331251
20
210.9978268
11
19.9238251
21
211.1232268
0
LINE
8
DEFAULT_255_2_778
10
19.9238251
20
211.1232268
11
19.7458251
21
211.2124268
0
LINE
8
DEFAULT_255_2_778
10
19.7458251
20
211.2124268
11
19.5069251
21
211.2420268
0
LINE
8
DEFAULT_255_2_778
10
19.5069251
20
211.2420268
11
18.8549251
21
211.2420268
0
LINE
8
DEFAULT_255_2_778
10
18.8549251
20
211.2420268
11
18.8549251
21
209.0420268
0
LINE
8
DEFAULT_255_2_778
10
18.8549251
20
209.0420268
11
19.1343251
21
209.0420268
0
LINE
8
DEFAULT_255_2_778
10
17.4987251
20
209.0190268
11
17.7172251
21
208.9967268
0
LINE
8
DEFAULT_255_2_778
10
17.7172251
20
208.9967268
11
17.9318251
21
209.0190268
0
LINE
8
DEFAULT_255_2_778
10
17.9318251
20
209.0190268
11
18.1059251
21
209.0862268
0
LINE
8
DEFAULT_255_2_778
10
18.1059251
20
209.0862268
11
18.2395251
21
209.1978268
0
LINE
8
DEFAULT_255_2_778
10
18.2395251
20
209.1978268
11
18.3366251
21
209.3595268
0
LINE
8
DEFAULT_255_2_778
10
18.3366251
20
209.3595268
11
18.3932251
21
209.5757268
0
LINE
8
DEFAULT_255_2_778
10
18.3932251
20
209.5757268
11
18.4094251
21
209.8469268
0
LINE
8
DEFAULT_255_2_778
10
18.4094251
20
209.8469268
11
18.4094251
21
210.5689268
0
LINE
8
DEFAULT_255_2_778
10
18.4094251
20
210.5689268
11
18.3893251
21
210.7766268
0
LINE
8
DEFAULT_255_2_778
10
18.3893251
20
210.7766268
11
18.3326251
21
210.9523268
0
LINE
8
DEFAULT_255_2_778
10
18.3326251
20
210.9523268
11
18.2355251
21
211.0960268
0
LINE
8
DEFAULT_255_2_778
10
18.2355251
20
211.0960268
11
18.0980251
21
211.2023268
0
LINE
8
DEFAULT_255_2_778
10
18.0980251
20
211.2023268
11
17.9239251
21
211.2666268
0
LINE
8
DEFAULT_255_2_778
10
17.9239251
20
211.2666268
11
17.7172251
21
211.2878268
0
LINE
8
DEFAULT_255_2_778
10
17.7172251
20
211.2878268
11
17.5066251
21
211.2666268
0
LINE
8
DEFAULT_255_2_778
10
17.5066251
20
211.2666268
11
17.3325251
21
211.2023268
0
LINE
8
DEFAULT_255_2_778
10
17.3325251
20
211.2023268
11
17.1989251
21
211.0960268
0
LINE
8
DEFAULT_255_2_778
10
17.1989251
20
211.0960268
11
17.1018251
21
210.9533268
0
LINE
8
DEFAULT_255_2_778
10
17.1018251
20
210.9533268
11
17.0452251
21
210.7777268
0
LINE
8
DEFAULT_255_2_778
10
17.0452251
20
210.7777268
11
17.0251251
21
210.5686268
0
LINE
8
DEFAULT_255_2_778
10
17.0251251
20
210.5686268
11
17.0251251
21
209.8466268
0
LINE
8
DEFAULT_255_2_778
10
17.0251251
20
209.8466268
11
17.0412251
21
209.5725268
0
LINE
8
DEFAULT_255_2_778
10
17.0412251
20
209.5725268
11
17.0978251
21
209.3550268
0
LINE
8
DEFAULT_255_2_778
10
17.0978251
20
209.3550268
11
17.1910251
21
209.1941268
0
LINE
8
DEFAULT_255_2_778
10
17.1910251
20
209.1941268
11
17.3246251
21
209.0843268
0
LINE
8
DEFAULT_255_2_778
10
17.3246251
20
209.0843268
11
17.4987251
21
209.0182268
0
LINE
8
DEFAULT_255_2_778
10
17.7172531
20
209.231525
11
17.9035531
21
209.261125
0
LINE
8
DEFAULT_255_2_778
10
17.9035531
20
209.261125
11
18.0250531
21
209.350225
0
LINE
8
DEFAULT_255_2_778
10
18.0250531
20
209.350225
11
18.0855531
21
209.463525
0
LINE
8
DEFAULT_255_2_778
10
18.0855531
20
209.463525
11
18.1178531
21
209.625225
0
LINE
8
DEFAULT_255_2_778
10
18.1178531
20
209.625225
11
18.1300531
21
209.835025
0
LINE
8
DEFAULT_255_2_778
10
18.1300531
20
209.835025
11
18.1300531
21
210.578425
0
LINE
8
DEFAULT_255_2_778
10
18.1300531
20
210.578425
11
18.1017531
21
210.782425
0
LINE
8
DEFAULT_255_2_778
10
18.1017531
20
210.782425
11
18.0247531
21
210.931925
0
LINE
8
DEFAULT_255_2_778
10
18.0247531
20
210.931925
11
17.8950531
21
211.023525
0
LINE
8
DEFAULT_255_2_778
10
17.8950531
20
211.023525
11
17.7167531
21
211.053925
0
LINE
8
DEFAULT_255_2_778
10
17.7167531
20
211.053925
11
17.5386531
21
211.023525
0
LINE
8
DEFAULT_255_2_778
10
17.5386531
20
211.023525
11
17.4090531
21
210.931925
0
LINE
8
DEFAULT_255_2_778
10
17.4090531
20
210.931925
11
17.3320531
21
210.782425
0
LINE
8
DEFAULT_255_2_778
10
17.3320531
20
210.782425
11
17.3037531
21
210.578425
0
LINE
8
DEFAULT_255_2_778
10
17.3037531
20
210.578425
11
17.3037531
21
209.835025
0
LINE
8
DEFAULT_255_2_778
10
17.3037531
20
209.835025
11
17.3320531
21
209.542325
0
LINE
8
DEFAULT_255_2_778
10
17.3320531
20
209.542325
11
17.4090531
21
209.353725
0
LINE
8
DEFAULT_255_2_778
10
17.4090531
20
209.353725
11
17.5304531
21
209.262125
0
LINE
8
DEFAULT_255_2_778
10
17.5304531
20
209.262125
11
17.7167531
21
209.231725
0
LINE
8
DEFAULT_255_2_778
10
16.9195594
20
211.2422729
11
15.4820594
21
211.2422729
0
LINE
8
DEFAULT_255_2_778
10
15.4820594
20
211.2422729
11
15.4820594
21
210.9985729
0
LINE
8
DEFAULT_255_2_778
10
15.4820594
20
210.9985729
11
16.0609594
21
210.9985729
0
LINE
8
DEFAULT_255_2_778
10
16.0609594
20
210.9985729
11
16.0609594
21
209.0425729
0
LINE
8
DEFAULT_255_2_778
10
16.0609594
20
209.0425729
11
16.3403594
21
209.0425729
0
LINE
8
DEFAULT_255_2_778
10
16.3403594
20
209.0425729
11
16.3403594
21
210.9985729
0
LINE
8
DEFAULT_255_2_778
10
16.3403594
20
210.9985729
11
16.9192594
21
210.9985729
0
LINE
8
DEFAULT_255_2_778
10
16.9192594
20
210.9985729
11
16.9192594
21
211.2422729
0
LINE
8
DEFAULT_255_2_778
10
14.1094063
20
209.6977098
11
14.1255063
21
209.4709098
0
LINE
8
DEFAULT_255_2_778
10
14.1255063
20
209.4709098
11
14.1782063
21
209.2915098
0
LINE
8
DEFAULT_255_2_778
10
14.1782063
20
209.2915098
11
14.2631063
21
209.1584098
0
LINE
8
DEFAULT_255_2_778
10
14.2631063
20
209.1584098
11
14.3885063
21
209.0685098
0
LINE
8
DEFAULT_255_2_778
10
14.3885063
20
209.0685098
11
14.5504063
21
209.0150098
0
LINE
8
DEFAULT_255_2_778
10
14.5504063
20
209.0150098
11
14.7528063
21
208.9968098
0
LINE
8
DEFAULT_255_2_778
10
14.7528063
20
208.9968098
11
14.9391063
21
209.0119098
0
LINE
8
DEFAULT_255_2_778
10
14.9391063
20
209.0119098
11
15.0971063
21
209.0563098
0
LINE
8
DEFAULT_255_2_778
10
15.0971063
20
209.0563098
11
15.2267063
21
209.1309098
0
LINE
8
DEFAULT_255_2_778
10
15.2267063
20
209.1309098
11
15.3402063
21
209.2532098
0
LINE
8
DEFAULT_255_2_778
10
15.3402063
20
209.2532098
11
15.4090063
21
209.4127098
0
LINE
8
DEFAULT_255_2_778
10
15.4090063
20
209.4127098
11
15.4294063
21
209.6096098
0
LINE
8
DEFAULT_255_2_778
10
15.4294063
20
209.6096098
11
15.4011063
21
209.7953098
0
LINE
8
DEFAULT_255_2_778
10
15.4011063
20
209.7953098
11
15.3161063
21
209.9588098
0
LINE
8
DEFAULT_255_2_778
10
15.3161063
20
209.9588098
11
15.1743063
21
210.0998098
0
LINE
8
DEFAULT_255_2_778
10
15.1743063
20
210.0998098
11
14.7005063
21
210.3745098
0
LINE
8
DEFAULT_255_2_778
10
14.7005063
20
210.3745098
11
14.5102063
21
210.5372098
0
LINE
8
DEFAULT_255_2_778
10
14.5102063
20
210.5372098
11
14.4454063
21
210.7213098
0
LINE
8
DEFAULT_255_2_778
10
14.4454063
20
210.7213098
11
14.4737063
21
210.8687098
0
LINE
8
DEFAULT_255_2_778
10
14.4737063
20
210.8687098
11
14.5547063
21
210.9743098
0
LINE
8
DEFAULT_255_2_778
10
14.5547063
20
210.9743098
11
14.7854063
21
211.0444098
0
LINE
8
DEFAULT_255_2_778
10
14.7854063
20
211.0444098
11
14.9473063
21
211.0169098
0
LINE
8
DEFAULT_255_2_778
10
14.9473063
20
211.0169098
11
15.0566063
21
210.9346098
0
LINE
8
DEFAULT_255_2_778
10
15.0566063
20
210.9346098
11
15.1053063
21
210.8168098
0
LINE
8
DEFAULT_255_2_778
10
15.1053063
20
210.8168098
11
15.1214063
21
210.6451098
0
LINE
8
DEFAULT_255_2_778
10
15.1214063
20
210.6451098
11
15.4170063
21
210.6451098
0
LINE
8
DEFAULT_255_2_778
10
15.4170063
20
210.6451098
11
15.3966063
21
210.8473098
0
LINE
8
DEFAULT_255_2_778
10
15.3966063
20
210.8473098
11
15.3479063
21
211.0097098
0
LINE
8
DEFAULT_255_2_778
10
15.3479063
20
211.0097098
11
15.2630063
21
211.1328098
0
LINE
8
DEFAULT_255_2_778
10
15.2630063
20
211.1328098
11
15.0727063
21
211.2494098
0
LINE
8
DEFAULT_255_2_778
10
15.0727063
20
211.2494098
11
14.8055063
21
211.2883098
0
LINE
8
DEFAULT_255_2_778
10
14.8055063
20
211.2883098
11
14.6232063
21
211.2709098
0
LINE
8
DEFAULT_255_2_778
10
14.6232063
20
211.2709098
11
14.4692063
21
211.2195098
0
LINE
8
DEFAULT_255_2_778
10
14.4692063
20
211.2195098
11
14.3356063
21
211.1328098
0
LINE
8
DEFAULT_255_2_778
10
14.3356063
20
211.1328098
11
14.2020063
21
210.9449098
0
LINE
8
DEFAULT_255_2_778
10
14.2020063
20
210.9449098
11
14.1575063
21
210.6909098
0
LINE
8
DEFAULT_255_2_778
10
14.1575063
20
210.6909098
11
14.1898063
21
210.5144098
0
LINE
8
DEFAULT_255_2_778
10
14.1898063
20
210.5144098
11
14.2747063
21
210.3578098
0
LINE
8
DEFAULT_255_2_778
10
14.2747063
20
210.3578098
11
14.4166063
21
210.2218098
0
LINE
8
DEFAULT_255_2_778
10
14.4166063
20
210.2218098
11
14.8904063
21
209.9506098
0
LINE
8
DEFAULT_255_2_778
10
14.8904063
20
209.9506098
11
15.0807063
21
209.7847098
0
LINE
8
DEFAULT_255_2_778
10
15.0807063
20
209.7847098
11
15.1455063
21
209.5976098
0
LINE
8
DEFAULT_255_2_778
10
15.1455063
20
209.5976098
11
15.1172063
21
209.4352098
0
LINE
8
DEFAULT_255_2_778
10
15.1172063
20
209.4352098
11
15.0322063
21
209.3201098
0
LINE
8
DEFAULT_255_2_778
10
15.0322063
20
209.3201098
11
14.9148063
21
209.2606098
0
LINE
8
DEFAULT_255_2_778
10
14.9148063
20
209.2606098
11
14.7528063
21
209.2407098
0
LINE
8
DEFAULT_255_2_778
10
14.7528063
20
209.2407098
11
14.6110063
21
209.2622098
0
LINE
8
DEFAULT_255_2_778
10
14.6110063
20
209.2622098
11
14.5018063
21
209.3262098
0
LINE
8
DEFAULT_255_2_778
10
14.5018063
20
209.3262098
11
14.4126063
21
209.4535098
0
LINE
8
DEFAULT_255_2_778
10
14.4126063
20
209.4535098
11
14.3843063
21
209.6342098
0
LINE
8
DEFAULT_255_2_778
10
14.3843063
20
209.6342098
11
14.3843063
21
209.6982098
0
LINE
8
DEFAULT_255_2_778
10
14.3843063
20
209.6982098
11
14.1089063
21
209.6982098
0
LINE
8
DEFAULT_255_2_778
10
17.3688063
20
234.0515098
11
17.8710063
21
234.0515098
0
LINE
8
DEFAULT_255_2_778
10
17.8710063
20
234.0515098
11
18.1300063
21
234.0682098
0
LINE
8
DEFAULT_255_2_778
10
18.1300063
20
234.0682098
11
18.3324063
21
234.1187098
0
LINE
8
DEFAULT_255_2_778
10
18.3324063
20
234.1187098
11
18.4864063
21
234.2079098
0
LINE
8
DEFAULT_255_2_778
10
18.4864063
20
234.2079098
11
18.5957063
21
234.3351098
0
LINE
8
DEFAULT_255_2_778
10
18.5957063
20
234.3351098
11
18.6605063
21
234.4727098
0
LINE
8
DEFAULT_255_2_778
10
18.6605063
20
234.4727098
11
18.7010063
21
234.6550098
0
LINE
8
DEFAULT_255_2_778
10
18.7010063
20
234.6550098
11
18.7171063
21
234.8085098
0
LINE
8
DEFAULT_255_2_778
10
18.7171063
20
234.8085098
11
18.7293063
21
234.9976098
0
LINE
8
DEFAULT_255_2_778
10
18.7293063
20
234.9976098
11
18.7293063
21
235.2215098
0
LINE
8
DEFAULT_255_2_778
10
18.7293063
20
235.2215098
11
18.7253063
21
235.4160098
0
LINE
8
DEFAULT_255_2_778
10
18.7253063
20
235.4160098
11
18.7010063
21
235.6207098
0
LINE
8
DEFAULT_255_2_778
10
18.7010063
20
235.6207098
11
18.6687063
21
235.8001098
0
LINE
8
DEFAULT_255_2_778
10
18.6687063
20
235.8001098
11
18.6322063
21
235.9163098
0
LINE
8
DEFAULT_255_2_778
10
18.6322063
20
235.9163098
11
18.5351063
21
236.0666098
0
LINE
8
DEFAULT_255_2_778
10
18.5351063
20
236.0666098
11
18.4054063
21
236.1695098
0
LINE
8
DEFAULT_255_2_778
10
18.4054063
20
236.1695098
11
18.2435063
21
236.2311098
0
LINE
8
DEFAULT_255_2_778
10
18.2435063
20
236.2311098
11
18.0411063
21
236.2518098
0
LINE
8
DEFAULT_255_2_778
10
18.0411063
20
236.2518098
11
17.3690063
21
236.2518098
0
LINE
8
DEFAULT_255_2_778
10
17.3690063
20
236.2518098
11
17.3690063
21
234.0520098
0
LINE
8
DEFAULT_255_2_778
10
17.1341063
20
234.0515098
11
16.4782063
21
235.1908098
0
LINE
8
DEFAULT_255_2_778
10
16.4782063
20
235.1908098
11
17.0693063
21
236.2512098
0
LINE
8
DEFAULT_255_2_778
10
17.0693063
20
236.2512098
11
16.7616063
21
236.2512098
0
LINE
8
DEFAULT_255_2_778
10
16.7616063
20
236.2512098
11
16.3041063
21
235.3980098
0
LINE
8
DEFAULT_255_2_778
10
16.3041063
20
235.3980098
11
15.8506063
21
236.2512098
0
LINE
8
DEFAULT_255_2_778
10
15.8506063
20
236.2512098
11
15.5307063
21
236.2512098
0
LINE
8
DEFAULT_255_2_778
10
15.5307063
20
236.2512098
11
16.1300063
21
235.1908098
0
LINE
8
DEFAULT_255_2_778
10
16.1300063
20
235.1908098
11
15.4942063
21
234.0515098
0
LINE
8
DEFAULT_255_2_778
10
15.4942063
20
234.0515098
11
15.8019063
21
234.0515098
0
LINE
8
DEFAULT_255_2_778
10
15.8019063
20
234.0515098
11
16.2837063
21
234.9929098
0
LINE
8
DEFAULT_255_2_778
10
16.2837063
20
234.9929098
11
16.7978063
21
234.0515098
0
LINE
8
DEFAULT_255_2_778
10
16.7978063
20
234.0515098
11
17.1338063
21
234.0515098
0
LINE
8
DEFAULT_255_2_778
10
14.0890063
20
236.2512098
11
14.0890063
21
234.0515098
0
LINE
8
DEFAULT_255_2_778
10
14.0890063
20
234.0515098
11
14.3724063
21
234.0515098
0
LINE
8
DEFAULT_255_2_778
10
14.3724063
20
234.0515098
11
14.3724063
21
235.0569098
0
LINE
8
DEFAULT_255_2_778
10
14.3724063
20
235.0569098
11
14.7005063
21
235.0569098
0
LINE
8
DEFAULT_255_2_778
10
14.7005063
20
235.0569098
11
14.9029063
21
235.0178098
0
LINE
8
DEFAULT_255_2_778
10
14.9029063
20
235.0178098
11
15.0000063
21
234.9254098
0
LINE
8
DEFAULT_255_2_778
10
15.0000063
20
234.9254098
11
15.0322063
21
234.7828098
0
LINE
8
DEFAULT_255_2_778
10
15.0322063
20
234.7828098
11
15.0362063
21
234.4881098
0
LINE
8
DEFAULT_255_2_778
10
15.0362063
20
234.4881098
11
15.0524063
21
234.2859098
0
LINE
8
DEFAULT_255_2_778
10
15.0524063
20
234.2859098
11
15.1172063
21
234.0515098
0
LINE
8
DEFAULT_255_2_778
10
15.1172063
20
234.0515098
11
15.4088063
21
234.0515098
0
LINE
8
DEFAULT_255_2_778
10
15.4088063
20
234.0515098
11
15.3804063
21
234.1727098
0
LINE
8
DEFAULT_255_2_778
10
15.3804063
20
234.1727098
11
15.3561063
21
234.3412098
0
LINE
8
DEFAULT_255_2_778
10
15.3561063
20
234.3412098
11
15.3400063
21
234.5100098
0
LINE
8
DEFAULT_255_2_778
10
15.3400063
20
234.5100098
11
15.3318063
21
234.6275098
0
LINE
8
DEFAULT_255_2_778
10
15.3318063
20
234.6275098
11
15.3116063
21
234.8947098
0
LINE
8
DEFAULT_255_2_778
10
15.3116063
20
234.8947098
11
15.2468063
21
235.0633098
0
LINE
8
DEFAULT_255_2_778
10
15.2468063
20
235.0633098
11
15.1458063
21
235.1479098
0
LINE
8
DEFAULT_255_2_778
10
15.1458063
20
235.1479098
11
14.9756063
21
235.2006098
0
LINE
8
DEFAULT_255_2_778
10
14.9756063
20
235.2006098
11
15.1458063
21
235.2593098
0
LINE
8
DEFAULT_255_2_778
10
15.1458063
20
235.2593098
11
15.2712063
21
235.3683098
0
LINE
8
DEFAULT_255_2_778
10
15.2712063
20
235.3683098
11
15.3482063
21
235.5205098
0
LINE
8
DEFAULT_255_2_778
10
15.3482063
20
235.5205098
11
15.3765063
21
235.7030098
0
LINE
8
DEFAULT_255_2_778
10
15.3765063
20
235.7030098
11
15.3482063
21
235.9136098
0
LINE
8
DEFAULT_255_2_778
10
15.3482063
20
235.9136098
11
15.2590063
21
236.0814098
0
LINE
8
DEFAULT_255_2_778
10
15.2590063
20
236.0814098
11
15.0849063
21
236.2094098
0
LINE
8
DEFAULT_255_2_778
10
15.0849063
20
236.2094098
11
14.8500063
21
236.2520098
0
LINE
8
DEFAULT_255_2_778
10
14.8500063
20
236.2520098
11
14.0890063
21
236.2520098
0
LINE
8
DEFAULT_255_2_778
10
17.1989063
20
239.0463098
11
17.7011063
21
239.0463098
0
LINE
8
DEFAULT_255_2_778
10
17.7011063
20
239.0463098
11
17.9601063
21
239.0632098
0
LINE
8
DEFAULT_255_2_778
10
17.9601063
20
239.0632098
11
18.1625063
21
239.1135098
0
LINE
8
DEFAULT_255_2_778
10
18.1625063
20
239.1135098
11
18.3165063
21
239.2027098
0
LINE
8
DEFAULT_255_2_778
10
18.3165063
20
239.2027098
11
18.4258063
21
239.3297098
0
LINE
8
DEFAULT_255_2_778
10
18.4258063
20
239.3297098
11
18.4906063
21
239.4678098
0
LINE
8
DEFAULT_255_2_778
10
18.4906063
20
239.4678098
11
18.5311063
21
239.6501098
0
LINE
8
DEFAULT_255_2_778
10
18.5311063
20
239.6501098
11
18.5472063
21
239.8035098
0
LINE
8
DEFAULT_255_2_778
10
18.5472063
20
239.8035098
11
18.5554063
21
239.9927098
0
LINE
8
DEFAULT_255_2_778
10
18.5554063
20
239.9927098
11
18.5594063
21
240.2166098
0
LINE
8
DEFAULT_255_2_778
10
18.5594063
20
240.2166098
11
18.5512063
21
240.4110098
0
LINE
8
DEFAULT_255_2_778
10
18.5512063
20
240.4110098
11
18.5311063
21
240.6158098
0
LINE
8
DEFAULT_255_2_778
10
18.5311063
20
240.6158098
11
18.4986063
21
240.7947098
0
LINE
8
DEFAULT_255_2_778
10
18.4986063
20
240.7947098
11
18.4620063
21
240.9114098
0
LINE
8
DEFAULT_255_2_778
10
18.4620063
20
240.9114098
11
18.3649063
21
241.0611098
0
LINE
8
DEFAULT_255_2_778
10
18.3649063
20
241.0611098
11
18.2353063
21
241.1640098
0
LINE
8
DEFAULT_255_2_778
10
18.2353063
20
241.1640098
11
18.0694063
21
241.2259098
0
LINE
8
DEFAULT_255_2_778
10
18.0694063
20
241.2259098
11
17.8710063
21
241.2463098
0
LINE
8
DEFAULT_255_2_778
10
17.8710063
20
241.2463098
11
17.1989063
21
241.2463098
0
LINE
8
DEFAULT_255_2_778
10
17.1989063
20
241.2463098
11
17.1989063
21
239.0463098
0
LINE
8
DEFAULT_255_2_778
10
16.9640063
20
239.0463098
11
16.3041063
21
240.1861098
0
LINE
8
DEFAULT_255_2_778
10
16.3041063
20
240.1861098
11
16.8952063
21
241.2463098
0
LINE
8
DEFAULT_255_2_778
10
16.8952063
20
241.2463098
11
16.5875063
21
241.2463098
0
LINE
8
DEFAULT_255_2_778
10
16.5875063
20
241.2463098
11
16.1340063
21
240.3936098
0
LINE
8
DEFAULT_255_2_778
10
16.1340063
20
240.3936098
11
15.6805063
21
241.2463098
0
LINE
8
DEFAULT_255_2_778
10
15.6805063
20
241.2463098
11
15.3564063
21
241.2463098
0
LINE
8
DEFAULT_255_2_778
10
15.3564063
20
241.2463098
11
15.9596063
21
240.1861098
0
LINE
8
DEFAULT_255_2_778
10
15.9596063
20
240.1861098
11
15.3238063
21
239.0463098
0
LINE
8
DEFAULT_255_2_778
10
15.3238063
20
239.0463098
11
15.6276063
21
239.0463098
0
LINE
8
DEFAULT_255_2_778
10
15.6276063
20
239.0463098
11
16.1133063
21
239.9882098
0
LINE
8
DEFAULT_255_2_778
10
16.1133063
20
239.9882098
11
16.6235063
21
239.0463098
0
LINE
8
DEFAULT_255_2_778
10
16.6235063
20
239.0463098
11
16.9637063
21
239.0463098
0
LINE
8
DEFAULT_255_2_778
10
13.8705063
20
241.2463098
11
13.8705063
21
241.0029098
0
LINE
8
DEFAULT_255_2_778
10
13.8705063
20
241.0029098
11
14.4494063
21
241.0029098
0
LINE
8
DEFAULT_255_2_778
10
14.4494063
20
241.0029098
11
14.4494063
21
239.0463098
0
LINE
8
DEFAULT_255_2_778
10
14.4494063
20
239.0463098
11
14.7288063
21
239.0463098
0
LINE
8
DEFAULT_255_2_778
10
14.7288063
20
239.0463098
11
14.7288063
21
241.0029098
0
LINE
8
DEFAULT_255_2_778
10
14.7288063
20
241.0029098
11
15.3077063
21
241.0029098
0
LINE
8
DEFAULT_255_2_778
10
15.3077063
20
241.0029098
11
15.3077063
21
241.2463098
0
LINE
8
DEFAULT_255_2_778
10
15.3077063
20
241.2463098
11
13.8702063
21
241.2463098
0
LINE
8
DEFAULT_255_2_778
10
19.6365063
20
249.0407098
11
19.6365063
21
250.0461098
0
LINE
8
DEFAULT_255_2_778
10
19.6365063
20
250.0461098
11
20.4059063
21
250.0461098
0
LINE
8
DEFAULT_255_2_778
10
20.4059063
20
250.0461098
11
20.4059063
21
250.2898098
0
LINE
8
DEFAULT_255_2_778
10
20.4059063
20
250.2898098
11
19.6365063
21
250.2898098
0
LINE
8
DEFAULT_255_2_778
10
19.6365063
20
250.2898098
11
19.6365063
21
250.9967098
0
LINE
8
DEFAULT_255_2_778
10
19.6365063
20
250.9967098
11
20.4504063
21
250.9967098
0
LINE
8
DEFAULT_255_2_778
10
20.4504063
20
250.9967098
11
20.4504063
21
251.2404098
0
LINE
8
DEFAULT_255_2_778
10
20.4504063
20
251.2404098
11
19.3571063
21
251.2404098
0
LINE
8
DEFAULT_255_2_778
10
19.3571063
20
251.2404098
11
19.3571063
21
249.0404098
0
LINE
8
DEFAULT_255_2_778
10
19.3571063
20
249.0404098
11
19.6365063
21
249.0404098
0
LINE
8
DEFAULT_255_2_778
10
14.1054063
20
251.2407098
11
14.1054063
21
249.0407098
0
LINE
8
DEFAULT_255_2_778
10
14.1054063
20
249.0407098
11
14.8060063
21
249.0407098
0
LINE
8
DEFAULT_255_2_778
10
14.8060063
20
249.0407098
11
15.0489063
21
249.0650098
0
LINE
8
DEFAULT_255_2_778
10
15.0489063
20
249.0650098
11
15.2312063
21
249.1383098
0
LINE
8
DEFAULT_255_2_778
10
15.2312063
20
249.1383098
11
15.3609063
21
249.2611098
0
LINE
8
DEFAULT_255_2_778
10
15.3609063
20
249.2611098
11
15.4418063
21
249.4349098
0
LINE
8
DEFAULT_255_2_778
10
15.4418063
20
249.4349098
11
15.4662063
21
249.6593098
0
LINE
8
DEFAULT_255_2_778
10
15.4662063
20
249.6593098
11
15.4379063
21
249.8646098
0
LINE
8
DEFAULT_255_2_778
10
15.4379063
20
249.8646098
11
15.3529063
21
250.0220098
0
LINE
8
DEFAULT_255_2_778
10
15.3529063
20
250.0220098
11
15.2151063
21
250.1318098
0
LINE
8
DEFAULT_255_2_778
10
15.2151063
20
250.1318098
11
15.0166063
21
250.1866098
0
LINE
8
DEFAULT_255_2_778
10
15.0166063
20
250.1866098
11
15.0166063
21
250.2019098
0
LINE
8
DEFAULT_255_2_778
10
15.0166063
20
250.2019098
11
15.1907063
21
250.2705098
0
LINE
8
DEFAULT_255_2_778
10
15.1907063
20
250.2705098
11
15.3122063
21
250.3845098
0
LINE
8
DEFAULT_255_2_778
10
15.3122063
20
250.3845098
11
15.3730063
21
250.5316098
0
LINE
8
DEFAULT_255_2_778
10
15.3730063
20
250.5316098
11
15.3931063
21
250.7232098
0
LINE
8
DEFAULT_255_2_778
10
15.3931063
20
250.7232098
11
15.3770063
21
250.8573098
0
LINE
8
DEFAULT_255_2_778
10
15.3770063
20
250.8573098
11
15.3042063
21
251.0155098
0
LINE
8
DEFAULT_255_2_778
10
15.3042063
20
251.0155098
11
15.1423063
21
251.1743098
0
LINE
8
DEFAULT_255_2_778
10
15.1423063
20
251.1743098
11
15.0005063
21
251.2245098
0
LINE
8
DEFAULT_255_2_778
10
15.0005063
20
251.2245098
11
14.8142063
21
251.2412098
0
LINE
8
DEFAULT_255_2_778
10
14.8142063
20
251.2412098
11
14.1057063
21
251.2412098
0
LINE
8
DEFAULT_255_2_778
10
18.6769063
20
254.0469098
11
18.9563063
21
254.0469098
0
LINE
8
DEFAULT_255_2_778
10
18.9563063
20
254.0469098
11
18.9563063
21
255.0523098
0
LINE
8
DEFAULT_255_2_778
10
18.9563063
20
255.0523098
11
19.7257063
21
255.0523098
0
LINE
8
DEFAULT_255_2_778
10
19.7257063
20
255.0523098
11
19.7257063
21
255.2960098
0
LINE
8
DEFAULT_255_2_778
10
19.7257063
20
255.2960098
11
18.9563063
21
255.2960098
0
LINE
8
DEFAULT_255_2_778
10
18.9563063
20
255.2960098
11
18.9563063
21
256.0029098
0
LINE
8
DEFAULT_255_2_778
10
18.9563063
20
256.0029098
11
19.7701063
21
256.0029098
0
LINE
8
DEFAULT_255_2_778
10
19.7701063
20
256.0029098
11
19.7701063
21
256.2466098
0
LINE
8
DEFAULT_255_2_778
10
19.7701063
20
256.2466098
11
18.6769063
21
256.2466098
0
LINE
8
DEFAULT_255_2_778
10
18.6769063
20
256.2466098
11
18.6769063
21
254.0466098
0
LINE
8
DEFAULT_255_2_778
10
18.4258594
20
256.2468729
11
16.9883594
21
256.2468729
0
LINE
8
DEFAULT_255_2_778
10
16.9883594
20
256.2468729
11
16.9883594
21
256.0031729
0
LINE
8
DEFAULT_255_2_778
10
16.9883594
20
256.0031729
11
17.5672594
21
256.0031729
0
LINE
8
DEFAULT_255_2_778
10
17.5672594
20
256.0031729
11
17.5672594
21
254.0471729
0
LINE
8
DEFAULT_255_2_778
10
17.5672594
20
254.0471729
11
17.8466594
21
254.0471729
0
LINE
8
DEFAULT_255_2_778
10
17.8466594
20
254.0471729
11
17.8466594
21
256.0031729
0
LINE
8
DEFAULT_255_2_778
10
17.8466594
20
256.0031729
11
18.4255594
21
256.0031729
0
LINE
8
DEFAULT_255_2_778
10
18.4255594
20
256.0031729
11
18.4255594
21
256.2468729
0
LINE
8
DEFAULT_255_2_778
10
16.3162865
20
255.1864941
11
16.9073865
21
256.2468941
0
LINE
8
DEFAULT_255_2_778
10
16.9073865
20
256.2468941
11
16.5996865
21
256.2468941
0
LINE
8
DEFAULT_255_2_778
10
16.5996865
20
256.2468941
11
16.1421865
21
255.3938941
0
LINE
8
DEFAULT_255_2_778
10
16.1421865
20
255.3938941
11
15.6926865
21
256.2468941
0
LINE
8
DEFAULT_255_2_778
10
15.6926865
20
256.2468941
11
15.3688865
21
256.2468941
0
LINE
8
DEFAULT_255_2_778
10
15.3688865
20
256.2468941
11
15.9680865
21
255.1864941
0
LINE
8
DEFAULT_255_2_778
10
15.9680865
20
255.1864941
11
15.3365865
21
254.0468941
0
LINE
8
DEFAULT_255_2_778
10
15.3365865
20
254.0468941
11
15.6402865
21
254.0468941
0
LINE
8
DEFAULT_255_2_778
10
15.6402865
20
254.0468941
11
16.1260865
21
254.9882941
0
LINE
8
DEFAULT_255_2_778
10
16.1260865
20
254.9882941
11
16.6361865
21
254.0468941
0
LINE
8
DEFAULT_255_2_778
10
16.6361865
20
254.0468941
11
16.9721865
21
254.0468941
0
LINE
8
DEFAULT_255_2_778
10
16.9721865
20
254.0468941
11
16.3162865
21
255.1864941
0
LINE
8
DEFAULT_255_2_778
10
15.2510865
20
254.0468941
11
15.2510865
21
254.2905941
0
LINE
8
DEFAULT_255_2_778
10
15.2510865
20
254.2905941
11
14.3805865
21
254.2905941
0
LINE
8
DEFAULT_255_2_778
10
14.3805865
20
254.2905941
11
14.3805865
21
255.0522941
0
LINE
8
DEFAULT_255_2_778
10
14.3805865
20
255.0522941
11
15.1743865
21
255.0522941
0
LINE
8
DEFAULT_255_2_778
10
15.1743865
20
255.0522941
11
15.1743865
21
255.2959941
0
LINE
8
DEFAULT_255_2_778
10
15.1743865
20
255.2959941
11
14.3805865
21
255.2959941
0
LINE
8
DEFAULT_255_2_778
10
14.3805865
20
255.2959941
11
14.3805865
21
256.0029941
0
LINE
8
DEFAULT_255_2_778
10
14.3805865
20
256.0029941
11
15.2349865
21
256.0029941
0
LINE
8
DEFAULT_255_2_778
10
15.2349865
20
256.0029941
11
15.2349865
21
256.2466941
0
LINE
8
DEFAULT_255_2_778
10
15.2349865
20
256.2466941
11
14.1011865
21
256.2466941
0
LINE
8
DEFAULT_255_2_778
10
14.1011865
20
256.2466941
11
14.1011865
21
254.0465941
0
LINE
8
DEFAULT_255_2_778
10
14.1011865
20
254.0465941
11
15.2510865
21
254.0465941
0
LINE
8
DEFAULT_255_2_778
10
18.2921865
20
259.0440941
11
18.5715865
21
259.0440941
0
LINE
8
DEFAULT_255_2_778
10
18.5715865
20
259.0440941
11
18.5715865
21
260.0494941
0
LINE
8
DEFAULT_255_2_778
10
18.5715865
20
260.0494941
11
19.3367865
21
260.0494941
0
LINE
8
DEFAULT_255_2_778
10
19.3367865
20
260.0494941
11
19.3367865
21
260.2931941
0
LINE
8
DEFAULT_255_2_778
10
19.3367865
20
260.2931941
11
18.5715865
21
260.2931941
0
LINE
8
DEFAULT_255_2_778
10
18.5715865
20
260.2931941
11
18.5715865
21
261.0001941
0
LINE
8
DEFAULT_255_2_778
10
18.5715865
20
261.0001941
11
19.3814865
21
261.0001941
0
LINE
8
DEFAULT_255_2_778
10
19.3814865
20
261.0001941
11
19.3814865
21
261.2437941
0
LINE
8
DEFAULT_255_2_778
10
19.3814865
20
261.2437941
11
18.2921865
21
261.2437941
0
LINE
8
DEFAULT_255_2_778
10
18.2921865
20
261.2437941
11
18.2921865
21
259.0437941
0
LINE
8
DEFAULT_255_2_778
10
16.0895865
20
261.2440941
11
16.0895865
21
259.3668941
0
LINE
8
DEFAULT_255_2_778
10
16.0895865
20
259.3668941
11
15.2391865
21
261.2440941
0
LINE
8
DEFAULT_255_2_778
10
15.2391865
20
261.2440941
11
14.8422865
21
261.2440941
0
LINE
8
DEFAULT_255_2_778
10
14.8422865
20
261.2440941
11
14.8422865
21
259.0440941
0
LINE
8
DEFAULT_255_2_778
10
14.8422865
20
259.0440941
11
15.1055865
21
259.0440941
0
LINE
8
DEFAULT_255_2_778
10
15.1055865
20
259.0440941
11
15.1055865
21
260.9450941
0
LINE
8
DEFAULT_255_2_778
10
15.1055865
20
260.9450941
11
15.9680865
21
259.0440941
0
LINE
8
DEFAULT_255_2_778
10
15.9680865
20
259.0440941
11
16.3527865
21
259.0440941
0
LINE
8
DEFAULT_255_2_778
10
16.3527865
20
259.0440941
11
16.3527865
21
261.2440941
0
LINE
8
DEFAULT_255_2_778
10
16.3527865
20
261.2440941
11
16.0895865
21
261.2440941
0
LINE
8
DEFAULT_255_2_778
10
14.0932865
20
261.2440941
11
14.0932865
21
259.0440941
0
LINE
8
DEFAULT_255_2_778
10
14.0932865
20
259.0440941
11
14.3737865
21
259.0440941
0
LINE
8
DEFAULT_255_2_778
10
14.3737865
20
259.0440941
11
14.3737865
21
261.2440941
0
LINE
8
DEFAULT_255_2_778
10
14.3737865
20
261.2440941
11
14.0932865
21
261.2440941
0
LINE
8
DEFAULT_255_2_778
10
18.0170865
20
236.0075941
11
17.6484865
21
236.0075941
0
LINE
8
DEFAULT_255_2_778
10
17.6484865
20
236.0075941
11
17.6484865
21
234.2951941
0
LINE
8
DEFAULT_255_2_778
10
17.6484865
20
234.2951941
11
17.9117865
21
234.2951941
0
LINE
8
DEFAULT_255_2_778
10
17.9117865
20
234.2951941
11
18.1628865
21
234.3301941
0
LINE
8
DEFAULT_255_2_778
10
18.1628865
20
234.3301941
11
18.3247865
21
234.4354941
0
LINE
8
DEFAULT_255_2_778
10
18.3247865
20
234.4354941
11
18.3935865
21
234.5552941
0
LINE
8
DEFAULT_255_2_778
10
18.3935865
20
234.5552941
11
18.4300865
21
234.7277941
0
LINE
8
DEFAULT_255_2_778
10
18.4300865
20
234.7277941
11
18.4461865
21
234.9531941
0
LINE
8
DEFAULT_255_2_778
10
18.4461865
20
234.9531941
11
18.4461865
21
235.3982941
0
LINE
8
DEFAULT_255_2_778
10
18.4461865
20
235.3982941
11
18.4178865
21
235.6800941
0
LINE
8
DEFAULT_255_2_778
10
18.4178865
20
235.6800941
11
18.3408865
21
235.8673941
0
LINE
8
DEFAULT_255_2_778
10
18.3408865
20
235.8673941
11
18.2112865
21
235.9721941
0
LINE
8
DEFAULT_255_2_778
10
18.2112865
20
235.9721941
11
18.0167865
21
236.0072941
0
LINE
8
DEFAULT_255_2_778
10
16.9277865
20
219.0117941
11
16.9277865
21
219.2554941
0
LINE
8
DEFAULT_255_2_778
10
16.9277865
20
219.2554941
11
16.1220865
21
219.2554941
0
LINE
8
DEFAULT_255_2_778
10
16.1220865
20
219.2554941
11
16.1220865
21
221.2120941
0
LINE
8
DEFAULT_255_2_778
10
16.1220865
20
221.2120941
11
15.8387865
21
221.2120941
0
LINE
8
DEFAULT_255_2_778
10
15.8387865
20
221.2120941
11
15.8387865
21
219.0117941
0
LINE
8
DEFAULT_255_2_778
10
15.8387865
20
219.0117941
11
16.9279865
21
219.0117941
0
LINE
8
DEFAULT_255_2_778
10
18.9076865
20
216.2159941
11
18.9076865
21
214.3387941
0
LINE
8
DEFAULT_255_2_778
10
18.9076865
20
214.3387941
11
18.0572865
21
216.2159941
0
LINE
8
DEFAULT_255_2_778
10
18.0572865
20
216.2159941
11
17.6603865
21
216.2159941
0
LINE
8
DEFAULT_255_2_778
10
17.6603865
20
216.2159941
11
17.6603865
21
214.0156941
0
LINE
8
DEFAULT_255_2_778
10
17.6603865
20
214.0156941
11
17.9236865
21
214.0156941
0
LINE
8
DEFAULT_255_2_778
10
17.9236865
20
214.0156941
11
17.9236865
21
215.9172941
0
LINE
8
DEFAULT_255_2_778
10
17.9236865
20
215.9172941
11
18.7861865
21
214.0156941
0
LINE
8
DEFAULT_255_2_778
10
18.7861865
20
214.0156941
11
19.1708865
21
214.0156941
0
LINE
8
DEFAULT_255_2_778
10
19.1708865
20
214.0156941
11
19.1708865
21
216.2159941
0
LINE
8
DEFAULT_255_2_778
10
19.1708865
20
216.2159941
11
18.9076865
21
216.2159941
0
LINE
8
DEFAULT_255_2_778
10
14.8869865
20
215.9719941
11
14.4657865
21
215.9719941
0
LINE
8
DEFAULT_255_2_778
10
14.4657865
20
215.9719941
11
14.4657865
21
215.2644941
0
LINE
8
DEFAULT_255_2_778
10
14.4657865
20
215.2644941
11
14.8869865
21
215.2644941
0
LINE
8
DEFAULT_255_2_778
10
14.8869865
20
215.2644941
11
15.1097865
21
215.3682941
0
LINE
8
DEFAULT_255_2_778
10
15.1097865
20
215.3682941
11
15.1663865
21
215.4888941
0
LINE
8
DEFAULT_255_2_778
10
15.1663865
20
215.4888941
11
15.1825865
21
215.6362941
0
LINE
8
DEFAULT_255_2_778
10
15.1825865
20
215.6362941
11
15.1219865
21
215.8616941
0
LINE
8
DEFAULT_255_2_778
10
15.1219865
20
215.8616941
11
15.0248865
21
215.9442941
0
LINE
8
DEFAULT_255_2_778
10
15.0248865
20
215.9442941
11
14.8872865
21
215.9717941
0
ENDSEC
0
EOF