0
SECTION
2
HEADER
9
$MEASUREMENT
70
1
0
ENDSEC
0
SECTION
2
TABLES
0
TABLE
2
LTYPE
0
LTYPE
72
65
70
64
2
CONTINUOUS
3
______
73
0
40
0
0
ENDTAB
0
TABLE
2
LAYER
0
LAYER
2
DEFAULT_255_1_234
70
0
62
255
6
CONTINUOUS
0
LAYER
2
DEFAULT_255_2_778
70
0
62
255
6
CONTINUOUS
0
LAYER
2
DEFAULT_255_1_542
70
0
62
255
6
CONTINUOUS
0
ENDTAB
0
ENDSEC
0
SECTION
2
ENTITIES
0
LINE
8
DEFAULT_255_1_234
10
3.540123
20
287.6810663
11
3.6951355
21
287.6810663
0
LINE
8
DEFAULT_255_1_234
10
2.7947777
20
287.8400947
11
2.7947777
21
287.9525391
0
LINE
8
DEFAULT_255_1_234
10
3.6951355
20
288.1035357
11
3.540123
21
288.1035357
0
LINE
8
DEFAULT_255_1_234
10
2.9497902
20
287.9485232
11
2.9497902
21
287.8352757
0
ARC
8
DEFAULT_255_1_234
10
3.1470742
20
287.7407846
40
0.5513052
50
340.1774281
51
353.7814284
0
ARC
8
DEFAULT_255_1_234
10
3.3042095
20
287.6822582
40
0.3836379
50
311.4558989
51
340.4421614
0
ARC
8
DEFAULT_255_1_234
10
3.3008763
20
287.6933528
40
0.3941894
50
282.4333181
51
310.7513653
0
ARC
8
DEFAULT_255_1_234
10
3.2569502
20
287.8748679
40
0.5809175
50
269.9358511
51
282.809604
0
ARC
8
DEFAULT_255_1_234
10
3.2517568
20
288.0206212
40
0.7266847
50
270.0021091
51
270.3581957
0
ARC
8
DEFAULT_255_1_234
10
3.2464985
20
287.7605585
40
0.4666519
50
250.7884749
51
270.6489167
0
ARC
8
DEFAULT_255_1_234
10
3.229682
20
287.6968319
40
0.4009729
50
219.3627325
51
250.0611886
0
ARC
8
DEFAULT_255_1_234
10
3.3126031
20
287.7673042
40
0.5097822
50
193.5479632
51
219.5756669
0
ARC
8
DEFAULT_255_1_234
10
3.5497652
20
287.8288919
40
0.7547848
50
181.1218675
51
193.87563
0
ARC
8
DEFAULT_255_1_234
10
3.7567833
20
287.839958
40
0.9620055
50
179.9918545
51
181.5394234
0
ARC
8
DEFAULT_255_1_234
10
3.5716935
20
287.9562788
40
0.7769248
50
169.5837241
51
180.2757934
0
ARC
8
DEFAULT_255_1_234
10
3.3879873
20
287.9902229
40
0.590109
50
155.0365899
51
169.6003176
0
ARC
8
DEFAULT_255_1_234
10
3.2744337
20
288.0449677
40
0.4640625
50
136.783148
51
155.2472683
0
ARC
8
DEFAULT_255_1_234
10
3.2354814
20
288.0780562
40
0.4130255
50
121.7633186
51
136.428115
0
ARC
8
DEFAULT_255_1_234
10
3.2489776
20
288.0531227
40
0.4413323
50
95.6459699
51
121.5490577
0
ARC
8
DEFAULT_255_1_234
10
3.2647058
20
287.9422949
40
0.55319
50
89.924208
51
96.1377933
0
ARC
8
DEFAULT_255_1_234
10
3.2697491
20
287.9541542
40
0.5413475
50
76.6779277
51
90.4563316
0
ARC
8
DEFAULT_255_1_234
10
3.3091114
20
288.1132114
40
0.3775041
50
47.485847
51
76.9287264
0
ARC
8
DEFAULT_255_1_234
10
3.2944087
20
288.1032159
40
0.3948286
50
16.5424086
51
46.8933463
0
ARC
8
DEFAULT_255_1_234
10
3.1336244
20
288.0503861
40
0.564021
50
5.4072051
51
17.0365086
0
ARC
8
DEFAULT_255_1_234
10
2.9897261
20
288.0272679
40
0.5556559
50
7.8891745
51
15.9239216
0
ARC
8
DEFAULT_255_1_234
10
3.1884274
20
288.0849631
40
0.3487515
50
15.7653144
51
27.9410532
0
ARC
8
DEFAULT_255_1_234
10
3.2988492
20
288.144079
40
0.2235026
50
27.8166557
51
46.4008329
0
ARC
8
DEFAULT_255_1_234
10
3.3038135
20
288.1435082
40
0.2205286
50
47.4371857
51
75.0698205
0
ARC
8
DEFAULT_255_1_234
10
3.2729529
20
288.0360765
40
0.3322915
50
74.7008593
51
87.8124495
0
ARC
8
DEFAULT_255_1_234
10
3.2656217
20
287.9304844
40
0.4380987
50
87.3814673
51
90.0240855
0
ARC
8
DEFAULT_255_1_234
10
3.261776
20
288.0482291
40
0.3203749
50
89.3451631
51
108.5745436
0
ARC
8
DEFAULT_255_1_234
10
3.2480865
20
288.0995908
40
0.2673494
50
109.2998449
51
143.3037509
0
ARC
8
DEFAULT_255_1_234
10
3.3242938
20
288.0409881
40
0.3634757
50
143.0753173
51
163.1916937
0
ARC
8
DEFAULT_255_1_234
10
3.5194666
20
287.9793967
40
0.5681262
50
162.9373603
51
174.6208611
0
ARC
8
DEFAULT_255_1_234
10
3.7820708
20
287.950601
40
0.8322832
50
174.3419979
51
180.1430411
0
ARC
8
DEFAULT_255_1_234
10
3.6889864
20
287.8311698
40
0.7392076
50
179.6817502
51
189.150529
0
ARC
8
DEFAULT_255_1_234
10
3.4389112
20
287.789519
40
0.4856932
50
188.9910863
51
203.5773039
0
ARC
8
DEFAULT_255_1_234
10
3.3309445
20
287.7447211
40
0.3688271
50
203.9077269
51
215.1312379
0
ARC
8
DEFAULT_255_1_234
10
3.2386539
20
287.6731941
40
0.2522457
50
213.9071664
51
263.8849284
0
ARC
8
DEFAULT_255_1_234
10
3.2511868
20
287.7516518
40
0.3316174
50
263.1758525
51
270.1031083
0
ARC
8
DEFAULT_255_1_234
10
3.254396
20
287.8763365
40
0.4563091
50
269.6719807
51
279.0609165
0
ARC
8
DEFAULT_255_1_234
10
3.2810728
20
287.7150907
40
0.2928759
50
278.8750225
51
293.6346586
0
ARC
8
DEFAULT_255_1_234
10
3.3130936
20
287.63989
40
0.2111472
50
293.8553404
51
310.0518804
0
ARC
8
DEFAULT_255_1_234
10
3.313579
20
287.6336516
40
0.2060917
50
311.0646779
51
332.0108348
0
ARC
8
DEFAULT_255_1_234
10
3.1943517
20
287.6993978
40
0.3422352
50
331.6588543
51
343.2878891
0
ARC
8
DEFAULT_255_1_234
10
2.9881032
20
287.7627798
40
0.5580003
50
343.1446044
51
351.010618
0
ARC
8
DEFAULT_255_1_234
10
2.8339678
20
287.7908871
40
0.7146438
50
350.7157277
51
351.1602153
0
LINE
8
DEFAULT_255_1_234
10
4.3352651
20
287.7678091
11
4.0597765
21
287.7678091
0
LINE
8
DEFAULT_255_1_234
10
4.0597765
20
287.7678091
11
4.0597765
21
287.31
0
LINE
8
DEFAULT_255_1_234
10
4.0597765
20
287.31
11
3.9055671
21
287.31
0
LINE
8
DEFAULT_255_1_234
10
3.9055671
20
287.31
11
3.9055671
21
288.4794211
0
LINE
8
DEFAULT_255_1_234
10
3.9055671
20
288.4794211
11
4.3368714
21
288.4794211
0
LINE
8
DEFAULT_255_1_234
10
4.0597765
20
288.3525196
11
4.0597765
21
287.8939074
0
LINE
8
DEFAULT_255_1_234
10
4.0597765
20
287.8939074
11
4.3368714
21
287.8939074
0
LINE
8
DEFAULT_255_1_234
10
4.3457063
20
288.3525196
11
4.0597765
21
288.3525196
0
ARC
8
DEFAULT_255_1_234
10
4.3410841
20
287.8735195
40
0.6059162
50
78.8378113
51
90.3983573
0
ARC
8
DEFAULT_255_1_234
10
4.3826855
20
288.0755879
40
0.3996205
50
58.9632738
51
79.0810598
0
ARC
8
DEFAULT_255_1_234
10
4.4128397
20
288.1315721
40
0.3361177
50
48.0197965
51
58.447194
0
ARC
8
DEFAULT_255_1_234
10
4.4217258
20
288.1401225
40
0.3238191
50
3.3375044
51
48.1766626
0
ARC
8
DEFAULT_255_1_234
10
4.2987098
20
288.1224171
40
0.4477806
50
359.9477528
51
4.6829065
0
ARC
8
DEFAULT_255_1_234
10
4.3110414
20
288.1181628
40
0.4354656
50
346.1877825
51
0.5060252
0
ARC
8
DEFAULT_255_1_234
10
4.4469282
20
288.0828731
40
0.295089
50
310.8831995
51
346.5426355
0
ARC
8
DEFAULT_255_1_234
10
4.4160702
20
288.1245695
40
0.3468331
50
286.6925341
51
310.2288297
0
ARC
8
DEFAULT_255_1_234
10
4.3591533
20
288.3035882
40
0.5346654
50
274.6850312
51
287.0245141
0
ARC
8
DEFAULT_255_1_234
10
4.3366256
20
288.5244932
40
0.7566852
50
269.8969846
51
275.018904
0
ARC
8
DEFAULT_255_1_234
10
4.3393847
20
288.3165707
40
0.4226708
50
269.6593078
51
279.4153575
0
ARC
8
DEFAULT_255_1_234
10
4.3651122
20
288.1675133
40
0.2714146
50
279.2049762
51
294.9900808
0
ARC
8
DEFAULT_255_1_234
10
4.3941448
20
288.1027508
40
0.2004525
50
295.2888114
51
311.2911209
0
ARC
8
DEFAULT_255_1_234
10
4.4012342
20
288.092222
40
0.1878703
50
311.7854996
51
347.2861051
0
ARC
8
DEFAULT_255_1_234
10
4.3028501
20
288.1175092
40
0.2894234
50
346.6893224
51
0.1059443
0
ARC
8
DEFAULT_255_1_234
10
4.2273396
20
288.1203685
40
0.3649409
50
359.6350983
51
0.0053152
0
ARC
8
DEFAULT_255_1_234
10
4.3243724
20
288.1228937
40
0.2679199
50
359.4672059
51
15.5933957
0
ARC
8
DEFAULT_255_1_234
10
4.3868613
20
288.1397779
40
0.2031932
50
15.7442113
51
46.6203375
0
ARC
8
DEFAULT_255_1_234
10
4.3720834
20
288.1227484
40
0.2257226
50
46.8628658
51
75.6676503
0
ARC
8
DEFAULT_255_1_234
10
4.3426654
20
288.0168718
40
0.3355939
50
75.276167
51
88.2915297
0
ARC
8
DEFAULT_255_1_234
10
4.3368361
20
287.9290524
40
0.4235602
50
87.8575022
51
88.8000139
0
LINE
8
DEFAULT_255_1_234
10
5.9392032
20
288.4794211
11
5.9392032
21
287.702752
0
LINE
8
DEFAULT_255_1_234
10
5.9392032
20
287.702752
11
6.1014443
21
287.702752
0
LINE
8
DEFAULT_255_1_234
10
6.1014443
20
287.702752
11
6.1014443
21
287.5814728
0
LINE
8
DEFAULT_255_1_234
10
6.1014443
20
287.5814728
11
5.9392032
21
287.5814728
0
LINE
8
DEFAULT_255_1_234
10
5.9392032
20
287.5814728
11
5.9392032
21
287.31
0
LINE
8
DEFAULT_255_1_234
10
5.9392032
20
287.31
11
5.7898129
21
287.31
0
LINE
8
DEFAULT_255_1_234
10
5.7898129
20
287.31
11
5.7898129
21
287.5814728
0
LINE
8
DEFAULT_255_1_234
10
5.7898129
20
287.5814728
11
5.2573086
21
287.5814728
0
LINE
8
DEFAULT_255_1_234
10
5.2573086
20
287.5814728
11
5.2573086
21
287.6690187
0
LINE
8
DEFAULT_255_1_234
10
5.2573086
20
287.6690187
11
5.780978
21
288.4794211
0
LINE
8
DEFAULT_255_1_234
10
5.780978
20
288.4794211
11
5.9392032
21
288.4794211
0
LINE
8
DEFAULT_255_1_234
10
5.7721431
20
288.2440912
11
5.4259751
21
287.702752
0
LINE
8
DEFAULT_255_1_234
10
5.4259751
20
287.702752
11
5.7898129
21
287.702752
0
LINE
8
DEFAULT_255_1_234
10
5.7898129
20
287.702752
11
5.7898129
21
288.2762181
0
LINE
8
DEFAULT_255_1_234
10
5.7898129
20
288.2762181
11
5.7721431
21
288.2440912
0
LINE
8
DEFAULT_255_1_234
10
6.8628531
20
288.4794211
11
6.8628531
21
287.702752
0
LINE
8
DEFAULT_255_1_234
10
6.8628531
20
287.702752
11
7.0250942
21
287.702752
0
LINE
8
DEFAULT_255_1_234
10
7.0250942
20
287.702752
11
7.0250942
21
287.5814728
0
LINE
8
DEFAULT_255_1_234
10
7.0250942
20
287.5814728
11
6.8628531
21
287.5814728
0
LINE
8
DEFAULT_255_1_234
10
6.8628531
20
287.5814728
11
6.8628531
21
287.31
0
LINE
8
DEFAULT_255_1_234
10
6.8628531
20
287.31
11
6.7134628
21
287.31
0
LINE
8
DEFAULT_255_1_234
10
6.7134628
20
287.31
11
6.7134628
21
287.5814728
0
LINE
8
DEFAULT_255_1_234
10
6.7134628
20
287.5814728
11
6.1809585
21
287.5814728
0
LINE
8
DEFAULT_255_1_234
10
6.1809585
20
287.5814728
11
6.1809585
21
287.6690187
0
LINE
8
DEFAULT_255_1_234
10
6.1809585
20
287.6690187
11
6.7046279
21
288.4794211
0
LINE
8
DEFAULT_255_1_234
10
6.7046279
20
288.4794211
11
6.8628531
21
288.4794211
0
LINE
8
DEFAULT_255_1_234
10
6.695793
20
288.2440912
11
6.349625
21
287.702752
0
LINE
8
DEFAULT_255_1_234
10
6.349625
20
287.702752
11
6.7134628
21
287.702752
0
LINE
8
DEFAULT_255_1_234
10
6.7134628
20
287.702752
11
6.7134628
21
288.2762181
0
LINE
8
DEFAULT_255_1_234
10
6.7134628
20
288.2762181
11
6.695793
21
288.2440912
0
LINE
8
DEFAULT_255_1_234
10
7.647554
20
288.4850433
11
7.647554
21
287.31
0
LINE
8
DEFAULT_255_1_234
10
7.647554
20
287.31
11
7.4981636
21
287.31
0
LINE
8
DEFAULT_255_1_234
10
7.4981636
20
287.31
11
7.4981636
21
288.3003133
0
LINE
8
DEFAULT_255_1_234
10
7.4981636
20
288.3003133
11
7.1985798
21
288.1902785
0
LINE
8
DEFAULT_255_1_234
10
7.1985798
20
288.1902785
11
7.1985798
21
288.3252117
0
LINE
8
DEFAULT_255_1_234
10
7.1985798
20
288.3252117
11
7.6242619
21
288.4850433
0
LINE
8
DEFAULT_255_1_234
10
7.6242619
20
288.4850433
11
7.647554
21
288.4850433
0
LINE
8
DEFAULT_255_1_234
10
8.4073564
20
287.8674026
11
8.4073564
21
287.7461234
0
LINE
8
DEFAULT_255_1_234
10
8.4073564
20
287.7461234
11
8.0154076
21
287.7461234
0
LINE
8
DEFAULT_255_1_234
10
8.0154076
20
287.7461234
11
8.0154076
21
287.8674026
0
LINE
8
DEFAULT_255_1_234
10
8.0154076
20
287.8674026
11
8.4073564
21
287.8674026
0
LINE
8
DEFAULT_255_1_234
10
9.0249971
20
288.4850433
11
9.0249971
21
287.31
0
LINE
8
DEFAULT_255_1_234
10
9.0249971
20
287.31
11
8.8756067
21
287.31
0
LINE
8
DEFAULT_255_1_234
10
8.8756067
20
287.31
11
8.8756067
21
288.3003133
0
LINE
8
DEFAULT_255_1_234
10
8.8756067
20
288.3003133
11
8.5760229
21
288.1902785
0
LINE
8
DEFAULT_255_1_234
10
8.5760229
20
288.1902785
11
8.5760229
21
288.3252117
0
LINE
8
DEFAULT_255_1_234
10
8.5760229
20
288.3252117
11
9.001705
21
288.4850433
0
LINE
8
DEFAULT_255_1_234
10
9.001705
20
288.4850433
11
9.0249971
21
288.4850433
0
LINE
8
DEFAULT_255_1_234
10
3.2779628
20
277.5478211
11
3.2779628
21
276.771152
0
LINE
8
DEFAULT_255_1_234
10
3.2779628
20
276.771152
11
3.4402039
21
276.771152
0
LINE
8
DEFAULT_255_1_234
10
3.4402039
20
276.771152
11
3.4402039
21
276.6498728
0
LINE
8
DEFAULT_255_1_234
10
3.4402039
20
276.6498728
11
3.2779628
21
276.6498728
0
LINE
8
DEFAULT_255_1_234
10
3.2779628
20
276.6498728
11
3.2779628
21
276.3784
0
LINE
8
DEFAULT_255_1_234
10
3.2779628
20
276.3784
11
3.1285725
21
276.3784
0
LINE
8
DEFAULT_255_1_234
10
3.1285725
20
276.3784
11
3.1285725
21
276.6498728
0
LINE
8
DEFAULT_255_1_234
10
3.1285725
20
276.6498728
11
2.5960682
21
276.6498728
0
LINE
8
DEFAULT_255_1_234
10
2.5960682
20
276.6498728
11
2.5960682
21
276.7374187
0
LINE
8
DEFAULT_255_1_234
10
2.5960682
20
276.7374187
11
3.1197375
21
277.5478211
0
LINE
8
DEFAULT_255_1_234
10
3.1197375
20
277.5478211
11
3.2779628
21
277.5478211
0
LINE
8
DEFAULT_255_1_234
10
3.1109026
20
277.3124912
11
2.7647347
21
276.771152
0
LINE
8
DEFAULT_255_1_234
10
2.7647347
20
276.771152
11
3.1285725
21
276.771152
0
LINE
8
DEFAULT_255_1_234
10
3.1285725
20
276.771152
11
3.1285725
21
277.3446181
0
LINE
8
DEFAULT_255_1_234
10
3.1285725
20
277.3446181
11
3.1109026
21
277.3124912
0
LINE
8
DEFAULT_255_1_234
10
4.2016127
20
277.5478211
11
4.2016127
21
276.771152
0
LINE
8
DEFAULT_255_1_234
10
4.2016127
20
276.771152
11
4.3638538
21
276.771152
0
LINE
8
DEFAULT_255_1_234
10
4.3638538
20
276.771152
11
4.3638538
21
276.6498728
0
LINE
8
DEFAULT_255_1_234
10
4.3638538
20
276.6498728
11
4.2016127
21
276.6498728
0
LINE
8
DEFAULT_255_1_234
10
4.2016127
20
276.6498728
11
4.2016127
21
276.3784
0
LINE
8
DEFAULT_255_1_234
10
4.2016127
20
276.3784
11
4.0522224
21
276.3784
0
LINE
8
DEFAULT_255_1_234
10
4.0522224
20
276.3784
11
4.0522224
21
276.6498728
0
LINE
8
DEFAULT_255_1_234
10
4.0522224
20
276.6498728
11
3.5197181
21
276.6498728
0
LINE
8
DEFAULT_255_1_234
10
3.5197181
20
276.6498728
11
3.5197181
21
276.7374187
0
LINE
8
DEFAULT_255_1_234
10
3.5197181
20
276.7374187
11
4.0433875
21
277.5478211
0
LINE
8
DEFAULT_255_1_234
10
4.0433875
20
277.5478211
11
4.2016127
21
277.5478211
0
LINE
8
DEFAULT_255_1_234
10
4.0345525
20
277.3124912
11
3.6883846
21
276.771152
0
LINE
8
DEFAULT_255_1_234
10
3.6883846
20
276.771152
11
4.0522224
21
276.771152
0
LINE
8
DEFAULT_255_1_234
10
4.0522224
20
276.771152
11
4.0522224
21
277.3446181
0
LINE
8
DEFAULT_255_1_234
10
4.0522224
20
277.3446181
11
4.0345525
21
277.3124912
0
LINE
8
DEFAULT_255_1_234
10
4.9863135
20
277.5534433
11
4.9863135
21
276.3784
0
LINE
8
DEFAULT_255_1_234
10
4.9863135
20
276.3784
11
4.8369232
21
276.3784
0
LINE
8
DEFAULT_255_1_234
10
4.8369232
20
276.3784
11
4.8369232
21
277.3687133
0
LINE
8
DEFAULT_255_1_234
10
4.8369232
20
277.3687133
11
4.5373394
21
277.2586785
0
LINE
8
DEFAULT_255_1_234
10
4.5373394
20
277.2586785
11
4.5373394
21
277.3936117
0
LINE
8
DEFAULT_255_1_234
10
4.5373394
20
277.3936117
11
4.9630215
21
277.5534433
0
LINE
8
DEFAULT_255_1_234
10
4.9630215
20
277.5534433
11
4.9863135
21
277.5534433
0
LINE
8
DEFAULT_255_1_234
10
5.746116
20
276.9358026
11
5.746116
21
276.8145234
0
LINE
8
DEFAULT_255_1_234
10
5.746116
20
276.8145234
11
5.3541671
21
276.8145234
0
LINE
8
DEFAULT_255_1_234
10
5.3541671
20
276.8145234
11
5.3541671
21
276.9358026
0
LINE
8
DEFAULT_255_1_234
10
5.3541671
20
276.9358026
11
5.746116
21
276.9358026
0
LINE
8
DEFAULT_255_1_234
10
6.3637566
20
277.5534433
11
6.3637566
21
276.3784
0
LINE
8
DEFAULT_255_1_234
10
6.3637566
20
276.3784
11
6.2143663
21
276.3784
0
LINE
8
DEFAULT_255_1_234
10
6.2143663
20
276.3784
11
6.2143663
21
277.3687133
0
LINE
8
DEFAULT_255_1_234
10
6.2143663
20
277.3687133
11
5.9147825
21
277.2586785
0
LINE
8
DEFAULT_255_1_234
10
5.9147825
20
277.2586785
11
5.9147825
21
277.3936117
0
LINE
8
DEFAULT_255_1_234
10
5.9147825
20
277.3936117
11
6.3404646
21
277.5534433
0
LINE
8
DEFAULT_255_1_234
10
6.3404646
20
277.5534433
11
6.3637566
21
277.5534433
0
LINE
8
DEFAULT_255_1_234
10
7.5950221
20
276.3784
11
7.483381
21
276.6836061
0
LINE
8
DEFAULT_255_1_234
10
7.483381
20
276.6836061
11
6.9934449
21
276.6836061
0
LINE
8
DEFAULT_255_1_234
10
6.9934449
20
276.6836061
11
6.8834101
21
276.3784
0
LINE
8
DEFAULT_255_1_234
10
6.8834101
20
276.3784
11
6.7243817
21
276.3784
0
LINE
8
DEFAULT_255_1_234
10
6.7243817
20
276.3784
11
7.1709463
21
277.5478211
0
LINE
8
DEFAULT_255_1_234
10
7.1709463
20
277.5478211
11
7.3058795
21
277.5478211
0
LINE
8
DEFAULT_255_1_234
10
7.3058795
20
277.5478211
11
7.7532474
21
276.3784
0
LINE
8
DEFAULT_255_1_234
10
7.7532474
20
276.3784
11
7.5950221
21
276.3784
0
LINE
8
DEFAULT_255_1_234
10
7.2384129
20
277.3574689
11
7.040029
21
276.8105075
0
LINE
8
DEFAULT_255_1_234
10
7.040029
20
276.8105075
11
7.4376
21
276.8105075
0
LINE
8
DEFAULT_255_1_234
10
7.4376
20
276.8105075
11
7.2384129
21
277.3574689
0
LINE
8
DEFAULT_255_1_234
10
8.6680624
20
276.3784
11
8.5564212
21
276.6836061
0
LINE
8
DEFAULT_255_1_234
10
8.5564212
20
276.6836061
11
8.0664852
21
276.6836061
0
LINE
8
DEFAULT_255_1_234
10
8.0664852
20
276.6836061
11
7.9564503
21
276.3784
0
LINE
8
DEFAULT_255_1_234
10
7.9564503
20
276.3784
11
7.7974219
21
276.3784
0
LINE
8
DEFAULT_255_1_234
10
7.7974219
20
276.3784
11
8.2439866
21
277.5478211
0
LINE
8
DEFAULT_255_1_234
10
8.2439866
20
277.5478211
11
8.3789198
21
277.5478211
0
LINE
8
DEFAULT_255_1_234
10
8.3789198
20
277.5478211
11
8.8262876
21
276.3784
0
LINE
8
DEFAULT_255_1_234
10
8.8262876
20
276.3784
11
8.6680624
21
276.3784
0
LINE
8
DEFAULT_255_1_234
10
8.3114532
20
277.3574689
11
8.1130692
21
276.8105075
0
LINE
8
DEFAULT_255_1_234
10
8.1130692
20
276.8105075
11
8.5106403
21
276.8105075
0
LINE
8
DEFAULT_255_1_234
10
8.5106403
20
276.8105075
11
8.3114532
21
277.3574689
0
LINE
8
DEFAULT_255_1_234
10
9.678455
20
277.0699327
11
9.678455
21
276.8771709
0
LINE
8
DEFAULT_255_1_234
10
8.9403383
20
276.8570916
11
8.9403383
21
277.0554755
0
LINE
8
DEFAULT_255_1_234
10
9.5298679
20
276.8370123
11
9.5298679
21
277.0803739
0
LINE
8
DEFAULT_255_1_234
10
9.0889254
20
277.0916184
11
9.0889254
21
276.8538789
0
ARC
8
DEFAULT_255_1_234
10
8.453744
20
276.8722805
40
1.2247208
50
353.8441951
51
0.2287902
0
ARC
8
DEFAULT_255_1_234
10
8.9176943
20
276.8204806
40
0.7578929
50
344.4934747
51
353.9765454
0
ARC
8
DEFAULT_255_1_234
10
9.2169534
20
276.7353981
40
0.4467846
50
329.2803592
51
344.7472793
0
ARC
8
DEFAULT_255_1_234
10
9.3162359
20
276.6809018
40
0.3336173
50
324.9352394
51
328.6160465
0
ARC
8
DEFAULT_255_1_234
10
9.3539467
20
276.6545427
40
0.2876076
50
280.580143
51
324.9173126
0
ARC
8
DEFAULT_255_1_234
10
9.313826
20
276.8216099
40
0.4592847
50
269.5977311
51
281.6734359
0
ARC
8
DEFAULT_255_1_234
10
9.3066165
20
276.8096173
40
0.4472986
50
256.6228859
51
270.51044
0
ARC
8
DEFAULT_255_1_234
10
9.2664143
20
276.6547877
40
0.2873874
50
215.8618325
51
257.2788573
0
ARC
8
DEFAULT_255_1_234
10
9.3685175
20
276.7232977
40
0.4102928
50
197.9693508
51
215.2623606
0
ARC
8
DEFAULT_255_1_234
10
9.6170291
20
276.8071709
40
0.6725652
50
187.8816417
51
198.2346507
0
ARC
8
DEFAULT_255_1_234
10
10.0128499
20
276.8643079
40
1.0724845
50
180.8976217
51
188.0055519
0
ARC
8
DEFAULT_255_1_234
10
10.2928687
20
276.8746777
40
1.3526448
50
180.7449369
51
181.1510016
0
ARC
8
DEFAULT_255_1_234
10
10.1351416
20
277.0603042
40
1.1948131
50
173.7675579
51
180.231553
0
ARC
8
DEFAULT_255_1_234
10
9.6833563
20
277.1113666
40
0.7401564
50
164.3058563
51
173.9002247
0
ARC
8
DEFAULT_255_1_234
10
9.3921631
20
277.1952656
40
0.4371288
50
148.7922025
51
164.568378
0
ARC
8
DEFAULT_255_1_234
10
9.2970084
20
277.2483929
40
0.3282386
50
144.5883898
51
148.1176286
0
ARC
8
DEFAULT_255_1_234
10
9.2626982
20
277.2723315
40
0.2864044
50
101.6440918
51
144.514236
0
ARC
8
DEFAULT_255_1_234
10
9.3052048
20
277.1034069
40
0.4604934
50
89.5284041
51
102.5819763
0
ARC
8
DEFAULT_255_1_234
10
9.3131136
20
277.0995018
40
0.464401
50
77.0437873
51
90.5081339
0
ARC
8
DEFAULT_255_1_234
10
9.3533138
20
277.2637615
40
0.2953195
50
48.2778575
51
77.4994676
0
ARC
8
DEFAULT_255_1_234
10
9.3605769
20
277.2766746
40
0.2808655
50
36.3142134
51
47.6305865
0
ARC
8
DEFAULT_255_1_234
10
9.2737076
20
277.2181515
40
0.3855453
50
18.2931786
51
35.6769206
0
ARC
8
DEFAULT_255_1_234
10
9.0193835
20
277.1308593
40
0.654423
50
8.024666
51
18.5605216
0
ARC
8
DEFAULT_255_1_234
10
8.6030755
20
277.0693792
40
1.0752407
50
1.1274072
51
8.1718305
0
ARC
8
DEFAULT_255_1_234
10
8.2794945
20
277.0566885
40
1.3990231
50
0.5424119
51
1.3863029
0
ARC
8
DEFAULT_255_1_234
10
8.4616323
20
277.0839342
40
1.0682415
50
359.8090433
51
4.9407866
0
ARC
8
DEFAULT_255_1_234
10
8.8826337
20
277.1215113
40
0.6455691
50
4.8362157
51
12.2904523
0
ARC
8
DEFAULT_255_1_234
10
9.1581452
20
277.1828965
40
0.3633074
50
12.0805627
51
23.8173984
0
ARC
8
DEFAULT_255_1_234
10
9.2755157
20
277.2325919
40
0.2358723
50
24.2871213
51
31.3935614
0
ARC
8
DEFAULT_255_1_234
10
9.3279855
20
277.2669233
40
0.1732111
50
30.7407893
51
82.4657128
0
ARC
8
DEFAULT_255_1_234
10
9.3099989
20
277.1785691
40
0.263235
50
81.1060089
51
90.2184952
0
ARC
8
DEFAULT_255_1_234
10
9.3064288
20
277.2043924
40
0.2374236
50
89.3806855
51
105.6762551
0
ARC
8
DEFAULT_255_1_234
10
9.2880919
20
277.2710567
40
0.1682847
50
105.7981136
51
149.7388061
0
ARC
8
DEFAULT_255_1_234
10
9.3944997
20
277.207095
40
0.2924306
50
149.4208916
51
163.6286378
0
ARC
8
DEFAULT_255_1_234
10
9.6035885
20
277.143325
40
0.5110213
50
163.3763315
51
172.1410975
0
ARC
8
DEFAULT_255_1_234
10
9.9336604
20
277.0960518
40
0.8444586
50
172.0259487
51
178.0703232
0
ARC
8
DEFAULT_255_1_234
10
10.2366693
20
277.0816906
40
1.1477868
50
177.8631668
51
179.5044149
0
ARC
8
DEFAULT_255_1_234
10
10.1294098
20
276.8502389
40
1.0404907
50
179.7995573
51
185.2460446
0
ARC
8
DEFAULT_255_1_234
10
9.7251137
20
276.8119513
40
0.6343885
50
185.1411642
51
193.0079639
0
ARC
8
DEFAULT_255_1_234
10
9.460761
20
276.7494641
40
0.3627568
50
192.7897626
51
205.2507664
0
ARC
8
DEFAULT_255_1_234
10
9.3561157
20
276.7027415
40
0.2481908
50
205.8005384
51
211.2537509
0
ARC
8
DEFAULT_255_1_234
10
9.3037597
20
276.667658
40
0.1852521
50
210.3789793
51
238.4008143
0
ARC
8
DEFAULT_255_1_234
10
9.3018119
20
276.6723376
40
0.1882621
50
239.6520629
51
265.9793761
0
ARC
8
DEFAULT_255_1_234
10
9.3103319
20
276.7395427
40
0.2559272
50
265.1315437
51
270.060332
0
ARC
8
DEFAULT_255_1_234
10
9.3132098
20
276.7071534
40
0.2235528
50
269.3314664
51
287.2178029
0
ARC
8
DEFAULT_255_1_234
10
9.326995
20
276.6568279
40
0.1714108
50
287.7958004
51
329.080874
0
ARC
8
DEFAULT_255_1_234
10
9.2312407
20
276.716593
40
0.2842745
50
328.6634704
51
343.3325132
0
ARC
8
DEFAULT_255_1_234
10
9.0139427
20
276.7842863
40
0.5118644
50
343.0499468
51
351.9393422
0
ARC
8
DEFAULT_255_1_234
10
8.6672727
20
276.8353949
40
0.8622784
50
351.8069023
51
357.7959224
0
ARC
8
DEFAULT_255_1_234
10
8.3437283
20
276.8521721
40
1.1862365
50
357.5871873
51
359.2677531
0
LINE
8
DEFAULT_255_1_234
10
10.0559467
20
276.9341963
11
9.937077
21
276.9647169
0
LINE
8
DEFAULT_255_1_234
10
9.937077
20
276.9647169
11
9.9965119
21
277.5478211
0
LINE
8
DEFAULT_255_1_234
10
9.9965119
20
277.5478211
11
10.5956795
21
277.5478211
0
LINE
8
DEFAULT_255_1_234
10
10.5956795
20
277.5478211
11
10.5956795
21
277.4104784
0
LINE
8
DEFAULT_255_1_234
10
10.5956795
20
277.4104784
11
10.1226102
21
277.4104784
0
LINE
8
DEFAULT_255_1_234
10
10.1226102
20
277.4104784
11
10.0872705
21
277.0916184
0
LINE
8
DEFAULT_255_1_234
10
9.895312
20
276.6860156
11
10.0358674
21
276.6860156
0
LINE
8
DEFAULT_255_1_234
10
10.0953022
20
276.9663232
11
10.0559467
21
276.9341963
0
ARC
8
DEFAULT_255_1_234
10
10.2727489
20
276.773623
40
0.3681349
50
93.7182161
51
120.2538958
0
ARC
8
DEFAULT_255_1_234
10
10.2821752
20
276.6928394
40
0.449379
50
89.9660152
51
94.2496022
0
ARC
8
DEFAULT_255_1_234
10
10.2862486
20
276.7517549
40
0.390482
50
73.8043271
51
90.5585896
0
ARC
8
DEFAULT_255_1_234
10
10.3097383
20
276.8375602
40
0.3015334
50
41.3071453
51
73.5430202
0
ARC
8
DEFAULT_255_1_234
10
10.268121
20
276.8017324
40
0.3564457
50
13.5075983
51
41.2174222
0
ARC
8
DEFAULT_255_1_234
10
10.1039414
20
276.7587486
40
0.5261351
50
1.1331335
51
13.8829381
0
ARC
8
DEFAULT_255_1_234
10
9.9627783
20
276.7511665
40
0.6674378
50
359.9919444
51
1.544251
0
ARC
8
DEFAULT_255_1_234
10
10.0904609
20
276.747028
40
0.5397702
50
347.8572367
51
0.4293338
0
ARC
8
DEFAULT_255_1_234
10
10.2654927
20
276.7073736
40
0.3603188
50
323.673004
51
348.1672506
0
ARC
8
DEFAULT_255_1_234
10
10.2949435
20
276.6894168
40
0.3259678
50
316.8171152
51
323.1492751
0
ARC
8
DEFAULT_255_1_234
10
10.3010624
20
276.685746
40
0.3189975
50
281.8396411
51
316.5457803
0
ARC
8
DEFAULT_255_1_234
10
10.2634887
20
276.8412762
40
0.4789527
50
269.5770101
51
282.4214771
0
ARC
8
DEFAULT_255_1_234
10
10.2563699
20
276.8199125
40
0.45759
50
256.2427136
51
270.4486331
0
ARC
8
DEFAULT_255_1_234
10
10.2264601
20
276.6999229
40
0.3339303
50
228.9023911
51
256.3314342
0
ARC
8
DEFAULT_255_1_234
10
10.2190834
20
276.6882746
40
0.32031
50
193.753695
51
228.5271154
0
ARC
8
DEFAULT_255_1_234
10
10.3428788
20
276.72458
40
0.4492253
50
184.924711
51
194.497588
0
ARC
8
DEFAULT_255_1_234
10
10.3621355
20
276.7281591
40
0.3289787
50
187.3600538
51
198.6732863
0
ARC
8
DEFAULT_255_1_234
10
10.2571649
20
276.6917674
40
0.217884
50
198.4451669
51
217.794479
0
ARC
8
DEFAULT_255_1_234
10
10.2275824
20
276.6708085
40
0.1816698
50
218.2887171
51
228.5612368
0
ARC
8
DEFAULT_255_1_234
10
10.2373611
20
276.6839963
40
0.1980329
50
228.9654866
51
258.1234728
0
ARC
8
DEFAULT_255_1_234
10
10.2579321
20
276.7720833
40
0.2884748
50
257.7258293
51
270.401361
0
ARC
8
DEFAULT_255_1_234
10
10.2624207
20
276.7275821
40
0.2439788
50
269.4204404
51
286.4209037
0
ARC
8
DEFAULT_255_1_234
10
10.2772695
20
276.6736657
40
0.1880666
50
286.7251356
51
320.600362
0
ARC
8
DEFAULT_255_1_234
10
10.238952
20
276.7047595
40
0.2374121
50
320.6712579
51
344.5441685
0
ARC
8
DEFAULT_255_1_234
10
10.1232846
20
276.7387045
40
0.3579479
50
344.2412205
51
356.7357071
0
ARC
8
DEFAULT_255_1_234
10
9.9983995
20
276.7490444
40
0.4832297
50
356.3548756
51
0.0500261
0
ARC
8
DEFAULT_255_1_234
10
10.1320504
20
276.752165
40
0.3495889
50
359.5576869
51
12.953486
0
ARC
8
DEFAULT_255_1_234
10
10.2375401
20
276.7777434
40
0.2410532
50
12.6490276
51
41.6081334
0
ARC
8
DEFAULT_255_1_234
10
10.2605772
20
276.7973321
40
0.2108218
50
41.7850273
51
85.9892764
0
ARC
8
DEFAULT_255_1_234
10
10.2482509
20
276.7160462
40
0.2928454
50
84.6957577
51
90.0676183
0
ARC
8
DEFAULT_255_1_234
10
10.2458993
20
276.6491716
40
0.3597255
50
89.6804936
51
99.1614436
0
ARC
8
DEFAULT_255_1_234
10
10.2253624
20
276.7719131
40
0.235281
50
98.9830931
51
113.8908934
0
ARC
8
DEFAULT_255_1_234
10
10.2024034
20
276.8260587
40
0.176479
50
114.1950727
51
127.3641004
0
LINE
8
DEFAULT_255_1_234
10
11.1169394
20
276.9358026
11
11.1169394
21
276.8145234
0
LINE
8
DEFAULT_255_1_234
10
11.1169394
20
276.8145234
11
10.7249905
21
276.8145234
0
LINE
8
DEFAULT_255_1_234
10
10.7249905
20
276.8145234
11
10.7249905
21
276.9358026
0
LINE
8
DEFAULT_255_1_234
10
10.7249905
20
276.9358026
11
11.1169394
21
276.9358026
0
LINE
8
DEFAULT_255_1_234
10
11.979548
20
277.0699327
11
11.979548
21
276.8771709
0
LINE
8
DEFAULT_255_1_234
10
11.2414313
20
276.8570916
11
11.2414313
21
277.0554755
0
LINE
8
DEFAULT_255_1_234
10
11.8309609
20
276.8370123
11
11.8309609
21
277.0803739
0
LINE
8
DEFAULT_255_1_234
10
11.3900185
20
277.0916184
11
11.3900185
21
276.8538789
0
ARC
8
DEFAULT_255_1_234
10
10.754837
20
276.8722805
40
1.2247208
50
353.8441951
51
0.2287902
0
ARC
8
DEFAULT_255_1_234
10
11.2187874
20
276.8204806
40
0.7578929
50
344.4934747
51
353.9765454
0
ARC
8
DEFAULT_255_1_234
10
11.5180464
20
276.7353981
40
0.4467846
50
329.2803592
51
344.7472793
0
ARC
8
DEFAULT_255_1_234
10
11.6173289
20
276.6809018
40
0.3336173
50
324.9352394
51
328.6160465
0
ARC
8
DEFAULT_255_1_234
10
11.6550398
20
276.6545427
40
0.2876076
50
280.580143
51
324.9173126
0
ARC
8
DEFAULT_255_1_234
10
11.614919
20
276.8216099
40
0.4592847
50
269.5977311
51
281.6734359
0
ARC
8
DEFAULT_255_1_234
10
11.6077096
20
276.8096173
40
0.4472986
50
256.6228859
51
270.51044
0
ARC
8
DEFAULT_255_1_234
10
11.5675074
20
276.6547877
40
0.2873874
50
215.8618325
51
257.2788573
0
ARC
8
DEFAULT_255_1_234
10
11.6696105
20
276.7232977
40
0.4102928
50
197.9693508
51
215.2623606
0
ARC
8
DEFAULT_255_1_234
10
11.9181221
20
276.8071709
40
0.6725652
50
187.8816417
51
198.2346507
0
ARC
8
DEFAULT_255_1_234
10
12.3139429
20
276.8643079
40
1.0724845
50
180.8976217
51
188.0055519
0
ARC
8
DEFAULT_255_1_234
10
12.5939617
20
276.8746777
40
1.3526448
50
180.7449369
51
181.1510016
0
ARC
8
DEFAULT_255_1_234
10
12.4362346
20
277.0603042
40
1.1948131
50
173.7675579
51
180.231553
0
ARC
8
DEFAULT_255_1_234
10
11.9844493
20
277.1113666
40
0.7401564
50
164.3058563
51
173.9002247
0
ARC
8
DEFAULT_255_1_234
10
11.6932562
20
277.1952656
40
0.4371288
50
148.7922025
51
164.568378
0
ARC
8
DEFAULT_255_1_234
10
11.5981014
20
277.2483929
40
0.3282386
50
144.5883898
51
148.1176286
0
ARC
8
DEFAULT_255_1_234
10
11.5637912
20
277.2723315
40
0.2864044
50
101.6440918
51
144.514236
0
ARC
8
DEFAULT_255_1_234
10
11.6062979
20
277.1034069
40
0.4604934
50
89.5284041
51
102.5819763
0
ARC
8
DEFAULT_255_1_234
10
11.6142066
20
277.0995018
40
0.464401
50
77.0437873
51
90.5081339
0
ARC
8
DEFAULT_255_1_234
10
11.6544068
20
277.2637615
40
0.2953195
50
48.2778575
51
77.4994676
0
ARC
8
DEFAULT_255_1_234
10
11.6616699
20
277.2766746
40
0.2808655
50
36.3142134
51
47.6305865
0
ARC
8
DEFAULT_255_1_234
10
11.5748006
20
277.2181515
40
0.3855453
50
18.2931786
51
35.6769206
0
ARC
8
DEFAULT_255_1_234
10
11.3204765
20
277.1308593
40
0.654423
50
8.024666
51
18.5605216
0
ARC
8
DEFAULT_255_1_234
10
10.9041685
20
277.0693792
40
1.0752407
50
1.1274072
51
8.1718305
0
ARC
8
DEFAULT_255_1_234
10
10.5805876
20
277.0566885
40
1.3990231
50
0.5424119
51
1.3863029
0
ARC
8
DEFAULT_255_1_234
10
10.7627254
20
277.0839342
40
1.0682415
50
359.8090433
51
4.9407866
0
ARC
8
DEFAULT_255_1_234
10
11.1837268
20
277.1215113
40
0.6455691
50
4.8362157
51
12.2904523
0
ARC
8
DEFAULT_255_1_234
10
11.4592382
20
277.1828965
40
0.3633074
50
12.0805627
51
23.8173984
0
ARC
8
DEFAULT_255_1_234
10
11.5766088
20
277.2325919
40
0.2358723
50
24.2871213
51
31.3935614
0
ARC
8
DEFAULT_255_1_234
10
11.6290785
20
277.2669233
40
0.1732111
50
30.7407893
51
82.4657128
0
ARC
8
DEFAULT_255_1_234
10
11.6110919
20
277.1785691
40
0.263235
50
81.1060089
51
90.2184952
0
ARC
8
DEFAULT_255_1_234
10
11.6075218
20
277.2043924
40
0.2374236
50
89.3806855
51
105.6762551
0
ARC
8
DEFAULT_255_1_234
10
11.5891849
20
277.2710567
40
0.1682847
50
105.7981136
51
149.7388061
0
ARC
8
DEFAULT_255_1_234
10
11.6955927
20
277.207095
40
0.2924306
50
149.4208916
51
163.6286378
0
ARC
8
DEFAULT_255_1_234
10
11.9046815
20
277.143325
40
0.5110213
50
163.3763315
51
172.1410975
0
ARC
8
DEFAULT_255_1_234
10
12.2347534
20
277.0960518
40
0.8444586
50
172.0259487
51
178.0703232
0
ARC
8
DEFAULT_255_1_234
10
12.5377624
20
277.0816906
40
1.1477868
50
177.8631668
51
179.5044149
0
ARC
8
DEFAULT_255_1_234
10
12.4305028
20
276.8502389
40
1.0404907
50
179.7995573
51
185.2460446
0
ARC
8
DEFAULT_255_1_234
10
12.0262067
20
276.8119513
40
0.6343885
50
185.1411642
51
193.0079639
0
ARC
8
DEFAULT_255_1_234
10
11.761854
20
276.7494641
40
0.3627568
50
192.7897626
51
205.2507664
0
ARC
8
DEFAULT_255_1_234
10
11.6572087
20
276.7027415
40
0.2481908
50
205.8005384
51
211.2537509
0
ARC
8
DEFAULT_255_1_234
10
11.6048527
20
276.667658
40
0.1852521
50
210.3789793
51
238.4008143
0
ARC
8
DEFAULT_255_1_234
10
11.6029049
20
276.6723376
40
0.1882621
50
239.6520629
51
265.9793761
0
ARC
8
DEFAULT_255_1_234
10
11.6114249
20
276.7395427
40
0.2559272
50
265.1315437
51
270.060332
0
ARC
8
DEFAULT_255_1_234
10
11.6143028
20
276.7071534
40
0.2235528
50
269.3314664
51
287.2178029
0
ARC
8
DEFAULT_255_1_234
10
11.628088
20
276.6568279
40
0.1714108
50
287.7958004
51
329.080874
0
ARC
8
DEFAULT_255_1_234
10
11.5323337
20
276.716593
40
0.2842745
50
328.6634704
51
343.3325132
0
ARC
8
DEFAULT_255_1_234
10
11.3150357
20
276.7842863
40
0.5118644
50
343.0499468
51
351.9393422
0
ARC
8
DEFAULT_255_1_234
10
10.9683657
20
276.8353949
40
0.8622784
50
351.8069023
51
357.7959224
0
ARC
8
DEFAULT_255_1_234
10
10.6448213
20
276.8521721
40
1.1862365
50
357.5871873
51
359.2677531
0
LINE
8
DEFAULT_255_1_234
10
12.9658455
20
276.3784
11
12.8542043
21
276.6836061
0
LINE
8
DEFAULT_255_1_234
10
12.8542043
20
276.6836061
11
12.3642683
21
276.6836061
0
LINE
8
DEFAULT_255_1_234
10
12.3642683
20
276.6836061
11
12.2542335
21
276.3784
0
LINE
8
DEFAULT_255_1_234
10
12.2542335
20
276.3784
11
12.0952051
21
276.3784
0
LINE
8
DEFAULT_255_1_234
10
12.0952051
20
276.3784
11
12.5417697
21
277.5478211
0
LINE
8
DEFAULT_255_1_234
10
12.5417697
20
277.5478211
11
12.6767029
21
277.5478211
0
LINE
8
DEFAULT_255_1_234
10
12.6767029
20
277.5478211
11
13.1240708
21
276.3784
0
LINE
8
DEFAULT_255_1_234
10
13.1240708
20
276.3784
11
12.9658455
21
276.3784
0
LINE
8
DEFAULT_255_1_234
10
12.6092363
20
277.3574689
11
12.4108524
21
276.8105075
0
LINE
8
DEFAULT_255_1_234
10
12.4108524
20
276.8105075
11
12.8084234
21
276.8105075
0
LINE
8
DEFAULT_255_1_234
10
12.8084234
20
276.8105075
11
12.6092363
21
277.3574689
0
LINE
8
DEFAULT_255_1_234
10
13.9425049
20
277.0450343
11
13.9425049
21
276.918936
0
LINE
8
DEFAULT_255_1_234
10
13.9425049
20
276.918936
11
13.4357022
21
276.918936
0
LINE
8
DEFAULT_255_1_234
10
13.4357022
20
276.918936
11
13.4357022
21
276.5044983
0
LINE
8
DEFAULT_255_1_234
10
13.4357022
20
276.5044983
11
14.0244286
21
276.5044983
0
LINE
8
DEFAULT_255_1_234
10
14.0244286
20
276.5044983
11
14.0244286
21
276.3784
0
LINE
8
DEFAULT_255_1_234
10
14.0244286
20
276.3784
11
13.2814928
21
276.3784
0
LINE
8
DEFAULT_255_1_234
10
13.2814928
20
276.3784
11
13.2814928
21
277.5478211
0
LINE
8
DEFAULT_255_1_234
10
13.2814928
20
277.5478211
11
14.0163969
21
277.5478211
0
LINE
8
DEFAULT_255_1_234
10
14.0163969
20
277.5478211
11
14.0163969
21
277.4209196
0
LINE
8
DEFAULT_255_1_234
10
14.0163969
20
277.4209196
11
13.4357022
21
277.4209196
0
LINE
8
DEFAULT_255_1_234
10
13.4357022
20
277.4209196
11
13.4357022
21
277.0450343
0
LINE
8
DEFAULT_255_1_234
10
13.4357022
20
277.0450343
11
13.9425049
21
277.0450343
0
LINE
8
DEFAULT_255_1_234
10
14.9111325
20
277.0699327
11
14.9111325
21
276.8771709
0
LINE
8
DEFAULT_255_1_234
10
14.1730158
20
276.8570916
11
14.1730158
21
277.0554755
0
LINE
8
DEFAULT_255_1_234
10
14.7625454
20
276.8370123
11
14.7625454
21
277.0803739
0
LINE
8
DEFAULT_255_1_234
10
14.3216029
20
277.0916184
11
14.3216029
21
276.8538789
0
ARC
8
DEFAULT_255_1_234
10
13.6864215
20
276.8722805
40
1.2247208
50
353.8441951
51
0.2287902
0
ARC
8
DEFAULT_255_1_234
10
14.1503718
20
276.8204806
40
0.7578929
50
344.4934747
51
353.9765454
0
ARC
8
DEFAULT_255_1_234
10
14.4496309
20
276.7353981
40
0.4467846
50
329.2803592
51
344.7472793
0
ARC
8
DEFAULT_255_1_234
10
14.5489133
20
276.6809018
40
0.3336173
50
324.9352394
51
328.6160465
0
ARC
8
DEFAULT_255_1_234
10
14.5866242
20
276.6545427
40
0.2876076
50
280.580143
51
324.9173126
0
ARC
8
DEFAULT_255_1_234
10
14.5465035
20
276.8216099
40
0.4592847
50
269.5977311
51
281.6734359
0
ARC
8
DEFAULT_255_1_234
10
14.539294
20
276.8096173
40
0.4472986
50
256.6228859
51
270.51044
0
ARC
8
DEFAULT_255_1_234
10
14.4990918
20
276.6547877
40
0.2873874
50
215.8618325
51
257.2788573
0
ARC
8
DEFAULT_255_1_234
10
14.601195
20
276.7232977
40
0.4102928
50
197.9693508
51
215.2623606
0
ARC
8
DEFAULT_255_1_234
10
14.8497065
20
276.8071709
40
0.6725652
50
187.8816417
51
198.2346507
0
ARC
8
DEFAULT_255_1_234
10
15.2455274
20
276.8643079
40
1.0724845
50
180.8976217
51
188.0055519
0
ARC
8
DEFAULT_255_1_234
10
15.5255462
20
276.8746777
40
1.3526448
50
180.7449369
51
181.1510016
0
ARC
8
DEFAULT_255_1_234
10
15.3678191
20
277.0603042
40
1.1948131
50
173.7675579
51
180.231553
0
ARC
8
DEFAULT_255_1_234
10
14.9160337
20
277.1113666
40
0.7401564
50
164.3058563
51
173.9002247
0
ARC
8
DEFAULT_255_1_234
10
14.6248406
20
277.1952656
40
0.4371288
50
148.7922025
51
164.568378
0
ARC
8
DEFAULT_255_1_234
10
14.5296859
20
277.2483929
40
0.3282386
50
144.5883898
51
148.1176286
0
ARC
8
DEFAULT_255_1_234
10
14.4953756
20
277.2723315
40
0.2864044
50
101.6440918
51
144.514236
0
ARC
8
DEFAULT_255_1_234
10
14.5378823
20
277.1034069
40
0.4604934
50
89.5284041
51
102.5819763
0
ARC
8
DEFAULT_255_1_234
10
14.5457911
20
277.0995018
40
0.464401
50
77.0437873
51
90.5081339
0
ARC
8
DEFAULT_255_1_234
10
14.5859913
20
277.2637615
40
0.2953195
50
48.2778575
51
77.4994676
0
ARC
8
DEFAULT_255_1_234
10
14.5932544
20
277.2766746
40
0.2808655
50
36.3142134
51
47.6305865
0
ARC
8
DEFAULT_255_1_234
10
14.5063851
20
277.2181515
40
0.3855453
50
18.2931786
51
35.6769206
0
ARC
8
DEFAULT_255_1_234
10
14.252061
20
277.1308593
40
0.654423
50
8.024666
51
18.5605216
0
ARC
8
DEFAULT_255_1_234
10
13.835753
20
277.0693792
40
1.0752407
50
1.1274072
51
8.1718305
0
ARC
8
DEFAULT_255_1_234
10
13.512172
20
277.0566885
40
1.3990231
50
0.5424119
51
1.3863029
0
ARC
8
DEFAULT_255_1_234
10
13.6943098
20
277.0839342
40
1.0682415
50
359.8090433
51
4.9407866
0
ARC
8
DEFAULT_255_1_234
10
14.1153112
20
277.1215113
40
0.6455691
50
4.8362157
51
12.2904523
0
ARC
8
DEFAULT_255_1_234
10
14.3908227
20
277.1828965
40
0.3633074
50
12.0805627
51
23.8173984
0
ARC
8
DEFAULT_255_1_234
10
14.5081932
20
277.2325919
40
0.2358723
50
24.2871213
51
31.3935614
0
ARC
8
DEFAULT_255_1_234
10
14.560663
20
277.2669233
40
0.1732111
50
30.7407893
51
82.4657128
0
ARC
8
DEFAULT_255_1_234
10
14.5426764
20
277.1785691
40
0.263235
50
81.1060089
51
90.2184952
0
ARC
8
DEFAULT_255_1_234
10
14.5391063
20
277.2043924
40
0.2374236
50
89.3806855
51
105.6762551
0
ARC
8
DEFAULT_255_1_234
10
14.5207693
20
277.2710567
40
0.1682847
50
105.7981136
51
149.7388061
0
ARC
8
DEFAULT_255_1_234
10
14.6271772
20
277.207095
40
0.2924306
50
149.4208916
51
163.6286378
0
ARC
8
DEFAULT_255_1_234
10
14.836266
20
277.143325
40
0.5110213
50
163.3763315
51
172.1410975
0
ARC
8
DEFAULT_255_1_234
10
15.1663379
20
277.0960518
40
0.8444586
50
172.0259487
51
178.0703232
0
ARC
8
DEFAULT_255_1_234
10
15.4693468
20
277.0816906
40
1.1477868
50
177.8631668
51
179.5044149
0
ARC
8
DEFAULT_255_1_234
10
15.3620873
20
276.8502389
40
1.0404907
50
179.7995573
51
185.2460446
0
ARC
8
DEFAULT_255_1_234
10
14.9577912
20
276.8119513
40
0.6343885
50
185.1411642
51
193.0079639
0
ARC
8
DEFAULT_255_1_234
10
14.6934384
20
276.7494641
40
0.3627568
50
192.7897626
51
205.2507664
0
ARC
8
DEFAULT_255_1_234
10
14.5887932
20
276.7027415
40
0.2481908
50
205.8005384
51
211.2537509
0
ARC
8
DEFAULT_255_1_234
10
14.5364372
20
276.667658
40
0.1852521
50
210.3789793
51
238.4008143
0
ARC
8
DEFAULT_255_1_234
10
14.5344894
20
276.6723376
40
0.1882621
50
239.6520629
51
265.9793761
0
ARC
8
DEFAULT_255_1_234
10
14.5430094
20
276.7395427
40
0.2559272
50
265.1315437
51
270.060332
0
ARC
8
DEFAULT_255_1_234
10
14.5458873
20
276.7071534
40
0.2235528
50
269.3314664
51
287.2178029
0
ARC
8
DEFAULT_255_1_234
10
14.5596725
20
276.6568279
40
0.1714108
50
287.7958004
51
329.080874
0
ARC
8
DEFAULT_255_1_234
10
14.4639182
20
276.716593
40
0.2842745
50
328.6634704
51
343.3325132
0
ARC
8
DEFAULT_255_1_234
10
14.2466202
20
276.7842863
40
0.5118644
50
343.0499468
51
351.9393422
0
ARC
8
DEFAULT_255_1_234
10
13.8999502
20
276.8353949
40
0.8622784
50
351.8069023
51
357.7959224
0
ARC
8
DEFAULT_255_1_234
10
13.5764058
20
276.8521721
40
1.1862365
50
357.5871873
51
359.2677531
0
LINE
8
DEFAULT_255_2_778
10
0.902567
20
274.0161271
11
0.663167
21
274.0436271
0
LINE
8
DEFAULT_255_2_778
10
0.663167
20
274.0436271
11
0.493567
21
274.1333271
0
LINE
8
DEFAULT_255_2_778
10
0.493567
20
274.1333271
11
0.400667
21
274.3233271
0
LINE
8
DEFAULT_255_2_778
10
0.400667
20
274.3233271
11
0.413667
21
274.5580271
0
LINE
8
DEFAULT_255_2_778
10
0.413667
20
274.5580271
11
0.513367
21
274.7125271
0
LINE
8
DEFAULT_255_2_778
10
0.513367
20
274.7125271
11
0.678767
21
274.7879271
0
LINE
8
DEFAULT_255_2_778
10
0.678767
20
274.7879271
11
0.912067
21
274.8120271
0
LINE
8
DEFAULT_255_2_778
10
0.912067
20
274.8120271
11
24.200967
21
274.8125271
0
LINE
8
DEFAULT_255_2_778
10
24.200967
20
274.8125271
11
24.424867
21
274.7942271
0
LINE
8
DEFAULT_255_2_778
10
24.424867
20
274.7942271
11
24.590767
21
274.7350271
0
LINE
8
DEFAULT_255_2_778
10
24.590767
20
274.7350271
11
24.696567
21
274.6194271
0
LINE
8
DEFAULT_255_2_778
10
24.696567
20
274.6194271
11
24.742367
21
274.4267271
0
LINE
8
DEFAULT_255_2_778
10
24.742367
20
274.4267271
11
24.702367
21
274.2196271
0
LINE
8
DEFAULT_255_2_778
10
24.702367
20
274.2196271
11
24.595467
21
274.0955271
0
LINE
8
DEFAULT_255_2_778
10
24.595467
20
274.0955271
11
24.429567
21
274.0341271
0
LINE
8
DEFAULT_255_2_778
10
24.429567
20
274.0341271
11
24.206267
21
274.0150271
0
LINE
8
DEFAULT_255_2_778
10
24.206267
20
274.0150271
11
0.902267
21
274.0158271
0
ARC
8
DEFAULT_255_2_778
10
1.6904924
20
1.2369461
40
1.4931507
50
240.1405188
51
270.0824445
0
ARC
8
DEFAULT_255_2_778
10
1.6935129
20
1.244259
40
1.500997
50
187.8797423
51
240.179506
0
ARC
8
DEFAULT_255_2_778
10
1.7060843
20
1.2434685
40
1.5133435
50
179.9913477
51
187.7848446
0
ARC
8
DEFAULT_255_2_778
10
1.6858901
20
288.2460455
40
1.4931507
50
150.1405188
51
180.0824445
0
ARC
8
DEFAULT_255_2_778
10
1.693203
20
288.243025
40
1.500997
50
97.8797423
51
150.179506
0
ARC
8
DEFAULT_255_2_778
10
1.6924124
20
288.2304537
40
1.5133435
50
89.9913477
51
97.7848446
0
ARC
8
DEFAULT_255_2_778
10
23.4448895
20
288.2506479
40
1.4931507
50
60.1405188
51
90.0824445
0
ARC
8
DEFAULT_255_2_778
10
23.441869
20
288.243335
40
1.500997
50
7.8797423
51
60.179506
0
ARC
8
DEFAULT_255_2_778
10
23.4292976
20
288.2441255
40
1.5133435
50
359.9913477
51
7.7848446
0
ARC
8
DEFAULT_255_2_778
10
23.4494919
20
1.2418485
40
1.4931507
50
330.1405188
51
0.0824445
0
ARC
8
DEFAULT_255_2_778
10
23.442179
20
1.244869
40
1.500997
50
277.8797423
51
330.179506
0
ARC
8
DEFAULT_255_2_778
10
23.4429695
20
1.2574403
40
1.5133435
50
269.9913477
51
277.7848446
0
LINE
8
DEFAULT_255_2_778
10
0.192741
20
1.243697
11
0.192741
21
288.243897
0
LINE
8
DEFAULT_255_2_778
10
1.692641
20
289.743797
11
23.442741
21
289.743797
0
LINE
8
DEFAULT_255_2_778
10
24.942641
20
288.243897
11
24.942641
21
1.243997
0
LINE
8
DEFAULT_255_2_778
10
23.442741
20
-0.255903
11
1.692641
21
-0.255903
0
LINE
8
DEFAULT_255_2_778
10
23.8684805
20
160.3262344
11
23.8515805
21
160.2627344
0
LINE
8
DEFAULT_255_2_778
10
23.8684805
20
160.3260344
11
23.8782805
21
160.4598344
0
LINE
8
DEFAULT_255_2_778
10
23.8782805
20
160.4598344
11
23.8845805
21
160.6474344
0
LINE
8
DEFAULT_255_2_778
10
23.8845805
20
160.6474344
11
23.8845805
21
160.8554344
0
LINE
8
DEFAULT_255_2_778
10
23.8845805
20
160.8554344
11
23.8782805
21
161.0430344
0
LINE
8
DEFAULT_255_2_778
10
23.8782805
20
161.0430344
11
23.8673805
21
161.1890344
0
LINE
8
DEFAULT_255_2_778
10
23.8673805
20
161.1890344
11
23.8517805
21
161.3031344
0
LINE
8
DEFAULT_255_2_778
10
23.8517805
20
161.3031344
11
23.8213805
21
161.4174344
0
LINE
8
DEFAULT_255_2_778
10
23.8213805
20
161.4174344
11
23.7512805
21
161.5489344
0
LINE
8
DEFAULT_255_2_778
10
23.7512805
20
161.5489344
11
23.6266805
21
161.6685344
0
LINE
8
DEFAULT_255_2_778
10
23.6266805
20
161.6685344
11
23.4559805
21
161.7412344
0
LINE
8
DEFAULT_255_2_778
10
23.4559805
20
161.7412344
11
23.3509805
21
161.7526344
0
LINE
8
DEFAULT_255_2_778
10
23.3509805
20
161.7526344
11
1.7844805
21
161.7526344
0
LINE
8
DEFAULT_255_2_778
10
1.7844805
20
161.7526344
11
1.6482805
21
161.7336344
0
LINE
8
DEFAULT_255_2_778
10
1.6482805
20
161.7336344
11
1.4759805
21
161.6447344
0
LINE
8
DEFAULT_255_2_778
10
1.4759805
20
161.6447344
11
1.3598805
21
161.5129344
0
LINE
8
DEFAULT_255_2_778
10
1.3598805
20
161.5129344
11
1.2989805
21
161.3711344
0
LINE
8
DEFAULT_255_2_778
10
1.2989805
20
161.3711344
11
1.2756805
21
161.2549344
0
LINE
8
DEFAULT_255_2_778
10
1.2756805
20
161.2549344
11
1.2613805
21
161.1163344
0
LINE
8
DEFAULT_255_2_778
10
1.2613805
20
161.1163344
11
1.2521805
21
160.9295344
0
LINE
8
DEFAULT_255_2_778
10
1.2521805
20
160.9295344
11
1.2497805
21
160.7046344
0
LINE
8
DEFAULT_255_2_778
10
1.2497805
20
160.7046344
11
1.2550805
21
160.4987344
0
LINE
8
DEFAULT_255_2_778
10
1.2550805
20
160.4987344
11
1.2666805
21
160.3268344
0
LINE
8
DEFAULT_255_2_778
10
1.2669805
20
160.3268344
11
1.2838805
21
160.2627344
0
LINE
8
DEFAULT_255_2_778
10
0.1927764
20
161.7436451
11
1.7204764
21
161.7436451
0
LINE
8
DEFAULT_255_2_778
10
23.4347764
20
161.7436451
11
24.9428764
21
161.7436451
0
LINE
8
DEFAULT_255_2_778
10
13.0427764
20
278.4748451
11
13.0427764
21
283.3524451
0
LINE
8
DEFAULT_255_2_778
10
11.9425764
20
278.4748451
11
11.9425764
21
283.3524451
0
LINE
8
DEFAULT_255_2_778
10
24.9426764
20
162.6963451
11
24.8664764
21
162.7029451
0
LINE
8
DEFAULT_255_2_778
10
24.8664764
20
162.7029451
11
24.3250764
21
162.7125451
0
LINE
8
DEFAULT_255_2_778
10
24.3250764
20
162.7125451
11
0.8099764
21
162.7125451
0
LINE
8
DEFAULT_255_2_778
10
0.8099764
20
162.7125451
11
0.2686764
21
162.7029451
0
LINE
8
DEFAULT_255_2_778
10
0.2686764
20
162.7029451
11
0.1924764
21
162.6963451
0
LINE
8
DEFAULT_255_2_778
10
1.2502764
20
160.7162451
11
1.0864764
21
160.6090451
0
LINE
8
DEFAULT_255_2_778
10
1.0864764
20
160.6090451
11
0.9801764
21
160.4500451
0
LINE
8
DEFAULT_255_2_778
10
0.9801764
20
160.4500451
11
0.9428764
21
160.2629451
0
LINE
8
DEFAULT_255_2_778
10
0.9428764
20
160.2629451
11
0.9428764
21
157.7431451
0
LINE
8
DEFAULT_255_2_778
10
0.9428764
20
157.7431451
11
0.9801764
21
157.5560451
0
LINE
8
DEFAULT_255_2_778
10
0.9801764
20
157.5560451
11
1.0864764
21
157.3970451
0
LINE
8
DEFAULT_255_2_778
10
1.0864764
20
157.3970451
11
1.2460764
21
157.2906451
0
LINE
8
DEFAULT_255_2_778
10
1.2460764
20
157.2906451
11
1.4346764
21
157.2533451
0
LINE
8
DEFAULT_255_2_778
10
1.4346764
20
157.2533451
11
23.7009764
21
157.2533451
0
LINE
8
DEFAULT_255_2_778
10
23.7009764
20
157.2533451
11
23.8895764
21
157.2906451
0
LINE
8
DEFAULT_255_2_778
10
23.8895764
20
157.2906451
11
24.0491764
21
157.3970451
0
LINE
8
DEFAULT_255_2_778
10
24.0491764
20
157.3970451
11
24.1554764
21
157.5560451
0
LINE
8
DEFAULT_255_2_778
10
24.1554764
20
157.5560451
11
24.1928764
21
157.7431451
0
LINE
8
DEFAULT_255_2_778
10
24.1928764
20
157.7431451
11
24.1928764
21
160.2629451
0
LINE
8
DEFAULT_255_2_778
10
24.1928764
20
160.2629451
11
24.1554764
21
160.4500451
0
LINE
8
DEFAULT_255_2_778
10
24.1554764
20
160.4500451
11
24.0491764
21
160.6090451
0
LINE
8
DEFAULT_255_2_778
10
24.0491764
20
160.6090451
11
23.8848764
21
160.7164451
0
LINE
8
DEFAULT_255_2_778
10
12.6926764
20
218.4837451
11
9.5925764
21
218.4837451
0
LINE
8
DEFAULT_255_2_778
10
12.6926764
20
217.0835451
11
9.5925764
21
217.0835451
0
LINE
8
DEFAULT_255_2_778
10
12.6926764
20
213.4836451
11
9.5925764
21
213.4836451
0
LINE
8
DEFAULT_255_2_778
10
12.6926764
20
212.0837451
11
9.5925764
21
212.0837451
0
LINE
8
DEFAULT_255_2_778
10
12.6926764
20
228.4836451
11
9.5925764
21
228.4836451
0
LINE
8
DEFAULT_255_2_778
10
12.6926764
20
227.0837451
11
9.5925764
21
227.0837451
0
LINE
8
DEFAULT_255_2_778
10
12.6926764
20
223.4835451
11
9.5925764
21
223.4835451
0
LINE
8
DEFAULT_255_2_778
10
12.6926764
20
222.0836451
11
9.5925764
21
222.0836451
0
LINE
8
DEFAULT_255_2_778
10
12.6926764
20
238.4836451
11
9.5925764
21
238.4836451
0
LINE
8
DEFAULT_255_2_778
10
12.6926764
20
237.0837451
11
9.5925764
21
237.0837451
0
LINE
8
DEFAULT_255_2_778
10
12.6926764
20
233.4837451
11
9.5925764
21
233.4837451
0
LINE
8
DEFAULT_255_2_778
10
12.6926764
20
232.0836451
11
9.5925764
21
232.0836451
0
LINE
8
DEFAULT_255_2_778
10
12.6927386
20
261.883617
11
9.5926386
21
261.883617
0
LINE
8
DEFAULT_255_2_778
10
9.5926386
20
261.883617
11
9.5926386
21
208.683617
0
LINE
8
DEFAULT_255_2_778
10
9.5926386
20
208.683617
11
12.6927386
21
208.683617
0
LINE
8
DEFAULT_255_2_778
10
12.6927386
20
208.683617
11
12.6927386
21
261.883617
0
ARC
8
DEFAULT_255_2_778
10
12.4905113
20
280.9471275
40
3.2476899
50
162.1309283
51
180.0567286
0
ARC
8
DEFAULT_255_2_778
10
12.4976017
20
280.9387686
40
3.2570082
50
105.7677879
51
162.0292494
0
ARC
8
DEFAULT_255_2_778
10
12.4900208
20
280.9411424
40
3.2526704
50
89.9524005
51
105.650638
0
ARC
8
DEFAULT_255_2_778
10
12.495929
20
280.9463029
40
3.2475106
50
72.1304324
51
90.0565629
0
ARC
8
DEFAULT_255_2_778
10
12.4874795
20
280.9389301
40
3.2571256
50
15.7690898
51
72.0287655
0
ARC
8
DEFAULT_255_2_778
10
12.490129
20
280.9466118
40
3.2524951
50
359.9524383
51
15.6515452
0
ARC
8
DEFAULT_255_2_778
10
12.4952695
20
280.94071
40
3.2473551
50
342.1294724
51
0.0564937
0
ARC
8
DEFAULT_255_2_778
10
12.4876392
20
280.9492627
40
3.2572469
50
285.7697085
51
342.0274749
0
ARC
8
DEFAULT_255_2_778
10
12.4954157
20
280.9463035
40
3.2522927
50
269.9525633
51
285.6520346
0
ARC
8
DEFAULT_255_2_778
10
12.4895115
20
280.9415447
40
3.2475343
50
252.1299684
51
270.0566595
0
ARC
8
DEFAULT_255_2_778
10
12.4979735
20
280.9488925
40
3.2571295
50
195.7684066
51
252.0279588
0
ARC
8
DEFAULT_255_2_778
10
12.4952901
20
280.941217
40
3.252468
50
179.9525254
51
195.6511274
0
LINE
8
DEFAULT_255_2_778
10
12.692723
20
248.4838119
11
9.592623
21
248.4838119
0
LINE
8
DEFAULT_255_2_778
10
12.692723
20
247.0836119
11
9.592623
21
247.0836119
0
LINE
8
DEFAULT_255_2_778
10
12.692723
20
243.4837119
11
9.592623
21
243.4837119
0
LINE
8
DEFAULT_255_2_778
10
12.692723
20
242.0838119
11
9.592623
21
242.0838119
0
LINE
8
DEFAULT_255_2_778
10
12.692723
20
258.4837119
11
9.592623
21
258.4837119
0
LINE
8
DEFAULT_255_2_778
10
12.692723
20
257.0838119
11
9.592623
21
257.0838119
0
LINE
8
DEFAULT_255_2_778
10
12.692723
20
253.4836119
11
9.592623
21
253.4836119
0
LINE
8
DEFAULT_255_2_778
10
12.692723
20
252.0837119
11
9.592623
21
252.0837119
0
LINE
8
DEFAULT_255_2_778
10
9.242823
20
280.9439119
11
9.242823
21
280.9439119
0
ARC
8
DEFAULT_255_2_778
10
12.4941648
20
280.9099271
40
1.9959484
50
285.9542132
51
316.7639104
0
ARC
8
DEFAULT_255_2_778
10
12.4930629
20
280.9130979
40
1.9989236
50
316.7193328
51
356.4345302
0
ARC
8
DEFAULT_255_2_778
10
12.4786717
20
280.913588
40
2.0133176
50
356.446079
51
0.0020303
0
ARC
8
DEFAULT_255_2_778
10
12.495802
20
280.9148352
40
1.9961877
50
359.9662482
51
30.7741196
0
ARC
8
DEFAULT_255_2_778
10
12.4924897
20
280.9146718
40
1.9991177
50
30.7295724
51
70.4842716
0
ARC
8
DEFAULT_255_2_778
10
12.4881071
20
280.9011048
40
2.0133694
50
70.4956965
51
74.0082194
0
ARC
8
DEFAULT_255_2_778
10
12.4915198
20
280.9171878
40
1.9963246
50
105.9602601
51
136.765245
0
ARC
8
DEFAULT_255_2_778
10
12.4924067
20
280.9142037
40
1.9990154
50
136.720344
51
176.4776561
0
ARC
8
DEFAULT_255_2_778
10
12.5065544
20
280.9137352
40
2.0131652
50
176.4890877
51
180.0021608
0
ARC
8
DEFAULT_255_2_778
10
12.4895318
20
280.9124781
40
1.9961428
50
179.966096
51
210.7744733
0
ARC
8
DEFAULT_255_2_778
10
12.4926099
20
280.9124888
40
1.9987935
50
210.7295895
51
250.511195
0
ARC
8
DEFAULT_255_2_778
10
12.4969434
20
280.9259501
40
2.0129295
50
250.5227458
51
254.0143449
0
ARC
8
DEFAULT_255_2_778
10
12.492827
20
280.9137652
40
2.5002331
50
121.917658
51
180.0002547
0
ARC
8
DEFAULT_255_2_778
10
12.4966146
20
280.9069846
40
2.5079911
50
120.0006635
51
121.909206
0
ARC
8
DEFAULT_255_2_778
10
12.4918163
20
280.9158393
40
2.4979236
50
100.2033443
51
120.0069023
0
ARC
8
DEFAULT_255_2_778
10
12.4925999
20
280.911248
40
2.5025811
50
89.9989923
51
100.2023805
0
ARC
8
DEFAULT_255_2_778
10
12.4930475
20
280.9147497
40
2.4990795
50
64.77
51
90.0092522
0
ARC
8
DEFAULT_255_2_778
10
12.490418
20
280.9097301
40
2.504741
50
60.0024988
51
64.7645322
0
ARC
8
DEFAULT_255_2_778
10
12.4924816
20
280.9137624
40
2.5002172
50
1.914352
51
59.9972557
0
ARC
8
DEFAULT_255_2_778
10
12.483785
20
280.9137619
40
2.508909
50
359.9998212
51
1.9077282
0
ARC
8
DEFAULT_255_2_778
10
12.4925068
20
280.9138174
40
2.5001872
50
301.917074
51
359.9985489
0
ARC
8
DEFAULT_255_2_778
10
12.4886733
20
280.9206235
40
2.507991
50
300.0006635
51
301.909206
0
ARC
8
DEFAULT_255_2_778
10
12.4934295
20
280.9113328
40
2.497567
50
280.2057974
51
300.0127409
0
ARC
8
DEFAULT_255_2_778
10
12.4926874
20
280.9157442
40
2.50204
50
269.9990055
51
280.2046241
0
ARC
8
DEFAULT_255_2_778
10
12.492249
20
280.9123139
40
2.4986099
50
244.7647087
51
270.0090556
0
ARC
8
DEFAULT_255_2_778
10
12.4950088
20
280.9176364
40
2.5046011
50
239.9969819
51
244.7595108
0
ARC
8
DEFAULT_255_2_778
10
12.4927751
20
280.9138308
40
2.5001886
50
181.9161151
51
239.9977019
0
ARC
8
DEFAULT_255_2_778
10
12.5009772
20
280.9137466
40
2.5083834
50
179.9998286
51
181.907928
0
ARC
8
DEFAULT_255_2_778
10
4.6898711
20
280.946099
40
0.9472803
50
138.7727129
51
180.1478761
0
ARC
8
DEFAULT_255_2_778
10
4.6899433
20
280.9470796
40
0.9466888
50
92.2547351
51
138.8202308
0
ARC
8
DEFAULT_255_2_778
10
4.6926548
20
280.9180531
40
0.9758009
50
89.9977044
51
92.3467712
0
ARC
8
DEFAULT_255_2_778
10
4.6952605
20
280.9466096
40
0.947248
50
49.1155038
51
90.1552423
0
ARC
8
DEFAULT_255_2_778
10
4.6960054
20
280.9465613
40
0.9467972
50
2.2627828
51
49.1514988
0
ARC
8
DEFAULT_255_2_778
10
4.6661494
20
280.943695
40
0.9767444
50
359.9975984
51
2.3616381
0
ARC
8
DEFAULT_255_2_778
10
4.6958074
20
280.9411121
40
0.94709
50
319.1119526
51
0.1537831
0
ARC
8
DEFAULT_255_2_778
10
4.6955959
20
280.9404845
40
0.9468392
50
272.2629974
51
319.1490367
0
ARC
8
DEFAULT_255_2_778
10
4.6927349
20
280.9702986
40
0.9767444
50
269.9975984
51
272.3616381
0
ARC
8
DEFAULT_255_2_778
10
4.6901562
20
280.9406812
40
0.9471305
50
229.1137343
51
270.1535204
0
ARC
8
DEFAULT_255_2_778
10
4.6894105
20
280.9407926
40
0.9467268
50
182.2652623
51
229.1522587
0
ARC
8
DEFAULT_255_2_778
10
4.7189864
20
280.9436133
40
0.9763924
50
179.9976072
51
182.3620595
0
LINE
8
DEFAULT_255_2_778
10
9.9925939
20
280.9137541
11
9.9925939
21
280.9137541
0
LINE
8
DEFAULT_255_2_778
10
3.7425939
20
280.9436541
11
3.7425939
21
280.9436541
0
LINE
8
DEFAULT_255_2_778
10
7.2927939
20
283.4937541
11
2.1926939
21
283.4937541
0
LINE
8
DEFAULT_255_2_778
10
2.1926939
20
283.4937541
11
2.1926939
21
278.3936541
0
LINE
8
DEFAULT_255_2_778
10
2.1926939
20
278.3936541
11
7.2927939
21
278.3936541
0
LINE
8
DEFAULT_255_2_778
10
7.2927939
20
278.3936541
11
7.2927939
21
283.4937541
0
LINE
8
DEFAULT_255_1_542
10
14.9629832
20
261.6445586
11
14.9629832
21
260.1828
0
LINE
8
DEFAULT_255_1_542
10
14.9629832
20
260.1828
11
14.7702238
21
260.1828
0
LINE
8
DEFAULT_255_1_542
10
14.7702238
20
260.1828
11
14.7702238
21
261.6445586
0
LINE
8
DEFAULT_255_1_542
10
14.7702238
20
261.6445586
11
14.9629832
21
261.6445586
0
LINE
8
DEFAULT_255_1_542
10
16.4387971
20
261.6445586
11
16.4387971
21
260.1828
0
LINE
8
DEFAULT_255_1_542
10
16.4387971
20
260.1828
11
16.2450338
21
260.1828
0
LINE
8
DEFAULT_255_1_542
10
16.2450338
20
260.1828
11
15.5091347
21
261.3092376
0
LINE
8
DEFAULT_255_1_542
10
15.5091347
20
261.3092376
11
15.5091347
21
260.1828
0
LINE
8
DEFAULT_255_1_542
10
15.5091347
20
260.1828
11
15.3153714
21
260.1828
0
LINE
8
DEFAULT_255_1_542
10
15.3153714
20
260.1828
11
15.3153714
21
261.6445586
0
LINE
8
DEFAULT_255_1_542
10
15.3153714
20
261.6445586
11
15.5091347
21
261.6445586
0
LINE
8
DEFAULT_255_1_542
10
15.5091347
20
261.6445586
11
16.2470417
21
260.5131012
0
LINE
8
DEFAULT_255_1_542
10
16.2470417
20
260.5131012
11
16.2470417
21
261.6445586
0
LINE
8
DEFAULT_255_1_542
10
16.2470417
20
261.6445586
11
16.4387971
21
261.6445586
0
LINE
8
DEFAULT_255_1_542
10
17.7620099
20
261.6445586
11
17.7620099
21
261.4859337
0
LINE
8
DEFAULT_255_1_542
10
17.7620099
20
261.4859337
11
17.2921589
21
261.4859337
0
LINE
8
DEFAULT_255_1_542
10
17.2921589
20
261.4859337
11
17.2921589
21
260.1828
0
LINE
8
DEFAULT_255_1_542
10
17.2921589
20
260.1828
11
17.1004035
21
260.1828
0
LINE
8
DEFAULT_255_1_542
10
17.1004035
20
260.1828
11
17.1004035
21
261.4859337
0
LINE
8
DEFAULT_255_1_542
10
17.1004035
20
261.4859337
11
16.6315565
21
261.4859337
0
LINE
8
DEFAULT_255_1_542
10
16.6315565
20
261.4859337
11
16.6315565
21
261.6445586
0
LINE
8
DEFAULT_255_1_542
10
16.6315565
20
261.6445586
11
17.7620099
21
261.6445586
0
LINE
8
DEFAULT_255_1_542
10
18.7850401
20
260.9859641
11
18.7850401
21
260.8283431
0
LINE
8
DEFAULT_255_1_542
10
18.7850401
20
260.8283431
11
18.1716236
21
260.8283431
0
LINE
8
DEFAULT_255_1_542
10
18.1716236
20
260.8283431
11
18.1716236
21
260.1828
0
LINE
8
DEFAULT_255_1_542
10
18.1716236
20
260.1828
11
17.9788642
21
260.1828
0
LINE
8
DEFAULT_255_1_542
10
17.9788642
20
260.1828
11
17.9788642
21
261.6445586
0
LINE
8
DEFAULT_255_1_542
10
17.9788642
20
261.6445586
11
18.8844317
21
261.6445586
0
LINE
8
DEFAULT_255_1_542
10
18.8844317
20
261.6445586
11
18.8844317
21
261.4859337
0
LINE
8
DEFAULT_255_1_542
10
18.8844317
20
261.4859337
11
18.1716236
21
261.4859337
0
LINE
8
DEFAULT_255_1_542
10
18.1716236
20
261.4859337
11
18.1716236
21
260.9859641
0
LINE
8
DEFAULT_255_1_542
10
18.1716236
20
260.9859641
11
18.7850401
21
260.9859641
0
LINE
8
DEFAULT_255_1_542
10
16.0201472
20
241.5533586
11
16.0201472
21
241.3947337
0
LINE
8
DEFAULT_255_1_542
10
16.0201472
20
241.3947337
11
15.5502962
21
241.3947337
0
LINE
8
DEFAULT_255_1_542
10
15.5502962
20
241.3947337
11
15.5502962
21
240.0916
0
LINE
8
DEFAULT_255_1_542
10
15.5502962
20
240.0916
11
15.3585408
21
240.0916
0
LINE
8
DEFAULT_255_1_542
10
15.3585408
20
240.0916
11
15.3585408
21
241.3947337
0
LINE
8
DEFAULT_255_1_542
10
15.3585408
20
241.3947337
11
14.8896938
21
241.3947337
0
LINE
8
DEFAULT_255_1_542
10
14.8896938
20
241.3947337
11
14.8896938
21
241.5533586
0
LINE
8
DEFAULT_255_1_542
10
14.8896938
20
241.5533586
11
16.0201472
21
241.5533586
0
LINE
8
DEFAULT_255_1_542
10
16.3614919
20
241.5533586
11
16.7138802
21
240.9931517
0
LINE
8
DEFAULT_255_1_542
10
16.7138802
20
240.9931517
11
17.0642605
21
241.5533586
0
LINE
8
DEFAULT_255_1_542
10
17.0642605
20
241.5533586
11
17.2911543
21
241.5533586
0
LINE
8
DEFAULT_255_1_542
10
17.2911543
20
241.5533586
11
16.829335
21
240.828503
0
LINE
8
DEFAULT_255_1_542
10
16.829335
20
240.828503
11
17.3021979
21
240.0916
0
LINE
8
DEFAULT_255_1_542
10
17.3021979
20
240.0916
11
17.0732961
21
240.0916
0
LINE
8
DEFAULT_255_1_542
10
17.0732961
20
240.0916
11
16.7138802
21
240.6618465
0
LINE
8
DEFAULT_255_1_542
10
16.7138802
20
240.6618465
11
16.3524563
21
240.0916
0
LINE
8
DEFAULT_255_1_542
10
16.3524563
20
240.0916
11
16.1245585
21
240.0916
0
LINE
8
DEFAULT_255_1_542
10
16.1245585
20
240.0916
11
16.5984253
21
240.828503
0
LINE
8
DEFAULT_255_1_542
10
16.5984253
20
240.828503
11
16.1356021
21
241.5533586
0
LINE
8
DEFAULT_255_1_542
10
16.1356021
20
241.5533586
11
16.3614919
21
241.5533586
0
LINE
8
DEFAULT_255_1_542
10
17.9306737
20
240.0916
11
17.5260798
21
240.0916
0
LINE
8
DEFAULT_255_1_542
10
17.5260798
20
240.0916
11
17.5260798
21
241.5533586
0
LINE
8
DEFAULT_255_1_542
10
17.5260798
20
241.5533586
11
17.9387054
21
241.5533586
0
LINE
8
DEFAULT_255_1_542
10
18.5832445
20
240.8716731
11
18.5832445
21
240.7783053
0
LINE
8
DEFAULT_255_1_542
10
17.9437251
20
241.3947337
11
17.7188392
21
241.3947337
0
LINE
8
DEFAULT_255_1_542
10
17.7188392
20
241.3947337
11
17.7188392
21
240.2492209
0
LINE
8
DEFAULT_255_1_542
10
17.7188392
20
240.2492209
11
17.9216381
21
240.2492209
0
LINE
8
DEFAULT_255_1_542
10
18.3924931
20
240.7823211
11
18.3924931
21
240.8676573
0
ARC
8
DEFAULT_255_1_542
10
17.9435714
20
240.8201965
40
0.7331782
50
75.4101014
51
90.3802694
0
ARC
8
DEFAULT_255_1_542
10
17.9722662
20
240.9397842
40
0.6102233
50
60.1455537
51
75.1890284
0
ARC
8
DEFAULT_255_1_542
10
17.9921082
20
240.9743633
40
0.5703556
50
26.5254113
51
60.1450941
0
ARC
8
DEFAULT_255_1_542
10
17.8520818
20
240.9001107
40
0.7288136
50
7.4030186
51
26.832131
0
ARC
8
DEFAULT_255_1_542
10
17.6527899
20
240.8690652
40
0.9304584
50
0.160588
51
7.7175801
0
ARC
8
DEFAULT_255_1_542
10
17.6732851
20
240.7735207
40
0.909972
50
348.729
51
0.3012613
0
ARC
8
DEFAULT_255_1_542
10
17.880334
20
240.7323926
40
0.6988779
50
333.0707277
51
348.7181154
0
ARC
8
DEFAULT_255_1_542
10
18.0011842
20
240.6667575
40
0.5614194
50
299.2531153
51
333.4571273
0
ARC
8
DEFAULT_255_1_542
10
17.9560747
20
240.7524484
40
0.6582306
50
278.1072906
51
299.0339478
0
ARC
8
DEFAULT_255_1_542
10
17.9240841
20
240.9408975
40
0.849323
50
270.4445459
51
278.4509706
0
ARC
8
DEFAULT_255_1_542
10
17.9266895
20
240.8247505
40
0.5755517
50
269.4971374
51
284.0204007
0
ARC
8
DEFAULT_255_1_542
10
17.9711033
20
240.654089
40
0.3992182
50
283.7699562
51
318.1556187
0
ARC
8
DEFAULT_255_1_542
10
17.9289459
20
240.6856394
40
0.4516949
50
318.7416444
51
343.6873402
0
ARC
8
DEFAULT_255_1_542
10
17.7034519
20
240.7560718
40
0.6879074
50
343.3324731
51
355.8548303
0
ARC
8
DEFAULT_255_1_542
10
17.441091
20
240.7810118
40
0.9514032
50
355.4988934
51
0.0788461
0
ARC
8
DEFAULT_255_1_542
10
17.5389876
20
240.8729379
40
0.8535218
50
359.6455143
51
9.8607261
0
ARC
8
DEFAULT_255_1_542
10
17.8340754
20
240.9262272
40
0.5536709
50
9.6571622
51
26.1931971
0
ARC
8
DEFAULT_255_1_542
10
17.9500736
20
240.9801028
40
0.4258133
50
26.5778125
51
40.1532658
0
ARC
8
DEFAULT_255_1_542
10
17.9820404
20
241.005042
40
0.385302
50
40.3840107
51
80.1431587
0
ARC
8
DEFAULT_255_1_542
10
17.9411807
20
240.823889
40
0.5708505
50
79.2151469
51
89.744611
0
LINE
8
DEFAULT_255_1_542
10
19.9456116
20
241.5603863
11
19.9456116
21
240.0916
0
LINE
8
DEFAULT_255_1_542
10
19.9456116
20
240.0916
11
19.7588759
21
240.0916
0
LINE
8
DEFAULT_255_1_542
10
19.7588759
20
240.0916
11
19.7588759
21
241.3294766
0
LINE
8
DEFAULT_255_1_542
10
19.7588759
20
241.3294766
11
19.3844007
21
241.1919348
0
LINE
8
DEFAULT_255_1_542
10
19.3844007
20
241.1919348
11
19.3844007
21
241.3605992
0
LINE
8
DEFAULT_255_1_542
10
19.3844007
20
241.3605992
11
19.9164969
21
241.5603863
0
LINE
8
DEFAULT_255_1_542
10
19.9164969
20
241.5603863
11
19.9456116
21
241.5603863
0
LINE
8
DEFAULT_255_1_542
10
15.7270302
20
235.0916
11
15.4097804
21
235.6829295
0
LINE
8
DEFAULT_255_1_542
10
15.4097804
20
235.6829295
11
15.0664278
21
235.6829295
0
LINE
8
DEFAULT_255_1_542
10
15.0664278
20
235.6829295
11
15.0664278
21
235.0916
0
LINE
8
DEFAULT_255_1_542
10
15.0664278
20
235.0916
11
14.8726645
21
235.0916
0
LINE
8
DEFAULT_255_1_542
10
14.8726645
20
235.0916
11
14.8726645
21
236.5533586
0
LINE
8
DEFAULT_255_1_542
10
14.8726645
20
236.5533586
11
15.3565708
21
236.5533586
0
LINE
8
DEFAULT_255_1_542
10
15.5904923
20
235.7240917
11
15.933845
21
235.1036475
0
LINE
8
DEFAULT_255_1_542
10
15.933845
20
235.1036475
11
15.933845
21
235.0916
0
LINE
8
DEFAULT_255_1_542
10
15.933845
20
235.0916
11
15.7270302
21
235.0916
0
LINE
8
DEFAULT_255_1_542
10
15.0664278
20
236.3947337
11
15.0664278
21
235.8405505
0
LINE
8
DEFAULT_255_1_542
10
15.0664278
20
235.8405505
11
15.3625945
21
235.8405505
0
LINE
8
DEFAULT_255_1_542
10
15.3615906
20
236.3947337
11
15.0664278
21
236.3947337
0
ARC
8
DEFAULT_255_1_542
10
15.3617759
20
235.6831896
40
0.8701846
50
80.6535829
51
90.3427214
0
ARC
8
DEFAULT_255_1_542
10
15.4142078
20
235.9910035
40
0.5579446
50
65.6987721
51
80.8328699
0
ARC
8
DEFAULT_255_1_542
10
15.4739127
20
236.1278758
40
0.4086338
50
50.0017729
51
65.4305608
0
ARC
8
DEFAULT_255_1_542
10
15.501221
20
236.1647719
40
0.3628271
50
11.6284582
51
49.5603107
0
ARC
8
DEFAULT_255_1_542
10
15.3092847
20
236.1178767
40
0.5603233
50
359.5653669
51
12.3693264
0
ARC
8
DEFAULT_255_1_542
10
15.4438689
20
236.110043
40
0.425738
50
341.9984417
51
0.4822378
0
ARC
8
DEFAULT_255_1_542
10
15.4932282
20
236.0966459
40
0.374663
50
323.8608361
51
341.6141656
0
ARC
8
DEFAULT_255_1_542
10
15.4555073
20
236.1257725
40
0.4223052
50
296.7018446
51
323.6876527
0
ARC
8
DEFAULT_255_1_542
10
15.4004072
20
236.224283
40
0.5350922
50
290.808038
51
297.2328024
0
ARC
8
DEFAULT_255_1_542
10
15.3658104
20
236.2897571
40
0.4492181
50
269.5898305
51
281.8058381
0
ARC
8
DEFAULT_255_1_542
10
15.3971748
20
236.1463016
40
0.3023833
50
281.5499293
51
303.9358499
0
ARC
8
DEFAULT_255_1_542
10
15.414343
20
236.11655
40
0.2681256
50
304.4413313
51
311.2113112
0
ARC
8
DEFAULT_255_1_542
10
15.430835
20
236.0991671
40
0.244185
50
310.9874323
51
356.2714903
0
ARC
8
DEFAULT_255_1_542
10
15.3363209
20
236.1132627
40
0.3395079
50
354.934844
51
0.0613629
0
ARC
8
DEFAULT_255_1_542
10
15.3129177
20
236.1166429
40
0.3629233
50
359.523755
51
12.881317
0
ARC
8
DEFAULT_255_1_542
10
15.435095
20
236.1465533
40
0.2371607
50
12.4173391
51
43.1023137
0
ARC
8
DEFAULT_255_1_542
10
15.442798
20
236.1511785
40
0.2283839
50
43.5755955
51
48.2044279
0
ARC
8
DEFAULT_255_1_542
10
15.4216066
20
236.1235009
40
0.2631552
50
48.7808948
51
72.6969439
0
ARC
8
DEFAULT_255_1_542
10
15.3773159
20
235.989093
40
0.4046603
50
72.3698841
51
84.8796064
0
ARC
8
DEFAULT_255_1_542
10
15.3588667
20
235.8212494
40
0.5734907
50
84.5403509
51
89.7278691
0
LINE
8
DEFAULT_255_1_542
10
16.2641462
20
236.5533586
11
16.6165344
21
235.9931517
0
LINE
8
DEFAULT_255_1_542
10
16.6165344
20
235.9931517
11
16.9669147
21
236.5533586
0
LINE
8
DEFAULT_255_1_542
10
16.9669147
20
236.5533586
11
17.1938086
21
236.5533586
0
LINE
8
DEFAULT_255_1_542
10
17.1938086
20
236.5533586
11
16.7319893
21
235.828503
0
LINE
8
DEFAULT_255_1_542
10
16.7319893
20
235.828503
11
17.2048521
21
235.0916
0
LINE
8
DEFAULT_255_1_542
10
17.2048521
20
235.0916
11
16.9759503
21
235.0916
0
LINE
8
DEFAULT_255_1_542
10
16.9759503
20
235.0916
11
16.6165344
21
235.6618465
0
LINE
8
DEFAULT_255_1_542
10
16.6165344
20
235.6618465
11
16.2551106
21
235.0916
0
LINE
8
DEFAULT_255_1_542
10
16.2551106
20
235.0916
11
16.0272128
21
235.0916
0
LINE
8
DEFAULT_255_1_542
10
16.0272128
20
235.0916
11
16.5010796
21
235.828503
0
LINE
8
DEFAULT_255_1_542
10
16.5010796
20
235.828503
11
16.0382563
21
236.5533586
0
LINE
8
DEFAULT_255_1_542
10
16.0382563
20
236.5533586
11
16.2641462
21
236.5533586
0
LINE
8
DEFAULT_255_1_542
10
17.833328
20
235.0916
11
17.4287341
21
235.0916
0
LINE
8
DEFAULT_255_1_542
10
17.4287341
20
235.0916
11
17.4287341
21
236.5533586
0
LINE
8
DEFAULT_255_1_542
10
17.4287341
20
236.5533586
11
17.8413596
21
236.5533586
0
LINE
8
DEFAULT_255_1_542
10
18.4858988
20
235.8716731
11
18.4858988
21
235.7783053
0
LINE
8
DEFAULT_255_1_542
10
17.8463794
20
236.3947337
11
17.6214935
21
236.3947337
0
LINE
8
DEFAULT_255_1_542
10
17.6214935
20
236.3947337
11
17.6214935
21
235.2492209
0
LINE
8
DEFAULT_255_1_542
10
17.6214935
20
235.2492209
11
17.8242924
21
235.2492209
0
LINE
8
DEFAULT_255_1_542
10
18.2951473
20
235.7823211
11
18.2951473
21
235.8676573
0
ARC
8
DEFAULT_255_1_542
10
17.8462257
20
235.8201965
40
0.7331782
50
75.4101014
51
90.3802694
0
ARC
8
DEFAULT_255_1_542
10
17.8749204
20
235.9397842
40
0.6102233
50
60.1455537
51
75.1890284
0
ARC
8
DEFAULT_255_1_542
10
17.8947625
20
235.9743633
40
0.5703556
50
26.5254113
51
60.1450941
0
ARC
8
DEFAULT_255_1_542
10
17.7547361
20
235.9001107
40
0.7288136
50
7.4030186
51
26.832131
0
ARC
8
DEFAULT_255_1_542
10
17.5554442
20
235.8690652
40
0.9304584
50
0.160588
51
7.7175801
0
ARC
8
DEFAULT_255_1_542
10
17.5759394
20
235.7735207
40
0.909972
50
348.729
51
0.3012613
0
ARC
8
DEFAULT_255_1_542
10
17.7829882
20
235.7323926
40
0.6988779
50
333.0707277
51
348.7181154
0
ARC
8
DEFAULT_255_1_542
10
17.9038385
20
235.6667575
40
0.5614194
50
299.2531153
51
333.4571273
0
ARC
8
DEFAULT_255_1_542
10
17.858729
20
235.7524484
40
0.6582306
50
278.1072906
51
299.0339478
0
ARC
8
DEFAULT_255_1_542
10
17.8267383
20
235.9408975
40
0.849323
50
270.4445459
51
278.4509706
0
ARC
8
DEFAULT_255_1_542
10
17.8293437
20
235.8247505
40
0.5755517
50
269.4971374
51
284.0204007
0
ARC
8
DEFAULT_255_1_542
10
17.8737575
20
235.654089
40
0.3992182
50
283.7699562
51
318.1556187
0
ARC
8
DEFAULT_255_1_542
10
17.8316001
20
235.6856394
40
0.4516949
50
318.7416444
51
343.6873402
0
ARC
8
DEFAULT_255_1_542
10
17.6061061
20
235.7560718
40
0.6879074
50
343.3324731
51
355.8548303
0
ARC
8
DEFAULT_255_1_542
10
17.3437452
20
235.7810118
40
0.9514032
50
355.4988934
51
0.0788461
0
ARC
8
DEFAULT_255_1_542
10
17.4416418
20
235.8729379
40
0.8535218
50
359.6455143
51
9.8607261
0
ARC
8
DEFAULT_255_1_542
10
17.7367297
20
235.9262272
40
0.5536709
50
9.6571622
51
26.1931971
0
ARC
8
DEFAULT_255_1_542
10
17.8527279
20
235.9801028
40
0.4258133
50
26.5778125
51
40.1532658
0
ARC
8
DEFAULT_255_1_542
10
17.8846947
20
236.005042
40
0.385302
50
40.3840107
51
80.1431587
0
ARC
8
DEFAULT_255_1_542
10
17.8438349
20
235.823889
40
0.5708505
50
79.2151469
51
89.744611
0
LINE
8
DEFAULT_255_1_542
10
19.8482658
20
236.5603863
11
19.8482658
21
235.0916
0
LINE
8
DEFAULT_255_1_542
10
19.8482658
20
235.0916
11
19.6615302
21
235.0916
0
LINE
8
DEFAULT_255_1_542
10
19.6615302
20
235.0916
11
19.6615302
21
236.3294766
0
LINE
8
DEFAULT_255_1_542
10
19.6615302
20
236.3294766
11
19.2870549
21
236.1919348
0
LINE
8
DEFAULT_255_1_542
10
19.2870549
20
236.1919348
11
19.2870549
21
236.3605992
0
LINE
8
DEFAULT_255_1_542
10
19.2870549
20
236.3605992
11
19.8191511
21
236.5603863
0
LINE
8
DEFAULT_255_1_542
10
19.8191511
20
236.5603863
11
19.8482658
21
236.5603863
0
LINE
8
DEFAULT_255_1_542
10
15.6127443
20
245.7528641
11
15.6127443
21
245.5952431
0
LINE
8
DEFAULT_255_1_542
10
15.6127443
20
245.5952431
11
14.9993278
21
245.5952431
0
LINE
8
DEFAULT_255_1_542
10
14.9993278
20
245.5952431
11
14.9993278
21
244.9497
0
LINE
8
DEFAULT_255_1_542
10
14.9993278
20
244.9497
11
14.8065684
21
244.9497
0
LINE
8
DEFAULT_255_1_542
10
14.8065684
20
244.9497
11
14.8065684
21
246.4114586
0
LINE
8
DEFAULT_255_1_542
10
14.8065684
20
246.4114586
11
15.7121359
21
246.4114586
0
LINE
8
DEFAULT_255_1_542
10
15.7121359
20
246.4114586
11
15.7121359
21
246.2528337
0
LINE
8
DEFAULT_255_1_542
10
15.7121359
20
246.2528337
11
14.9993278
21
246.2528337
0
LINE
8
DEFAULT_255_1_542
10
14.9993278
20
246.2528337
11
14.9993278
21
245.7528641
0
LINE
8
DEFAULT_255_1_542
10
14.9993278
20
245.7528641
11
15.6127443
21
245.7528641
0
LINE
8
DEFAULT_255_1_542
10
16.7191028
20
244.9497
11
16.5795531
21
245.3312029
0
LINE
8
DEFAULT_255_1_542
10
16.5795531
20
245.3312029
11
15.9671405
21
245.3312029
0
LINE
8
DEFAULT_255_1_542
10
15.9671405
20
245.3312029
11
15.8295986
21
244.9497
0
LINE
8
DEFAULT_255_1_542
10
15.8295986
20
244.9497
11
15.6308155
21
244.9497
0
LINE
8
DEFAULT_255_1_542
10
15.6308155
20
244.9497
11
16.1890146
21
246.4114586
0
LINE
8
DEFAULT_255_1_542
10
16.1890146
20
246.4114586
11
16.357679
21
246.4114586
0
LINE
8
DEFAULT_255_1_542
10
16.357679
20
246.4114586
11
16.916882
21
244.9497
0
LINE
8
DEFAULT_255_1_542
10
16.916882
20
244.9497
11
16.7191028
21
244.9497
0
LINE
8
DEFAULT_255_1_542
10
16.2733468
20
246.1735212
11
16.0253699
21
245.4898278
0
LINE
8
DEFAULT_255_1_542
10
16.0253699
20
245.4898278
11
16.5223276
21
245.4898278
0
LINE
8
DEFAULT_255_1_542
10
16.5223276
20
245.4898278
11
16.2733468
21
246.1735212
0
LINE
8
DEFAULT_255_1_542
10
17.9318806
20
246.4114586
11
18.1256439
21
246.4114586
0
LINE
8
DEFAULT_255_1_542
10
18.1256439
20
246.4114586
11
18.1256439
21
245.4175431
0
LINE
8
DEFAULT_255_1_542
10
17.6457534
20
244.9316288
11
17.5945517
21
244.9296209
0
LINE
8
DEFAULT_255_1_542
10
17.0674752
20
245.4155352
11
17.0674752
21
246.4114586
0
LINE
8
DEFAULT_255_1_542
10
17.0674752
20
246.4114586
11
17.2582267
21
246.4114586
0
LINE
8
DEFAULT_255_1_542
10
17.2582267
20
246.4114586
11
17.2582267
21
245.4215589
0
LINE
8
DEFAULT_255_1_542
10
17.9318806
20
245.4205549
11
17.9318806
21
246.4114586
0
ARC
8
DEFAULT_255_1_542
10
17.5815054
20
245.4150617
40
0.5441441
50
343.0899255
51
0.2612754
0
ARC
8
DEFAULT_255_1_542
10
17.6850633
20
245.3861733
40
0.4366681
50
315.3345027
51
342.7641832
0
ARC
8
DEFAULT_255_1_542
10
17.6571205
20
245.4151507
40
0.4769128
50
284.6605425
51
315.2183817
0
ARC
8
DEFAULT_255_1_542
10
17.6002097
20
245.6084011
40
0.678303
50
273.8499373
51
285.1798536
0
ARC
8
DEFAULT_255_1_542
10
17.5892154
20
245.6511186
40
0.7215174
50
257.6315517
51
270.4237599
0
ARC
8
DEFAULT_255_1_542
10
17.5361132
20
245.4234659
40
0.4877842
50
230.608674
51
257.9965094
0
ARC
8
DEFAULT_255_1_542
10
17.5196749
20
245.3977342
40
0.4574803
50
227.7439926
51
230.154576
0
ARC
8
DEFAULT_255_1_542
10
17.5028456
20
245.3775041
40
0.4311919
50
189.2524884
51
227.5915243
0
ARC
8
DEFAULT_255_1_542
10
17.6930525
20
245.4184458
40
0.625584
50
180.2665786
51
190.1525146
0
ARC
8
DEFAULT_255_1_542
10
17.720794
20
245.4180589
40
0.4625806
50
179.5664817
51
191.995558
0
ARC
8
DEFAULT_255_1_542
10
17.5673184
20
245.3838245
40
0.3053454
50
191.6973767
51
215.1405159
0
ARC
8
DEFAULT_255_1_542
10
17.5375779
20
245.3660984
40
0.2708353
50
215.695371
51
224.8509122
0
ARC
8
DEFAULT_255_1_542
10
17.5445289
20
245.3760323
40
0.2827772
50
225.2845838
51
255.0109854
0
ARC
8
DEFAULT_255_1_542
10
17.5850231
20
245.5152578
40
0.42775
50
254.5946775
51
267.9129126
0
ARC
8
DEFAULT_255_1_542
10
17.5943267
20
245.6506929
40
0.563451
50
267.4690321
51
270.0228748
0
ARC
8
DEFAULT_255_1_542
10
17.5981001
20
245.5771732
40
0.4899442
50
269.5850246
51
281.1844156
0
ARC
8
DEFAULT_255_1_542
10
17.632945
20
245.4080792
40
0.3173057
50
280.93444
51
300.9742223
0
ARC
8
DEFAULT_255_1_542
10
17.6595126
20
245.3591646
40
0.2617042
50
301.4985778
51
315.1466366
0
ARC
8
DEFAULT_255_1_542
10
17.6414646
20
245.373973
40
0.2849517
50
315.5952841
51
345.6680778
0
ARC
8
DEFAULT_255_1_542
10
17.5015243
20
245.412946
40
0.4301956
50
345.2526167
51
358.6303877
0
ARC
8
DEFAULT_255_1_542
10
17.3745372
20
245.4204352
40
0.5573433
50
358.1727263
51
0.01231
0
LINE
8
DEFAULT_255_1_542
10
18.6236056
20
246.4114586
11
18.6236056
21
245.1073209
0
LINE
8
DEFAULT_255_1_542
10
18.6236056
20
245.1073209
11
19.3163346
21
245.1073209
0
LINE
8
DEFAULT_255_1_542
10
19.3163346
20
245.1073209
11
19.3163346
21
244.9497
0
LINE
8
DEFAULT_255_1_542
10
19.3163346
20
244.9497
11
18.4298423
21
244.9497
0
LINE
8
DEFAULT_255_1_542
10
18.4298423
20
244.9497
11
18.4298423
21
246.4114586
0
LINE
8
DEFAULT_255_1_542
10
18.4298423
20
246.4114586
11
18.6236056
21
246.4114586
0
LINE
8
DEFAULT_255_1_542
10
20.2700919
20
246.4114586
11
20.2700919
21
246.2528337
0
LINE
8
DEFAULT_255_1_542
10
20.2700919
20
246.2528337
11
19.800241
21
246.2528337
0
LINE
8
DEFAULT_255_1_542
10
19.800241
20
246.2528337
11
19.800241
21
244.9497
0
LINE
8
DEFAULT_255_1_542
10
19.800241
20
244.9497
11
19.6084855
21
244.9497
0
LINE
8
DEFAULT_255_1_542
10
19.6084855
20
244.9497
11
19.6084855
21
246.2528337
0
LINE
8
DEFAULT_255_1_542
10
19.6084855
20
246.2528337
11
19.1396385
21
246.2528337
0
LINE
8
DEFAULT_255_1_542
10
19.1396385
20
246.2528337
11
19.1396385
21
246.4114586
0
LINE
8
DEFAULT_255_1_542
10
19.1396385
20
246.4114586
11
20.2700919
21
246.4114586
0
LINE
8
DEFAULT_255_1_542
10
21.5180081
20
246.4184863
11
21.5180081
21
244.9497
0
LINE
8
DEFAULT_255_1_542
10
21.5180081
20
244.9497
11
21.3312725
21
244.9497
0
LINE
8
DEFAULT_255_1_542
10
21.3312725
20
244.9497
11
21.3312725
21
246.1875766
0
LINE
8
DEFAULT_255_1_542
10
21.3312725
20
246.1875766
11
20.9567972
21
246.0500348
0
LINE
8
DEFAULT_255_1_542
10
20.9567972
20
246.0500348
11
20.9567972
21
246.2186992
0
LINE
8
DEFAULT_255_1_542
10
20.9567972
20
246.2186992
11
21.4888934
21
246.4184863
0
LINE
8
DEFAULT_255_1_542
10
21.4888934
20
246.4184863
11
21.5180081
21
246.4184863
0
LINE
8
DEFAULT_255_1_542
10
15.5978234
20
255.8479827
11
15.5978234
21
255.6903618
0
LINE
8
DEFAULT_255_1_542
10
15.5978234
20
255.6903618
11
14.9643278
21
255.6903618
0
LINE
8
DEFAULT_255_1_542
10
14.9643278
20
255.6903618
11
14.9643278
21
255.1723209
0
LINE
8
DEFAULT_255_1_542
10
14.9643278
20
255.1723209
11
15.7002269
21
255.1723209
0
LINE
8
DEFAULT_255_1_542
10
15.7002269
20
255.1723209
11
15.7002269
21
255.0147
0
LINE
8
DEFAULT_255_1_542
10
15.7002269
20
255.0147
11
14.7715684
21
255.0147
0
LINE
8
DEFAULT_255_1_542
10
14.7715684
20
255.0147
11
14.7715684
21
256.4764586
0
LINE
8
DEFAULT_255_1_542
10
14.7715684
20
256.4764586
11
15.6901873
21
256.4764586
0
LINE
8
DEFAULT_255_1_542
10
15.6901873
20
256.4764586
11
15.6901873
21
256.3178337
0
LINE
8
DEFAULT_255_1_542
10
15.6901873
20
256.3178337
11
14.9643278
21
256.3178337
0
LINE
8
DEFAULT_255_1_542
10
14.9643278
20
256.3178337
11
14.9643278
21
255.8479827
0
LINE
8
DEFAULT_255_1_542
10
14.9643278
20
255.8479827
11
15.5978234
21
255.8479827
0
LINE
8
DEFAULT_255_1_542
10
16.0646625
20
256.4764586
11
16.4170508
21
255.9162517
0
LINE
8
DEFAULT_255_1_542
10
16.4170508
20
255.9162517
11
16.7674311
21
256.4764586
0
LINE
8
DEFAULT_255_1_542
10
16.7674311
20
256.4764586
11
16.994325
21
256.4764586
0
LINE
8
DEFAULT_255_1_542
10
16.994325
20
256.4764586
11
16.5325056
21
255.751603
0
LINE
8
DEFAULT_255_1_542
10
16.5325056
20
255.751603
11
17.0053685
21
255.0147
0
LINE
8
DEFAULT_255_1_542
10
17.0053685
20
255.0147
11
16.7764667
21
255.0147
0
LINE
8
DEFAULT_255_1_542
10
16.7764667
20
255.0147
11
16.4170508
21
255.5849465
0
LINE
8
DEFAULT_255_1_542
10
16.4170508
20
255.5849465
11
16.055627
21
255.0147
0
LINE
8
DEFAULT_255_1_542
10
16.055627
20
255.0147
11
15.8277292
21
255.0147
0
LINE
8
DEFAULT_255_1_542
10
15.8277292
20
255.0147
11
16.3015959
21
255.751603
0
LINE
8
DEFAULT_255_1_542
10
16.3015959
20
255.751603
11
15.8387727
21
256.4764586
0
LINE
8
DEFAULT_255_1_542
10
15.8387727
20
256.4764586
11
16.0646625
21
256.4764586
0
LINE
8
DEFAULT_255_1_542
10
18.2392292
20
256.4764586
11
18.2392292
21
256.3178337
0
LINE
8
DEFAULT_255_1_542
10
18.2392292
20
256.3178337
11
17.7693783
21
256.3178337
0
LINE
8
DEFAULT_255_1_542
10
17.7693783
20
256.3178337
11
17.7693783
21
255.0147
0
LINE
8
DEFAULT_255_1_542
10
17.7693783
20
255.0147
11
17.5776229
21
255.0147
0
LINE
8
DEFAULT_255_1_542
10
17.5776229
20
255.0147
11
17.5776229
21
256.3178337
0
LINE
8
DEFAULT_255_1_542
10
17.5776229
20
256.3178337
11
17.1087758
21
256.3178337
0
LINE
8
DEFAULT_255_1_542
10
17.1087758
20
256.3178337
11
17.1087758
21
256.4764586
0
LINE
8
DEFAULT_255_1_542
10
17.1087758
20
256.4764586
11
18.2392292
21
256.4764586
0
LINE
8
DEFAULT_255_1_542
10
19.2622595
20
255.8178641
11
19.2622595
21
255.6602431
0
LINE
8
DEFAULT_255_1_542
10
19.2622595
20
255.6602431
11
18.6488429
21
255.6602431
0
LINE
8
DEFAULT_255_1_542
10
18.6488429
20
255.6602431
11
18.6488429
21
255.0147
0
LINE
8
DEFAULT_255_1_542
10
18.6488429
20
255.0147
11
18.4560835
21
255.0147
0
LINE
8
DEFAULT_255_1_542
10
18.4560835
20
255.0147
11
18.4560835
21
256.4764586
0
LINE
8
DEFAULT_255_1_542
10
18.4560835
20
256.4764586
11
19.361651
21
256.4764586
0
LINE
8
DEFAULT_255_1_542
10
19.361651
20
256.4764586
11
19.361651
21
256.3178337
0
LINE
8
DEFAULT_255_1_542
10
19.361651
20
256.3178337
11
18.6488429
21
256.3178337
0
LINE
8
DEFAULT_255_1_542
10
18.6488429
20
256.3178337
11
18.6488429
21
255.8178641
0
LINE
8
DEFAULT_255_1_542
10
18.6488429
20
255.8178641
11
19.2622595
21
255.8178641
0
ENDSEC
0
EOF