0
SECTION
2
HEADER
9
$MEASUREMENT
70
1
0
ENDSEC
0
SECTION
2
TABLES
0
TABLE
2
LTYPE
0
LTYPE
72
65
70
64
2
CONTINUOUS
3
______
73
0
40
0
0
ENDTAB
0
TABLE
2
LAYER
0
LAYER
2
DEFAULT_255_2_778
70
0
62
255
6
CONTINUOUS
0
LAYER
2
DEFAULT_255_1_234
70
0
62
255
6
CONTINUOUS
0
ENDTAB
0
ENDSEC
0
SECTION
2
ENTITIES
0
ARC
8
DEFAULT_255_2_778
10
3.5695693
20
36.1176536
40
0.7914215
50
129.1312896
51
180.1450914
0
ARC
8
DEFAULT_255_2_778
10
3.5698345
20
36.1181407
40
0.7912112
50
89.854026
51
129.1684493
0
ARC
8
DEFAULT_255_2_778
10
25.7988937
20
36.1178272
40
0.7915249
50
39.4792447
51
90.147911
0
ARC
8
DEFAULT_255_2_778
10
25.7994935
20
36.1176739
40
0.7911595
50
359.8533901
51
39.5154338
0
ARC
8
DEFAULT_255_2_778
10
25.7991693
20
-1.9863987
40
0.7914836
50
309.4761667
51
0.1482649
0
ARC
8
DEFAULT_255_2_778
10
25.798898
20
-1.9868298
40
0.7913235
50
269.8517415
51
309.511178
0
ARC
8
DEFAULT_255_2_778
10
3.569842
20
-1.9867716
40
0.7913815
50
219.1282118
51
270.1454017
0
ARC
8
DEFAULT_255_2_778
10
3.5695247
20
-1.9863891
40
0.7913769
50
179.8524075
51
219.1641908
0
LINE
8
DEFAULT_255_2_778
10
3.5718503
20
36.9093494
11
25.7968503
21
36.9093494
0
LINE
8
DEFAULT_255_2_778
10
26.5906503
20
36.1156494
11
26.5906503
21
-1.9843506
0
LINE
8
DEFAULT_255_2_778
10
25.7968503
20
-2.7781506
11
3.5718503
21
-2.7781506
0
LINE
8
DEFAULT_255_2_778
10
2.7781503
20
-1.9843506
11
2.7781503
21
36.1156494
0
LINE
8
DEFAULT_255_1_234
10
6.7901835
20
0.5189243
11
6.8166882
21
0.5189243
0
LINE
8
DEFAULT_255_1_234
10
6.8166882
20
0.5189243
11
6.8166882
21
0.392826
0
LINE
8
DEFAULT_255_1_234
10
6.8166882
20
0.392826
11
6.7893803
21
0.392826
0
LINE
8
DEFAULT_255_1_234
10
6.2424189
20
-0.2063417
11
6.2424189
21
-0.1493164
0
LINE
8
DEFAULT_255_1_234
10
6.3918093
20
-0.1685925
11
6.3918093
21
-0.2232083
0
ARC
8
DEFAULT_255_1_234
10
6.7946151
20
-0.1069545
40
0.4998079
50
90.6001036
51
104.514704
0
ARC
8
DEFAULT_255_1_234
10
6.7557667
20
0.0375131
40
0.3502176
50
104.2855254
51
133.862935
0
ARC
8
DEFAULT_255_1_234
10
6.7721424
20
0.026683
40
0.3693984
50
134.5302688
51
161.6210873
0
ARC
8
DEFAULT_255_1_234
10
6.9374613
20
-0.0316105
40
0.5446739
50
161.2849839
51
174.2076652
0
ARC
8
DEFAULT_255_1_234
10
7.078155
20
-0.0510213
40
0.6866274
50
173.7810589
51
174.9254635
0
ARC
8
DEFAULT_255_1_234
10
6.6231382
20
-0.1893161
40
0.3033419
50
95.8330959
51
138.9954921
0
ARC
8
DEFAULT_255_1_234
10
6.6454738
20
-0.3171625
40
0.4328947
50
89.8753725
51
97.0544009
0
ARC
8
DEFAULT_255_1_234
10
6.6502204
20
-0.2336252
40
0.3493769
50
71.6407809
51
90.6240094
0
ARC
8
DEFAULT_255_1_234
10
6.6652777
20
-0.1781918
40
0.2920396
50
39.6367836
51
71.019018
0
ARC
8
DEFAULT_255_1_234
10
6.601625
20
-0.2332002
40
0.3761538
50
10.658731
51
39.9043955
0
ARC
8
DEFAULT_255_1_234
10
6.4468333
20
-0.2668314
40
0.5345136
50
359.682601
51
11.132623
0
ARC
8
DEFAULT_255_1_234
10
6.4428464
20
-0.273899
40
0.5385081
50
347.2486944
51
0.4369317
0
ARC
8
DEFAULT_255_1_234
10
6.6095941
20
-0.3140193
40
0.3670249
50
318.1409698
51
347.6118597
0
ARC
8
DEFAULT_255_1_234
10
6.6420934
20
-0.3407298
40
0.3250007
50
275.6342139
51
317.8248465
0
ARC
8
DEFAULT_255_1_234
10
6.6200045
20
-0.2107781
40
0.4565864
50
269.8874292
51
276.7917694
0
ARC
8
DEFAULT_255_1_234
10
6.6145116
20
-0.3133257
40
0.3540676
50
246.9140195
51
270.7437342
0
ARC
8
DEFAULT_255_1_234
10
6.6151506
20
-0.3275616
40
0.3412781
50
218.1665114
51
245.878116
0
ARC
8
DEFAULT_255_1_234
10
6.7030967
20
-0.2539721
40
0.455911
50
191.4115814
51
218.6077802
0
ARC
8
DEFAULT_255_1_234
10
6.8969056
20
-0.2105167
40
0.6545001
50
179.6345085
51
191.7836486
0
ARC
8
DEFAULT_255_1_234
10
7.4551393
20
-0.1426303
40
1.2127388
50
171.4525249
51
180.3158839
0
ARC
8
DEFAULT_255_1_234
10
7.0156269
20
-0.0742392
40
0.7679464
50
157.9802646
51
171.6246686
0
ARC
8
DEFAULT_255_1_234
10
6.794229
20
0.0140421
40
0.5296008
50
141.4298019
51
157.854097
0
ARC
8
DEFAULT_255_1_234
10
6.730061
20
0.0594381
40
0.4511509
50
102.8715806
51
140.8564722
0
ARC
8
DEFAULT_255_1_234
10
6.7948226
20
-0.1845448
40
0.7034845
50
90.3778349
51
103.5869322
0
ARC
8
DEFAULT_255_1_234
10
6.6210002
20
-0.245027
40
0.2370698
50
89.8751008
51
126.2071704
0
ARC
8
DEFAULT_255_1_234
10
6.6255792
20
-0.2604697
40
0.2522934
50
124.9745049
51
144.895901
0
ARC
8
DEFAULT_255_1_234
10
6.6079982
20
-0.246144
40
0.2296779
50
145.2974905
51
160.2660252
0
ARC
8
DEFAULT_255_1_234
10
6.9152521
20
-0.2263929
40
0.5234525
50
179.6514266
51
190.2855912
0
ARC
8
DEFAULT_255_1_234
10
6.7458658
20
-0.2583214
40
0.3510893
50
190.0945431
51
207.5098196
0
ARC
8
DEFAULT_255_1_234
10
6.6892928
20
-0.2852377
40
0.288489
50
207.9583163
51
216.3251085
0
ARC
8
DEFAULT_255_1_234
10
6.6553036
20
-0.3131895
40
0.2445587
50
215.7661442
51
232.5456785
0
ARC
8
DEFAULT_255_1_234
10
6.6170019
20
-0.3618518
40
0.1826382
50
232.8005391
51
270.6605633
0
ARC
8
DEFAULT_255_1_234
10
6.621572
20
-0.3254388
40
0.2190529
50
269.35537
51
288.4744281
0
ARC
8
DEFAULT_255_1_234
10
6.6308617
20
-0.3603882
40
0.1829749
50
289.1833337
51
322.9683818
0
ARC
8
DEFAULT_255_1_234
10
6.5697139
20
-0.3121609
40
0.2608399
50
322.6007884
51
346.5182367
0
ARC
8
DEFAULT_255_1_234
10
6.4539735
20
-0.2826384
40
0.3802777
50
346.2582162
51
358.7741648
0
ARC
8
DEFAULT_255_1_234
10
6.3521404
20
-0.2771035
40
0.4822176
50
358.3755224
51
0.0098023
0
ARC
8
DEFAULT_255_1_234
10
6.4277591
20
-0.2743343
40
0.4066078
50
359.6214041
51
11.2839074
0
ARC
8
DEFAULT_255_1_234
10
6.5554738
20
-0.2476934
40
0.2761514
50
11.0482309
51
31.8146458
0
ARC
8
DEFAULT_255_1_234
10
6.5863781
20
-0.2309416
40
0.2410679
50
32.3035391
51
38.082671
0
ARC
8
DEFAULT_255_1_234
10
6.6284441
20
-0.1928338
40
0.1844966
50
36.825067
51
85.7415724
0
ARC
8
DEFAULT_255_1_234
10
6.6217274
20
-0.2428699
40
0.2349122
50
85.0140713
51
90.0513278
0
LINE
8
DEFAULT_255_1_234
10
7.8567983
20
0.0153343
11
7.8567983
21
-0.110764
0
LINE
8
DEFAULT_255_1_234
10
7.8567983
20
-0.110764
11
7.3499957
21
-0.110764
0
LINE
8
DEFAULT_255_1_234
10
7.3499957
20
-0.110764
11
7.3499957
21
-0.5252017
0
LINE
8
DEFAULT_255_1_234
10
7.3499957
20
-0.5252017
11
7.9387221
21
-0.5252017
0
LINE
8
DEFAULT_255_1_234
10
7.9387221
20
-0.5252017
11
7.9387221
21
-0.6513
0
LINE
8
DEFAULT_255_1_234
10
7.9387221
20
-0.6513
11
7.1957863
21
-0.6513
0
LINE
8
DEFAULT_255_1_234
10
7.1957863
20
-0.6513
11
7.1957863
21
0.5181211
0
LINE
8
DEFAULT_255_1_234
10
7.1957863
20
0.5181211
11
7.9306903
21
0.5181211
0
LINE
8
DEFAULT_255_1_234
10
7.9306903
20
0.5181211
11
7.9306903
21
0.3912196
0
LINE
8
DEFAULT_255_1_234
10
7.9306903
20
0.3912196
11
7.3499957
21
0.3912196
0
LINE
8
DEFAULT_255_1_234
10
7.3499957
20
0.3912196
11
7.3499957
21
0.0153343
0
LINE
8
DEFAULT_255_1_234
10
7.3499957
20
0.0153343
11
7.8567983
21
0.0153343
0
LINE
8
DEFAULT_255_1_234
10
8.9065465
20
0.1799849
11
8.751534
21
0.1799849
0
LINE
8
DEFAULT_255_1_234
10
8.0591981
20
-0.3123606
11
8.2142107
21
-0.3123606
0
ARC
8
DEFAULT_255_1_234
10
8.8174153
20
1.0746768
40
1.252368
50
248.9199003
51
254.1439814
0
ARC
8
DEFAULT_255_1_234
10
8.6493648
20
0.6420234
40
0.788226
50
241.633709
51
249.0064503
0
ARC
8
DEFAULT_255_1_234
10
8.4965042
20
0.3619317
40
0.4691427
50
230.498225
51
241.8087113
0
ARC
8
DEFAULT_255_1_234
10
8.4180616
20
0.2619906
40
0.3421437
50
227.4064532
51
229.9881192
0
ARC
8
DEFAULT_255_1_234
10
8.3693137
20
0.2144088
40
0.2741476
50
200.6781896
51
228.1763934
0
ARC
8
DEFAULT_255_1_234
10
8.3765447
20
0.2129077
40
0.2804109
50
179.5061581
51
199.8694617
0
ARC
8
DEFAULT_255_1_234
10
8.3756199
20
0.220321
40
0.2795204
50
132.4834203
51
181.0242172
0
ARC
8
DEFAULT_255_1_234
10
8.4351782
20
0.1640704
40
0.3612768
50
129.2532479
51
133.4242687
0
ARC
8
DEFAULT_255_1_234
10
8.4498231
20
0.1420965
40
0.3875675
50
101.98776
51
128.8742646
0
ARC
8
DEFAULT_255_1_234
10
8.4896842
20
-0.0300259
40
0.5642249
50
89.5906553
51
102.3169264
0
ARC
8
DEFAULT_255_1_234
10
8.4967334
20
0.0018148
40
0.5323783
50
77.2360837
51
90.3248275
0
ARC
8
DEFAULT_255_1_234
10
8.5174413
20
0.09854
40
0.4334697
50
63.837784
51
77.0809408
0
ARC
8
DEFAULT_255_1_234
10
8.5452175
20
0.1502911
40
0.3747796
50
45.9864267
51
64.1607727
0
ARC
8
DEFAULT_255_1_234
10
8.5713056
20
0.1800866
40
0.3352302
50
32.2747395
51
45.6547121
0
ARC
8
DEFAULT_255_1_234
10
8.5779497
20
0.181988
40
0.328603
50
359.6507365
51
32.6130309
0
ARC
8
DEFAULT_255_1_234
10
8.4836592
20
0.182466
40
0.2678863
50
359.469343
51
14.9832209
0
ARC
8
DEFAULT_255_1_234
10
8.5541654
20
0.2013539
40
0.1948938
50
14.9781179
51
48.2004265
0
ARC
8
DEFAULT_255_1_234
10
8.5377299
20
0.1806983
40
0.2212521
50
48.5927837
51
74.1241538
0
ARC
8
DEFAULT_255_1_234
10
8.5043788
20
0.0706248
40
0.3362561
50
73.7888341
51
86.6652678
0
ARC
8
DEFAULT_255_1_234
10
8.4941354
20
-0.0501119
40
0.4573953
50
86.2640471
51
90.0526343
0
ARC
8
DEFAULT_255_1_234
10
8.4913066
20
-0.0105808
40
0.4178709
50
89.6697524
51
99.2309573
0
ARC
8
DEFAULT_255_1_234
10
8.4670517
20
0.1338964
40
0.2713749
50
99.069534
51
113.7658566
0
ARC
8
DEFAULT_255_1_234
10
8.4396708
20
0.1984677
40
0.2012469
50
114.0401004
51
127.9850673
0
ARC
8
DEFAULT_255_1_234
10
8.4156272
20
0.228073
40
0.1631167
50
127.7287463
51
176.7105154
0
ARC
8
DEFAULT_255_1_234
10
8.483499
20
0.2179693
40
0.2315392
50
175.1779447
51
180.0581938
0
ARC
8
DEFAULT_255_1_234
10
8.3991836
20
0.2167428
40
0.1472271
50
179.6142195
51
228.1246017
0
ARC
8
DEFAULT_255_1_234
10
8.4433505
20
0.2576308
40
0.2072299
50
226.5779593
51
230.8800004
0
ARC
8
DEFAULT_255_1_234
10
8.4904584
20
0.3201636
40
0.2854818
50
231.4635071
51
241.9260842
0
ARC
8
DEFAULT_255_1_234
10
8.6101762
20
0.54048
40
0.53622
50
241.7178533
51
248.3259551
0
ARC
8
DEFAULT_255_1_234
10
8.7487134
20
0.8837064
40
0.9063478
50
248.2007737
51
252.4528373
0
ARC
8
DEFAULT_255_1_234
10
8.8690858
20
1.2558441
40
1.2974635
50
252.3391078
51
254.3469452
0
ARC
8
DEFAULT_255_1_234
10
8.1148561
20
-1.4418852
40
1.5037162
50
71.0197183
51
74.4087047
0
ARC
8
DEFAULT_255_1_234
10
8.2843246
20
-0.9526889
40
0.9859993
50
66.1847285
51
71.086374
0
ARC
8
DEFAULT_255_1_234
10
8.4399559
20
-0.60228
40
0.6025855
50
59.3536294
51
66.2691831
0
ARC
8
DEFAULT_255_1_234
10
8.5288211
20
-0.4519391
40
0.4279449
50
49.1020879
51
59.3293958
0
ARC
8
DEFAULT_255_1_234
10
8.6106951
20
-0.3586166
40
0.3038015
50
32.7919921
51
49.2505539
0
ARC
8
DEFAULT_255_1_234
10
8.6428041
20
-0.3357809
40
0.264448
50
31.1181161
51
32.4005348
0
ARC
8
DEFAULT_255_1_234
10
8.6339579
20
-0.3393221
40
0.2738556
50
8.1116974
51
30.7958831
0
ARC
8
DEFAULT_255_1_234
10
8.5529247
20
-0.3531247
40
0.3560327
50
359.8389159
51
8.4706516
0
ARC
8
DEFAULT_255_1_234
10
8.6155038
20
-0.3579863
40
0.2934776
50
337.4731098
51
0.7537279
0
ARC
8
DEFAULT_255_1_234
10
8.6333733
20
-0.3599613
40
0.2762607
50
307.5917067
51
336.4315538
0
ARC
8
DEFAULT_255_1_234
10
8.5873561
20
-0.3086898
40
0.3449979
50
307.6551545
51
308.4529766
0
ARC
8
DEFAULT_255_1_234
10
8.564328
20
-0.273175
40
0.3871988
50
284.3734338
51
307.1424381
0
ARC
8
DEFAULT_255_1_234
10
8.514811
20
-0.0910068
40
0.5759636
50
272.4382747
51
284.646547
0
ARC
8
DEFAULT_255_1_234
10
8.5021319
20
0.0889893
40
0.7563528
50
269.9708387
51
272.8178037
0
ARC
8
DEFAULT_255_1_234
10
8.4978358
20
-0.1148284
40
0.5525489
50
248.2707594
51
270.4055579
0
ARC
8
DEFAULT_255_1_234
10
8.49241
20
-0.1338808
40
0.5328452
50
246.1383403
51
248.0542782
0
ARC
8
DEFAULT_255_1_234
10
8.4505478
20
-0.2218157
40
0.4355005
50
233.1670131
51
246.4950969
0
ARC
8
DEFAULT_255_1_234
10
8.3951383
20
-0.2966188
40
0.3424126
50
215.3403242
51
233.0843104
0
ARC
8
DEFAULT_255_1_234
10
8.3678815
20
-0.3164451
40
0.3087104
50
179.2419209
51
215.2648451
0
ARC
8
DEFAULT_255_1_234
10
8.4446409
20
-0.3150334
40
0.2304457
50
179.335461
51
199.1045811
0
ARC
8
DEFAULT_255_1_234
10
8.4114085
20
-0.3237234
40
0.1962176
50
199.8828939
51
232.7063202
0
ARC
8
DEFAULT_255_1_234
10
8.4586353
20
-0.2643212
40
0.2720938
50
232.3738199
51
255.5136649
0
ARC
8
DEFAULT_255_1_234
10
8.492722
20
-0.1399165
40
0.4010747
50
255.2446292
51
267.5320849
0
ARC
8
DEFAULT_255_1_234
10
8.5014843
20
-0.0166298
40
0.5246356
50
267.1557994
51
270.0286766
0
ARC
8
DEFAULT_255_1_234
10
8.5042616
20
-0.061005
40
0.4802668
50
269.7000017
51
278.1660162
0
ARC
8
DEFAULT_255_1_234
10
8.529862
20
-0.2340485
40
0.3053425
50
278.0231263
51
290.625471
0
ARC
8
DEFAULT_255_1_234
10
8.5646308
20
-0.3267975
40
0.206291
50
290.6619762
51
307.0370976
0
ARC
8
DEFAULT_255_1_234
10
8.5946697
20
-0.3636496
40
0.1587906
50
306.3943566
51
355.3030547
0
ARC
8
DEFAULT_255_1_234
10
8.5434628
20
-0.3559887
40
0.2104809
50
354.3660432
51
0.0698737
0
ARC
8
DEFAULT_255_1_234
10
8.5576973
20
-0.3537383
40
0.1962563
50
359.417946
51
16.1971788
0
ARC
8
DEFAULT_255_1_234
10
8.6032284
20
-0.3412582
40
0.149053
50
16.4723299
51
52.6262157
0
ARC
8
DEFAULT_255_1_234
10
8.5211338
20
-0.4496567
40
0.2850296
50
52.7386432
51
62.4979148
0
ARC
8
DEFAULT_255_1_234
10
8.3826415
20
-0.7102717
40
0.5801521
50
62.2515216
51
68.1220564
0
ARC
8
DEFAULT_255_1_234
10
8.2106325
20
-1.1330128
40
1.0365451
50
68.0062803
51
71.8053402
0
ARC
8
DEFAULT_255_1_234
10
8.0310697
20
-1.6715242
40
1.6042013
50
71.7183119
51
73.9258742
0
LINE
8
DEFAULT_255_1_234
10
9.8229679
20
0.5181211
11
9.8229679
21
0.434591
0
LINE
8
DEFAULT_255_1_234
10
9.8229679
20
0.434591
11
9.3386541
21
-0.6513
0
LINE
8
DEFAULT_255_1_234
10
9.3386541
20
-0.6513
11
9.1828383
21
-0.6513
0
LINE
8
DEFAULT_255_1_234
10
9.1828383
20
-0.6513
11
9.6655458
21
0.3960387
0
LINE
8
DEFAULT_255_1_234
10
9.6655458
20
0.3960387
11
9.0326448
21
0.3960387
0
LINE
8
DEFAULT_255_1_234
10
9.0326448
20
0.3960387
11
9.0326448
21
0.5181211
0
LINE
8
DEFAULT_255_1_234
10
9.0326448
20
0.5181211
11
9.8229679
21
0.5181211
0
LINE
8
DEFAULT_255_1_234
10
10.6189131
20
0.5181211
11
10.6189131
21
-0.258548
0
LINE
8
DEFAULT_255_1_234
10
10.6189131
20
-0.258548
11
10.7811542
21
-0.258548
0
LINE
8
DEFAULT_255_1_234
10
10.7811542
20
-0.258548
11
10.7811542
21
-0.3798272
0
LINE
8
DEFAULT_255_1_234
10
10.7811542
20
-0.3798272
11
10.6189131
21
-0.3798272
0
LINE
8
DEFAULT_255_1_234
10
10.6189131
20
-0.3798272
11
10.6189131
21
-0.6513
0
LINE
8
DEFAULT_255_1_234
10
10.6189131
20
-0.6513
11
10.4695228
21
-0.6513
0
LINE
8
DEFAULT_255_1_234
10
10.4695228
20
-0.6513
11
10.4695228
21
-0.3798272
0
LINE
8
DEFAULT_255_1_234
10
10.4695228
20
-0.3798272
11
9.9370186
21
-0.3798272
0
LINE
8
DEFAULT_255_1_234
10
9.9370186
20
-0.3798272
11
9.9370186
21
-0.2922813
0
LINE
8
DEFAULT_255_1_234
10
9.9370186
20
-0.2922813
11
10.4606879
21
0.5181211
0
LINE
8
DEFAULT_255_1_234
10
10.4606879
20
0.5181211
11
10.6189131
21
0.5181211
0
LINE
8
DEFAULT_255_1_234
10
10.451853
20
0.2827912
11
10.1056851
21
-0.258548
0
LINE
8
DEFAULT_255_1_234
10
10.1056851
20
-0.258548
11
10.4695228
21
-0.258548
0
LINE
8
DEFAULT_255_1_234
10
10.4695228
20
-0.258548
11
10.4695228
21
0.3149181
0
LINE
8
DEFAULT_255_1_234
10
10.4695228
20
0.3149181
11
10.451853
21
0.2827912
0
LINE
8
DEFAULT_255_1_234
10
11.403614
20
0.5237433
11
11.403614
21
-0.6513
0
LINE
8
DEFAULT_255_1_234
10
11.403614
20
-0.6513
11
11.2542236
21
-0.6513
0
LINE
8
DEFAULT_255_1_234
10
11.2542236
20
-0.6513
11
11.2542236
21
0.3390133
0
LINE
8
DEFAULT_255_1_234
10
11.2542236
20
0.3390133
11
10.9546398
21
0.2289785
0
LINE
8
DEFAULT_255_1_234
10
10.9546398
20
0.2289785
11
10.9546398
21
0.3639117
0
LINE
8
DEFAULT_255_1_234
10
10.9546398
20
0.3639117
11
11.3803219
21
0.5237433
0
LINE
8
DEFAULT_255_1_234
10
11.3803219
20
0.5237433
11
11.403614
21
0.5237433
0
LINE
8
DEFAULT_255_1_234
10
12.3955336
20
0.5189243
11
12.4220384
21
0.5189243
0
LINE
8
DEFAULT_255_1_234
10
12.4220384
20
0.5189243
11
12.4220384
21
0.392826
0
LINE
8
DEFAULT_255_1_234
10
12.4220384
20
0.392826
11
12.3947305
21
0.392826
0
LINE
8
DEFAULT_255_1_234
10
11.8477691
20
-0.2063417
11
11.8477691
21
-0.1493164
0
LINE
8
DEFAULT_255_1_234
10
11.9971594
20
-0.1685925
11
11.9971594
21
-0.2232083
0
ARC
8
DEFAULT_255_1_234
10
12.3999653
20
-0.1069545
40
0.4998079
50
90.6001036
51
104.514704
0
ARC
8
DEFAULT_255_1_234
10
12.3611168
20
0.0375131
40
0.3502176
50
104.2855254
51
133.862935
0
ARC
8
DEFAULT_255_1_234
10
12.3774926
20
0.026683
40
0.3693984
50
134.5302688
51
161.6210873
0
ARC
8
DEFAULT_255_1_234
10
12.5428114
20
-0.0316105
40
0.5446739
50
161.2849839
51
174.2076652
0
ARC
8
DEFAULT_255_1_234
10
12.6835051
20
-0.0510213
40
0.6866274
50
173.7810589
51
174.9254635
0
ARC
8
DEFAULT_255_1_234
10
12.2284883
20
-0.1893161
40
0.3033419
50
95.8330959
51
138.9954921
0
ARC
8
DEFAULT_255_1_234
10
12.2508239
20
-0.3171625
40
0.4328947
50
89.8753725
51
97.0544009
0
ARC
8
DEFAULT_255_1_234
10
12.2555705
20
-0.2336252
40
0.3493769
50
71.6407809
51
90.6240094
0
ARC
8
DEFAULT_255_1_234
10
12.2706279
20
-0.1781918
40
0.2920396
50
39.6367836
51
71.019018
0
ARC
8
DEFAULT_255_1_234
10
12.2069752
20
-0.2332002
40
0.3761538
50
10.658731
51
39.9043955
0
ARC
8
DEFAULT_255_1_234
10
12.0521835
20
-0.2668314
40
0.5345136
50
359.682601
51
11.132623
0
ARC
8
DEFAULT_255_1_234
10
12.0481965
20
-0.273899
40
0.5385081
50
347.2486944
51
0.4369317
0
ARC
8
DEFAULT_255_1_234
10
12.2149442
20
-0.3140193
40
0.3670249
50
318.1409698
51
347.6118597
0
ARC
8
DEFAULT_255_1_234
10
12.2474435
20
-0.3407298
40
0.3250007
50
275.6342139
51
317.8248465
0
ARC
8
DEFAULT_255_1_234
10
12.2253547
20
-0.2107781
40
0.4565864
50
269.8874292
51
276.7917694
0
ARC
8
DEFAULT_255_1_234
10
12.2198617
20
-0.3133257
40
0.3540676
50
246.9140195
51
270.7437342
0
ARC
8
DEFAULT_255_1_234
10
12.2205008
20
-0.3275616
40
0.3412781
50
218.1665114
51
245.878116
0
ARC
8
DEFAULT_255_1_234
10
12.3084468
20
-0.2539721
40
0.455911
50
191.4115814
51
218.6077802
0
ARC
8
DEFAULT_255_1_234
10
12.5022558
20
-0.2105167
40
0.6545001
50
179.6345085
51
191.7836486
0
ARC
8
DEFAULT_255_1_234
10
13.0604894
20
-0.1426303
40
1.2127388
50
171.4525249
51
180.3158839
0
ARC
8
DEFAULT_255_1_234
10
12.620977
20
-0.0742392
40
0.7679464
50
157.9802646
51
171.6246686
0
ARC
8
DEFAULT_255_1_234
10
12.3995791
20
0.0140421
40
0.5296008
50
141.4298019
51
157.854097
0
ARC
8
DEFAULT_255_1_234
10
12.3354112
20
0.0594381
40
0.4511509
50
102.8715806
51
140.8564722
0
ARC
8
DEFAULT_255_1_234
10
12.4001727
20
-0.1845448
40
0.7034845
50
90.3778349
51
103.5869322
0
ARC
8
DEFAULT_255_1_234
10
12.2263504
20
-0.245027
40
0.2370698
50
89.8751008
51
126.2071704
0
ARC
8
DEFAULT_255_1_234
10
12.2309293
20
-0.2604697
40
0.2522934
50
124.9745049
51
144.895901
0
ARC
8
DEFAULT_255_1_234
10
12.2133484
20
-0.246144
40
0.2296779
50
145.2974905
51
160.2660252
0
ARC
8
DEFAULT_255_1_234
10
12.5206023
20
-0.2263929
40
0.5234525
50
179.6514266
51
190.2855912
0
ARC
8
DEFAULT_255_1_234
10
12.351216
20
-0.2583214
40
0.3510893
50
190.0945431
51
207.5098196
0
ARC
8
DEFAULT_255_1_234
10
12.294643
20
-0.2852377
40
0.288489
50
207.9583163
51
216.3251085
0
ARC
8
DEFAULT_255_1_234
10
12.2606537
20
-0.3131895
40
0.2445587
50
215.7661442
51
232.5456785
0
ARC
8
DEFAULT_255_1_234
10
12.222352
20
-0.3618518
40
0.1826382
50
232.8005391
51
270.6605633
0
ARC
8
DEFAULT_255_1_234
10
12.2269221
20
-0.3254388
40
0.2190529
50
269.35537
51
288.4744281
0
ARC
8
DEFAULT_255_1_234
10
12.2362118
20
-0.3603882
40
0.1829749
50
289.1833337
51
322.9683818
0
ARC
8
DEFAULT_255_1_234
10
12.1750641
20
-0.3121609
40
0.2608399
50
322.6007884
51
346.5182367
0
ARC
8
DEFAULT_255_1_234
10
12.0593237
20
-0.2826384
40
0.3802777
50
346.2582162
51
358.7741648
0
ARC
8
DEFAULT_255_1_234
10
11.9574905
20
-0.2771035
40
0.4822176
50
358.3755224
51
0.0098023
0
ARC
8
DEFAULT_255_1_234
10
12.0331093
20
-0.2743343
40
0.4066078
50
359.6214041
51
11.2839074
0
ARC
8
DEFAULT_255_1_234
10
12.160824
20
-0.2476934
40
0.2761514
50
11.0482309
51
31.8146458
0
ARC
8
DEFAULT_255_1_234
10
12.1917282
20
-0.2309416
40
0.2410679
50
32.3035391
51
38.082671
0
ARC
8
DEFAULT_255_1_234
10
12.2337942
20
-0.1928338
40
0.1844966
50
36.825067
51
85.7415724
0
ARC
8
DEFAULT_255_1_234
10
12.2270776
20
-0.2428699
40
0.2349122
50
85.0140713
51
90.0513278
0
LINE
8
DEFAULT_255_1_234
10
13.0870663
20
-0.0938974
11
13.0870663
21
-0.2151766
0
LINE
8
DEFAULT_255_1_234
10
13.0870663
20
-0.2151766
11
12.6951175
21
-0.2151766
0
LINE
8
DEFAULT_255_1_234
10
12.6951175
20
-0.2151766
11
12.6951175
21
-0.0938974
0
LINE
8
DEFAULT_255_1_234
10
12.6951175
20
-0.0938974
11
13.0870663
21
-0.0938974
0
LINE
8
DEFAULT_255_1_234
10
13.4324311
20
-0.1155831
11
13.4324311
21
0.0056962
0
LINE
8
DEFAULT_255_1_234
10
13.4324311
20
0.0056962
11
13.5440722
21
0.0056962
0
LINE
8
DEFAULT_255_1_234
10
13.35372
20
0.2113087
11
13.2051329
21
0.2113087
0
LINE
8
DEFAULT_255_1_234
10
13.1946916
20
-0.3428812
11
13.3440819
21
-0.3428812
0
LINE
8
DEFAULT_255_1_234
10
13.5440722
20
-0.1155831
11
13.4324311
21
-0.1155831
0
ARC
8
DEFAULT_255_1_234
10
13.5411589
20
0.3449713
40
0.3392876
50
270.4919872
51
281.8951556
0
ARC
8
DEFAULT_255_1_234
10
13.565285
20
0.2347702
40
0.2264817
50
281.6691735
51
301.2943132
0
ARC
8
DEFAULT_255_1_234
10
13.5823061
20
0.2036304
40
0.1910381
50
301.7833094
51
311.7545298
0
ARC
8
DEFAULT_255_1_234
10
13.5914636
20
0.1934748
40
0.1773635
50
311.7323931
51
354.2802411
0
ARC
8
DEFAULT_255_1_234
10
13.5188262
20
0.2059722
40
0.2509385
50
353.0937916
51
0.1181479
0
ARC
8
DEFAULT_255_1_234
10
13.4727046
20
0.2107386
40
0.2970898
50
359.1805295
51
15.0453146
0
ARC
8
DEFAULT_255_1_234
10
13.6072883
20
0.2499992
40
0.1569564
50
13.9577229
51
77.6713066
0
ARC
8
DEFAULT_255_1_234
10
13.5686413
20
0.1114949
40
0.3006298
50
76.1116566
51
90.7026153
0
ARC
8
DEFAULT_255_1_234
10
13.5627251
20
0.1388545
40
0.2732568
50
89.5324876
51
103.531937
0
ARC
8
DEFAULT_255_1_234
10
13.5426695
20
0.2187884
40
0.1908508
50
103.2931773
51
133.5619022
0
ARC
8
DEFAULT_255_1_234
10
13.5382183
20
0.2247375
40
0.1834746
50
133.8349307
51
173.5344437
0
ARC
8
DEFAULT_255_1_234
10
13.6105226
20
0.2119213
40
0.2568033
50
172.5096846
51
180.1366907
0
ARC
8
DEFAULT_255_1_234
10
13.515412
20
0.2153622
40
0.3103056
50
155.3484492
51
180.7484736
0
ARC
8
DEFAULT_255_1_234
10
13.5105209
20
0.2124846
40
0.3070957
50
131.5744599
51
154.4798489
0
ARC
8
DEFAULT_255_1_234
10
13.5418357
20
0.180831
40
0.3515643
50
96.9875458
51
131.9690667
0
ARC
8
DEFAULT_255_1_234
10
13.5637837
20
0.0562636
40
0.4779224
50
89.8596053
51
97.7825159
0
ARC
8
DEFAULT_255_1_234
10
13.56859
20
0.0300616
40
0.5041361
50
78.3655447
51
90.4131539
0
ARC
8
DEFAULT_255_1_234
10
13.6043818
20
0.1959887
40
0.3344039
50
56.6229102
51
78.638727
0
ARC
8
DEFAULT_255_1_234
10
13.6258761
20
0.2335805
40
0.2912001
50
47.0253525
51
56.0854072
0
ARC
8
DEFAULT_255_1_234
10
13.6278541
20
0.2375223
40
0.2869704
50
10.9208013
51
46.7778124
0
ARC
8
DEFAULT_255_1_234
10
13.4914608
20
0.2059857
40
0.426899
50
359.6364486
51
11.6087304
0
ARC
8
DEFAULT_255_1_234
10
13.6749452
20
0.2044752
40
0.243409
50
332.3549906
51
359.7179418
0
ARC
8
DEFAULT_255_1_234
10
13.6099053
20
0.2353142
40
0.3153459
50
325.2333722
51
332.8745602
0
ARC
8
DEFAULT_255_1_234
10
13.6251677
20
0.2246828
40
0.2967456
50
292.9802137
51
325.2392345
0
ARC
8
DEFAULT_255_1_234
10
13.5977051
20
0.2780863
40
0.3566604
50
292.5402179
51
293.6924929
0
ARC
8
DEFAULT_255_1_234
10
13.6369647
20
-0.3673909
40
0.3307468
50
57.6435486
51
72.8625112
0
ARC
8
DEFAULT_255_1_234
10
13.6724147
20
-0.3099451
40
0.2632492
50
36.7248896
51
57.4697979
0
ARC
8
DEFAULT_255_1_234
10
13.6712779
20
-0.308678
40
0.2634081
50
8.0545065
51
36.356114
0
ARC
8
DEFAULT_255_1_234
10
13.5849964
20
-0.3241826
40
0.3510261
50
359.8320645
51
8.5869982
0
ARC
8
DEFAULT_255_1_234
10
13.5474741
20
-0.3289899
40
0.3885653
50
343.9829931
51
0.5571613
0
ARC
8
DEFAULT_255_1_234
10
13.6360938
20
-0.3532562
40
0.2966924
50
311.6359546
51
343.7651759
0
ARC
8
DEFAULT_255_1_234
10
13.5982507
20
-0.3105898
40
0.3537231
50
279.7829875
51
311.6255694
0
ARC
8
DEFAULT_255_1_234
10
13.5681283
20
-0.166872
40
0.5004971
50
269.7286406
51
280.3856417
0
ARC
8
DEFAULT_255_1_234
10
13.5619356
20
-0.1710004
40
0.4963778
50
256.6828919
51
270.4412052
0
ARC
8
DEFAULT_255_1_234
10
13.5280652
20
-0.3094606
40
0.3538406
50
229.4223008
51
256.8556159
0
ARC
8
DEFAULT_255_1_234
10
13.4866044
20
-0.3561264
40
0.2914296
50
181.818294
51
229.6455059
0
ARC
8
DEFAULT_255_1_234
10
13.5906001
20
-0.3430504
40
0.3959084
50
179.9755256
51
183.2323064
0
ARC
8
DEFAULT_255_1_234
10
13.5733746
20
-0.3450963
40
0.2293034
50
179.4465117
51
196.2869258
0
ARC
8
DEFAULT_255_1_234
10
13.5246155
20
-0.3584349
40
0.1787621
50
196.5661473
51
227.705904
0
ARC
8
DEFAULT_255_1_234
10
13.5410249
20
-0.3400845
40
0.2033784
50
227.7652068
51
257.8762805
0
ARC
8
DEFAULT_255_1_234
10
13.563522
20
-0.2457844
40
0.3003081
50
257.4584385
51
270.426602
0
ARC
8
DEFAULT_255_1_234
10
13.5680786
20
-0.2168004
40
0.329292
50
269.5962073
51
280.8789248
0
ARC
8
DEFAULT_255_1_234
10
13.5910315
20
-0.3314315
40
0.2123908
50
280.6346389
51
299.8595945
0
ARC
8
DEFAULT_255_1_234
10
13.6101221
20
-0.3676788
40
0.171457
50
300.3576302
51
314.5517981
0
ARC
8
DEFAULT_255_1_234
10
13.6018281
20
-0.3616081
40
0.1816095
50
315.0728369
51
345.0431014
0
ARC
8
DEFAULT_255_1_234
10
13.5095096
20
-0.3347159
40
0.2777492
50
344.5986631
51
357.9269593
0
ARC
8
DEFAULT_255_1_234
10
13.4199422
20
-0.3285724
40
0.3674917
50
357.4748886
51
0.0231117
0
ARC
8
DEFAULT_255_1_234
10
13.5222531
20
-0.3261321
40
0.2651907
50
359.5047933
51
13.4239635
0
ARC
8
DEFAULT_255_1_234
10
13.6089175
20
-0.3039522
40
0.1757509
50
12.9498199
51
48.7551375
0
ARC
8
DEFAULT_255_1_234
10
13.5906909
20
-0.32886
40
0.2065134
50
49.5088623
51
72.1836453
0
ARC
8
DEFAULT_255_1_234
10
13.5549061
20
-0.4350709
40
0.3185836
50
71.9010081
51
84.3554254
0
ARC
8
DEFAULT_255_1_234
10
13.5387693
20
-0.5711674
40
0.4556151
50
84.0193428
51
89.333121
0
LINE
8
DEFAULT_255_1_234
10
14.8235281
20
-0.0087609
11
14.8235281
21
-0.1348592
0
LINE
8
DEFAULT_255_1_234
10
14.8235281
20
-0.1348592
11
14.3327889
21
-0.1348592
0
LINE
8
DEFAULT_255_1_234
10
14.3327889
20
-0.1348592
11
14.3327889
21
-0.6513
0
LINE
8
DEFAULT_255_1_234
10
14.3327889
20
-0.6513
11
14.1785795
21
-0.6513
0
LINE
8
DEFAULT_255_1_234
10
14.1785795
20
-0.6513
11
14.1785795
21
0.5181211
0
LINE
8
DEFAULT_255_1_234
10
14.1785795
20
0.5181211
11
14.9030423
21
0.5181211
0
LINE
8
DEFAULT_255_1_234
10
14.9030423
20
0.5181211
11
14.9030423
21
0.3912196
0
LINE
8
DEFAULT_255_1_234
10
14.9030423
20
0.3912196
11
14.3327889
21
0.3912196
0
LINE
8
DEFAULT_255_1_234
10
14.3327889
20
0.3912196
11
14.3327889
21
-0.0087609
0
LINE
8
DEFAULT_255_1_234
10
14.3327889
20
-0.0087609
11
14.8235281
21
-0.0087609
0
LINE
8
DEFAULT_255_1_234
10
15.8636382
20
0.1799849
11
15.7086257
21
0.1799849
0
LINE
8
DEFAULT_255_1_234
10
15.0162898
20
-0.3123606
11
15.1713024
21
-0.3123606
0
ARC
8
DEFAULT_255_1_234
10
15.774507
20
1.0746768
40
1.252368
50
248.9199003
51
254.1439814
0
ARC
8
DEFAULT_255_1_234
10
15.6064565
20
0.6420234
40
0.788226
50
241.633709
51
249.0064503
0
ARC
8
DEFAULT_255_1_234
10
15.4535959
20
0.3619317
40
0.4691427
50
230.498225
51
241.8087113
0
ARC
8
DEFAULT_255_1_234
10
15.3751533
20
0.2619906
40
0.3421437
50
227.4064532
51
229.9881192
0
ARC
8
DEFAULT_255_1_234
10
15.3264054
20
0.2144088
40
0.2741476
50
200.6781896
51
228.1763934
0
ARC
8
DEFAULT_255_1_234
10
15.3336364
20
0.2129077
40
0.2804109
50
179.5061581
51
199.8694617
0
ARC
8
DEFAULT_255_1_234
10
15.3327116
20
0.220321
40
0.2795204
50
132.4834203
51
181.0242172
0
ARC
8
DEFAULT_255_1_234
10
15.3922699
20
0.1640704
40
0.3612768
50
129.2532479
51
133.4242687
0
ARC
8
DEFAULT_255_1_234
10
15.4069148
20
0.1420965
40
0.3875675
50
101.98776
51
128.8742646
0
ARC
8
DEFAULT_255_1_234
10
15.4467759
20
-0.0300259
40
0.5642249
50
89.5906553
51
102.3169264
0
ARC
8
DEFAULT_255_1_234
10
15.4538251
20
0.0018148
40
0.5323783
50
77.2360837
51
90.3248275
0
ARC
8
DEFAULT_255_1_234
10
15.474533
20
0.09854
40
0.4334697
50
63.837784
51
77.0809408
0
ARC
8
DEFAULT_255_1_234
10
15.5023092
20
0.1502911
40
0.3747796
50
45.9864267
51
64.1607727
0
ARC
8
DEFAULT_255_1_234
10
15.5283973
20
0.1800866
40
0.3352302
50
32.2747395
51
45.6547121
0
ARC
8
DEFAULT_255_1_234
10
15.5350414
20
0.181988
40
0.328603
50
359.6507365
51
32.6130309
0
ARC
8
DEFAULT_255_1_234
10
15.4407509
20
0.182466
40
0.2678863
50
359.469343
51
14.9832209
0
ARC
8
DEFAULT_255_1_234
10
15.5112571
20
0.2013539
40
0.1948938
50
14.9781179
51
48.2004265
0
ARC
8
DEFAULT_255_1_234
10
15.4948216
20
0.1806983
40
0.2212521
50
48.5927837
51
74.1241538
0
ARC
8
DEFAULT_255_1_234
10
15.4614705
20
0.0706248
40
0.3362561
50
73.7888341
51
86.6652678
0
ARC
8
DEFAULT_255_1_234
10
15.4512271
20
-0.0501119
40
0.4573953
50
86.2640471
51
90.0526343
0
ARC
8
DEFAULT_255_1_234
10
15.4483983
20
-0.0105808
40
0.4178709
50
89.6697524
51
99.2309573
0
ARC
8
DEFAULT_255_1_234
10
15.4241434
20
0.1338964
40
0.2713749
50
99.069534
51
113.7658566
0
ARC
8
DEFAULT_255_1_234
10
15.3967625
20
0.1984677
40
0.2012469
50
114.0401004
51
127.9850673
0
ARC
8
DEFAULT_255_1_234
10
15.3727189
20
0.228073
40
0.1631167
50
127.7287463
51
176.7105154
0
ARC
8
DEFAULT_255_1_234
10
15.4405907
20
0.2179693
40
0.2315392
50
175.1779447
51
180.0581938
0
ARC
8
DEFAULT_255_1_234
10
15.3562753
20
0.2167428
40
0.1472271
50
179.6142195
51
228.1246017
0
ARC
8
DEFAULT_255_1_234
10
15.4004422
20
0.2576308
40
0.2072299
50
226.5779593
51
230.8800004
0
ARC
8
DEFAULT_255_1_234
10
15.4475501
20
0.3201636
40
0.2854818
50
231.4635071
51
241.9260842
0
ARC
8
DEFAULT_255_1_234
10
15.5672679
20
0.54048
40
0.53622
50
241.7178533
51
248.3259551
0
ARC
8
DEFAULT_255_1_234
10
15.7058051
20
0.8837064
40
0.9063478
50
248.2007737
51
252.4528373
0
ARC
8
DEFAULT_255_1_234
10
15.8261775
20
1.2558441
40
1.2974635
50
252.3391078
51
254.3469452
0
ARC
8
DEFAULT_255_1_234
10
15.0719478
20
-1.4418852
40
1.5037162
50
71.0197183
51
74.4087047
0
ARC
8
DEFAULT_255_1_234
10
15.2414163
20
-0.9526889
40
0.9859993
50
66.1847285
51
71.086374
0
ARC
8
DEFAULT_255_1_234
10
15.3970476
20
-0.60228
40
0.6025855
50
59.3536294
51
66.2691831
0
ARC
8
DEFAULT_255_1_234
10
15.4859128
20
-0.4519391
40
0.4279449
50
49.1020879
51
59.3293958
0
ARC
8
DEFAULT_255_1_234
10
15.5677868
20
-0.3586166
40
0.3038015
50
32.7919921
51
49.2505539
0
ARC
8
DEFAULT_255_1_234
10
15.5998958
20
-0.3357809
40
0.264448
50
31.1181161
51
32.4005348
0
ARC
8
DEFAULT_255_1_234
10
15.5910496
20
-0.3393221
40
0.2738556
50
8.1116974
51
30.7958831
0
ARC
8
DEFAULT_255_1_234
10
15.5100164
20
-0.3531247
40
0.3560327
50
359.8389159
51
8.4706516
0
ARC
8
DEFAULT_255_1_234
10
15.5725955
20
-0.3579863
40
0.2934776
50
337.4731098
51
0.7537279
0
ARC
8
DEFAULT_255_1_234
10
15.590465
20
-0.3599613
40
0.2762607
50
307.5917067
51
336.4315538
0
ARC
8
DEFAULT_255_1_234
10
15.5444478
20
-0.3086898
40
0.3449979
50
307.6551545
51
308.4529766
0
ARC
8
DEFAULT_255_1_234
10
15.5214197
20
-0.273175
40
0.3871988
50
284.3734338
51
307.1424381
0
ARC
8
DEFAULT_255_1_234
10
15.4719027
20
-0.0910068
40
0.5759636
50
272.4382747
51
284.646547
0
ARC
8
DEFAULT_255_1_234
10
15.4592236
20
0.0889893
40
0.7563528
50
269.9708387
51
272.8178037
0
ARC
8
DEFAULT_255_1_234
10
15.4549275
20
-0.1148284
40
0.5525489
50
248.2707594
51
270.4055579
0
ARC
8
DEFAULT_255_1_234
10
15.4495017
20
-0.1338808
40
0.5328452
50
246.1383403
51
248.0542782
0
ARC
8
DEFAULT_255_1_234
10
15.4076395
20
-0.2218157
40
0.4355005
50
233.1670131
51
246.4950969
0
ARC
8
DEFAULT_255_1_234
10
15.35223
20
-0.2966188
40
0.3424126
50
215.3403242
51
233.0843104
0
ARC
8
DEFAULT_255_1_234
10
15.3249732
20
-0.3164451
40
0.3087104
50
179.2419209
51
215.2648451
0
ARC
8
DEFAULT_255_1_234
10
15.4017326
20
-0.3150334
40
0.2304457
50
179.335461
51
199.1045811
0
ARC
8
DEFAULT_255_1_234
10
15.3685002
20
-0.3237234
40
0.1962176
50
199.8828939
51
232.7063202
0
ARC
8
DEFAULT_255_1_234
10
15.415727
20
-0.2643212
40
0.2720938
50
232.3738199
51
255.5136649
0
ARC
8
DEFAULT_255_1_234
10
15.4498137
20
-0.1399165
40
0.4010747
50
255.2446292
51
267.5320849
0
ARC
8
DEFAULT_255_1_234
10
15.458576
20
-0.0166298
40
0.5246356
50
267.1557994
51
270.0286766
0
ARC
8
DEFAULT_255_1_234
10
15.4613533
20
-0.061005
40
0.4802668
50
269.7000017
51
278.1660162
0
ARC
8
DEFAULT_255_1_234
10
15.4869537
20
-0.2340485
40
0.3053425
50
278.0231263
51
290.625471
0
ARC
8
DEFAULT_255_1_234
10
15.5217225
20
-0.3267975
40
0.206291
50
290.6619762
51
307.0370976
0
ARC
8
DEFAULT_255_1_234
10
15.5517614
20
-0.3636496
40
0.1587906
50
306.3943566
51
355.3030547
0
ARC
8
DEFAULT_255_1_234
10
15.5005545
20
-0.3559887
40
0.2104809
50
354.3660432
51
0.0698737
0
ARC
8
DEFAULT_255_1_234
10
15.514789
20
-0.3537383
40
0.1962563
50
359.417946
51
16.1971788
0
ARC
8
DEFAULT_255_1_234
10
15.5603201
20
-0.3412582
40
0.149053
50
16.4723299
51
52.6262157
0
ARC
8
DEFAULT_255_1_234
10
15.4782255
20
-0.4496567
40
0.2850296
50
52.7386432
51
62.4979148
0
ARC
8
DEFAULT_255_1_234
10
15.3397332
20
-0.7102717
40
0.5801521
50
62.2515216
51
68.1220564
0
ARC
8
DEFAULT_255_1_234
10
15.1677242
20
-1.1330128
40
1.0365451
50
68.0062803
51
71.8053402
0
ARC
8
DEFAULT_255_1_234
10
14.9881614
20
-1.6715242
40
1.6042013
50
71.7183119
51
73.9258742
0
LINE
8
DEFAULT_255_1_234
10
16.7583739
20
0.0402327
11
16.7583739
21
-0.1525291
0
LINE
8
DEFAULT_255_1_234
10
16.0202571
20
-0.1726084
11
16.0202571
21
0.0257755
0
LINE
8
DEFAULT_255_1_234
10
16.6097867
20
-0.1926877
11
16.6097867
21
0.0506739
0
LINE
8
DEFAULT_255_1_234
10
16.1688443
20
0.0619184
11
16.1688443
21
-0.1758211
0
ARC
8
DEFAULT_255_1_234
10
15.5336628
20
-0.1574195
40
1.2247208
50
353.8441951
51
0.2287902
0
ARC
8
DEFAULT_255_1_234
10
15.9976132
20
-0.2092194
40
0.7578929
50
344.4934747
51
353.9765454
0
ARC
8
DEFAULT_255_1_234
10
16.2968722
20
-0.2943019
40
0.4467846
50
329.2803592
51
344.7472793
0
ARC
8
DEFAULT_255_1_234
10
16.3961547
20
-0.3487982
40
0.3336173
50
324.9352394
51
328.6160465
0
ARC
8
DEFAULT_255_1_234
10
16.4338656
20
-0.3751573
40
0.2876076
50
280.580143
51
324.9173126
0
ARC
8
DEFAULT_255_1_234
10
16.3937448
20
-0.2080901
40
0.4592847
50
269.5977311
51
281.6734359
0
ARC
8
DEFAULT_255_1_234
10
16.3865354
20
-0.2200827
40
0.4472986
50
256.6228859
51
270.51044
0
ARC
8
DEFAULT_255_1_234
10
16.3463332
20
-0.3749123
40
0.2873874
50
215.8618325
51
257.2788573
0
ARC
8
DEFAULT_255_1_234
10
16.4484363
20
-0.3064023
40
0.4102928
50
197.9693508
51
215.2623606
0
ARC
8
DEFAULT_255_1_234
10
16.6969479
20
-0.2225291
40
0.6725652
50
187.8816417
51
198.2346507
0
ARC
8
DEFAULT_255_1_234
10
17.0927687
20
-0.1653921
40
1.0724845
50
180.8976217
51
188.0055519
0
ARC
8
DEFAULT_255_1_234
10
17.3727875
20
-0.1550223
40
1.3526448
50
180.7449369
51
181.1510016
0
ARC
8
DEFAULT_255_1_234
10
17.2150605
20
0.0306042
40
1.1948131
50
173.7675579
51
180.231553
0
ARC
8
DEFAULT_255_1_234
10
16.7632751
20
0.0816666
40
0.7401564
50
164.3058563
51
173.9002247
0
ARC
8
DEFAULT_255_1_234
10
16.472082
20
0.1655656
40
0.4371288
50
148.7922025
51
164.568378
0
ARC
8
DEFAULT_255_1_234
10
16.3769272
20
0.2186929
40
0.3282386
50
144.5883898
51
148.1176286
0
ARC
8
DEFAULT_255_1_234
10
16.342617
20
0.2426315
40
0.2864044
50
101.6440918
51
144.514236
0
ARC
8
DEFAULT_255_1_234
10
16.3851237
20
0.0737069
40
0.4604934
50
89.5284041
51
102.5819763
0
ARC
8
DEFAULT_255_1_234
10
16.3930325
20
0.0698018
40
0.464401
50
77.0437873
51
90.5081339
0
ARC
8
DEFAULT_255_1_234
10
16.4332326
20
0.2340615
40
0.2953195
50
48.2778575
51
77.4994676
0
ARC
8
DEFAULT_255_1_234
10
16.4404958
20
0.2469746
40
0.2808655
50
36.3142134
51
47.6305865
0
ARC
8
DEFAULT_255_1_234
10
16.3536265
20
0.1884515
40
0.3855453
50
18.2931786
51
35.6769206
0
ARC
8
DEFAULT_255_1_234
10
16.0993023
20
0.1011593
40
0.654423
50
8.024666
51
18.5605216
0
ARC
8
DEFAULT_255_1_234
10
15.6829943
20
0.0396792
40
1.0752407
50
1.1274072
51
8.1718305
0
ARC
8
DEFAULT_255_1_234
10
15.3594134
20
0.0269885
40
1.3990231
50
0.5424119
51
1.3863029
0
ARC
8
DEFAULT_255_1_234
10
15.5415512
20
0.0542342
40
1.0682415
50
359.8090433
51
4.9407866
0
ARC
8
DEFAULT_255_1_234
10
15.9625526
20
0.0918113
40
0.6455691
50
4.8362157
51
12.2904523
0
ARC
8
DEFAULT_255_1_234
10
16.2380641
20
0.1531965
40
0.3633074
50
12.0805627
51
23.8173984
0
ARC
8
DEFAULT_255_1_234
10
16.3554346
20
0.2028919
40
0.2358723
50
24.2871213
51
31.3935614
0
ARC
8
DEFAULT_255_1_234
10
16.4079043
20
0.2372233
40
0.1732111
50
30.7407893
51
82.4657128
0
ARC
8
DEFAULT_255_1_234
10
16.3899177
20
0.1488691
40
0.263235
50
81.1060089
51
90.2184952
0
ARC
8
DEFAULT_255_1_234
10
16.3863476
20
0.1746924
40
0.2374236
50
89.3806855
51
105.6762551
0
ARC
8
DEFAULT_255_1_234
10
16.3680107
20
0.2413567
40
0.1682847
50
105.7981136
51
149.7388061
0
ARC
8
DEFAULT_255_1_234
10
16.4744185
20
0.177395
40
0.2924306
50
149.4208916
51
163.6286378
0
ARC
8
DEFAULT_255_1_234
10
16.6835073
20
0.113625
40
0.5110213
50
163.3763315
51
172.1410975
0
ARC
8
DEFAULT_255_1_234
10
17.0135792
20
0.0663518
40
0.8444586
50
172.0259487
51
178.0703232
0
ARC
8
DEFAULT_255_1_234
10
17.3165882
20
0.0519906
40
1.1477868
50
177.8631668
51
179.5044149
0
ARC
8
DEFAULT_255_1_234
10
17.2093286
20
-0.1794611
40
1.0404907
50
179.7995573
51
185.2460446
0
ARC
8
DEFAULT_255_1_234
10
16.8050326
20
-0.2177487
40
0.6343885
50
185.1411642
51
193.0079639
0
ARC
8
DEFAULT_255_1_234
10
16.5406798
20
-0.2802359
40
0.3627568
50
192.7897626
51
205.2507664
0
ARC
8
DEFAULT_255_1_234
10
16.4360345
20
-0.3269585
40
0.2481908
50
205.8005384
51
211.2537509
0
ARC
8
DEFAULT_255_1_234
10
16.3836786
20
-0.362042
40
0.1852521
50
210.3789793
51
238.4008143
0
ARC
8
DEFAULT_255_1_234
10
16.3817307
20
-0.3573624
40
0.1882621
50
239.6520629
51
265.9793761
0
ARC
8
DEFAULT_255_1_234
10
16.3902508
20
-0.2901573
40
0.2559272
50
265.1315437
51
270.060332
0
ARC
8
DEFAULT_255_1_234
10
16.3931286
20
-0.3225466
40
0.2235528
50
269.3314664
51
287.2178029
0
ARC
8
DEFAULT_255_1_234
10
16.4069138
20
-0.3728721
40
0.1714108
50
287.7958004
51
329.080874
0
ARC
8
DEFAULT_255_1_234
10
16.3111595
20
-0.313107
40
0.2842745
50
328.6634704
51
343.3325132
0
ARC
8
DEFAULT_255_1_234
10
16.0938615
20
-0.2454137
40
0.5118644
50
343.0499468
51
351.9393422
0
ARC
8
DEFAULT_255_1_234
10
15.7471915
20
-0.1943051
40
0.8622784
50
351.8069023
51
357.7959224
0
ARC
8
DEFAULT_255_1_234
10
15.4236471
20
-0.1775279
40
1.1862365
50
357.5871873
51
359.2677531
0
LINE
8
DEFAULT_255_1_234
10
17.7037095
20
0.5181211
11
17.7037095
21
0.434591
0
LINE
8
DEFAULT_255_1_234
10
17.7037095
20
0.434591
11
17.2193957
21
-0.6513
0
LINE
8
DEFAULT_255_1_234
10
17.2193957
20
-0.6513
11
17.0635799
21
-0.6513
0
LINE
8
DEFAULT_255_1_234
10
17.0635799
20
-0.6513
11
17.5462874
21
0.3960387
0
LINE
8
DEFAULT_255_1_234
10
17.5462874
20
0.3960387
11
16.9133864
21
0.3960387
0
LINE
8
DEFAULT_255_1_234
10
16.9133864
20
0.3960387
11
16.9133864
21
0.5181211
0
LINE
8
DEFAULT_255_1_234
10
16.9133864
20
0.5181211
11
17.7037095
21
0.5181211
0
LINE
8
DEFAULT_255_1_234
10
18.1968582
20
-0.0938974
11
18.1968582
21
-0.2151766
0
LINE
8
DEFAULT_255_1_234
10
18.1968582
20
-0.2151766
11
17.8049094
21
-0.2151766
0
LINE
8
DEFAULT_255_1_234
10
17.8049094
20
-0.2151766
11
17.8049094
21
-0.0938974
0
LINE
8
DEFAULT_255_1_234
10
17.8049094
20
-0.0938974
11
18.1968582
21
-0.0938974
0
LINE
8
DEFAULT_255_1_234
10
19.0594669
20
0.0402327
11
19.0594669
21
-0.1525291
0
LINE
8
DEFAULT_255_1_234
10
18.3213501
20
-0.1726084
11
18.3213501
21
0.0257755
0
LINE
8
DEFAULT_255_1_234
10
18.9108797
20
-0.1926877
11
18.9108797
21
0.0506739
0
LINE
8
DEFAULT_255_1_234
10
18.4699373
20
0.0619184
11
18.4699373
21
-0.1758211
0
ARC
8
DEFAULT_255_1_234
10
17.8347559
20
-0.1574195
40
1.2247208
50
353.8441951
51
0.2287902
0
ARC
8
DEFAULT_255_1_234
10
18.2987062
20
-0.2092194
40
0.7578929
50
344.4934747
51
353.9765454
0
ARC
8
DEFAULT_255_1_234
10
18.5979652
20
-0.2943019
40
0.4467846
50
329.2803592
51
344.7472793
0
ARC
8
DEFAULT_255_1_234
10
18.6972477
20
-0.3487982
40
0.3336173
50
324.9352394
51
328.6160465
0
ARC
8
DEFAULT_255_1_234
10
18.7349586
20
-0.3751573
40
0.2876076
50
280.580143
51
324.9173126
0
ARC
8
DEFAULT_255_1_234
10
18.6948379
20
-0.2080901
40
0.4592847
50
269.5977311
51
281.6734359
0
ARC
8
DEFAULT_255_1_234
10
18.6876284
20
-0.2200827
40
0.4472986
50
256.6228859
51
270.51044
0
ARC
8
DEFAULT_255_1_234
10
18.6474262
20
-0.3749123
40
0.2873874
50
215.8618325
51
257.2788573
0
ARC
8
DEFAULT_255_1_234
10
18.7495294
20
-0.3064023
40
0.4102928
50
197.9693508
51
215.2623606
0
ARC
8
DEFAULT_255_1_234
10
18.9980409
20
-0.2225291
40
0.6725652
50
187.8816417
51
198.2346507
0
ARC
8
DEFAULT_255_1_234
10
19.3938617
20
-0.1653921
40
1.0724845
50
180.8976217
51
188.0055519
0
ARC
8
DEFAULT_255_1_234
10
19.6738806
20
-0.1550223
40
1.3526448
50
180.7449369
51
181.1510016
0
ARC
8
DEFAULT_255_1_234
10
19.5161535
20
0.0306042
40
1.1948131
50
173.7675579
51
180.231553
0
ARC
8
DEFAULT_255_1_234
10
19.0643681
20
0.0816666
40
0.7401564
50
164.3058563
51
173.9002247
0
ARC
8
DEFAULT_255_1_234
10
18.773175
20
0.1655656
40
0.4371288
50
148.7922025
51
164.568378
0
ARC
8
DEFAULT_255_1_234
10
18.6780202
20
0.2186929
40
0.3282386
50
144.5883898
51
148.1176286
0
ARC
8
DEFAULT_255_1_234
10
18.64371
20
0.2426315
40
0.2864044
50
101.6440918
51
144.514236
0
ARC
8
DEFAULT_255_1_234
10
18.6862167
20
0.0737069
40
0.4604934
50
89.5284041
51
102.5819763
0
ARC
8
DEFAULT_255_1_234
10
18.6941255
20
0.0698018
40
0.464401
50
77.0437873
51
90.5081339
0
ARC
8
DEFAULT_255_1_234
10
18.7343256
20
0.2340615
40
0.2953195
50
48.2778575
51
77.4994676
0
ARC
8
DEFAULT_255_1_234
10
18.7415888
20
0.2469746
40
0.2808655
50
36.3142134
51
47.6305865
0
ARC
8
DEFAULT_255_1_234
10
18.6547195
20
0.1884515
40
0.3855453
50
18.2931786
51
35.6769206
0
ARC
8
DEFAULT_255_1_234
10
18.4003954
20
0.1011593
40
0.654423
50
8.024666
51
18.5605216
0
ARC
8
DEFAULT_255_1_234
10
17.9840874
20
0.0396792
40
1.0752407
50
1.1274072
51
8.1718305
0
ARC
8
DEFAULT_255_1_234
10
17.6605064
20
0.0269885
40
1.3990231
50
0.5424119
51
1.3863029
0
ARC
8
DEFAULT_255_1_234
10
17.8426442
20
0.0542342
40
1.0682415
50
359.8090433
51
4.9407866
0
ARC
8
DEFAULT_255_1_234
10
18.2636456
20
0.0918113
40
0.6455691
50
4.8362157
51
12.2904523
0
ARC
8
DEFAULT_255_1_234
10
18.5391571
20
0.1531965
40
0.3633074
50
12.0805627
51
23.8173984
0
ARC
8
DEFAULT_255_1_234
10
18.6565276
20
0.2028919
40
0.2358723
50
24.2871213
51
31.3935614
0
ARC
8
DEFAULT_255_1_234
10
18.7089973
20
0.2372233
40
0.1732111
50
30.7407893
51
82.4657128
0
ARC
8
DEFAULT_255_1_234
10
18.6910108
20
0.1488691
40
0.263235
50
81.1060089
51
90.2184952
0
ARC
8
DEFAULT_255_1_234
10
18.6874407
20
0.1746924
40
0.2374236
50
89.3806855
51
105.6762551
0
ARC
8
DEFAULT_255_1_234
10
18.6691037
20
0.2413567
40
0.1682847
50
105.7981136
51
149.7388061
0
ARC
8
DEFAULT_255_1_234
10
18.7755115
20
0.177395
40
0.2924306
50
149.4208916
51
163.6286378
0
ARC
8
DEFAULT_255_1_234
10
18.9846004
20
0.113625
40
0.5110213
50
163.3763315
51
172.1410975
0
ARC
8
DEFAULT_255_1_234
10
19.3146722
20
0.0663518
40
0.8444586
50
172.0259487
51
178.0703232
0
ARC
8
DEFAULT_255_1_234
10
19.6176812
20
0.0519906
40
1.1477868
50
177.8631668
51
179.5044149
0
ARC
8
DEFAULT_255_1_234
10
19.5104216
20
-0.1794611
40
1.0404907
50
179.7995573
51
185.2460446
0
ARC
8
DEFAULT_255_1_234
10
19.1061256
20
-0.2177487
40
0.6343885
50
185.1411642
51
193.0079639
0
ARC
8
DEFAULT_255_1_234
10
18.8417728
20
-0.2802359
40
0.3627568
50
192.7897626
51
205.2507664
0
ARC
8
DEFAULT_255_1_234
10
18.7371275
20
-0.3269585
40
0.2481908
50
205.8005384
51
211.2537509
0
ARC
8
DEFAULT_255_1_234
10
18.6847716
20
-0.362042
40
0.1852521
50
210.3789793
51
238.4008143
0
ARC
8
DEFAULT_255_1_234
10
18.6828238
20
-0.3573624
40
0.1882621
50
239.6520629
51
265.9793761
0
ARC
8
DEFAULT_255_1_234
10
18.6913438
20
-0.2901573
40
0.2559272
50
265.1315437
51
270.060332
0
ARC
8
DEFAULT_255_1_234
10
18.6942217
20
-0.3225466
40
0.2235528
50
269.3314664
51
287.2178029
0
ARC
8
DEFAULT_255_1_234
10
18.7080069
20
-0.3728721
40
0.1714108
50
287.7958004
51
329.080874
0
ARC
8
DEFAULT_255_1_234
10
18.6122525
20
-0.313107
40
0.2842745
50
328.6634704
51
343.3325132
0
ARC
8
DEFAULT_255_1_234
10
18.3949545
20
-0.2454137
40
0.5118644
50
343.0499468
51
351.9393422
0
ARC
8
DEFAULT_255_1_234
10
18.0482845
20
-0.1943051
40
0.8622784
50
351.8069023
51
357.7959224
0
ARC
8
DEFAULT_255_1_234
10
17.7247401
20
-0.1775279
40
1.1862365
50
357.5871873
51
359.2677531
0
LINE
8
DEFAULT_255_1_234
10
20.0457644
20
-0.6513
11
19.9341232
21
-0.3460939
0
LINE
8
DEFAULT_255_1_234
10
19.9341232
20
-0.3460939
11
19.4441872
21
-0.3460939
0
LINE
8
DEFAULT_255_1_234
10
19.4441872
20
-0.3460939
11
19.3341523
21
-0.6513
0
LINE
8
DEFAULT_255_1_234
10
19.3341523
20
-0.6513
11
19.1751239
21
-0.6513
0
LINE
8
DEFAULT_255_1_234
10
19.1751239
20
-0.6513
11
19.6216886
21
0.5181211
0
LINE
8
DEFAULT_255_1_234
10
19.6216886
20
0.5181211
11
19.7566218
21
0.5181211
0
LINE
8
DEFAULT_255_1_234
10
19.7566218
20
0.5181211
11
20.2039896
21
-0.6513
0
LINE
8
DEFAULT_255_1_234
10
20.2039896
20
-0.6513
11
20.0457644
21
-0.6513
0
LINE
8
DEFAULT_255_1_234
10
19.6891552
20
0.3277689
11
19.4907712
21
-0.2191925
0
LINE
8
DEFAULT_255_1_234
10
19.4907712
20
-0.2191925
11
19.8883423
21
-0.2191925
0
LINE
8
DEFAULT_255_1_234
10
19.8883423
20
-0.2191925
11
19.6891552
21
0.3277689
0
LINE
8
DEFAULT_255_1_234
10
20.7670145
20
-0.6513
11
20.3614117
21
-0.6513
0
LINE
8
DEFAULT_255_1_234
10
20.3614117
20
-0.6513
11
20.3614117
21
0.5181211
0
LINE
8
DEFAULT_255_1_234
10
20.3614117
20
0.5181211
11
20.7437224
21
0.5181211
0
LINE
8
DEFAULT_255_1_234
10
20.7726367
20
-0.1043386
11
20.515621
21
-0.1043386
0
LINE
8
DEFAULT_255_1_234
10
20.515621
20
-0.1043386
11
20.515621
21
-0.5252017
0
LINE
8
DEFAULT_255_1_234
10
20.515621
20
-0.5252017
11
20.7702271
21
-0.5252017
0
LINE
8
DEFAULT_255_1_234
10
20.515621
20
0.3912196
11
20.515621
21
0.0193501
0
LINE
8
DEFAULT_255_1_234
10
20.515621
20
0.0193501
11
20.7485415
21
0.0193501
0
LINE
8
DEFAULT_255_1_234
10
20.7437224
20
0.3912196
11
20.515621
21
0.3912196
0
ARC
8
DEFAULT_255_1_234
10
20.7474933
20
-0.2186099
40
0.7367406
50
82.1257326
51
90.2932599
0
ARC
8
DEFAULT_255_1_234
10
20.7863888
20
0.0532013
40
0.4621653
50
69.9044149
51
82.2857423
0
ARC
8
DEFAULT_255_1_234
10
20.8434566
20
0.2074637
40
0.2976871
50
51.1838526
51
70.0181538
0
ARC
8
DEFAULT_255_1_234
10
20.8689532
20
0.244524
40
0.2528517
50
12.1017251
51
50.4214761
0
ARC
8
DEFAULT_255_1_234
10
20.7305405
20
0.2097676
40
0.3955061
50
359.5251267
51
12.8211707
0
ARC
8
DEFAULT_255_1_234
10
20.8885332
20
0.2028344
40
0.2375281
50
323.4908128
51
0.8817314
0
ARC
8
DEFAULT_255_1_234
10
20.8467019
20
0.235155
40
0.2903817
50
298.6825083
51
323.2756573
0
ARC
8
DEFAULT_255_1_234
10
20.8105382
20
0.2952649
40
0.3604842
50
293.1999386
51
299.1396394
0
ARC
8
DEFAULT_255_1_234
10
20.8778355
20
-0.3132874
40
0.2871098
50
54.0011765
51
74.9167975
0
ARC
8
DEFAULT_255_1_234
10
20.8894714
20
-0.2935668
40
0.2643248
50
36.3580696
51
53.5291921
0
ARC
8
DEFAULT_255_1_234
10
20.8767956
20
-0.3026002
40
0.2798884
50
4.8189881
51
36.3089977
0
ARC
8
DEFAULT_255_1_234
10
20.7988791
20
-0.313573
40
0.358478
50
359.9370252
51
5.5204067
0
ARC
8
DEFAULT_255_1_234
10
20.7664313
20
-0.3176333
40
0.3909429
50
344.7478609
51
0.5373281
0
ARC
8
DEFAULT_255_1_234
10
20.8655284
20
-0.3443456
40
0.2883093
50
311.1786488
51
344.6886812
0
ARC
8
DEFAULT_255_1_234
10
20.8363331
20
-0.3080013
40
0.3348923
50
286.0418249
51
310.8441291
0
ARC
8
DEFAULT_255_1_234
10
20.7856163
20
-0.1433193
40
0.5071869
50
274.1042341
51
286.4071509
0
ARC
8
DEFAULT_255_1_234
10
20.7679419
20
0.0450229
40
0.6963234
50
269.9236873
51
274.445647
0
ARC
8
DEFAULT_255_1_234
10
20.772542
20
-0.1889463
40
0.3362634
50
269.6055768
51
281.3740047
0
ARC
8
DEFAULT_255_1_234
10
20.7956058
20
-0.2982647
40
0.224546
50
281.1055983
51
302.5132223
0
ARC
8
DEFAULT_255_1_234
10
20.8102957
20
-0.3246177
40
0.1944357
50
303.0368945
51
311.8811219
0
ARC
8
DEFAULT_255_1_234
10
20.8174364
20
-0.333111
40
0.1833454
50
311.9916004
51
351.7143462
0
ARC
8
DEFAULT_255_1_234
10
20.7357594
20
-0.316607
40
0.2665871
50
350.7339597
51
0.2221581
0
ARC
8
DEFAULT_255_1_234
10
20.725004
20
-0.3109533
40
0.2773789
50
359.0456241
51
17.2296242
0
ARC
8
DEFAULT_255_1_234
10
20.8289157
20
-0.2800837
40
0.1689915
50
17.6685481
51
78.9940892
0
ARC
8
DEFAULT_255_1_234
10
20.7772321
20
-0.4655776
40
0.3612658
50
76.5635957
51
90.6980921
0
LINE
8
DEFAULT_255_1_234
10
20.7728305
20
-0.1043387
11
20.7726367
21
-0.1043386
0
ARC
8
DEFAULT_255_1_234
10
20.7507981
20
0.3479036
40
0.3285612
50
269.6064736
51
281.4533503
0
ARC
8
DEFAULT_255_1_234
10
20.7730801
20
0.2427688
40
0.2210975
50
281.2041486
51
302.5148063
0
ARC
8
DEFAULT_255_1_234
10
20.7867651
20
0.2181241
40
0.1929674
50
303.021671
51
309.8369575
0
ARC
8
DEFAULT_255_1_234
10
20.8051112
20
0.1975488
40
0.1654181
50
309.5228395
51
356.9509836
0
ARC
8
DEFAULT_255_1_234
10
20.7387695
20
0.2070932
40
0.2322512
50
355.4701227
51
0.0492546
0
ARC
8
DEFAULT_255_1_234
10
20.7108786
20
0.2093094
40
0.2601498
50
359.5558597
51
11.2096359
0
ARC
8
DEFAULT_255_1_234
10
20.8066076
20
0.229123
40
0.1623975
50
10.9182341
51
31.3230275
0
ARC
8
DEFAULT_255_1_234
10
20.8351809
20
0.2450214
40
0.1297302
50
31.8852677
51
52.1412565
0
ARC
8
DEFAULT_255_1_234
10
20.8077542
20
0.206275
40
0.1771663
50
52.8285564
51
71.9850297
0
ARC
8
DEFAULT_255_1_234
10
20.7701718
20
0.0956664
40
0.2939794
50
71.6863486
51
82.8455995
0
ARC
8
DEFAULT_255_1_234
10
20.7462254
20
-0.0852851
40
0.476506
50
82.6984714
51
90.1729175
0
ARC
8
DEFAULT_255_1_234
10
20.7439889
20
0.0370623
40
0.3541573
50
89.8708275
51
90.0431131
0
LINE
8
DEFAULT_255_1_234
10
22.0802037
20
0.0402327
11
22.0802037
21
-0.1525291
0
LINE
8
DEFAULT_255_1_234
10
21.3420869
20
-0.1726084
11
21.3420869
21
0.0257755
0
LINE
8
DEFAULT_255_1_234
10
21.9316165
20
-0.1926877
11
21.9316165
21
0.0506739
0
LINE
8
DEFAULT_255_1_234
10
21.4906741
20
0.0619184
11
21.4906741
21
-0.1758211
0
ARC
8
DEFAULT_255_1_234
10
20.8554926
20
-0.1574195
40
1.2247208
50
353.8441951
51
0.2287902
0
ARC
8
DEFAULT_255_1_234
10
21.319443
20
-0.2092194
40
0.7578929
50
344.4934747
51
353.9765454
0
ARC
8
DEFAULT_255_1_234
10
21.618702
20
-0.2943019
40
0.4467846
50
329.2803592
51
344.7472793
0
ARC
8
DEFAULT_255_1_234
10
21.7179845
20
-0.3487982
40
0.3336173
50
324.9352394
51
328.6160465
0
ARC
8
DEFAULT_255_1_234
10
21.7556954
20
-0.3751573
40
0.2876076
50
280.580143
51
324.9173126
0
ARC
8
DEFAULT_255_1_234
10
21.7155746
20
-0.2080901
40
0.4592847
50
269.5977311
51
281.6734359
0
ARC
8
DEFAULT_255_1_234
10
21.7083652
20
-0.2200827
40
0.4472986
50
256.6228859
51
270.51044
0
ARC
8
DEFAULT_255_1_234
10
21.668163
20
-0.3749123
40
0.2873874
50
215.8618325
51
257.2788573
0
ARC
8
DEFAULT_255_1_234
10
21.7702661
20
-0.3064023
40
0.4102928
50
197.9693508
51
215.2623606
0
ARC
8
DEFAULT_255_1_234
10
22.0187777
20
-0.2225291
40
0.6725652
50
187.8816417
51
198.2346507
0
ARC
8
DEFAULT_255_1_234
10
22.4145985
20
-0.1653921
40
1.0724845
50
180.8976217
51
188.0055519
0
ARC
8
DEFAULT_255_1_234
10
22.6946173
20
-0.1550223
40
1.3526448
50
180.7449369
51
181.1510016
0
ARC
8
DEFAULT_255_1_234
10
22.5368902
20
0.0306042
40
1.1948131
50
173.7675579
51
180.231553
0
ARC
8
DEFAULT_255_1_234
10
22.0851049
20
0.0816666
40
0.7401564
50
164.3058563
51
173.9002247
0
ARC
8
DEFAULT_255_1_234
10
21.7939118
20
0.1655656
40
0.4371288
50
148.7922025
51
164.568378
0
ARC
8
DEFAULT_255_1_234
10
21.698757
20
0.2186929
40
0.3282386
50
144.5883898
51
148.1176286
0
ARC
8
DEFAULT_255_1_234
10
21.6644468
20
0.2426315
40
0.2864044
50
101.6440918
51
144.514236
0
ARC
8
DEFAULT_255_1_234
10
21.7069535
20
0.0737069
40
0.4604934
50
89.5284041
51
102.5819763
0
ARC
8
DEFAULT_255_1_234
10
21.7148622
20
0.0698018
40
0.464401
50
77.0437873
51
90.5081339
0
ARC
8
DEFAULT_255_1_234
10
21.7550624
20
0.2340615
40
0.2953195
50
48.2778575
51
77.4994676
0
ARC
8
DEFAULT_255_1_234
10
21.7623255
20
0.2469746
40
0.2808655
50
36.3142134
51
47.6305865
0
ARC
8
DEFAULT_255_1_234
10
21.6754562
20
0.1884515
40
0.3855453
50
18.2931786
51
35.6769206
0
ARC
8
DEFAULT_255_1_234
10
21.4211321
20
0.1011593
40
0.654423
50
8.024666
51
18.5605216
0
ARC
8
DEFAULT_255_1_234
10
21.0048241
20
0.0396792
40
1.0752407
50
1.1274072
51
8.1718305
0
ARC
8
DEFAULT_255_1_234
10
20.6812432
20
0.0269885
40
1.3990231
50
0.5424119
51
1.3863029
0
ARC
8
DEFAULT_255_1_234
10
20.863381
20
0.0542342
40
1.0682415
50
359.8090433
51
4.9407866
0
ARC
8
DEFAULT_255_1_234
10
21.2843824
20
0.0918113
40
0.6455691
50
4.8362157
51
12.2904523
0
ARC
8
DEFAULT_255_1_234
10
21.5598939
20
0.1531965
40
0.3633074
50
12.0805627
51
23.8173984
0
ARC
8
DEFAULT_255_1_234
10
21.6772644
20
0.2028919
40
0.2358723
50
24.2871213
51
31.3935614
0
ARC
8
DEFAULT_255_1_234
10
21.7297341
20
0.2372233
40
0.1732111
50
30.7407893
51
82.4657128
0
ARC
8
DEFAULT_255_1_234
10
21.7117475
20
0.1488691
40
0.263235
50
81.1060089
51
90.2184952
0
ARC
8
DEFAULT_255_1_234
10
21.7081774
20
0.1746924
40
0.2374236
50
89.3806855
51
105.6762551
0
ARC
8
DEFAULT_255_1_234
10
21.6898405
20
0.2413567
40
0.1682847
50
105.7981136
51
149.7388061
0
ARC
8
DEFAULT_255_1_234
10
21.7962483
20
0.177395
40
0.2924306
50
149.4208916
51
163.6286378
0
ARC
8
DEFAULT_255_1_234
10
22.0053371
20
0.113625
40
0.5110213
50
163.3763315
51
172.1410975
0
ARC
8
DEFAULT_255_1_234
10
22.335409
20
0.0663518
40
0.8444586
50
172.0259487
51
178.0703232
0
ARC
8
DEFAULT_255_1_234
10
22.638418
20
0.0519906
40
1.1477868
50
177.8631668
51
179.5044149
0
ARC
8
DEFAULT_255_1_234
10
22.5311584
20
-0.1794611
40
1.0404907
50
179.7995573
51
185.2460446
0
ARC
8
DEFAULT_255_1_234
10
22.1268624
20
-0.2177487
40
0.6343885
50
185.1411642
51
193.0079639
0
ARC
8
DEFAULT_255_1_234
10
21.8625096
20
-0.2802359
40
0.3627568
50
192.7897626
51
205.2507664
0
ARC
8
DEFAULT_255_1_234
10
21.7578643
20
-0.3269585
40
0.2481908
50
205.8005384
51
211.2537509
0
ARC
8
DEFAULT_255_1_234
10
21.7055084
20
-0.362042
40
0.1852521
50
210.3789793
51
238.4008143
0
ARC
8
DEFAULT_255_1_234
10
21.7035605
20
-0.3573624
40
0.1882621
50
239.6520629
51
265.9793761
0
ARC
8
DEFAULT_255_1_234
10
21.7120806
20
-0.2901573
40
0.2559272
50
265.1315437
51
270.060332
0
ARC
8
DEFAULT_255_1_234
10
21.7149584
20
-0.3225466
40
0.2235528
50
269.3314664
51
287.2178029
0
ARC
8
DEFAULT_255_1_234
10
21.7287436
20
-0.3728721
40
0.1714108
50
287.7958004
51
329.080874
0
ARC
8
DEFAULT_255_1_234
10
21.6329893
20
-0.313107
40
0.2842745
50
328.6634704
51
343.3325132
0
ARC
8
DEFAULT_255_1_234
10
21.4156913
20
-0.2454137
40
0.5118644
50
343.0499468
51
351.9393422
0
ARC
8
DEFAULT_255_1_234
10
21.0690213
20
-0.1943051
40
0.8622784
50
351.8069023
51
357.7959224
0
ARC
8
DEFAULT_255_1_234
10
20.7454769
20
-0.1775279
40
1.1862365
50
357.5871873
51
359.2677531
0
ARC
8
DEFAULT_255_2_778
10
7.7537338
20
36.4637992
40
3.0484709
50
251.6854144
51
258.6071955
0
ARC
8
DEFAULT_255_2_778
10
7.539521
20
35.3821738
40
1.9458471
50
258.4992492
51
268.3986479
0
ARC
8
DEFAULT_255_2_778
10
7.5172314
20
34.9519206
40
1.5151737
50
268.7865272
51
269.9950384
0
ARC
8
DEFAULT_255_2_778
10
7.5277432
20
34.5007355
40
1.0640417
50
269.426895
51
279.6711067
0
ARC
8
DEFAULT_255_2_778
10
7.6417753
20
33.8711746
40
0.4243233
50
278.7731084
51
300.3324923
0
ARC
8
DEFAULT_255_2_778
10
7.760746
20
33.6685552
40
0.1893587
50
300.2240287
51
1.9041213
0
ARC
8
DEFAULT_255_2_778
10
7.7452705
20
33.6777089
40
0.2047497
50
359.1991369
51
359.99965
0
ARC
8
DEFAULT_255_2_778
10
7.7523233
20
33.6785378
40
0.1976988
50
359.7594145
51
47.1793976
0
ARC
8
DEFAULT_255_2_778
10
7.6187277
20
33.529931
40
0.3975169
50
47.6144502
51
60.8366176
0
ARC
8
DEFAULT_255_2_778
10
7.0190958
20
32.5139865
40
1.5771337
50
59.799464
51
64.8885807
0
ARC
8
DEFAULT_255_2_778
10
6.0948833
20
30.5849682
40
3.7160912
50
64.6076081
51
66.8386974
0
ARC
8
DEFAULT_255_2_778
10
9.6419609
20
38.9480052
40
5.368109
50
244.3032309
51
247.1393781
0
ARC
8
DEFAULT_255_2_778
10
8.5507088
20
36.688018
40
2.8584574
50
240.2323579
51
244.3709759
0
ARC
8
DEFAULT_255_2_778
10
7.7800475
20
35.3511591
40
1.315392
50
233.2209971
51
240.4606284
0
ARC
8
DEFAULT_255_2_778
10
7.3561477
20
34.7800187
40
0.6041399
50
225.6990744
51
232.9899679
0
ARC
8
DEFAULT_255_2_778
10
7.3965073
20
34.8044214
40
0.6499005
50
178.2783416
51
224.6550883
0
ARC
8
DEFAULT_255_2_778
10
7.5059624
20
34.8377974
40
0.7591885
50
157.033673
51
181.0453383
0
ARC
8
DEFAULT_255_2_778
10
7.378439
20
34.8786396
40
0.6259551
50
124.9113017
51
155.9211516
0
ARC
8
DEFAULT_255_2_778
10
7.5960466
20
34.5700681
40
1.0035357
50
100.4079723
51
125.0168617
0
ARC
8
DEFAULT_255_2_778
10
7.6991199
20
34.0760046
40
1.5081396
50
89.6483922
51
100.8684975
0
ARC
8
DEFAULT_255_2_778
10
7.7083242
20
33.7237988
40
1.8603169
50
89.5079487
51
89.9984402
0
ARC
8
DEFAULT_255_2_778
10
7.7099573
20
33.6585694
40
1.9255311
50
83.9170631
51
89.5732113
0
ARC
8
DEFAULT_255_2_778
10
7.5071517
20
31.6509957
40
3.9433074
50
80.7325723
51
84.0779772
0
ARC
8
DEFAULT_255_2_778
10
7.0208457
20
28.628082
40
7.0050837
50
78.5086351
51
80.7886813
0
ARC
8
DEFAULT_255_2_778
10
7.6620177
20
33.2275544
40
1.9415426
50
67.135818
51
78.0934208
0
ARC
8
DEFAULT_255_2_778
10
7.7851814
20
33.7979809
40
1.3579807
50
78.2126325
51
89.7333975
0
ARC
8
DEFAULT_255_2_778
10
7.7793853
20
34.2131211
40
0.9429038
50
89.2638155
51
100.5666868
0
ARC
8
DEFAULT_255_2_778
10
7.6660949
20
34.7829419
40
0.362036
50
99.4784875
51
124.329414
0
ARC
8
DEFAULT_255_2_778
10
7.5705593
20
34.931051
40
0.1859067
50
125.7571195
51
182.2824883
0
ARC
8
DEFAULT_255_2_778
10
7.5493239
20
34.9243629
40
0.1645253
50
180.2492993
51
239.8144161
0
ARC
8
DEFAULT_255_2_778
10
7.932718
20
35.5244128
40
0.876484
50
237.8725734
51
242.8068846
0
ARC
8
DEFAULT_255_2_778
10
9.4175857
20
38.3409958
40
4.0604642
50
242.3328458
51
244.031083
0
ARC
8
DEFAULT_255_2_778
10
12.3804066
20
44.3894314
40
10.7955807
50
243.950624
51
244.8024316
0
ARC
8
DEFAULT_255_2_778
10
15.4009918
20
50.7734175
40
17.8580926
50
244.7535425
51
244.9563234
0
ARC
8
DEFAULT_255_2_778
10
5.8652927
20
30.2718264
40
4.7527588
50
62.2505456
51
65.4301556
0
ARC
8
DEFAULT_255_2_778
10
6.9275435
20
32.2799172
40
2.4810291
50
57.2951304
51
62.3684211
0
ARC
8
DEFAULT_255_2_778
10
7.6807233
20
33.4432235
40
1.0952081
50
48.7345704
51
57.5685367
0
ARC
8
DEFAULT_255_2_778
10
8.0117486
20
33.8307722
40
0.5856147
50
44.3236031
51
48.0704418
0
ARC
8
DEFAULT_255_2_778
10
7.9783002
20
33.8107468
40
0.6236013
50
1.3523843
51
43.4925744
0
ARC
8
DEFAULT_255_2_778
10
7.7103531
20
33.7778151
40
0.8926473
50
359.9763756
51
3.0599076
0
ARC
8
DEFAULT_255_2_778
10
7.8645343
20
33.7627407
40
0.7386124
50
333.0361889
51
1.1408766
0
ARC
8
DEFAULT_255_2_778
10
7.8947908
20
33.7696919
40
0.7150741
50
300.8430083
51
331.4403095
0
ARC
8
DEFAULT_255_2_778
10
7.694568
20
34.0832162
40
1.0869673
50
281.4258583
51
301.4316118
0
ARC
8
DEFAULT_255_2_778
10
7.5632666
20
34.6914414
40
1.7091691
50
270.2273513
51
281.7010805
0
ARC
8
DEFAULT_255_2_778
10
7.5453797
20
35.1681043
40
2.1859577
50
269.9983113
51
270.6466065
0
LINE
8
DEFAULT_255_2_778
10
7.5453153
20
32.9821465
11
7.5438002
21
32.982147
0
ARC
8
DEFAULT_255_2_778
10
7.5509161
20
36.1650969
40
3.1829579
50
256.2431122
51
269.871909
0
ARC
8
DEFAULT_255_2_778
10
21.7538511
20
36.3896629
40
2.9720345
50
251.5709223
51
258.7508181
0
ARC
8
DEFAULT_255_2_778
10
21.5538128
20
35.3664385
40
1.9294488
50
258.6495077
51
268.8281511
0
ARC
8
DEFAULT_255_2_778
10
21.5355488
20
34.9716193
40
1.5343723
50
269.2085037
51
269.9981866
0
ARC
8
DEFAULT_255_2_778
10
21.5473849
20
34.5032184
40
1.0660376
50
269.3612297
51
279.5899087
0
ARC
8
DEFAULT_255_2_778
10
21.6608439
20
33.8717324
40
0.424527
50
278.6895227
51
300.2363944
0
ARC
8
DEFAULT_255_2_778
10
21.7799083
20
33.6682793
40
0.188796
50
300.1108484
51
1.9024905
0
ARC
8
DEFAULT_255_2_778
10
21.7439577
20
33.6789221
40
0.2246851
50
358.8842611
51
0.0019649
0
ARC
8
DEFAULT_255_2_778
10
21.7769791
20
33.6828385
40
0.1917038
50
358.831716
51
47.0900458
0
ARC
8
DEFAULT_255_2_778
10
21.6364654
20
33.523484
40
0.4041259
50
47.8812665
51
61.174665
0
ARC
8
DEFAULT_255_2_778
10
21.0418848
20
32.5035117
40
1.5846568
50
60.1210877
51
65.1917015
0
ARC
8
DEFAULT_255_2_778
10
20.1415278
20
30.5979122
40
3.6922188
50
64.9168629
51
67.1565628
0
ARC
8
DEFAULT_255_2_778
10
23.6275467
20
38.8694888
40
5.2839333
50
244.2656926
51
247.1407051
0
ARC
8
DEFAULT_255_2_778
10
22.5594997
20
36.661265
40
2.8309849
50
240.1545061
51
244.3326325
0
ARC
8
DEFAULT_255_2_778
10
21.7856548
20
35.3252346
40
1.2870531
50
232.697515
51
240.4357497
0
ARC
8
DEFAULT_255_2_778
10
21.3705506
20
34.7742218
40
0.5972006
50
225.5850892
51
232.3393736
0
ARC
8
DEFAULT_255_2_778
10
21.4133941
20
34.8037933
40
0.6483829
50
178.7795739
51
224.7095916
0
ARC
8
DEFAULT_255_2_778
10
21.6669319
20
34.8278135
40
0.9018316
50
179.997867
51
180.6487041
0
ARC
8
DEFAULT_255_2_778
10
21.5167738
20
34.8416249
40
0.7517998
50
156.9195758
51
181.050088
0
ARC
8
DEFAULT_255_2_778
10
21.3928482
20
34.8810712
40
0.6224513
50
124.7111133
51
155.7879672
0
ARC
8
DEFAULT_255_2_778
10
21.6055459
20
34.5891942
40
0.9835402
50
101.7934503
51
125.2143527
0
ARC
8
DEFAULT_255_2_778
10
21.729848
20
34.0366326
40
1.5498677
50
89.5248728
51
102.1166783
0
ARC
8
DEFAULT_255_2_778
10
21.7283109
20
33.4830834
40
2.1034129
50
83.2889725
51
89.6080411
0
ARC
8
DEFAULT_255_2_778
10
21.529975
20
31.7152668
40
3.8823067
50
79.4764054
51
83.4308492
0
ARC
8
DEFAULT_255_2_778
10
21.2186357
20
29.9620673
40
5.6628977
50
78.2224868
51
79.6190915
0
ARC
8
DEFAULT_255_2_778
10
21.6838473
20
33.2395715
40
1.9311543
50
67.1323814
51
78.3148813
0
ARC
8
DEFAULT_255_2_778
10
21.801359
20
33.7910614
40
1.3672981
50
78.4565774
51
89.7552271
0
ARC
8
DEFAULT_255_2_778
10
21.7951366
20
34.221947
40
0.9364778
50
89.2619009
51
100.5950934
0
ARC
8
DEFAULT_255_2_778
10
21.6824182
20
34.7874169
40
0.3599879
50
99.5087086
51
124.406715
0
ARC
8
DEFAULT_255_2_778
10
21.5878565
20
34.933843
40
0.1858061
50
125.8630185
51
182.2986975
0
ARC
8
DEFAULT_255_2_778
10
21.5497296
20
34.9263047
40
0.1475296
50
179.9666559
51
180.100057
0
ARC
8
DEFAULT_255_2_778
10
21.566185
20
34.926293
40
0.163985
50
180.0859454
51
239.8819968
0
ARC
8
DEFAULT_255_2_778
10
21.9379018
20
35.5130619
40
0.8584853
50
238.072871
51
243.0442008
0
ARC
8
DEFAULT_255_2_778
10
23.4872034
20
38.4780845
40
4.2038426
50
242.5409111
51
244.1884903
0
ARC
8
DEFAULT_255_2_778
10
26.6463384
20
44.972696
40
11.4260319
50
244.1076525
51
244.9219574
0
ARC
8
DEFAULT_255_2_778
10
29.9038827
20
51.896355
40
19.0777309
50
244.8743531
51
245.066969
0
ARC
8
DEFAULT_255_2_778
10
19.8865272
20
30.3041274
40
4.7250654
50
62.0340028
51
65.293009
0
ARC
8
DEFAULT_255_2_778
10
20.9507744
20
32.2990758
40
2.464003
50
57.1127289
51
62.13736
0
ARC
8
DEFAULT_255_2_778
10
21.7037139
20
33.4527906
40
1.0863604
50
48.3695509
51
57.4197129
0
ARC
8
DEFAULT_255_2_778
10
22.0286268
20
33.8295419
40
0.5889589
50
44.472493
51
47.6467012
0
ARC
8
DEFAULT_255_2_778
10
21.9979457
20
33.8124032
40
0.6229283
50
1.2061613
51
43.6203607
0
ARC
8
DEFAULT_255_2_778
10
21.7312413
20
33.7799903
40
0.890659
50
359.9779196
51
2.9299178
0
ARC
8
DEFAULT_255_2_778
10
21.8802547
20
33.7648837
40
0.7417924
50
333.172934
51
1.140392
0
ARC
8
DEFAULT_255_2_778
10
21.9146167
20
33.7695736
40
0.7135172
50
300.9808035
51
331.5913995
0
ARC
8
DEFAULT_255_2_778
10
21.7182603
20
34.0794862
40
1.0803281
50
281.9040909
51
301.4483918
0
ARC
8
DEFAULT_255_2_778
10
21.5848425
20
34.6780518
40
1.6935565
50
270.5796874
51
282.1436175
0
ARC
8
DEFAULT_255_2_778
10
21.5636722
20
35.1729735
40
2.1887267
50
269.9959074
51
271.0027751
0
LINE
8
DEFAULT_255_2_778
10
21.5635158
20
32.9842468
11
21.5625002
21
32.984247
0
ARC
8
DEFAULT_255_2_778
10
21.5700221
20
36.1730174
40
3.1887792
50
256.2556596
51
269.8648469
0
LINE
8
DEFAULT_255_2_778
10
6.7958002
20
33.075047
11
6.7958002
21
33.569747
0
LINE
8
DEFAULT_255_2_778
10
8.4164002
20
35.492747
11
8.4164002
21
35.016547
0
LINE
8
DEFAULT_255_2_778
10
6.7940002
20
33.073447
11
6.7958002
21
33.075047
0
LINE
8
DEFAULT_255_2_778
10
8.9866002
20
35.542247
11
9.6629002
21
35.542247
0
LINE
8
DEFAULT_255_2_778
10
9.6629002
20
35.542247
11
9.6629002
21
33.034847
0
LINE
8
DEFAULT_255_2_778
10
9.6629002
20
33.034847
11
8.9866002
21
33.034847
0
LINE
8
DEFAULT_255_2_778
10
8.9866002
20
33.034847
11
8.9866002
21
35.542247
0
LINE
8
DEFAULT_255_2_778
10
10.2809002
20
33.034847
11
10.2809002
21
35.542247
0
LINE
8
DEFAULT_255_2_778
10
10.2809002
20
35.542247
11
12.0132002
21
35.542247
0
LINE
8
DEFAULT_255_2_778
10
12.0132002
20
35.542247
11
12.0132002
21
35.088547
0
LINE
8
DEFAULT_255_2_778
10
12.0132002
20
35.088547
11
10.9321002
21
35.088547
0
LINE
8
DEFAULT_255_2_778
10
10.9321002
20
35.088547
11
10.9321002
21
34.522247
0
LINE
8
DEFAULT_255_2_778
10
10.9321002
20
34.522247
11
11.8735002
21
34.522247
0
LINE
8
DEFAULT_255_2_778
10
11.8735002
20
34.522247
11
11.8735002
21
34.108747
0
LINE
8
DEFAULT_255_2_778
10
11.8735002
20
34.108747
11
10.9321002
21
34.108747
0
LINE
8
DEFAULT_255_2_778
10
10.9321002
20
34.108747
11
10.9321002
21
33.513447
0
LINE
8
DEFAULT_255_2_778
10
10.9321002
20
33.513447
11
12.0412002
21
33.513447
0
LINE
8
DEFAULT_255_2_778
10
12.0412002
20
33.513447
11
12.0412002
21
33.033247
0
LINE
8
DEFAULT_255_2_778
10
12.0412002
20
33.033247
11
10.2809002
21
33.034847
0
LINE
8
DEFAULT_255_2_778
10
12.4817002
20
33.034847
11
12.4817002
21
35.542247
0
LINE
8
DEFAULT_255_2_778
10
12.4817002
20
35.542247
11
13.3575002
21
35.542247
0
LINE
8
DEFAULT_255_2_778
10
13.3575002
20
35.542247
11
13.9671002
21
33.939947
0
LINE
8
DEFAULT_255_2_778
10
13.9671002
20
33.939947
11
14.5897002
21
35.542247
0
LINE
8
DEFAULT_255_2_778
10
14.5897002
20
35.542247
11
15.4215002
21
35.542247
0
LINE
8
DEFAULT_255_2_778
10
15.4215002
20
35.542247
11
15.4215002
21
33.034847
0
LINE
8
DEFAULT_255_2_778
10
15.4215002
20
33.034847
11
14.7812002
21
33.034847
0
LINE
8
DEFAULT_255_2_778
10
14.7812002
20
33.034847
11
14.7812002
21
34.810647
0
LINE
8
DEFAULT_255_2_778
10
14.7812002
20
34.810647
11
14.0724002
21
33.010447
0
LINE
8
DEFAULT_255_2_778
10
14.0724002
20
33.010447
11
13.6515002
21
33.010447
0
LINE
8
DEFAULT_255_2_778
10
13.6515002
20
33.010447
11
12.9559002
21
34.810647
0
LINE
8
DEFAULT_255_2_778
10
12.9559002
20
34.810647
11
12.9559002
21
33.034547
0
LINE
8
DEFAULT_255_2_778
10
12.9559002
20
33.034547
11
12.4817002
21
33.034847
0
LINE
8
DEFAULT_255_2_778
10
16.0409002
20
33.034847
11
16.0409002
21
35.542247
0
LINE
8
DEFAULT_255_2_778
10
16.0409002
20
35.542247
11
17.7731002
21
35.542247
0
LINE
8
DEFAULT_255_2_778
10
17.7731002
20
35.542247
11
17.7731002
21
35.088547
0
LINE
8
DEFAULT_255_2_778
10
17.7731002
20
35.088547
11
16.6921002
21
35.088547
0
LINE
8
DEFAULT_255_2_778
10
16.6921002
20
35.088547
11
16.6921002
21
34.522247
0
LINE
8
DEFAULT_255_2_778
10
16.6921002
20
34.522247
11
17.6334002
21
34.522247
0
LINE
8
DEFAULT_255_2_778
10
17.6334002
20
34.522247
11
17.6334002
21
34.108747
0
LINE
8
DEFAULT_255_2_778
10
17.6334002
20
34.108747
11
16.6921002
21
34.108747
0
LINE
8
DEFAULT_255_2_778
10
16.6921002
20
34.108747
11
16.6921002
21
33.513447
0
LINE
8
DEFAULT_255_2_778
10
16.6921002
20
33.513447
11
17.8030002
21
33.513447
0
LINE
8
DEFAULT_255_2_778
10
17.8030002
20
33.513447
11
17.8030002
21
33.033247
0
LINE
8
DEFAULT_255_2_778
10
17.8030002
20
33.033247
11
16.0409002
21
33.034847
0
LINE
8
DEFAULT_255_2_778
10
18.2454002
20
33.034847
11
18.2454002
21
35.542247
0
LINE
8
DEFAULT_255_2_778
10
18.2454002
20
35.542247
11
19.0283002
21
35.542247
0
LINE
8
DEFAULT_255_2_778
10
19.0283002
20
35.542247
11
19.8586002
21
33.863447
0
LINE
8
DEFAULT_255_2_778
10
19.8586002
20
33.863447
11
19.8586002
21
35.542247
0
LINE
8
DEFAULT_255_2_778
10
19.8586002
20
35.542247
11
20.3343002
21
35.542247
0
LINE
8
DEFAULT_255_2_778
10
20.3343002
20
35.542247
11
20.3343002
21
33.034847
0
LINE
8
DEFAULT_255_2_778
10
20.3343002
20
33.034847
11
19.5739002
21
33.034847
0
LINE
8
DEFAULT_255_2_778
10
19.5739002
20
33.034847
11
18.7214002
21
34.736047
0
LINE
8
DEFAULT_255_2_778
10
18.7214002
20
34.736047
11
18.7214002
21
33.034847
0
LINE
8
DEFAULT_255_2_778
10
18.7214002
20
33.034847
11
18.2454002
21
33.034847
0
LINE
8
DEFAULT_255_2_778
10
20.8143002
20
33.075247
11
20.8143002
21
33.570047
0
LINE
8
DEFAULT_255_2_778
10
22.3745002
20
35.505747
11
22.4343002
21
35.495147
0
LINE
8
DEFAULT_255_2_778
10
22.4343002
20
35.495147
11
22.4343002
21
35.018947
0
LINE
8
DEFAULT_255_2_778
10
20.8124002
20
33.075547
11
20.8143002
21
33.075247
0
LINE
8
DEFAULT_255_1_234
10
9.1295023
20
31.2684849
11
8.9744897
21
31.2684849
0
LINE
8
DEFAULT_255_1_234
10
8.2821539
20
30.7761394
11
8.4371665
21
30.7761394
0
ARC
8
DEFAULT_255_1_234
10
9.040371
20
32.1631768
40
1.252368
50
248.9199003
51
254.1439814
0
ARC
8
DEFAULT_255_1_234
10
8.8723205
20
31.7305234
40
0.788226
50
241.633709
51
249.0064503
0
ARC
8
DEFAULT_255_1_234
10
8.71946
20
31.4504317
40
0.4691427
50
230.498225
51
241.8087113
0
ARC
8
DEFAULT_255_1_234
10
8.6410174
20
31.3504906
40
0.3421437
50
227.4064532
51
229.9881192
0
ARC
8
DEFAULT_255_1_234
10
8.5922694
20
31.3029088
40
0.2741476
50
200.6781896
51
228.1763934
0
ARC
8
DEFAULT_255_1_234
10
8.5995005
20
31.3014077
40
0.2804109
50
179.5061581
51
199.8694617
0
ARC
8
DEFAULT_255_1_234
10
8.5985757
20
31.308821
40
0.2795204
50
132.4834203
51
181.0242172
0
ARC
8
DEFAULT_255_1_234
10
8.6581339
20
31.2525704
40
0.3612768
50
129.2532479
51
133.4242687
0
ARC
8
DEFAULT_255_1_234
10
8.6727789
20
31.2305965
40
0.3875675
50
101.98776
51
128.8742646
0
ARC
8
DEFAULT_255_1_234
10
8.7126399
20
31.0584741
40
0.5642249
50
89.5906553
51
102.3169264
0
ARC
8
DEFAULT_255_1_234
10
8.7196891
20
31.0903148
40
0.5323783
50
77.2360837
51
90.3248275
0
ARC
8
DEFAULT_255_1_234
10
8.7403971
20
31.18704
40
0.4334697
50
63.837784
51
77.0809408
0
ARC
8
DEFAULT_255_1_234
10
8.7681732
20
31.2387911
40
0.3747796
50
45.9864267
51
64.1607727
0
ARC
8
DEFAULT_255_1_234
10
8.7942614
20
31.2685866
40
0.3352302
50
32.2747395
51
45.6547121
0
ARC
8
DEFAULT_255_1_234
10
8.8009054
20
31.270488
40
0.328603
50
359.6507365
51
32.6130309
0
ARC
8
DEFAULT_255_1_234
10
8.706615
20
31.270966
40
0.2678863
50
359.469343
51
14.9832209
0
ARC
8
DEFAULT_255_1_234
10
8.7771212
20
31.2898539
40
0.1948938
50
14.9781179
51
48.2004265
0
ARC
8
DEFAULT_255_1_234
10
8.7606856
20
31.2691983
40
0.2212521
50
48.5927837
51
74.1241538
0
ARC
8
DEFAULT_255_1_234
10
8.7273346
20
31.1591248
40
0.3362561
50
73.7888341
51
86.6652678
0
ARC
8
DEFAULT_255_1_234
10
8.7170911
20
31.0383881
40
0.4573953
50
86.2640471
51
90.0526343
0
ARC
8
DEFAULT_255_1_234
10
8.7142624
20
31.0779192
40
0.4178709
50
89.6697524
51
99.2309573
0
ARC
8
DEFAULT_255_1_234
10
8.6900075
20
31.2223964
40
0.2713749
50
99.069534
51
113.7658566
0
ARC
8
DEFAULT_255_1_234
10
8.6626266
20
31.2869677
40
0.2012469
50
114.0401004
51
127.9850673
0
ARC
8
DEFAULT_255_1_234
10
8.638583
20
31.316573
40
0.1631167
50
127.7287463
51
176.7105154
0
ARC
8
DEFAULT_255_1_234
10
8.7064547
20
31.3064693
40
0.2315392
50
175.1779447
51
180.0581938
0
ARC
8
DEFAULT_255_1_234
10
8.6221394
20
31.3052428
40
0.1472271
50
179.6142195
51
228.1246017
0
ARC
8
DEFAULT_255_1_234
10
8.6663063
20
31.3461308
40
0.2072299
50
226.5779593
51
230.8800004
0
ARC
8
DEFAULT_255_1_234
10
8.7134141
20
31.4086636
40
0.2854818
50
231.4635071
51
241.9260842
0
ARC
8
DEFAULT_255_1_234
10
8.8331319
20
31.62898
40
0.53622
50
241.7178533
51
248.3259551
0
ARC
8
DEFAULT_255_1_234
10
8.9716691
20
31.9722064
40
0.9063478
50
248.2007737
51
252.4528373
0
ARC
8
DEFAULT_255_1_234
10
9.0920416
20
32.3443441
40
1.2974635
50
252.3391078
51
254.3469452
0
ARC
8
DEFAULT_255_1_234
10
8.3378119
20
29.6466148
40
1.5037162
50
71.0197183
51
74.4087047
0
ARC
8
DEFAULT_255_1_234
10
8.5072804
20
30.1358111
40
0.9859993
50
66.1847285
51
71.086374
0
ARC
8
DEFAULT_255_1_234
10
8.6629116
20
30.48622
40
0.6025855
50
59.3536294
51
66.2691831
0
ARC
8
DEFAULT_255_1_234
10
8.7517769
20
30.6365609
40
0.4279449
50
49.1020879
51
59.3293958
0
ARC
8
DEFAULT_255_1_234
10
8.8336509
20
30.7298834
40
0.3038015
50
32.7919921
51
49.2505539
0
ARC
8
DEFAULT_255_1_234
10
8.8657599
20
30.7527191
40
0.264448
50
31.1181161
51
32.4005348
0
ARC
8
DEFAULT_255_1_234
10
8.8569136
20
30.7491779
40
0.2738556
50
8.1116974
51
30.7958831
0
ARC
8
DEFAULT_255_1_234
10
8.7758804
20
30.7353753
40
0.3560327
50
359.8389159
51
8.4706516
0
ARC
8
DEFAULT_255_1_234
10
8.8384596
20
30.7305137
40
0.2934776
50
337.4731098
51
0.7537279
0
ARC
8
DEFAULT_255_1_234
10
8.8563291
20
30.7285387
40
0.2762607
50
307.5917067
51
336.4315538
0
ARC
8
DEFAULT_255_1_234
10
8.8103119
20
30.7798102
40
0.3449979
50
307.6551545
51
308.4529766
0
ARC
8
DEFAULT_255_1_234
10
8.7872838
20
30.815325
40
0.3871988
50
284.3734338
51
307.1424381
0
ARC
8
DEFAULT_255_1_234
10
8.7377668
20
30.9974932
40
0.5759636
50
272.4382747
51
284.646547
0
ARC
8
DEFAULT_255_1_234
10
8.7250876
20
31.1774893
40
0.7563528
50
269.9708387
51
272.8178037
0
ARC
8
DEFAULT_255_1_234
10
8.7207916
20
30.9736716
40
0.5525489
50
248.2707594
51
270.4055579
0
ARC
8
DEFAULT_255_1_234
10
8.7153657
20
30.9546192
40
0.5328452
50
246.1383403
51
248.0542782
0
ARC
8
DEFAULT_255_1_234
10
8.6735036
20
30.8666843
40
0.4355005
50
233.1670131
51
246.4950969
0
ARC
8
DEFAULT_255_1_234
10
8.6180941
20
30.7918812
40
0.3424126
50
215.3403242
51
233.0843104
0
ARC
8
DEFAULT_255_1_234
10
8.5908372
20
30.7720549
40
0.3087104
50
179.2419209
51
215.2648451
0
ARC
8
DEFAULT_255_1_234
10
8.6675966
20
30.7734666
40
0.2304457
50
179.335461
51
199.1045811
0
ARC
8
DEFAULT_255_1_234
10
8.6343643
20
30.7647766
40
0.1962176
50
199.8828939
51
232.7063202
0
ARC
8
DEFAULT_255_1_234
10
8.6815911
20
30.8241788
40
0.2720938
50
232.3738199
51
255.5136649
0
ARC
8
DEFAULT_255_1_234
10
8.7156778
20
30.9485835
40
0.4010747
50
255.2446292
51
267.5320849
0
ARC
8
DEFAULT_255_1_234
10
8.7244401
20
31.0718702
40
0.5246356
50
267.1557994
51
270.0286766
0
ARC
8
DEFAULT_255_1_234
10
8.7272173
20
31.027495
40
0.4802668
50
269.7000017
51
278.1660162
0
ARC
8
DEFAULT_255_1_234
10
8.7528178
20
30.8544515
40
0.3053425
50
278.0231263
51
290.625471
0
ARC
8
DEFAULT_255_1_234
10
8.7875865
20
30.7617025
40
0.206291
50
290.6619762
51
307.0370976
0
ARC
8
DEFAULT_255_1_234
10
8.8176254
20
30.7248504
40
0.1587906
50
306.3943566
51
355.3030547
0
ARC
8
DEFAULT_255_1_234
10
8.7664186
20
30.7325113
40
0.2104809
50
354.3660432
51
0.0698737
0
ARC
8
DEFAULT_255_1_234
10
8.7806531
20
30.7347617
40
0.1962563
50
359.417946
51
16.1971788
0
ARC
8
DEFAULT_255_1_234
10
8.8261841
20
30.7472418
40
0.149053
50
16.4723299
51
52.6262157
0
ARC
8
DEFAULT_255_1_234
10
8.7440895
20
30.6388433
40
0.2850296
50
52.7386432
51
62.4979148
0
ARC
8
DEFAULT_255_1_234
10
8.6055972
20
30.3782283
40
0.5801521
50
62.2515216
51
68.1220564
0
ARC
8
DEFAULT_255_1_234
10
8.4335883
20
29.9554872
40
1.0365451
50
68.0062803
51
71.8053402
0
ARC
8
DEFAULT_255_1_234
10
8.2540255
20
29.4169758
40
1.6042013
50
71.7183119
51
73.9258742
0
LINE
8
DEFAULT_255_1_234
10
9.4949464
20
31.6066211
11
9.4949464
21
30.4372
0
LINE
8
DEFAULT_255_1_234
10
9.4949464
20
30.4372
11
9.340737
21
30.4372
0
LINE
8
DEFAULT_255_1_234
10
9.340737
20
30.4372
11
9.340737
21
31.6066211
0
LINE
8
DEFAULT_255_1_234
10
9.340737
20
31.6066211
11
9.4949464
21
31.6066211
0
LINE
8
DEFAULT_255_1_234
10
9.7768604
20
31.6066211
11
9.9760475
21
31.6066211
0
LINE
8
DEFAULT_255_1_234
10
9.9760475
20
31.6066211
11
10.3583583
21
30.6524506
0
LINE
8
DEFAULT_255_1_234
10
10.3583583
20
30.6524506
11
10.740669
21
31.6066211
0
LINE
8
DEFAULT_255_1_234
10
10.740669
20
31.6066211
11
10.9406593
21
31.6066211
0
LINE
8
DEFAULT_255_1_234
10
10.9406593
20
31.6066211
11
10.9406593
21
30.4372
0
LINE
8
DEFAULT_255_1_234
10
10.9406593
20
30.4372
11
10.7864499
21
30.4372
0
LINE
8
DEFAULT_255_1_234
10
10.7864499
20
30.4372
11
10.7864499
21
30.8925996
0
LINE
8
DEFAULT_255_1_234
10
10.7864499
20
30.8925996
11
10.800907
21
31.3841419
0
LINE
8
DEFAULT_255_1_234
10
10.800907
20
31.3841419
11
10.4169899
21
30.4372
0
LINE
8
DEFAULT_255_1_234
10
10.4169899
20
30.4372
11
10.2989234
21
30.4372
0
LINE
8
DEFAULT_255_1_234
10
10.2989234
20
30.4372
11
9.9158095
21
31.3817324
0
LINE
8
DEFAULT_255_1_234
10
9.9158095
20
31.3817324
11
9.9310698
21
30.8925996
0
LINE
8
DEFAULT_255_1_234
10
9.9310698
20
30.8925996
11
9.9310698
21
30.4372
0
LINE
8
DEFAULT_255_1_234
10
9.9310698
20
30.4372
11
9.7768604
21
30.4372
0
LINE
8
DEFAULT_255_1_234
10
9.7768604
20
30.4372
11
9.7768604
21
31.6066211
0
LINE
8
DEFAULT_255_1_234
10
11.9847853
20
30.4372
11
11.8731441
21
30.7424061
0
LINE
8
DEFAULT_255_1_234
10
11.8731441
20
30.7424061
11
11.3832081
21
30.7424061
0
LINE
8
DEFAULT_255_1_234
10
11.3832081
20
30.7424061
11
11.2731732
21
30.4372
0
LINE
8
DEFAULT_255_1_234
10
11.2731732
20
30.4372
11
11.1141448
21
30.4372
0
LINE
8
DEFAULT_255_1_234
10
11.1141448
20
30.4372
11
11.5607095
21
31.6066211
0
LINE
8
DEFAULT_255_1_234
10
11.5607095
20
31.6066211
11
11.6956427
21
31.6066211
0
LINE
8
DEFAULT_255_1_234
10
11.6956427
20
31.6066211
11
12.1430105
21
30.4372
0
LINE
8
DEFAULT_255_1_234
10
12.1430105
20
30.4372
11
11.9847853
21
30.4372
0
LINE
8
DEFAULT_255_1_234
10
11.6281761
20
31.4162689
11
11.4297921
21
30.8693075
0
LINE
8
DEFAULT_255_1_234
10
11.4297921
20
30.8693075
11
11.8273632
21
30.8693075
0
LINE
8
DEFAULT_255_1_234
10
11.8273632
20
30.8693075
11
11.6281761
21
31.4162689
0
LINE
8
DEFAULT_255_1_234
10
13.004816
20
31.6066211
11
13.004816
21
31.4797196
0
LINE
8
DEFAULT_255_1_234
10
13.004816
20
31.4797196
11
12.6289307
21
31.4797196
0
LINE
8
DEFAULT_255_1_234
10
12.6289307
20
31.4797196
11
12.6289307
21
30.4372
0
LINE
8
DEFAULT_255_1_234
10
12.6289307
20
30.4372
11
12.4755245
21
30.4372
0
LINE
8
DEFAULT_255_1_234
10
12.4755245
20
30.4372
11
12.4755245
21
31.4797196
0
LINE
8
DEFAULT_255_1_234
10
12.4755245
20
31.4797196
11
12.1004423
21
31.4797196
0
LINE
8
DEFAULT_255_1_234
10
12.1004423
20
31.4797196
11
12.1004423
21
31.6066211
0
LINE
8
DEFAULT_255_1_234
10
12.1004423
20
31.6066211
11
13.004816
21
31.6066211
0
LINE
8
DEFAULT_255_1_234
10
13.3437554
20
31.6066211
11
13.3437554
21
30.4372
0
LINE
8
DEFAULT_255_1_234
10
13.3437554
20
30.4372
11
13.189546
21
30.4372
0
LINE
8
DEFAULT_255_1_234
10
13.189546
20
30.4372
11
13.189546
21
31.6066211
0
LINE
8
DEFAULT_255_1_234
10
13.189546
20
31.6066211
11
13.3437554
21
31.6066211
0
LINE
8
DEFAULT_255_1_234
10
14.330856
20
30.8082663
11
14.4858686
21
30.8082663
0
LINE
8
DEFAULT_255_1_234
10
13.5855107
20
30.9672947
11
13.5855107
21
31.0797391
0
LINE
8
DEFAULT_255_1_234
10
14.4858686
20
31.2307357
11
14.330856
21
31.2307357
0
LINE
8
DEFAULT_255_1_234
10
13.7405232
20
31.0757232
11
13.7405232
21
30.9624757
0
ARC
8
DEFAULT_255_1_234
10
13.9378072
20
30.8679846
40
0.5513052
50
340.1774281
51
353.7814284
0
ARC
8
DEFAULT_255_1_234
10
14.0949425
20
30.8094582
40
0.3836379
50
311.4558989
51
340.4421614
0
ARC
8
DEFAULT_255_1_234
10
14.0916093
20
30.8205528
40
0.3941894
50
282.4333181
51
310.7513653
0
ARC
8
DEFAULT_255_1_234
10
14.0476832
20
31.0020679
40
0.5809175
50
269.9358511
51
282.809604
0
ARC
8
DEFAULT_255_1_234
10
14.0424899
20
31.1478212
40
0.7266847
50
270.0021091
51
270.3581957
0
ARC
8
DEFAULT_255_1_234
10
14.0372315
20
30.8877585
40
0.4666519
50
250.7884749
51
270.6489167
0
ARC
8
DEFAULT_255_1_234
10
14.020415
20
30.8240319
40
0.4009729
50
219.3627325
51
250.0611886
0
ARC
8
DEFAULT_255_1_234
10
14.1033361
20
30.8945042
40
0.5097822
50
193.5479632
51
219.5756669
0
ARC
8
DEFAULT_255_1_234
10
14.3404982
20
30.9560919
40
0.7547848
50
181.1218675
51
193.87563
0
ARC
8
DEFAULT_255_1_234
10
14.5475163
20
30.967158
40
0.9620055
50
179.9918545
51
181.5394234
0
ARC
8
DEFAULT_255_1_234
10
14.3624265
20
31.0834788
40
0.7769248
50
169.5837241
51
180.2757934
0
ARC
8
DEFAULT_255_1_234
10
14.1787203
20
31.1174229
40
0.590109
50
155.0365899
51
169.6003176
0
ARC
8
DEFAULT_255_1_234
10
14.0651667
20
31.1721677
40
0.4640625
50
136.783148
51
155.2472683
0
ARC
8
DEFAULT_255_1_234
10
14.0262144
20
31.2052562
40
0.4130255
50
121.7633186
51
136.428115
0
ARC
8
DEFAULT_255_1_234
10
14.0397106
20
31.1803227
40
0.4413323
50
95.6459699
51
121.5490577
0
ARC
8
DEFAULT_255_1_234
10
14.0554388
20
31.0694949
40
0.55319
50
89.924208
51
96.1377933
0
ARC
8
DEFAULT_255_1_234
10
14.0604821
20
31.0813542
40
0.5413475
50
76.6779277
51
90.4563316
0
ARC
8
DEFAULT_255_1_234
10
14.0998444
20
31.2404114
40
0.3775041
50
47.485847
51
76.9287264
0
ARC
8
DEFAULT_255_1_234
10
14.0851417
20
31.2304159
40
0.3948286
50
16.5424086
51
46.8933463
0
ARC
8
DEFAULT_255_1_234
10
13.9243574
20
31.1775861
40
0.564021
50
5.4072051
51
17.0365086
0
ARC
8
DEFAULT_255_1_234
10
13.7804591
20
31.1544679
40
0.5556559
50
7.8891745
51
15.9239216
0
ARC
8
DEFAULT_255_1_234
10
13.9791605
20
31.2121631
40
0.3487515
50
15.7653144
51
27.9410532
0
ARC
8
DEFAULT_255_1_234
10
14.0895822
20
31.271279
40
0.2235026
50
27.8166557
51
46.4008329
0
ARC
8
DEFAULT_255_1_234
10
14.0945465
20
31.2707082
40
0.2205286
50
47.4371857
51
75.0698205
0
ARC
8
DEFAULT_255_1_234
10
14.063686
20
31.1632765
40
0.3322915
50
74.7008593
51
87.8124495
0
ARC
8
DEFAULT_255_1_234
10
14.0563547
20
31.0576844
40
0.4380987
50
87.3814673
51
90.0240855
0
ARC
8
DEFAULT_255_1_234
10
14.0525091
20
31.1754291
40
0.3203749
50
89.3451631
51
108.5745436
0
ARC
8
DEFAULT_255_1_234
10
14.0388196
20
31.2267908
40
0.2673494
50
109.2998449
51
143.3037509
0
ARC
8
DEFAULT_255_1_234
10
14.1150268
20
31.1681881
40
0.3634757
50
143.0753173
51
163.1916937
0
ARC
8
DEFAULT_255_1_234
10
14.3101996
20
31.1065967
40
0.5681262
50
162.9373603
51
174.6208611
0
ARC
8
DEFAULT_255_1_234
10
14.5728038
20
31.077801
40
0.8322832
50
174.3419979
51
180.1430411
0
ARC
8
DEFAULT_255_1_234
10
14.4797194
20
30.9583698
40
0.7392076
50
179.6817502
51
189.150529
0
ARC
8
DEFAULT_255_1_234
10
14.2296443
20
30.916719
40
0.4856932
50
188.9910863
51
203.5773039
0
ARC
8
DEFAULT_255_1_234
10
14.1216775
20
30.8719211
40
0.3688271
50
203.9077269
51
215.1312379
0
ARC
8
DEFAULT_255_1_234
10
14.0293869
20
30.8003941
40
0.2522457
50
213.9071664
51
263.8849284
0
ARC
8
DEFAULT_255_1_234
10
14.0419198
20
30.8788518
40
0.3316174
50
263.1758525
51
270.1031083
0
ARC
8
DEFAULT_255_1_234
10
14.045129
20
31.0035365
40
0.4563091
50
269.6719807
51
279.0609165
0
ARC
8
DEFAULT_255_1_234
10
14.0718058
20
30.8422907
40
0.2928759
50
278.8750225
51
293.6346586
0
ARC
8
DEFAULT_255_1_234
10
14.1038266
20
30.76709
40
0.2111472
50
293.8553404
51
310.0518804
0
ARC
8
DEFAULT_255_1_234
10
14.104312
20
30.7608516
40
0.2060917
50
311.0646779
51
332.0108348
0
ARC
8
DEFAULT_255_1_234
10
13.9850847
20
30.8265978
40
0.3422352
50
331.6588543
51
343.2878891
0
ARC
8
DEFAULT_255_1_234
10
13.7788362
20
30.8899798
40
0.5580003
50
343.1446044
51
351.010618
0
ARC
8
DEFAULT_255_1_234
10
13.6247008
20
30.9180871
40
0.7146438
50
350.7157277
51
351.1602153
0
LINE
8
DEFAULT_255_1_234
10
15.8793751
20
31.2684849
11
15.7243626
21
31.2684849
0
LINE
8
DEFAULT_255_1_234
10
15.0320268
20
30.7761394
11
15.1870393
21
30.7761394
0
ARC
8
DEFAULT_255_1_234
10
15.7902439
20
32.1631768
40
1.252368
50
248.9199003
51
254.1439814
0
ARC
8
DEFAULT_255_1_234
10
15.6221934
20
31.7305234
40
0.788226
50
241.633709
51
249.0064503
0
ARC
8
DEFAULT_255_1_234
10
15.4693328
20
31.4504317
40
0.4691427
50
230.498225
51
241.8087113
0
ARC
8
DEFAULT_255_1_234
10
15.3908902
20
31.3504906
40
0.3421437
50
227.4064532
51
229.9881192
0
ARC
8
DEFAULT_255_1_234
10
15.3421423
20
31.3029088
40
0.2741476
50
200.6781896
51
228.1763934
0
ARC
8
DEFAULT_255_1_234
10
15.3493734
20
31.3014077
40
0.2804109
50
179.5061581
51
199.8694617
0
ARC
8
DEFAULT_255_1_234
10
15.3484485
20
31.308821
40
0.2795204
50
132.4834203
51
181.0242172
0
ARC
8
DEFAULT_255_1_234
10
15.4080068
20
31.2525704
40
0.3612768
50
129.2532479
51
133.4242687
0
ARC
8
DEFAULT_255_1_234
10
15.4226517
20
31.2305965
40
0.3875675
50
101.98776
51
128.8742646
0
ARC
8
DEFAULT_255_1_234
10
15.4625128
20
31.0584741
40
0.5642249
50
89.5906553
51
102.3169264
0
ARC
8
DEFAULT_255_1_234
10
15.469562
20
31.0903148
40
0.5323783
50
77.2360837
51
90.3248275
0
ARC
8
DEFAULT_255_1_234
10
15.4902699
20
31.18704
40
0.4334697
50
63.837784
51
77.0809408
0
ARC
8
DEFAULT_255_1_234
10
15.5180461
20
31.2387911
40
0.3747796
50
45.9864267
51
64.1607727
0
ARC
8
DEFAULT_255_1_234
10
15.5441342
20
31.2685866
40
0.3352302
50
32.2747395
51
45.6547121
0
ARC
8
DEFAULT_255_1_234
10
15.5507783
20
31.270488
40
0.328603
50
359.6507365
51
32.6130309
0
ARC
8
DEFAULT_255_1_234
10
15.4564878
20
31.270966
40
0.2678863
50
359.469343
51
14.9832209
0
ARC
8
DEFAULT_255_1_234
10
15.5269941
20
31.2898539
40
0.1948938
50
14.9781179
51
48.2004265
0
ARC
8
DEFAULT_255_1_234
10
15.5105585
20
31.2691983
40
0.2212521
50
48.5927837
51
74.1241538
0
ARC
8
DEFAULT_255_1_234
10
15.4772074
20
31.1591248
40
0.3362561
50
73.7888341
51
86.6652678
0
ARC
8
DEFAULT_255_1_234
10
15.466964
20
31.0383881
40
0.4573953
50
86.2640471
51
90.0526343
0
ARC
8
DEFAULT_255_1_234
10
15.4641352
20
31.0779192
40
0.4178709
50
89.6697524
51
99.2309573
0
ARC
8
DEFAULT_255_1_234
10
15.4398803
20
31.2223964
40
0.2713749
50
99.069534
51
113.7658566
0
ARC
8
DEFAULT_255_1_234
10
15.4124994
20
31.2869677
40
0.2012469
50
114.0401004
51
127.9850673
0
ARC
8
DEFAULT_255_1_234
10
15.3884558
20
31.316573
40
0.1631167
50
127.7287463
51
176.7105154
0
ARC
8
DEFAULT_255_1_234
10
15.4563276
20
31.3064693
40
0.2315392
50
175.1779447
51
180.0581938
0
ARC
8
DEFAULT_255_1_234
10
15.3720123
20
31.3052428
40
0.1472271
50
179.6142195
51
228.1246017
0
ARC
8
DEFAULT_255_1_234
10
15.4161791
20
31.3461308
40
0.2072299
50
226.5779593
51
230.8800004
0
ARC
8
DEFAULT_255_1_234
10
15.463287
20
31.4086636
40
0.2854818
50
231.4635071
51
241.9260842
0
ARC
8
DEFAULT_255_1_234
10
15.5830048
20
31.62898
40
0.53622
50
241.7178533
51
248.3259551
0
ARC
8
DEFAULT_255_1_234
10
15.721542
20
31.9722064
40
0.9063478
50
248.2007737
51
252.4528373
0
ARC
8
DEFAULT_255_1_234
10
15.8419145
20
32.3443441
40
1.2974635
50
252.3391078
51
254.3469452
0
ARC
8
DEFAULT_255_1_234
10
15.0876847
20
29.6466148
40
1.5037162
50
71.0197183
51
74.4087047
0
ARC
8
DEFAULT_255_1_234
10
15.2571532
20
30.1358111
40
0.9859993
50
66.1847285
51
71.086374
0
ARC
8
DEFAULT_255_1_234
10
15.4127845
20
30.48622
40
0.6025855
50
59.3536294
51
66.2691831
0
ARC
8
DEFAULT_255_1_234
10
15.5016497
20
30.6365609
40
0.4279449
50
49.1020879
51
59.3293958
0
ARC
8
DEFAULT_255_1_234
10
15.5835237
20
30.7298834
40
0.3038015
50
32.7919921
51
49.2505539
0
ARC
8
DEFAULT_255_1_234
10
15.6156327
20
30.7527191
40
0.264448
50
31.1181161
51
32.4005348
0
ARC
8
DEFAULT_255_1_234
10
15.6067865
20
30.7491779
40
0.2738556
50
8.1116974
51
30.7958831
0
ARC
8
DEFAULT_255_1_234
10
15.5257533
20
30.7353753
40
0.3560327
50
359.8389159
51
8.4706516
0
ARC
8
DEFAULT_255_1_234
10
15.5883324
20
30.7305137
40
0.2934776
50
337.4731098
51
0.7537279
0
ARC
8
DEFAULT_255_1_234
10
15.6062019
20
30.7285387
40
0.2762607
50
307.5917067
51
336.4315538
0
ARC
8
DEFAULT_255_1_234
10
15.5601847
20
30.7798102
40
0.3449979
50
307.6551545
51
308.4529766
0
ARC
8
DEFAULT_255_1_234
10
15.5371566
20
30.815325
40
0.3871988
50
284.3734338
51
307.1424381
0
ARC
8
DEFAULT_255_1_234
10
15.4876396
20
30.9974932
40
0.5759636
50
272.4382747
51
284.646547
0
ARC
8
DEFAULT_255_1_234
10
15.4749605
20
31.1774893
40
0.7563528
50
269.9708387
51
272.8178037
0
ARC
8
DEFAULT_255_1_234
10
15.4706645
20
30.9736716
40
0.5525489
50
248.2707594
51
270.4055579
0
ARC
8
DEFAULT_255_1_234
10
15.4652386
20
30.9546192
40
0.5328452
50
246.1383403
51
248.0542782
0
ARC
8
DEFAULT_255_1_234
10
15.4233765
20
30.8666843
40
0.4355005
50
233.1670131
51
246.4950969
0
ARC
8
DEFAULT_255_1_234
10
15.367967
20
30.7918812
40
0.3424126
50
215.3403242
51
233.0843104
0
ARC
8
DEFAULT_255_1_234
10
15.3407101
20
30.7720549
40
0.3087104
50
179.2419209
51
215.2648451
0
ARC
8
DEFAULT_255_1_234
10
15.4174695
20
30.7734666
40
0.2304457
50
179.335461
51
199.1045811
0
ARC
8
DEFAULT_255_1_234
10
15.3842371
20
30.7647766
40
0.1962176
50
199.8828939
51
232.7063202
0
ARC
8
DEFAULT_255_1_234
10
15.431464
20
30.8241788
40
0.2720938
50
232.3738199
51
255.5136649
0
ARC
8
DEFAULT_255_1_234
10
15.4655506
20
30.9485835
40
0.4010747
50
255.2446292
51
267.5320849
0
ARC
8
DEFAULT_255_1_234
10
15.474313
20
31.0718702
40
0.5246356
50
267.1557994
51
270.0286766
0
ARC
8
DEFAULT_255_1_234
10
15.4770902
20
31.027495
40
0.4802668
50
269.7000017
51
278.1660162
0
ARC
8
DEFAULT_255_1_234
10
15.5026907
20
30.8544515
40
0.3053425
50
278.0231263
51
290.625471
0
ARC
8
DEFAULT_255_1_234
10
15.5374594
20
30.7617025
40
0.206291
50
290.6619762
51
307.0370976
0
ARC
8
DEFAULT_255_1_234
10
15.5674983
20
30.7248504
40
0.1587906
50
306.3943566
51
355.3030547
0
ARC
8
DEFAULT_255_1_234
10
15.5162914
20
30.7325113
40
0.2104809
50
354.3660432
51
0.0698737
0
ARC
8
DEFAULT_255_1_234
10
15.530526
20
30.7347617
40
0.1962563
50
359.417946
51
16.1971788
0
ARC
8
DEFAULT_255_1_234
10
15.576057
20
30.7472418
40
0.149053
50
16.4723299
51
52.6262157
0
ARC
8
DEFAULT_255_1_234
10
15.4939624
20
30.6388433
40
0.2850296
50
52.7386432
51
62.4979148
0
ARC
8
DEFAULT_255_1_234
10
15.3554701
20
30.3782283
40
0.5801521
50
62.2515216
51
68.1220564
0
ARC
8
DEFAULT_255_1_234
10
15.1834612
20
29.9554872
40
1.0365451
50
68.0062803
51
71.8053402
0
ARC
8
DEFAULT_255_1_234
10
15.0038983
20
29.4169758
40
1.6042013
50
71.7183119
51
73.9258742
0
LINE
8
DEFAULT_255_1_234
10
16.7957965
20
31.6066211
11
16.7957965
21
31.523091
0
LINE
8
DEFAULT_255_1_234
10
16.7957965
20
31.523091
11
16.3114827
21
30.4372
0
LINE
8
DEFAULT_255_1_234
10
16.3114827
20
30.4372
11
16.1556669
21
30.4372
0
LINE
8
DEFAULT_255_1_234
10
16.1556669
20
30.4372
11
16.6383744
21
31.4845387
0
LINE
8
DEFAULT_255_1_234
10
16.6383744
20
31.4845387
11
16.0054734
21
31.4845387
0
LINE
8
DEFAULT_255_1_234
10
16.0054734
20
31.4845387
11
16.0054734
21
31.6066211
0
LINE
8
DEFAULT_255_1_234
10
16.0054734
20
31.6066211
11
16.7957965
21
31.6066211
0
LINE
8
DEFAULT_255_1_234
10
17.2889452
20
30.9946026
11
17.2889452
21
30.8733234
0
LINE
8
DEFAULT_255_1_234
10
17.2889452
20
30.8733234
11
16.8969964
21
30.8733234
0
LINE
8
DEFAULT_255_1_234
10
16.8969964
20
30.8733234
11
16.8969964
21
30.9946026
0
LINE
8
DEFAULT_255_1_234
10
16.8969964
20
30.9946026
11
17.2889452
21
30.9946026
0
LINE
8
DEFAULT_255_1_234
10
18.045535
20
31.6066211
11
18.045535
21
30.829952
0
LINE
8
DEFAULT_255_1_234
10
18.045535
20
30.829952
11
18.2077761
21
30.829952
0
LINE
8
DEFAULT_255_1_234
10
18.2077761
20
30.829952
11
18.2077761
21
30.7086728
0
LINE
8
DEFAULT_255_1_234
10
18.2077761
20
30.7086728
11
18.045535
21
30.7086728
0
LINE
8
DEFAULT_255_1_234
10
18.045535
20
30.7086728
11
18.045535
21
30.4372
0
LINE
8
DEFAULT_255_1_234
10
18.045535
20
30.4372
11
17.8961446
21
30.4372
0
LINE
8
DEFAULT_255_1_234
10
17.8961446
20
30.4372
11
17.8961446
21
30.7086728
0
LINE
8
DEFAULT_255_1_234
10
17.8961446
20
30.7086728
11
17.3636404
21
30.7086728
0
LINE
8
DEFAULT_255_1_234
10
17.3636404
20
30.7086728
11
17.3636404
21
30.7962187
0
LINE
8
DEFAULT_255_1_234
10
17.3636404
20
30.7962187
11
17.8873097
21
31.6066211
0
LINE
8
DEFAULT_255_1_234
10
17.8873097
20
31.6066211
11
18.045535
21
31.6066211
0
LINE
8
DEFAULT_255_1_234
10
17.8784748
20
31.3712912
11
17.5323069
21
30.829952
0
LINE
8
DEFAULT_255_1_234
10
17.5323069
20
30.829952
11
17.8961446
21
30.829952
0
LINE
8
DEFAULT_255_1_234
10
17.8961446
20
30.829952
11
17.8961446
21
31.4034181
0
LINE
8
DEFAULT_255_1_234
10
17.8961446
20
31.4034181
11
17.8784748
21
31.3712912
0
LINE
8
DEFAULT_255_1_234
10
19.0752038
20
31.1287327
11
19.0752038
21
30.9359709
0
LINE
8
DEFAULT_255_1_234
10
18.3370871
20
30.9158916
11
18.3370871
21
31.1142755
0
LINE
8
DEFAULT_255_1_234
10
18.9266167
20
30.8958123
11
18.9266167
21
31.1391739
0
LINE
8
DEFAULT_255_1_234
10
18.4856742
20
31.1504184
11
18.4856742
21
30.9126789
0
ARC
8
DEFAULT_255_1_234
10
17.8504928
20
30.9310805
40
1.2247208
50
353.8441951
51
0.2287902
0
ARC
8
DEFAULT_255_1_234
10
18.3144431
20
30.8792806
40
0.7578929
50
344.4934747
51
353.9765454
0
ARC
8
DEFAULT_255_1_234
10
18.6137022
20
30.7941981
40
0.4467846
50
329.2803592
51
344.7472793
0
ARC
8
DEFAULT_255_1_234
10
18.7129846
20
30.7397018
40
0.3336173
50
324.9352394
51
328.6160465
0
ARC
8
DEFAULT_255_1_234
10
18.7506955
20
30.7133427
40
0.2876076
50
280.580143
51
324.9173126
0
ARC
8
DEFAULT_255_1_234
10
18.7105748
20
30.8804099
40
0.4592847
50
269.5977311
51
281.6734359
0
ARC
8
DEFAULT_255_1_234
10
18.7033653
20
30.8684173
40
0.4472986
50
256.6228859
51
270.51044
0
ARC
8
DEFAULT_255_1_234
10
18.6631631
20
30.7135877
40
0.2873874
50
215.8618325
51
257.2788573
0
ARC
8
DEFAULT_255_1_234
10
18.7652663
20
30.7820977
40
0.4102928
50
197.9693508
51
215.2623606
0
ARC
8
DEFAULT_255_1_234
10
19.0137778
20
30.8659709
40
0.6725652
50
187.8816417
51
198.2346507
0
ARC
8
DEFAULT_255_1_234
10
19.4095987
20
30.9231079
40
1.0724845
50
180.8976217
51
188.0055519
0
ARC
8
DEFAULT_255_1_234
10
19.6896175
20
30.9334777
40
1.3526448
50
180.7449369
51
181.1510016
0
ARC
8
DEFAULT_255_1_234
10
19.5318904
20
31.1191042
40
1.1948131
50
173.7675579
51
180.231553
0
ARC
8
DEFAULT_255_1_234
10
19.080105
20
31.1701666
40
0.7401564
50
164.3058563
51
173.9002247
0
ARC
8
DEFAULT_255_1_234
10
18.7889119
20
31.2540656
40
0.4371288
50
148.7922025
51
164.568378
0
ARC
8
DEFAULT_255_1_234
10
18.6937571
20
31.3071929
40
0.3282386
50
144.5883898
51
148.1176286
0
ARC
8
DEFAULT_255_1_234
10
18.6594469
20
31.3311315
40
0.2864044
50
101.6440918
51
144.514236
0
ARC
8
DEFAULT_255_1_234
10
18.7019536
20
31.1622069
40
0.4604934
50
89.5284041
51
102.5819763
0
ARC
8
DEFAULT_255_1_234
10
18.7098624
20
31.1583018
40
0.464401
50
77.0437873
51
90.5081339
0
ARC
8
DEFAULT_255_1_234
10
18.7500626
20
31.3225615
40
0.2953195
50
48.2778575
51
77.4994676
0
ARC
8
DEFAULT_255_1_234
10
18.7573257
20
31.3354746
40
0.2808655
50
36.3142134
51
47.6305865
0
ARC
8
DEFAULT_255_1_234
10
18.6704564
20
31.2769515
40
0.3855453
50
18.2931786
51
35.6769206
0
ARC
8
DEFAULT_255_1_234
10
18.4161323
20
31.1896593
40
0.654423
50
8.024666
51
18.5605216
0
ARC
8
DEFAULT_255_1_234
10
17.9998243
20
31.1281792
40
1.0752407
50
1.1274072
51
8.1718305
0
ARC
8
DEFAULT_255_1_234
10
17.6762433
20
31.1154885
40
1.3990231
50
0.5424119
51
1.3863029
0
ARC
8
DEFAULT_255_1_234
10
17.8583811
20
31.1427342
40
1.0682415
50
359.8090433
51
4.9407866
0
ARC
8
DEFAULT_255_1_234
10
18.2793825
20
31.1803113
40
0.6455691
50
4.8362157
51
12.2904523
0
ARC
8
DEFAULT_255_1_234
10
18.554894
20
31.2416965
40
0.3633074
50
12.0805627
51
23.8173984
0
ARC
8
DEFAULT_255_1_234
10
18.6722645
20
31.2913919
40
0.2358723
50
24.2871213
51
31.3935614
0
ARC
8
DEFAULT_255_1_234
10
18.7247342
20
31.3257233
40
0.1732111
50
30.7407893
51
82.4657128
0
ARC
8
DEFAULT_255_1_234
10
18.7067477
20
31.2373691
40
0.263235
50
81.1060089
51
90.2184952
0
ARC
8
DEFAULT_255_1_234
10
18.7031776
20
31.2631924
40
0.2374236
50
89.3806855
51
105.6762551
0
ARC
8
DEFAULT_255_1_234
10
18.6848406
20
31.3298567
40
0.1682847
50
105.7981136
51
149.7388061
0
ARC
8
DEFAULT_255_1_234
10
18.7912485
20
31.265895
40
0.2924306
50
149.4208916
51
163.6286378
0
ARC
8
DEFAULT_255_1_234
10
19.0003373
20
31.202125
40
0.5110213
50
163.3763315
51
172.1410975
0
ARC
8
DEFAULT_255_1_234
10
19.3304092
20
31.1548518
40
0.8444586
50
172.0259487
51
178.0703232
0
ARC
8
DEFAULT_255_1_234
10
19.6334181
20
31.1404906
40
1.1477868
50
177.8631668
51
179.5044149
0
ARC
8
DEFAULT_255_1_234
10
19.5261586
20
30.9090389
40
1.0404907
50
179.7995573
51
185.2460446
0
ARC
8
DEFAULT_255_1_234
10
19.1218625
20
30.8707513
40
0.6343885
50
185.1411642
51
193.0079639
0
ARC
8
DEFAULT_255_1_234
10
18.8575097
20
30.8082641
40
0.3627568
50
192.7897626
51
205.2507664
0
ARC
8
DEFAULT_255_1_234
10
18.7528644
20
30.7615415
40
0.2481908
50
205.8005384
51
211.2537509
0
ARC
8
DEFAULT_255_1_234
10
18.7005085
20
30.726458
40
0.1852521
50
210.3789793
51
238.4008143
0
ARC
8
DEFAULT_255_1_234
10
18.6985607
20
30.7311376
40
0.1882621
50
239.6520629
51
265.9793761
0
ARC
8
DEFAULT_255_1_234
10
18.7070807
20
30.7983427
40
0.2559272
50
265.1315437
51
270.060332
0
ARC
8
DEFAULT_255_1_234
10
18.7099586
20
30.7659534
40
0.2235528
50
269.3314664
51
287.2178029
0
ARC
8
DEFAULT_255_1_234
10
18.7237438
20
30.7156279
40
0.1714108
50
287.7958004
51
329.080874
0
ARC
8
DEFAULT_255_1_234
10
18.6279894
20
30.775393
40
0.2842745
50
328.6634704
51
343.3325132
0
ARC
8
DEFAULT_255_1_234
10
18.4106915
20
30.8430863
40
0.5118644
50
343.0499468
51
351.9393422
0
ARC
8
DEFAULT_255_1_234
10
18.0640215
20
30.8941949
40
0.8622784
50
351.8069023
51
357.7959224
0
ARC
8
DEFAULT_255_1_234
10
17.7404771
20
30.9109721
40
1.1862365
50
357.5871873
51
359.2677531
0
LINE
8
DEFAULT_255_1_234
10
19.9988537
20
31.1287327
11
19.9988537
21
30.9359709
0
LINE
8
DEFAULT_255_1_234
10
19.260737
20
30.9158916
11
19.260737
21
31.1142755
0
LINE
8
DEFAULT_255_1_234
10
19.8502666
20
30.8958123
11
19.8502666
21
31.1391739
0
LINE
8
DEFAULT_255_1_234
10
19.4093241
20
31.1504184
11
19.4093241
21
30.9126789
0
ARC
8
DEFAULT_255_1_234
10
18.7741427
20
30.9310805
40
1.2247208
50
353.8441951
51
0.2287902
0
ARC
8
DEFAULT_255_1_234
10
19.238093
20
30.8792806
40
0.7578929
50
344.4934747
51
353.9765454
0
ARC
8
DEFAULT_255_1_234
10
19.5373521
20
30.7941981
40
0.4467846
50
329.2803592
51
344.7472793
0
ARC
8
DEFAULT_255_1_234
10
19.6366345
20
30.7397018
40
0.3336173
50
324.9352394
51
328.6160465
0
ARC
8
DEFAULT_255_1_234
10
19.6743454
20
30.7133427
40
0.2876076
50
280.580143
51
324.9173126
0
ARC
8
DEFAULT_255_1_234
10
19.6342247
20
30.8804099
40
0.4592847
50
269.5977311
51
281.6734359
0
ARC
8
DEFAULT_255_1_234
10
19.6270152
20
30.8684173
40
0.4472986
50
256.6228859
51
270.51044
0
ARC
8
DEFAULT_255_1_234
10
19.586813
20
30.7135877
40
0.2873874
50
215.8618325
51
257.2788573
0
ARC
8
DEFAULT_255_1_234
10
19.6889162
20
30.7820977
40
0.4102928
50
197.9693508
51
215.2623606
0
ARC
8
DEFAULT_255_1_234
10
19.9374277
20
30.8659709
40
0.6725652
50
187.8816417
51
198.2346507
0
ARC
8
DEFAULT_255_1_234
10
20.3332486
20
30.9231079
40
1.0724845
50
180.8976217
51
188.0055519
0
ARC
8
DEFAULT_255_1_234
10
20.6132674
20
30.9334777
40
1.3526448
50
180.7449369
51
181.1510016
0
ARC
8
DEFAULT_255_1_234
10
20.4555403
20
31.1191042
40
1.1948131
50
173.7675579
51
180.231553
0
ARC
8
DEFAULT_255_1_234
10
20.0037549
20
31.1701666
40
0.7401564
50
164.3058563
51
173.9002247
0
ARC
8
DEFAULT_255_1_234
10
19.7125618
20
31.2540656
40
0.4371288
50
148.7922025
51
164.568378
0
ARC
8
DEFAULT_255_1_234
10
19.617407
20
31.3071929
40
0.3282386
50
144.5883898
51
148.1176286
0
ARC
8
DEFAULT_255_1_234
10
19.5830968
20
31.3311315
40
0.2864044
50
101.6440918
51
144.514236
0
ARC
8
DEFAULT_255_1_234
10
19.6256035
20
31.1622069
40
0.4604934
50
89.5284041
51
102.5819763
0
ARC
8
DEFAULT_255_1_234
10
19.6335123
20
31.1583018
40
0.464401
50
77.0437873
51
90.5081339
0
ARC
8
DEFAULT_255_1_234
10
19.6737125
20
31.3225615
40
0.2953195
50
48.2778575
51
77.4994676
0
ARC
8
DEFAULT_255_1_234
10
19.6809756
20
31.3354746
40
0.2808655
50
36.3142134
51
47.6305865
0
ARC
8
DEFAULT_255_1_234
10
19.5941063
20
31.2769515
40
0.3855453
50
18.2931786
51
35.6769206
0
ARC
8
DEFAULT_255_1_234
10
19.3397822
20
31.1896593
40
0.654423
50
8.024666
51
18.5605216
0
ARC
8
DEFAULT_255_1_234
10
18.9234742
20
31.1281792
40
1.0752407
50
1.1274072
51
8.1718305
0
ARC
8
DEFAULT_255_1_234
10
18.5998932
20
31.1154885
40
1.3990231
50
0.5424119
51
1.3863029
0
ARC
8
DEFAULT_255_1_234
10
18.782031
20
31.1427342
40
1.0682415
50
359.8090433
51
4.9407866
0
ARC
8
DEFAULT_255_1_234
10
19.2030324
20
31.1803113
40
0.6455691
50
4.8362157
51
12.2904523
0
ARC
8
DEFAULT_255_1_234
10
19.4785439
20
31.2416965
40
0.3633074
50
12.0805627
51
23.8173984
0
ARC
8
DEFAULT_255_1_234
10
19.5959144
20
31.2913919
40
0.2358723
50
24.2871213
51
31.3935614
0
ARC
8
DEFAULT_255_1_234
10
19.6483841
20
31.3257233
40
0.1732111
50
30.7407893
51
82.4657128
0
ARC
8
DEFAULT_255_1_234
10
19.6303976
20
31.2373691
40
0.263235
50
81.1060089
51
90.2184952
0
ARC
8
DEFAULT_255_1_234
10
19.6268275
20
31.2631924
40
0.2374236
50
89.3806855
51
105.6762551
0
ARC
8
DEFAULT_255_1_234
10
19.6084905
20
31.3298567
40
0.1682847
50
105.7981136
51
149.7388061
0
ARC
8
DEFAULT_255_1_234
10
19.7148984
20
31.265895
40
0.2924306
50
149.4208916
51
163.6286378
0
ARC
8
DEFAULT_255_1_234
10
19.9239872
20
31.202125
40
0.5110213
50
163.3763315
51
172.1410975
0
ARC
8
DEFAULT_255_1_234
10
20.2540591
20
31.1548518
40
0.8444586
50
172.0259487
51
178.0703232
0
ARC
8
DEFAULT_255_1_234
10
20.557068
20
31.1404906
40
1.1477868
50
177.8631668
51
179.5044149
0
ARC
8
DEFAULT_255_1_234
10
20.4498085
20
30.9090389
40
1.0404907
50
179.7995573
51
185.2460446
0
ARC
8
DEFAULT_255_1_234
10
20.0455124
20
30.8707513
40
0.6343885
50
185.1411642
51
193.0079639
0
ARC
8
DEFAULT_255_1_234
10
19.7811596
20
30.8082641
40
0.3627568
50
192.7897626
51
205.2507664
0
ARC
8
DEFAULT_255_1_234
10
19.6765143
20
30.7615415
40
0.2481908
50
205.8005384
51
211.2537509
0
ARC
8
DEFAULT_255_1_234
10
19.6241584
20
30.726458
40
0.1852521
50
210.3789793
51
238.4008143
0
ARC
8
DEFAULT_255_1_234
10
19.6222106
20
30.7311376
40
0.1882621
50
239.6520629
51
265.9793761
0
ARC
8
DEFAULT_255_1_234
10
19.6307306
20
30.7983427
40
0.2559272
50
265.1315437
51
270.060332
0
ARC
8
DEFAULT_255_1_234
10
19.6336085
20
30.7659534
40
0.2235528
50
269.3314664
51
287.2178029
0
ARC
8
DEFAULT_255_1_234
10
19.6473937
20
30.7156279
40
0.1714108
50
287.7958004
51
329.080874
0
ARC
8
DEFAULT_255_1_234
10
19.5516394
20
30.775393
40
0.2842745
50
328.6634704
51
343.3325132
0
ARC
8
DEFAULT_255_1_234
10
19.3343414
20
30.8430863
40
0.5118644
50
343.0499468
51
351.9393422
0
ARC
8
DEFAULT_255_1_234
10
18.9876714
20
30.8941949
40
0.8622784
50
351.8069023
51
357.7959224
0
ARC
8
DEFAULT_255_1_234
10
18.664127
20
30.9109721
40
1.1862365
50
357.5871873
51
359.2677531
0
LINE
8
DEFAULT_255_1_234
10
4.2461489
20
29.6223211
11
4.2461489
21
28.5789983
0
LINE
8
DEFAULT_255_1_234
10
4.2461489
20
28.5789983
11
4.8003389
21
28.5789983
0
LINE
8
DEFAULT_255_1_234
10
4.8003389
20
28.5789983
11
4.8003389
21
28.4529
0
LINE
8
DEFAULT_255_1_234
10
4.8003389
20
28.4529
11
4.0911364
21
28.4529
0
LINE
8
DEFAULT_255_1_234
10
4.0911364
20
28.4529
11
4.0911364
21
29.6223211
0
LINE
8
DEFAULT_255_1_234
10
4.0911364
20
29.6223211
11
4.2461489
21
29.6223211
0
LINE
8
DEFAULT_255_1_234
10
5.378624
20
29.4215276
11
5.378624
21
29.0801788
0
LINE
8
DEFAULT_255_1_234
10
5.378624
20
29.0801788
11
5.7047126
21
29.0801788
0
LINE
8
DEFAULT_255_1_234
10
5.7047126
20
29.0801788
11
5.7047126
21
28.9396233
0
LINE
8
DEFAULT_255_1_234
10
5.7047126
20
28.9396233
11
5.378624
21
28.9396233
0
LINE
8
DEFAULT_255_1_234
10
5.378624
20
28.9396233
11
5.378624
21
28.5701634
0
LINE
8
DEFAULT_255_1_234
10
5.378624
20
28.5701634
11
5.2292337
21
28.5701634
0
LINE
8
DEFAULT_255_1_234
10
5.2292337
20
28.5701634
11
5.2292337
21
28.9396233
0
LINE
8
DEFAULT_255_1_234
10
5.2292337
20
28.9396233
11
4.9031451
21
28.9396233
0
LINE
8
DEFAULT_255_1_234
10
4.9031451
20
28.9396233
11
4.9031451
21
29.0801788
0
LINE
8
DEFAULT_255_1_234
10
4.9031451
20
29.0801788
11
5.2292337
21
29.0801788
0
LINE
8
DEFAULT_255_1_234
10
5.2292337
20
29.0801788
11
5.2292337
21
29.4215276
0
LINE
8
DEFAULT_255_1_234
10
5.2292337
20
29.4215276
11
5.378624
21
29.4215276
0
LINE
8
DEFAULT_255_1_234
10
4.2824902
20
5.8098211
11
4.2824902
21
4.6404
0
LINE
8
DEFAULT_255_1_234
10
4.2824902
20
4.6404
11
4.1282808
21
4.6404
0
LINE
8
DEFAULT_255_1_234
10
4.1282808
20
4.6404
11
4.1282808
21
5.8098211
0
LINE
8
DEFAULT_255_1_234
10
4.1282808
20
5.8098211
11
4.2824902
21
5.8098211
0
LINE
8
DEFAULT_255_1_234
10
5.2093528
20
5.2829391
11
5.2093528
21
5.1568408
0
LINE
8
DEFAULT_255_1_234
10
5.2093528
20
5.1568408
11
4.7186136
21
5.1568408
0
LINE
8
DEFAULT_255_1_234
10
4.7186136
20
5.1568408
11
4.7186136
21
4.6404
0
LINE
8
DEFAULT_255_1_234
10
4.7186136
20
4.6404
11
4.5644042
21
4.6404
0
LINE
8
DEFAULT_255_1_234
10
4.5644042
20
4.6404
11
4.5644042
21
5.8098211
0
LINE
8
DEFAULT_255_1_234
10
4.5644042
20
5.8098211
11
5.288867
21
5.8098211
0
LINE
8
DEFAULT_255_1_234
10
5.288867
20
5.8098211
11
5.288867
21
5.6829196
0
LINE
8
DEFAULT_255_1_234
10
5.288867
20
5.6829196
11
4.7186136
21
5.6829196
0
LINE
8
DEFAULT_255_1_234
10
4.7186136
20
5.6829196
11
4.7186136
21
5.2829391
0
LINE
8
DEFAULT_255_1_234
10
4.7186136
20
5.2829391
11
5.2093528
21
5.2829391
0
LINE
8
DEFAULT_255_1_234
10
5.9233743
20
5.8154433
11
5.9233743
21
4.6404
0
LINE
8
DEFAULT_255_1_234
10
5.9233743
20
4.6404
11
5.773984
21
4.6404
0
LINE
8
DEFAULT_255_1_234
10
5.773984
20
4.6404
11
5.773984
21
5.6307133
0
LINE
8
DEFAULT_255_1_234
10
5.773984
20
5.6307133
11
5.4744001
21
5.5206785
0
LINE
8
DEFAULT_255_1_234
10
5.4744001
20
5.5206785
11
5.4744001
21
5.6556117
0
LINE
8
DEFAULT_255_1_234
10
5.4744001
20
5.6556117
11
5.9000823
21
5.8154433
0
LINE
8
DEFAULT_255_1_234
10
5.9000823
20
5.8154433
11
5.9233743
21
5.8154433
0
LINE
8
DEFAULT_255_1_234
10
4.6537344
20
13.0357091
11
4.3782458
21
13.0357091
0
LINE
8
DEFAULT_255_1_234
10
4.3782458
20
13.0357091
11
4.3782458
21
12.5779
0
LINE
8
DEFAULT_255_1_234
10
4.3782458
20
12.5779
11
4.2240364
21
12.5779
0
LINE
8
DEFAULT_255_1_234
10
4.2240364
20
12.5779
11
4.2240364
21
13.7473211
0
LINE
8
DEFAULT_255_1_234
10
4.2240364
20
13.7473211
11
4.6553407
21
13.7473211
0
LINE
8
DEFAULT_255_1_234
10
4.3782458
20
13.6204196
11
4.3782458
21
13.1618074
0
LINE
8
DEFAULT_255_1_234
10
4.3782458
20
13.1618074
11
4.6553407
21
13.1618074
0
LINE
8
DEFAULT_255_1_234
10
4.6641756
20
13.6204196
11
4.3782458
21
13.6204196
0
ARC
8
DEFAULT_255_1_234
10
4.6595534
20
13.1414195
40
0.6059162
50
78.8378113
51
90.3983573
0
ARC
8
DEFAULT_255_1_234
10
4.7011548
20
13.3434879
40
0.3996205
50
58.9632738
51
79.0810598
0
ARC
8
DEFAULT_255_1_234
10
4.731309
20
13.3994721
40
0.3361177
50
48.0197965
51
58.447194
0
ARC
8
DEFAULT_255_1_234
10
4.7401951
20
13.4080225
40
0.3238191
50
3.3375044
51
48.1766626
0
ARC
8
DEFAULT_255_1_234
10
4.617179
20
13.3903171
40
0.4477806
50
359.9477528
51
4.6829065
0
ARC
8
DEFAULT_255_1_234
10
4.6295107
20
13.3860628
40
0.4354656
50
346.1877825
51
0.5060252
0
ARC
8
DEFAULT_255_1_234
10
4.7653975
20
13.3507731
40
0.295089
50
310.8831995
51
346.5426355
0
ARC
8
DEFAULT_255_1_234
10
4.7345395
20
13.3924695
40
0.3468331
50
286.6925341
51
310.2288297
0
ARC
8
DEFAULT_255_1_234
10
4.6776226
20
13.5714882
40
0.5346654
50
274.6850312
51
287.0245141
0
ARC
8
DEFAULT_255_1_234
10
4.6550949
20
13.7923932
40
0.7566852
50
269.8969846
51
275.018904
0
ARC
8
DEFAULT_255_1_234
10
4.657854
20
13.5844707
40
0.4226708
50
269.6593078
51
279.4153575
0
ARC
8
DEFAULT_255_1_234
10
4.6835815
20
13.4354133
40
0.2714146
50
279.2049762
51
294.9900808
0
ARC
8
DEFAULT_255_1_234
10
4.7126141
20
13.3706508
40
0.2004525
50
295.2888114
51
311.2911209
0
ARC
8
DEFAULT_255_1_234
10
4.7197035
20
13.360122
40
0.1878703
50
311.7854996
51
347.2861051
0
ARC
8
DEFAULT_255_1_234
10
4.6213194
20
13.3854092
40
0.2894234
50
346.6893224
51
0.1059443
0
ARC
8
DEFAULT_255_1_234
10
4.5458089
20
13.3882685
40
0.3649409
50
359.6350983
51
0.0053152
0
ARC
8
DEFAULT_255_1_234
10
4.6428417
20
13.3907937
40
0.2679199
50
359.4672059
51
15.5933957
0
ARC
8
DEFAULT_255_1_234
10
4.7053306
20
13.4076779
40
0.2031932
50
15.7442113
51
46.6203375
0
ARC
8
DEFAULT_255_1_234
10
4.6905527
20
13.3906484
40
0.2257226
50
46.8628658
51
75.6676503
0
ARC
8
DEFAULT_255_1_234
10
4.6611347
20
13.2847718
40
0.3355939
50
75.276167
51
88.2915297
0
ARC
8
DEFAULT_255_1_234
10
4.6553054
20
13.1969524
40
0.4235602
50
87.8575022
51
88.8000139
0
LINE
8
DEFAULT_255_1_234
10
5.9894125
20
12.6991792
11
5.9894125
21
12.5779
0
LINE
8
DEFAULT_255_1_234
10
5.9894125
20
12.5779
11
5.2231846
21
12.5779
0
LINE
8
DEFAULT_255_1_234
10
5.2231846
20
12.5779
11
5.2231846
21
12.6847221
0
LINE
8
DEFAULT_255_1_234
10
5.2231846
20
12.6847221
11
5.6279842
21
13.1344995
0
LINE
8
DEFAULT_255_1_234
10
5.3492829
20
13.4027595
11
5.2006958
21
13.4027595
0
LINE
8
DEFAULT_255_1_234
10
5.7155302
20
13.0389218
11
5.4022924
21
12.6991792
0
LINE
8
DEFAULT_255_1_234
10
5.4022924
20
12.6991792
11
5.9894125
21
12.6991792
0
ARC
8
DEFAULT_255_1_234
10
4.2789676
20
14.3274527
40
1.8008286
50
318.5132453
51
320.7828378
0
ARC
8
DEFAULT_255_1_234
10
4.807665
20
13.8971426
40
1.1191493
50
320.7372736
51
323.9737074
0
ARC
8
DEFAULT_255_1_234
10
5.1996506
20
13.6131361
40
0.6350923
50
323.8961724
51
328.6421089
0
ARC
8
DEFAULT_255_1_234
10
5.4043102
20
13.4869031
40
0.3946393
50
328.8299013
51
331.789948
0
ARC
8
DEFAULT_255_1_234
10
5.504028
20
13.4354509
40
0.2824501
50
331.4255242
51
352.9364833
0
ARC
8
DEFAULT_255_1_234
10
5.5176781
20
13.4323976
40
0.2685315
50
353.2248685
51
0.0169286
0
ARC
8
DEFAULT_255_1_234
10
5.5386658
20
13.434695
40
0.2475536
50
359.4866256
51
15.9339782
0
ARC
8
DEFAULT_255_1_234
10
5.5893643
20
13.4483286
40
0.1950618
50
16.1714718
51
43.5284424
0
ARC
8
DEFAULT_255_1_234
10
5.5970952
20
13.4560573
40
0.184134
50
43.4415429
51
83.1661404
0
ARC
8
DEFAULT_255_1_234
10
5.583687
20
13.3823771
40
0.258926
50
82.160215
51
90.1505798
0
ARC
8
DEFAULT_255_1_234
10
5.5805297
20
13.3286865
40
0.3126255
50
89.5460705
51
102.5418777
0
ARC
8
DEFAULT_255_1_234
10
5.5562383
20
13.4317665
40
0.2067346
50
102.1739365
51
129.2061916
0
ARC
8
DEFAULT_255_1_234
10
5.5483455
20
13.4442094
40
0.1921118
50
129.7279328
51
135.7542026
0
ARC
8
DEFAULT_255_1_234
10
5.5604983
20
13.4345045
40
0.2075944
50
136.175737
51
166.3674722
0
ARC
8
DEFAULT_255_1_234
10
5.6611902
20
13.4075182
40
0.3118201
50
165.9092917
51
178.8683903
0
ARC
8
DEFAULT_255_1_234
10
5.7476763
20
13.4028179
40
0.3983935
50
178.438168
51
180.0083905
0
ARC
8
DEFAULT_255_1_234
10
5.6075365
20
13.4067231
40
0.4068601
50
163.2878735
51
180.5581814
0
ARC
8
DEFAULT_255_1_234
10
5.5273627
20
13.428784
40
0.3237344
50
133.454115
51
162.9470031
0
ARC
8
DEFAULT_255_1_234
10
5.5452168
20
13.4098
40
0.349795
50
100.7869394
51
133.4384016
0
ARC
8
DEFAULT_255_1_234
10
5.5799939
20
13.2549319
40
0.5084616
50
89.6605301
51
101.3704185
0
ARC
8
DEFAULT_255_1_234
10
5.5866278
20
13.2610496
40
0.502348
50
78.2171172
51
90.4130393
0
ARC
8
DEFAULT_255_1_234
10
5.6221357
20
13.4234637
40
0.3361092
50
55.9268222
51
78.4888551
0
ARC
8
DEFAULT_255_1_234
10
5.6417797
20
13.4573324
40
0.2970617
50
47.9292255
51
55.4054003
0
ARC
8
DEFAULT_255_1_234
10
5.6519357
20
13.4676502
40
0.2825983
50
4.3347696
51
48.0560701
0
ARC
8
DEFAULT_255_1_234
10
5.5423751
20
13.4506601
40
0.393225
50
359.925209
51
5.5967654
0
ARC
8
DEFAULT_255_1_234
10
5.5852643
20
13.4562816
40
0.3503892
50
337.8914096
51
358.9967724
0
ARC
8
DEFAULT_255_1_234
10
5.3139055
20
13.5609706
40
0.6412172
50
326.9135351
51
338.3505194
0
ARC
8
DEFAULT_255_1_234
10
4.9153359
20
13.8164284
40
1.1146189
50
319.6472867
51
327.095818
0
ARC
8
DEFAULT_255_1_234
10
4.5320362
20
14.1326
40
1.6114559
50
317.2586784
51
319.9046139
0
LINE
8
DEFAULT_255_1_234
10
6.8680846
20
12.5779
11
6.6142817
21
13.0509694
0
LINE
8
DEFAULT_255_1_234
10
6.6142817
20
13.0509694
11
6.3395962
21
13.0509694
0
LINE
8
DEFAULT_255_1_234
10
6.3395962
20
13.0509694
11
6.3395962
21
12.5779
0
LINE
8
DEFAULT_255_1_234
10
6.3395962
20
12.5779
11
6.1845837
21
12.5779
0
LINE
8
DEFAULT_255_1_234
10
6.1845837
20
12.5779
11
6.1845837
21
13.7473211
0
LINE
8
DEFAULT_255_1_234
10
6.1845837
20
13.7473211
11
6.5717135
21
13.7473211
0
LINE
8
DEFAULT_255_1_234
10
6.758853
20
13.0838995
11
7.0335384
21
12.5875381
0
LINE
8
DEFAULT_255_1_234
10
7.0335384
20
12.5875381
11
7.0335384
21
12.5779
0
LINE
8
DEFAULT_255_1_234
10
7.0335384
20
12.5779
11
6.8680846
21
12.5779
0
LINE
8
DEFAULT_255_1_234
10
6.3395962
20
13.6204196
11
6.3395962
21
13.1770677
0
LINE
8
DEFAULT_255_1_234
10
6.3395962
20
13.1770677
11
6.5765325
21
13.1770677
0
LINE
8
DEFAULT_255_1_234
10
6.5757293
20
13.6204196
11
6.3395962
21
13.6204196
0
ARC
8
DEFAULT_255_1_234
10
6.5758774
20
13.0511761
40
0.6961575
50
80.653586
51
90.3427061
0
ARC
8
DEFAULT_255_1_234
10
6.6178249
20
13.2974348
40
0.4463577
50
65.6987447
51
80.8329603
0
ARC
8
DEFAULT_255_1_234
10
6.665589
20
13.4069322
40
0.3269094
50
50.0017161
51
65.4305835
0
ARC
8
DEFAULT_255_1_234
10
6.6874354
20
13.4364482
40
0.2902647
50
11.628416
51
49.5603263
0
ARC
8
DEFAULT_255_1_234
10
6.533869
20
13.3989299
40
0.4482792
50
359.5655735
51
12.3691
0
ARC
8
DEFAULT_255_1_234
10
6.641555
20
13.3926644
40
0.3405924
50
341.9983148
51
0.4822259
0
ARC
8
DEFAULT_255_1_234
10
6.681039
20
13.3819471
40
0.2997359
50
323.8609373
51
341.61416
0
ARC
8
DEFAULT_255_1_234
10
6.6508634
20
13.4052484
40
0.3378487
50
296.7018614
51
323.6876402
0
ARC
8
DEFAULT_255_1_234
10
6.6067529
20
13.4841235
40
0.4281516
50
290.8086567
51
297.2323311
0
ARC
8
DEFAULT_255_1_234
10
6.5791058
20
13.5364351
40
0.3593766
50
269.589728
51
281.8058135
0
ARC
8
DEFAULT_255_1_234
10
6.6041958
20
13.4216743
40
0.2419125
50
281.5501019
51
303.9357432
0
ARC
8
DEFAULT_255_1_234
10
6.6179146
20
13.3978936
40
0.2145323
50
304.4415616
51
311.2106213
0
ARC
8
DEFAULT_255_1_234
10
6.6311251
20
13.3839632
40
0.1953505
50
310.9875673
51
356.2715578
0
ARC
8
DEFAULT_255_1_234
10
6.55549
20
13.3952422
40
0.2716331
50
354.9348262
51
0.0609027
0
ARC
8
DEFAULT_255_1_234
10
6.5367774
20
13.3979435
40
0.2903554
50
359.5239371
51
12.8808918
0
ARC
8
DEFAULT_255_1_234
10
6.6345329
20
13.4218728
40
0.1897315
50
12.4173452
51
43.1022135
0
ARC
8
DEFAULT_255_1_234
10
6.6406934
20
13.4255724
40
0.1827118
50
43.5751728
51
48.203944
0
ARC
8
DEFAULT_255_1_234
10
6.6237426
20
13.4034302
40
0.2105272
50
48.7809703
51
72.6969569
0
ARC
8
DEFAULT_255_1_234
10
6.5883051
20
13.295882
40
0.3237537
50
72.3702241
51
84.8791103
0
ARC
8
DEFAULT_255_1_234
10
6.5735527
20
13.1616769
40
0.4587478
50
84.5400526
51
89.7281406
0
LINE
8
DEFAULT_255_1_234
10
4.6537344
20
20.9732091
11
4.3782458
21
20.9732091
0
LINE
8
DEFAULT_255_1_234
10
4.3782458
20
20.9732091
11
4.3782458
21
20.5154
0
LINE
8
DEFAULT_255_1_234
10
4.3782458
20
20.5154
11
4.2240364
21
20.5154
0
LINE
8
DEFAULT_255_1_234
10
4.2240364
20
20.5154
11
4.2240364
21
21.6848211
0
LINE
8
DEFAULT_255_1_234
10
4.2240364
20
21.6848211
11
4.6553407
21
21.6848211
0
LINE
8
DEFAULT_255_1_234
10
4.3782458
20
21.5579196
11
4.3782458
21
21.0993074
0
LINE
8
DEFAULT_255_1_234
10
4.3782458
20
21.0993074
11
4.6553407
21
21.0993074
0
LINE
8
DEFAULT_255_1_234
10
4.6641756
20
21.5579196
11
4.3782458
21
21.5579196
0
ARC
8
DEFAULT_255_1_234
10
4.6595534
20
21.0789195
40
0.6059162
50
78.8378113
51
90.3983573
0
ARC
8
DEFAULT_255_1_234
10
4.7011548
20
21.2809879
40
0.3996205
50
58.9632738
51
79.0810598
0
ARC
8
DEFAULT_255_1_234
10
4.731309
20
21.3369721
40
0.3361177
50
48.0197965
51
58.447194
0
ARC
8
DEFAULT_255_1_234
10
4.7401951
20
21.3455225
40
0.3238191
50
3.3375044
51
48.1766626
0
ARC
8
DEFAULT_255_1_234
10
4.617179
20
21.3278171
40
0.4477806
50
359.9477528
51
4.6829065
0
ARC
8
DEFAULT_255_1_234
10
4.6295107
20
21.3235628
40
0.4354656
50
346.1877825
51
0.5060252
0
ARC
8
DEFAULT_255_1_234
10
4.7653975
20
21.2882731
40
0.295089
50
310.8831995
51
346.5426355
0
ARC
8
DEFAULT_255_1_234
10
4.7345395
20
21.3299695
40
0.3468331
50
286.6925341
51
310.2288297
0
ARC
8
DEFAULT_255_1_234
10
4.6776226
20
21.5089882
40
0.5346654
50
274.6850312
51
287.0245141
0
ARC
8
DEFAULT_255_1_234
10
4.6550949
20
21.7298932
40
0.7566852
50
269.8969846
51
275.018904
0
ARC
8
DEFAULT_255_1_234
10
4.657854
20
21.5219707
40
0.4226708
50
269.6593078
51
279.4153575
0
ARC
8
DEFAULT_255_1_234
10
4.6835815
20
21.3729133
40
0.2714146
50
279.2049762
51
294.9900808
0
ARC
8
DEFAULT_255_1_234
10
4.7126141
20
21.3081508
40
0.2004525
50
295.2888114
51
311.2911209
0
ARC
8
DEFAULT_255_1_234
10
4.7197035
20
21.297622
40
0.1878703
50
311.7854996
51
347.2861051
0
ARC
8
DEFAULT_255_1_234
10
4.6213194
20
21.3229092
40
0.2894234
50
346.6893224
51
0.1059443
0
ARC
8
DEFAULT_255_1_234
10
4.5458089
20
21.3257685
40
0.3649409
50
359.6350983
51
0.0053152
0
ARC
8
DEFAULT_255_1_234
10
4.6428417
20
21.3282937
40
0.2679199
50
359.4672059
51
15.5933957
0
ARC
8
DEFAULT_255_1_234
10
4.7053306
20
21.3451779
40
0.2031932
50
15.7442113
51
46.6203375
0
ARC
8
DEFAULT_255_1_234
10
4.6905527
20
21.3281484
40
0.2257226
50
46.8628658
51
75.6676503
0
ARC
8
DEFAULT_255_1_234
10
4.6611347
20
21.2222718
40
0.3355939
50
75.276167
51
88.2915297
0
ARC
8
DEFAULT_255_1_234
10
4.6553054
20
21.1344524
40
0.4235602
50
87.8575022
51
88.8000139
0
LINE
8
DEFAULT_255_1_234
10
5.7115143
20
21.6904433
11
5.7115143
21
20.5154
0
LINE
8
DEFAULT_255_1_234
10
5.7115143
20
20.5154
11
5.562124
21
20.5154
0
LINE
8
DEFAULT_255_1_234
10
5.562124
20
20.5154
11
5.562124
21
21.5057133
0
LINE
8
DEFAULT_255_1_234
10
5.562124
20
21.5057133
11
5.2625401
21
21.3956785
0
LINE
8
DEFAULT_255_1_234
10
5.2625401
20
21.3956785
11
5.2625401
21
21.5306117
0
LINE
8
DEFAULT_255_1_234
10
5.2625401
20
21.5306117
11
5.6882223
21
21.6904433
0
LINE
8
DEFAULT_255_1_234
10
5.6882223
20
21.6904433
11
5.7115143
21
21.6904433
0
LINE
8
DEFAULT_255_1_234
10
6.8680846
20
20.5154
11
6.6142817
21
20.9884694
0
LINE
8
DEFAULT_255_1_234
10
6.6142817
20
20.9884694
11
6.3395962
21
20.9884694
0
LINE
8
DEFAULT_255_1_234
10
6.3395962
20
20.9884694
11
6.3395962
21
20.5154
0
LINE
8
DEFAULT_255_1_234
10
6.3395962
20
20.5154
11
6.1845837
21
20.5154
0
LINE
8
DEFAULT_255_1_234
10
6.1845837
20
20.5154
11
6.1845837
21
21.6848211
0
LINE
8
DEFAULT_255_1_234
10
6.1845837
20
21.6848211
11
6.5717135
21
21.6848211
0
LINE
8
DEFAULT_255_1_234
10
6.758853
20
21.0213995
11
7.0335384
21
20.5250381
0
LINE
8
DEFAULT_255_1_234
10
7.0335384
20
20.5250381
11
7.0335384
21
20.5154
0
LINE
8
DEFAULT_255_1_234
10
7.0335384
20
20.5154
11
6.8680846
21
20.5154
0
LINE
8
DEFAULT_255_1_234
10
6.3395962
20
21.5579196
11
6.3395962
21
21.1145677
0
LINE
8
DEFAULT_255_1_234
10
6.3395962
20
21.1145677
11
6.5765325
21
21.1145677
0
LINE
8
DEFAULT_255_1_234
10
6.5757293
20
21.5579196
11
6.3395962
21
21.5579196
0
ARC
8
DEFAULT_255_1_234
10
6.5758774
20
20.9886761
40
0.6961575
50
80.653586
51
90.3427061
0
ARC
8
DEFAULT_255_1_234
10
6.6178249
20
21.2349348
40
0.4463577
50
65.6987447
51
80.8329603
0
ARC
8
DEFAULT_255_1_234
10
6.665589
20
21.3444322
40
0.3269094
50
50.0017161
51
65.4305835
0
ARC
8
DEFAULT_255_1_234
10
6.6874354
20
21.3739482
40
0.2902647
50
11.628416
51
49.5603263
0
ARC
8
DEFAULT_255_1_234
10
6.533869
20
21.3364299
40
0.4482792
50
359.5655735
51
12.3691
0
ARC
8
DEFAULT_255_1_234
10
6.641555
20
21.3301644
40
0.3405924
50
341.9983148
51
0.4822259
0
ARC
8
DEFAULT_255_1_234
10
6.681039
20
21.3194471
40
0.2997359
50
323.8609373
51
341.61416
0
ARC
8
DEFAULT_255_1_234
10
6.6508634
20
21.3427484
40
0.3378487
50
296.7018614
51
323.6876402
0
ARC
8
DEFAULT_255_1_234
10
6.6067529
20
21.4216235
40
0.4281516
50
290.8086567
51
297.2323311
0
ARC
8
DEFAULT_255_1_234
10
6.5791058
20
21.4739351
40
0.3593766
50
269.589728
51
281.8058135
0
ARC
8
DEFAULT_255_1_234
10
6.6041958
20
21.3591743
40
0.2419125
50
281.5501019
51
303.9357432
0
ARC
8
DEFAULT_255_1_234
10
6.6179146
20
21.3353936
40
0.2145323
50
304.4415616
51
311.2106213
0
ARC
8
DEFAULT_255_1_234
10
6.6311251
20
21.3214632
40
0.1953505
50
310.9875673
51
356.2715578
0
ARC
8
DEFAULT_255_1_234
10
6.55549
20
21.3327422
40
0.2716331
50
354.9348262
51
0.0609027
0
ARC
8
DEFAULT_255_1_234
10
6.5367774
20
21.3354435
40
0.2903554
50
359.5239371
51
12.8808918
0
ARC
8
DEFAULT_255_1_234
10
6.6345329
20
21.3593728
40
0.1897315
50
12.4173452
51
43.1022135
0
ARC
8
DEFAULT_255_1_234
10
6.6406934
20
21.3630724
40
0.1827118
50
43.5751728
51
48.203944
0
ARC
8
DEFAULT_255_1_234
10
6.6237426
20
21.3409302
40
0.2105272
50
48.7809703
51
72.6969569
0
ARC
8
DEFAULT_255_1_234
10
6.5883051
20
21.233382
40
0.3237537
50
72.3702241
51
84.8791103
0
ARC
8
DEFAULT_255_1_234
10
6.5735527
20
21.0991769
40
0.4587478
50
84.5400526
51
89.7281406
0
LINE
8
DEFAULT_255_1_234
10
23.0441364
20
29.6223211
11
23.2433235
21
29.6223211
0
LINE
8
DEFAULT_255_1_234
10
23.2433235
20
29.6223211
11
23.6256342
21
28.6681506
0
LINE
8
DEFAULT_255_1_234
10
23.6256342
20
28.6681506
11
24.007945
21
29.6223211
0
LINE
8
DEFAULT_255_1_234
10
24.007945
20
29.6223211
11
24.2079353
21
29.6223211
0
LINE
8
DEFAULT_255_1_234
10
24.2079353
20
29.6223211
11
24.2079353
21
28.4529
0
LINE
8
DEFAULT_255_1_234
10
24.2079353
20
28.4529
11
24.0537259
21
28.4529
0
LINE
8
DEFAULT_255_1_234
10
24.0537259
20
28.4529
11
24.0537259
21
28.9082996
0
LINE
8
DEFAULT_255_1_234
10
24.0537259
20
28.9082996
11
24.068183
21
29.3998419
0
LINE
8
DEFAULT_255_1_234
10
24.068183
20
29.3998419
11
23.6842659
21
28.4529
0
LINE
8
DEFAULT_255_1_234
10
23.6842659
20
28.4529
11
23.5661994
21
28.4529
0
LINE
8
DEFAULT_255_1_234
10
23.5661994
20
28.4529
11
23.1830854
21
29.3974324
0
LINE
8
DEFAULT_255_1_234
10
23.1830854
20
29.3974324
11
23.1983458
21
28.9082996
0
LINE
8
DEFAULT_255_1_234
10
23.1983458
20
28.9082996
11
23.1983458
21
28.4529
0
LINE
8
DEFAULT_255_1_234
10
23.1983458
20
28.4529
11
23.0441364
21
28.4529
0
LINE
8
DEFAULT_255_1_234
10
23.0441364
20
28.4529
11
23.0441364
21
29.6223211
0
ENDSEC
0
EOF