0
SECTION
2
HEADER
9
$MEASUREMENT
70
1
0
ENDSEC
0
SECTION
2
TABLES
0
TABLE
2
LTYPE
0
LTYPE
72
65
70
64
2
CONTINUOUS
3
______
73
0
40
0
0
ENDTAB
0
TABLE
2
LAYER
0
LAYER
2
DEFAULT_255_2_778
70
0
62
255
6
CONTINUOUS
0
LAYER
2
DEFAULT_255_1_388
70
0
62
255
6
CONTINUOUS
0
ENDTAB
0
ENDSEC
0
SECTION
2
ENTITIES
0
ARC
8
DEFAULT_255_2_778
10
3.5695693
20
59.9302032
40
0.7914215
50
129.1312896
51
180.1450914
0
ARC
8
DEFAULT_255_2_778
10
3.5698345
20
59.9306904
40
0.7912112
50
89.854026
51
129.1684493
0
ARC
8
DEFAULT_255_2_778
10
25.7988937
20
59.9303769
40
0.7915249
50
39.4792447
51
90.147911
0
ARC
8
DEFAULT_255_2_778
10
25.7994935
20
59.9302236
40
0.7911595
50
359.8533901
51
39.5154338
0
ARC
8
DEFAULT_255_2_778
10
25.7991693
20
-1.986349
40
0.7914836
50
309.4761667
51
0.1482649
0
ARC
8
DEFAULT_255_2_778
10
25.798898
20
-1.9867801
40
0.7913235
50
269.8517415
51
309.511178
0
ARC
8
DEFAULT_255_2_778
10
3.569842
20
-1.9867219
40
0.7913815
50
219.1282118
51
270.1454017
0
ARC
8
DEFAULT_255_2_778
10
3.5695247
20
-1.9863394
40
0.7913769
50
179.8524075
51
219.1641908
0
LINE
8
DEFAULT_255_2_778
10
3.5718503
20
60.7218991
11
25.7968503
21
60.7218991
0
LINE
8
DEFAULT_255_2_778
10
26.5906503
20
59.9281991
11
26.5906503
21
-1.9843009
0
LINE
8
DEFAULT_255_2_778
10
25.7968503
20
-2.7781009
11
3.5718503
21
-2.7781009
0
LINE
8
DEFAULT_255_2_778
10
2.7781503
20
-1.9843009
11
2.7781503
21
59.9281991
0
LINE
8
DEFAULT_255_1_388
10
5.7311015
20
0.6766934
11
5.7609191
21
0.6766934
0
LINE
8
DEFAULT_255_1_388
10
5.7609191
20
0.6766934
11
5.7609191
21
0.5348338
0
LINE
8
DEFAULT_255_1_388
10
5.7609191
20
0.5348338
11
5.7301979
21
0.5348338
0
LINE
8
DEFAULT_255_1_388
10
5.1148705
20
-0.1392253
11
5.1148705
21
-0.0750722
0
LINE
8
DEFAULT_255_1_388
10
5.2829335
20
-0.0967578
11
5.2829335
21
-0.1582001
0
ARC
8
DEFAULT_255_1_388
10
5.7360871
20
-0.0274174
40
0.562282
50
90.6001079
51
104.5146616
0
ARC
8
DEFAULT_255_1_388
10
5.692383
20
0.13511
40
0.3939917
50
104.2855758
51
133.8630124
0
ARC
8
DEFAULT_255_1_388
10
5.7108083
20
0.1229243
40
0.4155734
50
134.5304124
51
161.6210222
0
ARC
8
DEFAULT_255_1_388
10
5.8968015
20
0.0573421
40
0.6127682
50
161.2850533
51
174.2074364
0
ARC
8
DEFAULT_255_1_388
10
6.0557582
20
0.0354437
40
0.7731446
50
173.7817938
51
174.9251711
0
ARC
8
DEFAULT_255_1_388
10
5.5431775
20
-0.120073
40
0.3412588
50
95.8332067
51
138.995412
0
ARC
8
DEFAULT_255_1_388
10
5.5683056
20
-0.2639305
40
0.4870358
50
89.8755506
51
97.0540979
0
ARC
8
DEFAULT_255_1_388
10
5.5736445
20
-0.1699159
40
0.3930432
50
71.6407016
51
90.6240821
0
ARC
8
DEFAULT_255_1_388
10
5.5905838
20
-0.1075567
40
0.3285421
50
39.6368051
51
71.0190743
0
ARC
8
DEFAULT_255_1_388
10
5.5189746
20
-0.1694414
40
0.4231706
50
10.6588054
51
39.9044509
0
ARC
8
DEFAULT_255_1_388
10
5.3448291
20
-0.2072777
40
0.60133
50
359.6827842
51
11.1326896
0
ARC
8
DEFAULT_255_1_388
10
5.3403627
20
-0.2152285
40
0.6058047
50
347.2485908
51
0.4371098
0
ARC
8
DEFAULT_255_1_388
10
5.5279413
20
-0.2603621
40
0.4128987
50
318.1408565
51
347.6118497
0
ARC
8
DEFAULT_255_1_388
10
5.5645009
20
-0.2904097
40
0.3656244
50
275.6342406
51
317.824739
0
ARC
8
DEFAULT_255_1_388
10
5.539653
20
-0.1442173
40
0.513655
50
269.8872513
51
276.7916069
0
ARC
8
DEFAULT_255_1_388
10
5.5334723
20
-0.2595819
40
0.398323
50
246.9139443
51
270.7436787
0
ARC
8
DEFAULT_255_1_388
10
5.5341919
20
-0.2755956
40
0.3839368
50
218.1665534
51
245.8780431
0
ARC
8
DEFAULT_255_1_388
10
5.6331291
20
-0.1928097
40
0.5128958
50
191.4115343
51
218.6077624
0
ARC
8
DEFAULT_255_1_388
10
5.8511607
20
-0.1439223
40
0.7363054
50
179.6344971
51
191.7836758
0
ARC
8
DEFAULT_255_1_388
10
6.4791482
20
-0.0675505
40
1.3642984
50
171.4523743
51
180.3158856
0
ARC
8
DEFAULT_255_1_388
10
5.9847209
20
0.0093895
40
0.8639311
50
157.9802296
51
171.6246761
0
ARC
8
DEFAULT_255_1_388
10
5.7356559
20
0.1087038
40
0.5958004
50
141.4299236
51
157.8541251
0
ARC
8
DEFAULT_255_1_388
10
5.6634643
20
0.1597746
40
0.5075416
50
102.871586
51
140.8564533
0
ARC
8
DEFAULT_255_1_388
10
5.7363195
20
-0.1147057
40
0.7914163
50
90.377773
51
103.5868422
0
ARC
8
DEFAULT_255_1_388
10
5.5407717
20
-0.1827457
40
0.2667015
50
89.8751238
51
126.2072139
0
ARC
8
DEFAULT_255_1_388
10
5.5459188
20
-0.2001153
40
0.2838229
50
124.9742447
51
144.8960197
0
ARC
8
DEFAULT_255_1_388
10
5.5261433
20
-0.1840019
40
0.2583845
50
145.2974778
51
160.2660922
0
ARC
8
DEFAULT_255_1_388
10
5.8717921
20
-0.1617849
40
0.5888695
50
179.6512124
51
190.285571
0
ARC
8
DEFAULT_255_1_388
10
5.6812401
20
-0.1977032
40
0.3949683
50
190.0944895
51
207.5099647
0
ARC
8
DEFAULT_255_1_388
10
5.6175982
20
-0.2279823
40
0.3245464
50
207.9585471
51
216.325377
0
ARC
8
DEFAULT_255_1_388
10
5.5793619
20
-0.2594288
40
0.2751259
50
215.7661336
51
232.5457193
0
ARC
8
DEFAULT_255_1_388
10
5.5362735
20
-0.3141727
40
0.2054668
50
232.8005815
51
270.6605497
0
ARC
8
DEFAULT_255_1_388
10
5.541416
20
-0.2732147
40
0.2464268
50
269.3550767
51
288.474612
0
ARC
8
DEFAULT_255_1_388
10
5.5518667
20
-0.3125279
40
0.2058436
50
289.1831976
51
322.9685307
0
ARC
8
DEFAULT_255_1_388
10
5.4830768
20
-0.2582721
40
0.2934408
50
322.6007085
51
346.5183319
0
ARC
8
DEFAULT_255_1_388
10
5.3528524
20
-0.2250566
40
0.4278249
50
346.2584622
51
358.7739592
0
ARC
8
DEFAULT_255_1_388
10
5.23771
20
-0.2188171
40
0.5430876
50
358.3757628
51
0.0082477
0
ARC
8
DEFAULT_255_1_388
10
5.3233918
20
-0.2157144
40
0.4574157
50
359.6211417
51
11.28403
0
ARC
8
DEFAULT_255_1_388
10
5.4670524
20
-0.1857465
40
0.3106708
50
11.0483152
51
31.8145585
0
ARC
8
DEFAULT_255_1_388
10
5.5018229
20
-0.1668955
40
0.2711963
50
32.3028554
51
38.0820598
0
ARC
8
DEFAULT_255_1_388
10
5.5491462
20
-0.1240283
40
0.2075566
50
36.8249851
51
85.741667
0
ARC
8
DEFAULT_255_1_388
10
5.5415875
20
-0.1803935
40
0.2643487
50
85.0150021
51
90.050843
0
LINE
8
DEFAULT_255_1_388
10
6.9310351
20
0.1101585
11
6.9310351
21
-0.0317011
0
LINE
8
DEFAULT_255_1_388
10
6.9310351
20
-0.0317011
11
6.3608859
21
-0.0317011
0
LINE
8
DEFAULT_255_1_388
10
6.3608859
20
-0.0317011
11
6.3608859
21
-0.4979404
0
LINE
8
DEFAULT_255_1_388
10
6.3608859
20
-0.4979404
11
7.0231986
21
-0.4979404
0
LINE
8
DEFAULT_255_1_388
10
7.0231986
20
-0.4979404
11
7.0231986
21
-0.6398
0
LINE
8
DEFAULT_255_1_388
10
7.0231986
20
-0.6398
11
6.1874015
21
-0.6398
0
LINE
8
DEFAULT_255_1_388
10
6.1874015
20
-0.6398
11
6.1874015
21
0.6757898
0
LINE
8
DEFAULT_255_1_388
10
6.1874015
20
0.6757898
11
7.014163
21
0.6757898
0
LINE
8
DEFAULT_255_1_388
10
7.014163
20
0.6757898
11
7.014163
21
0.5330267
0
LINE
8
DEFAULT_255_1_388
10
7.014163
20
0.5330267
11
6.3608859
21
0.5330267
0
LINE
8
DEFAULT_255_1_388
10
6.3608859
20
0.5330267
11
6.3608859
21
0.1101585
0
LINE
8
DEFAULT_255_1_388
10
6.3608859
20
0.1101585
11
6.9310351
21
0.1101585
0
LINE
8
DEFAULT_255_1_388
10
8.1119938
20
0.2953892
11
7.9376059
21
0.2953892
0
LINE
8
DEFAULT_255_1_388
10
7.1587333
20
-0.2584958
11
7.3331212
21
-0.2584958
0
ARC
8
DEFAULT_255_1_388
10
8.0116786
20
1.3017821
40
1.4087688
50
248.9196578
51
254.1442424
0
ARC
8
DEFAULT_255_1_388
10
7.8226666
20
0.8151805
40
0.8867498
50
241.6337352
51
249.0064643
0
ARC
8
DEFAULT_255_1_388
10
7.6506979
20
0.5000764
40
0.5277799
50
230.4982261
51
241.8087583
0
ARC
8
DEFAULT_255_1_388
10
7.562475
20
0.3876686
40
0.3849419
50
227.4062979
51
229.9877433
0
ARC
8
DEFAULT_255_1_388
10
7.5076097
20
0.3341155
40
0.3084129
50
200.6782127
51
228.1765252
0
ARC
8
DEFAULT_255_1_388
10
7.5157466
20
0.3324277
40
0.315461
50
179.506278
51
199.8695278
0
ARC
8
DEFAULT_255_1_388
10
7.5147054
20
0.3407671
40
0.3144584
50
132.4834401
51
181.0242352
0
ARC
8
DEFAULT_255_1_388
10
7.5816259
20
0.2775788
40
0.4063094
50
129.2526113
51
133.4249077
0
ARC
8
DEFAULT_255_1_388
10
7.5981851
20
0.2527619
40
0.436014
50
101.9878945
51
128.8741833
0
ARC
8
DEFAULT_255_1_388
10
7.6430267
20
0.059136
40
0.6347415
50
89.5906376
51
102.3170567
0
ARC
8
DEFAULT_255_1_388
10
7.6509578
20
0.0949586
40
0.5989122
50
77.2359491
51
90.3248968
0
ARC
8
DEFAULT_255_1_388
10
7.6742509
20
0.2037554
40
0.4876594
50
63.8379856
51
77.0808925
0
ARC
8
DEFAULT_255_1_388
10
7.7055043
20
0.2619882
40
0.4216191
50
45.9863127
51
64.1608798
0
ARC
8
DEFAULT_255_1_388
10
7.7348436
20
0.295499
40
0.3771394
50
32.2747934
51
45.6544796
0
ARC
8
DEFAULT_255_1_388
10
7.7423243
20
0.2976426
40
0.3696765
50
359.6507495
51
32.6129943
0
ARC
8
DEFAULT_255_1_388
10
7.6362425
20
0.2981788
40
0.3013762
50
359.469654
51
14.983205
0
ARC
8
DEFAULT_255_1_388
10
7.7155678
20
0.3194288
40
0.2192542
50
14.9781954
51
48.2004799
0
ARC
8
DEFAULT_255_1_388
10
7.6970788
20
0.2961937
40
0.2489048
50
48.5926661
51
74.1242559
0
ARC
8
DEFAULT_255_1_388
10
7.6595591
20
0.1723607
40
0.3782845
50
73.7889321
51
86.6653996
0
ARC
8
DEFAULT_255_1_388
10
7.6480405
20
0.0365955
40
0.5145025
50
86.2642725
51
90.0533288
0
ARC
8
DEFAULT_255_1_388
10
7.6448498
20
0.0810376
40
0.4700681
50
89.669455
51
99.2313411
0
ARC
8
DEFAULT_255_1_388
10
7.6175658
20
0.2435401
40
0.3052945
50
99.0695987
51
113.7659242
0
ARC
8
DEFAULT_255_1_388
10
7.5867652
20
0.3161772
40
0.226407
50
114.0402885
51
127.9848946
0
ARC
8
DEFAULT_255_1_388
10
7.5597129
20
0.3494884
40
0.1835045
50
127.7287217
51
176.7106493
0
ARC
8
DEFAULT_255_1_388
10
7.6360794
20
0.338121
40
0.2604907
50
175.1780759
51
180.0581213
0
ARC
8
DEFAULT_255_1_388
10
7.5412137
20
0.3367411
40
0.1656287
50
179.6140658
51
228.124674
0
ARC
8
DEFAULT_255_1_388
10
7.5909495
20
0.382794
40
0.2332038
50
226.5785315
51
230.8792476
0
ARC
8
DEFAULT_255_1_388
10
7.6438981
20
0.4530908
40
0.3211664
50
231.4636401
51
241.9261664
0
ARC
8
DEFAULT_255_1_388
10
7.7785765
20
0.7009349
40
0.6032345
50
241.7177136
51
248.3259138
0
ARC
8
DEFAULT_255_1_388
10
7.9344359
20
1.0870771
40
1.0196417
50
248.2007377
51
252.4527713
0
ARC
8
DEFAULT_255_1_388
10
8.0697886
20
1.5055092
40
1.4594143
50
252.3388938
51
254.347037
0
ARC
8
DEFAULT_255_1_388
10
7.2213187
20
-1.5292905
40
1.6917621
50
71.0197462
51
74.4085467
0
ARC
8
DEFAULT_255_1_388
10
7.4120275
20
-0.9787856
40
1.1091618
50
66.1845203
51
71.086519
0
ARC
8
DEFAULT_255_1_388
10
7.5870823
20
-0.5846561
40
0.6779073
50
59.3537334
51
66.269255
0
ARC
8
DEFAULT_255_1_388
10
7.6870549
20
-0.4155223
40
0.4814366
50
49.1021732
51
59.3294421
0
ARC
8
DEFAULT_255_1_388
10
7.7791538
20
-0.3105425
40
0.3417875
50
32.7924183
51
49.2503526
0
ARC
8
DEFAULT_255_1_388
10
7.8141152
20
-0.2855689
40
0.2988789
50
31.121225
51
32.3977355
0
ARC
8
DEFAULT_255_1_388
10
7.805333
20
-0.2888272
40
0.3080861
50
8.1116803
51
30.7958224
0
ARC
8
DEFAULT_255_1_388
10
7.7141675
20
-0.3043563
40
0.4005385
50
359.8390945
51
8.4707348
0
ARC
8
DEFAULT_255_1_388
10
7.7845723
20
-0.3098249
40
0.3301608
50
337.4732479
51
0.7538283
0
ARC
8
DEFAULT_255_1_388
10
7.8046748
20
-0.3120446
40
0.3107929
50
307.5917028
51
336.4313755
0
ARC
8
DEFAULT_255_1_388
10
7.7535806
20
-0.2552491
40
0.3870096
50
307.6560665
51
308.4561779
0
ARC
8
DEFAULT_255_1_388
10
7.7270022
20
-0.2144168
40
0.435591
50
284.3733666
51
307.1426212
0
ARC
8
DEFAULT_255_1_388
10
7.6712917
20
-0.0094609
40
0.6479685
50
272.4384566
51
284.6464689
0
ARC
8
DEFAULT_255_1_388
10
7.6570302
20
0.1929434
40
0.8508149
50
269.9708517
51
272.8180721
0
ARC
8
DEFAULT_255_1_388
10
7.6521984
20
-0.0362717
40
0.6216151
50
248.2707343
51
270.4054609
0
ARC
8
DEFAULT_255_1_388
10
7.6460856
20
-0.0577327
40
0.5994203
50
246.1380358
51
248.054058
0
ARC
8
DEFAULT_255_1_388
10
7.5989998
20
-0.1566295
40
0.4899388
50
233.1671897
51
246.4951656
0
ARC
8
DEFAULT_255_1_388
10
7.5366633
20
-0.2407863
40
0.3852115
50
215.3403381
51
233.084328
0
ARC
8
DEFAULT_255_1_388
10
7.5059997
20
-0.2630907
40
0.3472969
50
179.2419235
51
215.2648426
0
ARC
8
DEFAULT_255_1_388
10
7.5923548
20
-0.2615021
40
0.259251
50
179.3355796
51
199.1045873
0
ARC
8
DEFAULT_255_1_388
10
7.554969
20
-0.2712777
40
0.2207454
50
199.8830064
51
232.7061328
0
ARC
8
DEFAULT_255_1_388
10
7.6080965
20
-0.2044544
40
0.306101
50
232.3736206
51
255.5136621
0
ARC
8
DEFAULT_255_1_388
10
7.646447
20
-0.0644823
40
0.4512213
50
255.2447928
51
267.5318292
0
ARC
8
DEFAULT_255_1_388
10
7.6562937
20
0.0741709
40
0.5901825
50
267.1564563
51
270.0294721
0
ARC
8
DEFAULT_255_1_388
10
7.6594263
20
0.0242623
40
0.5402814
50
269.6999944
51
278.1662446
0
ARC
8
DEFAULT_255_1_388
10
7.688229
20
-0.1704026
40
0.3435003
50
278.0229022
51
290.6255326
0
ARC
8
DEFAULT_255_1_388
10
7.7273457
20
-0.2747453
40
0.2320666
50
290.6616368
51
307.0374127
0
ARC
8
DEFAULT_255_1_388
10
7.7611357
20
-0.316196
40
0.1786372
50
306.3942078
51
355.303191
0
ARC
8
DEFAULT_255_1_388
10
7.703565
20
-0.3075814
40
0.2367516
50
354.3662092
51
0.0709489
0
ARC
8
DEFAULT_255_1_388
10
7.7195518
20
-0.3050439
40
0.2207761
50
359.4175379
51
16.1975911
0
ARC
8
DEFAULT_255_1_388
10
7.7707636
20
-0.2910046
40
0.1676828
50
16.4721294
51
52.6261798
0
ARC
8
DEFAULT_255_1_388
10
7.6784144
20
-0.4129394
40
0.3206412
50
52.7381828
51
62.4979144
0
ARC
8
DEFAULT_255_1_388
10
7.5225896
20
-0.7061764
40
0.6527035
50
62.2517425
51
68.1219454
0
ARC
8
DEFAULT_255_1_388
10
7.3291384
20
-1.1816049
40
1.1659797
50
68.006043
51
71.8055127
0
ARC
8
DEFAULT_255_1_388
10
7.1271292
20
-1.7874277
40
1.8045908
50
71.718361
51
73.9260743
0
LINE
8
DEFAULT_255_1_388
10
9.1429608
20
0.6757898
11
9.1429608
21
0.5818191
0
LINE
8
DEFAULT_255_1_388
10
9.1429608
20
0.5818191
11
8.5981115
21
-0.6398
0
LINE
8
DEFAULT_255_1_388
10
8.5981115
20
-0.6398
11
8.42282
21
-0.6398
0
LINE
8
DEFAULT_255_1_388
10
8.42282
20
-0.6398
11
8.9658622
21
0.538448
0
LINE
8
DEFAULT_255_1_388
10
8.9658622
20
0.538448
11
8.2538534
21
0.538448
0
LINE
8
DEFAULT_255_1_388
10
8.2538534
20
0.538448
11
8.2538534
21
0.6757898
0
LINE
8
DEFAULT_255_1_388
10
8.2538534
20
0.6757898
11
9.1429608
21
0.6757898
0
LINE
8
DEFAULT_255_1_388
10
10.0383932
20
0.6757898
11
10.0383932
21
-0.197957
0
LINE
8
DEFAULT_255_1_388
10
10.0383932
20
-0.197957
11
10.2209132
21
-0.197957
0
LINE
8
DEFAULT_255_1_388
10
10.2209132
20
-0.197957
11
10.2209132
21
-0.3343952
0
LINE
8
DEFAULT_255_1_388
10
10.2209132
20
-0.3343952
11
10.0383932
21
-0.3343952
0
LINE
8
DEFAULT_255_1_388
10
10.0383932
20
-0.3343952
11
10.0383932
21
-0.6398
0
LINE
8
DEFAULT_255_1_388
10
10.0383932
20
-0.6398
11
9.8703302
21
-0.6398
0
LINE
8
DEFAULT_255_1_388
10
9.8703302
20
-0.6398
11
9.8703302
21
-0.3343952
0
LINE
8
DEFAULT_255_1_388
10
9.8703302
20
-0.3343952
11
9.271267
21
-0.3343952
0
LINE
8
DEFAULT_255_1_388
10
9.271267
20
-0.3343952
11
9.271267
21
-0.2359067
0
LINE
8
DEFAULT_255_1_388
10
9.271267
20
-0.2359067
11
9.860391
21
0.6757898
0
LINE
8
DEFAULT_255_1_388
10
9.860391
20
0.6757898
11
10.0383932
21
0.6757898
0
LINE
8
DEFAULT_255_1_388
10
9.8504518
20
0.4110455
11
9.4610155
21
-0.197957
0
LINE
8
DEFAULT_255_1_388
10
9.4610155
20
-0.197957
11
9.8703302
21
-0.197957
0
LINE
8
DEFAULT_255_1_388
10
9.8703302
20
-0.197957
11
9.8703302
21
0.447188
0
LINE
8
DEFAULT_255_1_388
10
9.8703302
20
0.447188
11
9.8504518
21
0.4110455
0
LINE
8
DEFAULT_255_1_388
10
10.9211757
20
0.6821148
11
10.9211757
21
-0.6398
0
LINE
8
DEFAULT_255_1_388
10
10.9211757
20
-0.6398
11
10.7531127
21
-0.6398
0
LINE
8
DEFAULT_255_1_388
10
10.7531127
20
-0.6398
11
10.7531127
21
0.474295
0
LINE
8
DEFAULT_255_1_388
10
10.7531127
20
0.474295
11
10.4160832
21
0.3505066
0
LINE
8
DEFAULT_255_1_388
10
10.4160832
20
0.3505066
11
10.4160832
21
0.5023055
0
LINE
8
DEFAULT_255_1_388
10
10.4160832
20
0.5023055
11
10.8949723
21
0.6821148
0
LINE
8
DEFAULT_255_1_388
10
10.8949723
20
0.6821148
11
10.9211757
21
0.6821148
0
LINE
8
DEFAULT_255_1_388
10
12.2602582
20
0.6757898
11
12.2602582
21
0.5818191
0
LINE
8
DEFAULT_255_1_388
10
12.2602582
20
0.5818191
11
11.7154088
21
-0.6398
0
LINE
8
DEFAULT_255_1_388
10
11.7154088
20
-0.6398
11
11.5401173
21
-0.6398
0
LINE
8
DEFAULT_255_1_388
10
11.5401173
20
-0.6398
11
12.0831596
21
0.538448
0
LINE
8
DEFAULT_255_1_388
10
12.0831596
20
0.538448
11
11.3711508
21
0.538448
0
LINE
8
DEFAULT_255_1_388
10
11.3711508
20
0.538448
11
11.3711508
21
0.6757898
0
LINE
8
DEFAULT_255_1_388
10
11.3711508
20
0.6757898
11
12.2602582
21
0.6757898
0
LINE
8
DEFAULT_255_1_388
10
12.8150468
20
-0.0127263
11
12.8150468
21
-0.1491645
0
LINE
8
DEFAULT_255_1_388
10
12.8150468
20
-0.1491645
11
12.3741073
21
-0.1491645
0
LINE
8
DEFAULT_255_1_388
10
12.3741073
20
-0.1491645
11
12.3741073
21
-0.0127263
0
LINE
8
DEFAULT_255_1_388
10
12.3741073
20
-0.0127263
11
12.8150468
21
-0.0127263
0
LINE
8
DEFAULT_255_1_388
10
13.1710512
20
-0.0145334
11
13.0373236
21
0.0198021
0
LINE
8
DEFAULT_255_1_388
10
13.0373236
20
0.0198021
11
13.1041874
21
0.6757898
0
LINE
8
DEFAULT_255_1_388
10
13.1041874
20
0.6757898
11
13.7782465
21
0.6757898
0
LINE
8
DEFAULT_255_1_388
10
13.7782465
20
0.6757898
11
13.7782465
21
0.5212803
0
LINE
8
DEFAULT_255_1_388
10
13.7782465
20
0.5212803
11
13.246047
21
0.5212803
0
LINE
8
DEFAULT_255_1_388
10
13.246047
20
0.5212803
11
13.2062902
21
0.1625652
0
LINE
8
DEFAULT_255_1_388
10
12.9903383
20
-0.2937348
11
13.1484621
21
-0.2937348
0
LINE
8
DEFAULT_255_1_388
10
13.2153258
20
0.0216092
11
13.1710512
21
-0.0145334
0
ARC
8
DEFAULT_255_1_388
10
13.4149515
20
-0.1951759
40
0.4141476
50
93.7181681
51
120.253934
0
ARC
8
DEFAULT_255_1_388
10
13.4255568
20
-0.2860716
40
0.5055616
50
89.9660471
51
94.2495185
0
ARC
8
DEFAULT_255_1_388
10
13.4301389
20
-0.2197846
40
0.4392953
50
73.8045384
51
90.5585736
0
ARC
8
DEFAULT_255_1_388
10
13.4565647
20
-0.123248
40
0.3392225
50
41.3071072
51
73.543002
0
ARC
8
DEFAULT_255_1_388
10
13.4097467
20
-0.1635539
40
0.4009977
50
13.5075837
51
41.2174839
0
ARC
8
DEFAULT_255_1_388
10
13.2250564
20
-0.2119093
40
0.5918864
50
1.1330171
51
13.8830737
0
ARC
8
DEFAULT_255_1_388
10
13.065421
20
-0.2204478
40
0.7516787
50
359.9925091
51
1.5431298
0
ARC
8
DEFAULT_255_1_388
10
13.2098825
20
-0.2250973
40
0.6072343
50
347.8572712
51
0.4294349
0
ARC
8
DEFAULT_255_1_388
10
13.406796
20
-0.2697102
40
0.4053482
50
323.6727442
51
348.1674594
0
ARC
8
DEFAULT_255_1_388
10
13.4398925
20
-0.2898825
40
0.3667495
50
316.8171818
51
323.1486802
0
ARC
8
DEFAULT_255_1_388
10
13.4468048
20
-0.2940388
40
0.358869
50
281.839603
51
316.5458142
0
ARC
8
DEFAULT_255_1_388
10
13.4045336
20
-0.1190637
40
0.5388223
50
269.5770964
51
282.4214641
0
ARC
8
DEFAULT_255_1_388
10
13.3965257
20
-0.143107
40
0.5147801
50
256.2425863
51
270.4486481
0
ARC
8
DEFAULT_255_1_388
10
13.3628784
20
-0.2780876
40
0.3756708
50
228.9024379
51
256.33135
0
ARC
8
DEFAULT_255_1_388
10
13.3545765
20
-0.2911946
40
0.360344
50
193.7536029
51
228.5272638
0
ARC
8
DEFAULT_255_1_388
10
13.493833
20
-0.2503537
40
0.5053599
50
184.9244437
51
194.4976052
0
ARC
8
DEFAULT_255_1_388
10
13.5154971
20
-0.2463278
40
0.3700839
50
187.3596909
51
198.6733728
0
ARC
8
DEFAULT_255_1_388
10
13.3974214
20
-0.2872627
40
0.2451195
50
198.4453795
51
217.7945479
0
ARC
8
DEFAULT_255_1_388
10
13.3641387
20
-0.3108437
40
0.2043754
50
218.2887146
51
228.5613203
0
ARC
8
DEFAULT_255_1_388
10
13.3751394
20
-0.2960098
40
0.2227819
50
228.9652423
51
258.1237049
0
ARC
8
DEFAULT_255_1_388
10
13.3982831
20
-0.1969036
40
0.3245374
50
257.7260585
51
270.4013717
0
ARC
8
DEFAULT_255_1_388
10
13.4033329
20
-0.2469745
40
0.2744726
50
269.4204315
51
286.420998
0
ARC
8
DEFAULT_255_1_388
10
13.4200385
20
-0.3076295
40
0.2115721
50
286.7250065
51
320.6004665
0
ARC
8
DEFAULT_255_1_388
10
13.37693
20
-0.2726473
40
0.2670878
50
320.6712228
51
344.5440474
0
ARC
8
DEFAULT_255_1_388
10
13.2468014
20
-0.2344606
40
0.4026927
50
344.241448
51
356.735803
0
ARC
8
DEFAULT_255_1_388
10
13.1064321
20
-0.2228344
40
0.5435085
50
356.3547471
51
0.0507222
0
ARC
8
DEFAULT_255_1_388
10
13.2566586
20
-0.2193188
40
0.3932934
50
359.5579289
51
12.9534322
0
ARC
8
DEFAULT_255_1_388
10
13.3753426
20
-0.1905414
40
0.2711827
50
12.6489751
51
41.608121
0
ARC
8
DEFAULT_255_1_388
10
13.4012586
20
-0.1685054
40
0.2371737
50
41.7851122
51
85.9892156
0
ARC
8
DEFAULT_255_1_388
10
13.3873896
20
-0.2600262
40
0.3295244
50
84.6965848
51
90.0672125
0
ARC
8
DEFAULT_255_1_388
10
13.3847464
20
-0.3351882
40
0.4046926
50
89.6804991
51
99.161352
0
ARC
8
DEFAULT_255_1_388
10
13.3616473
20
-0.1971152
40
0.2647044
50
98.9836248
51
113.8905702
0
ARC
8
DEFAULT_255_1_388
10
13.3358148
20
-0.1361882
40
0.1985386
50
114.195234
51
127.3641866
0
LINE
8
DEFAULT_255_1_388
10
15.0540795
20
0.6757898
11
15.0540795
21
-0.6398
0
LINE
8
DEFAULT_255_1_388
10
15.0540795
20
-0.6398
11
14.8796916
21
-0.6398
0
LINE
8
DEFAULT_255_1_388
10
14.8796916
20
-0.6398
11
14.8796916
21
-0.0317011
0
LINE
8
DEFAULT_255_1_388
10
14.8796916
20
-0.0317011
11
14.2164752
21
-0.0317011
0
LINE
8
DEFAULT_255_1_388
10
14.2164752
20
-0.0317011
11
14.2164752
21
-0.6398
0
LINE
8
DEFAULT_255_1_388
10
14.2164752
20
-0.6398
11
14.0429909
21
-0.6398
0
LINE
8
DEFAULT_255_1_388
10
14.0429909
20
-0.6398
11
14.0429909
21
0.6757898
0
LINE
8
DEFAULT_255_1_388
10
14.0429909
20
0.6757898
11
14.2164752
21
0.6757898
0
LINE
8
DEFAULT_255_1_388
10
14.2164752
20
0.6757898
11
14.2164752
21
0.1101585
0
LINE
8
DEFAULT_255_1_388
10
14.2164752
20
0.1101585
11
14.8796916
21
0.1101585
0
LINE
8
DEFAULT_255_1_388
10
14.8796916
20
0.1101585
11
14.8796916
21
0.6757898
0
LINE
8
DEFAULT_255_1_388
10
14.8796916
20
0.6757898
11
15.0540795
21
0.6757898
0
LINE
8
DEFAULT_255_1_388
10
16.2449774
20
0.6757898
11
16.2449774
21
0.5330267
0
LINE
8
DEFAULT_255_1_388
10
16.2449774
20
0.5330267
11
15.8221093
21
0.5330267
0
LINE
8
DEFAULT_255_1_388
10
15.8221093
20
0.5330267
11
15.8221093
21
-0.6398
0
LINE
8
DEFAULT_255_1_388
10
15.8221093
20
-0.6398
11
15.6495285
21
-0.6398
0
LINE
8
DEFAULT_255_1_388
10
15.6495285
20
-0.6398
11
15.6495285
21
0.5330267
0
LINE
8
DEFAULT_255_1_388
10
15.6495285
20
0.5330267
11
15.2275639
21
0.5330267
0
LINE
8
DEFAULT_255_1_388
10
15.2275639
20
0.5330267
11
15.2275639
21
0.6757898
0
LINE
8
DEFAULT_255_1_388
10
15.2275639
20
0.6757898
11
16.2449774
21
0.6757898
0
LINE
8
DEFAULT_255_1_388
10
17.2217306
20
0.138169
11
17.2217306
21
-0.0786865
0
LINE
8
DEFAULT_255_1_388
10
16.3913549
20
-0.1012756
11
16.3913549
21
0.1219048
0
LINE
8
DEFAULT_255_1_388
10
17.0545712
20
-0.1238647
11
17.0545712
21
0.1499153
0
LINE
8
DEFAULT_255_1_388
10
16.5585143
20
0.1625652
11
16.5585143
21
-0.1048898
0
ARC
8
DEFAULT_255_1_388
10
15.843964
20
-0.0841882
40
1.3777776
50
353.8440855
51
0.2287917
0
ARC
8
DEFAULT_255_1_388
10
16.3658657
20
-0.1424586
40
0.852639
50
344.4934746
51
353.9763743
0
ARC
8
DEFAULT_255_1_388
10
16.7025465
20
-0.2381809
40
0.5026273
50
329.2803599
51
344.7473406
0
ARC
8
DEFAULT_255_1_388
10
16.814096
20
-0.2993962
40
0.3754848
50
324.9361395
51
328.6153007
0
ARC
8
DEFAULT_255_1_388
10
16.856661
20
-0.3291414
40
0.3235566
50
280.5801797
51
324.9173226
0
ARC
8
DEFAULT_255_1_388
10
16.8115239
20
-0.1411764
40
0.5167077
50
269.5979457
51
281.6732777
0
ARC
8
DEFAULT_255_1_388
10
16.8034142
20
-0.1546887
40
0.5032026
50
256.6228565
51
270.5105488
0
ARC
8
DEFAULT_255_1_388
10
16.7581885
20
-0.3288655
40
0.3233092
50
215.8618351
51
257.2787793
0
ARC
8
DEFAULT_255_1_388
10
16.8730592
20
-0.2517894
40
0.4615831
50
197.9695203
51
215.2622745
0
ARC
8
DEFAULT_255_1_388
10
17.1526268
20
-0.1574359
40
0.7566307
50
187.8816486
51
198.2346584
0
ARC
8
DEFAULT_255_1_388
10
17.5979506
20
-0.0931547
40
1.2065653
50
180.8977266
51
188.0054894
0
ARC
8
DEFAULT_255_1_388
10
17.902972
20
-0.08166
40
1.5117443
50
180.7434591
51
181.152202
0
ARC
8
DEFAULT_255_1_388
10
17.7354716
20
0.1273371
40
1.3441277
50
173.7674302
51
180.2315596
0
ARC
8
DEFAULT_255_1_388
10
17.2272585
20
0.1847779
40
0.8326847
50
164.3058537
51
173.9000553
0
ARC
8
DEFAULT_255_1_388
10
16.8996585
20
0.2791652
40
0.4917711
50
148.7922028
51
164.5682288
0
ARC
8
DEFAULT_255_1_388
10
16.7927322
20
0.3388457
40
0.3694204
50
144.5883979
51
148.1161588
0
ARC
8
DEFAULT_255_1_388
10
16.7540067
20
0.3658667
40
0.322202
50
101.6440149
51
144.5142619
0
ARC
8
DEFAULT_255_1_388
10
16.801826
20
0.1758337
40
0.5180451
50
89.528284
51
102.5820197
0
ARC
8
DEFAULT_255_1_388
10
16.8107251
20
0.1714376
40
0.5224441
50
77.0437914
51
90.508231
0
ARC
8
DEFAULT_255_1_388
10
16.8559505
20
0.3562272
40
0.3322297
50
48.2777708
51
77.4996087
0
ARC
8
DEFAULT_255_1_388
10
16.8641245
20
0.3707557
40
0.315966
50
36.3141586
51
47.6307332
0
ARC
8
DEFAULT_255_1_388
10
16.7663967
20
0.3049159
40
0.4337313
50
18.2931065
51
35.6770203
0
ARC
8
DEFAULT_255_1_388
10
16.4802808
20
0.2067107
40
0.7362203
50
8.0246996
51
18.5605636
0
ARC
8
DEFAULT_255_1_388
10
16.0119164
20
0.1375432
40
1.2096583
50
1.127539
51
8.1718423
0
ARC
8
DEFAULT_255_1_388
10
15.6470297
20
0.1232374
40
1.5747719
50
0.5432713
51
1.38669
0
ARC
8
DEFAULT_255_1_388
10
15.8527676
20
0.1539163
40
1.2018103
50
359.8092569
51
4.9408001
0
ARC
8
DEFAULT_255_1_388
10
16.3264257
20
0.19619
40
0.7262727
50
4.8364937
51
12.2906017
0
ARC
8
DEFAULT_255_1_388
10
16.6363722
20
0.2652485
40
0.4087324
50
12.0806994
51
23.8171225
0
ARC
8
DEFAULT_255_1_388
10
16.7684118
20
0.3211508
40
0.2653719
50
24.2874621
51
31.3934353
0
ARC
8
DEFAULT_255_1_388
10
16.8274554
20
0.3597822
40
0.1948607
50
30.7407708
51
82.4658033
0
ARC
8
DEFAULT_255_1_388
10
16.8072215
20
0.2604017
40
0.2961198
50
81.1057101
51
90.2187368
0
ARC
8
DEFAULT_255_1_388
10
16.8032026
20
0.2894421
40
0.2670929
50
89.380395
51
105.6763916
0
ARC
8
DEFAULT_255_1_388
10
16.7825748
20
0.364432
40
0.1893189
50
105.7980655
51
149.7387869
0
ARC
8
DEFAULT_255_1_388
10
16.9022888
20
0.2924719
40
0.3289892
50
149.4208441
51
163.628295
0
ARC
8
DEFAULT_255_1_388
10
17.1375118
20
0.2207345
40
0.5749004
50
163.3764549
51
172.141138
0
ARC
8
DEFAULT_255_1_388
10
17.508784
20
0.1675582
40
0.9499585
50
172.0258462
51
178.0705453
0
ARC
8
DEFAULT_255_1_388
10
17.8509392
20
0.1513682
40
1.2924734
50
177.8639301
51
179.5036263
0
ARC
8
DEFAULT_255_1_388
10
17.7290411
20
-0.1089849
40
1.170534
50
179.7995545
51
185.246089
0
ARC
8
DEFAULT_255_1_388
10
17.2742004
20
-0.1520596
40
0.7136613
50
185.1411911
51
193.0082205
0
ARC
8
DEFAULT_255_1_388
10
16.9768265
20
-0.2223559
40
0.4080987
50
192.7897338
51
205.2507384
0
ARC
8
DEFAULT_255_1_388
10
16.8590475
20
-0.2749462
40
0.2791522
50
205.8001921
51
211.2545876
0
ARC
8
DEFAULT_255_1_388
10
16.8002014
20
-0.3143868
40
0.2084074
50
210.3789935
51
238.4007996
0
ARC
8
DEFAULT_255_1_388
10
16.79801
20
-0.3091214
40
0.2117943
50
239.6521916
51
265.9793852
0
ARC
8
DEFAULT_255_1_388
10
16.8075949
20
-0.2334642
40
0.2879689
50
265.1324455
51
270.0603288
0
ARC
8
DEFAULT_255_1_388
10
16.8108326
20
-0.2699582
40
0.2514919
50
269.3314378
51
287.2180039
0
ARC
8
DEFAULT_255_1_388
10
16.8263408
20
-0.3265709
40
0.1928357
50
287.7957942
51
329.0808983
0
ARC
8
DEFAULT_255_1_388
10
16.7186165
20
-0.2593349
40
0.319808
50
328.6635261
51
343.3325043
0
ARC
8
DEFAULT_255_1_388
10
16.4741624
20
-0.1831805
40
0.5758408
50
343.0498092
51
351.9392499
0
ARC
8
DEFAULT_255_1_388
10
16.0840945
20
-0.1256795
40
0.9701202
50
351.8071632
51
357.7957897
0
ARC
8
DEFAULT_255_1_388
10
15.7206422
20
-0.1068276
40
1.3340376
50
357.5870923
51
359.2682493
0
LINE
8
DEFAULT_255_1_388
10
18.0620456
20
0.6766934
11
18.0918632
21
0.6766934
0
LINE
8
DEFAULT_255_1_388
10
18.0918632
20
0.6766934
11
18.0918632
21
0.5348338
0
LINE
8
DEFAULT_255_1_388
10
18.0918632
20
0.5348338
11
18.061142
21
0.5348338
0
LINE
8
DEFAULT_255_1_388
10
17.4458146
20
-0.1392253
11
17.4458146
21
-0.0750722
0
LINE
8
DEFAULT_255_1_388
10
17.6138776
20
-0.0967578
11
17.6138776
21
-0.1582001
0
ARC
8
DEFAULT_255_1_388
10
18.0670311
20
-0.0274174
40
0.562282
50
90.6001079
51
104.5146616
0
ARC
8
DEFAULT_255_1_388
10
18.0233271
20
0.13511
40
0.3939917
50
104.2855758
51
133.8630124
0
ARC
8
DEFAULT_255_1_388
10
18.0417524
20
0.1229243
40
0.4155734
50
134.5304124
51
161.6210222
0
ARC
8
DEFAULT_255_1_388
10
18.2277456
20
0.0573421
40
0.6127682
50
161.2850533
51
174.2074364
0
ARC
8
DEFAULT_255_1_388
10
18.3867023
20
0.0354437
40
0.7731446
50
173.7817938
51
174.9251711
0
ARC
8
DEFAULT_255_1_388
10
17.8741216
20
-0.120073
40
0.3412588
50
95.8332067
51
138.995412
0
ARC
8
DEFAULT_255_1_388
10
17.8992497
20
-0.2639305
40
0.4870358
50
89.8755506
51
97.0540979
0
ARC
8
DEFAULT_255_1_388
10
17.9045886
20
-0.1699159
40
0.3930432
50
71.6407016
51
90.6240821
0
ARC
8
DEFAULT_255_1_388
10
17.9215279
20
-0.1075567
40
0.3285421
50
39.6368051
51
71.0190743
0
ARC
8
DEFAULT_255_1_388
10
17.8499187
20
-0.1694414
40
0.4231706
50
10.6588054
51
39.9044509
0
ARC
8
DEFAULT_255_1_388
10
17.6757732
20
-0.2072777
40
0.60133
50
359.6827842
51
11.1326896
0
ARC
8
DEFAULT_255_1_388
10
17.6713068
20
-0.2152285
40
0.6058047
50
347.2485908
51
0.4371098
0
ARC
8
DEFAULT_255_1_388
10
17.8588854
20
-0.2603621
40
0.4128987
50
318.1408565
51
347.6118497
0
ARC
8
DEFAULT_255_1_388
10
17.895445
20
-0.2904097
40
0.3656244
50
275.6342406
51
317.824739
0
ARC
8
DEFAULT_255_1_388
10
17.8705971
20
-0.1442173
40
0.513655
50
269.8872513
51
276.7916069
0
ARC
8
DEFAULT_255_1_388
10
17.8644164
20
-0.2595819
40
0.398323
50
246.9139443
51
270.7436787
0
ARC
8
DEFAULT_255_1_388
10
17.865136
20
-0.2755956
40
0.3839368
50
218.1665534
51
245.8780431
0
ARC
8
DEFAULT_255_1_388
10
17.9640732
20
-0.1928097
40
0.5128958
50
191.4115343
51
218.6077624
0
ARC
8
DEFAULT_255_1_388
10
18.1821048
20
-0.1439223
40
0.7363054
50
179.6344971
51
191.7836758
0
ARC
8
DEFAULT_255_1_388
10
18.8100923
20
-0.0675505
40
1.3642984
50
171.4523743
51
180.3158856
0
ARC
8
DEFAULT_255_1_388
10
18.315665
20
0.0093895
40
0.8639311
50
157.9802296
51
171.6246761
0
ARC
8
DEFAULT_255_1_388
10
18.0666
20
0.1087038
40
0.5958004
50
141.4299236
51
157.8541251
0
ARC
8
DEFAULT_255_1_388
10
17.9944084
20
0.1597746
40
0.5075416
50
102.871586
51
140.8564533
0
ARC
8
DEFAULT_255_1_388
10
18.0672636
20
-0.1147057
40
0.7914163
50
90.377773
51
103.5868422
0
ARC
8
DEFAULT_255_1_388
10
17.8717157
20
-0.1827457
40
0.2667015
50
89.8751238
51
126.2072139
0
ARC
8
DEFAULT_255_1_388
10
17.8768629
20
-0.2001153
40
0.2838229
50
124.9742447
51
144.8960197
0
ARC
8
DEFAULT_255_1_388
10
17.8570874
20
-0.1840019
40
0.2583845
50
145.2974778
51
160.2660922
0
ARC
8
DEFAULT_255_1_388
10
18.2027362
20
-0.1617849
40
0.5888695
50
179.6512124
51
190.285571
0
ARC
8
DEFAULT_255_1_388
10
18.0121841
20
-0.1977032
40
0.3949683
50
190.0944895
51
207.5099647
0
ARC
8
DEFAULT_255_1_388
10
17.9485423
20
-0.2279823
40
0.3245464
50
207.9585471
51
216.325377
0
ARC
8
DEFAULT_255_1_388
10
17.910306
20
-0.2594288
40
0.2751259
50
215.7661336
51
232.5457193
0
ARC
8
DEFAULT_255_1_388
10
17.8672176
20
-0.3141727
40
0.2054668
50
232.8005815
51
270.6605497
0
ARC
8
DEFAULT_255_1_388
10
17.8723601
20
-0.2732147
40
0.2464268
50
269.3550767
51
288.474612
0
ARC
8
DEFAULT_255_1_388
10
17.8828107
20
-0.3125279
40
0.2058436
50
289.1831976
51
322.9685307
0
ARC
8
DEFAULT_255_1_388
10
17.8140209
20
-0.2582721
40
0.2934408
50
322.6007085
51
346.5183319
0
ARC
8
DEFAULT_255_1_388
10
17.6837965
20
-0.2250566
40
0.4278249
50
346.2584622
51
358.7739592
0
ARC
8
DEFAULT_255_1_388
10
17.5686541
20
-0.2188171
40
0.5430876
50
358.3757628
51
0.0082477
0
ARC
8
DEFAULT_255_1_388
10
17.6543359
20
-0.2157144
40
0.4574157
50
359.6211417
51
11.28403
0
ARC
8
DEFAULT_255_1_388
10
17.7979965
20
-0.1857465
40
0.3106708
50
11.0483152
51
31.8145585
0
ARC
8
DEFAULT_255_1_388
10
17.832767
20
-0.1668955
40
0.2711963
50
32.3028554
51
38.0820598
0
ARC
8
DEFAULT_255_1_388
10
17.8800903
20
-0.1240283
40
0.2075566
50
36.8249851
51
85.741667
0
ARC
8
DEFAULT_255_1_388
10
17.8725316
20
-0.1803935
40
0.2643487
50
85.0150021
51
90.050843
0
LINE
8
DEFAULT_255_1_388
10
18.8400146
20
-0.0127263
11
18.8400146
21
-0.1491645
0
LINE
8
DEFAULT_255_1_388
10
18.8400146
20
-0.1491645
11
18.3990751
21
-0.1491645
0
LINE
8
DEFAULT_255_1_388
10
18.3990751
20
-0.1491645
11
18.3990751
21
-0.0127263
0
LINE
8
DEFAULT_255_1_388
10
18.3990751
20
-0.0127263
11
18.8400146
21
-0.0127263
0
LINE
8
DEFAULT_255_1_388
10
19.8104428
20
0.138169
11
19.8104428
21
-0.0786865
0
LINE
8
DEFAULT_255_1_388
10
18.980067
20
-0.1012756
11
18.980067
21
0.1219048
0
LINE
8
DEFAULT_255_1_388
10
19.6432833
20
-0.1238647
11
19.6432833
21
0.1499153
0
LINE
8
DEFAULT_255_1_388
10
19.1472265
20
0.1625652
11
19.1472265
21
-0.1048898
0
ARC
8
DEFAULT_255_1_388
10
18.4326762
20
-0.0841882
40
1.3777776
50
353.8440855
51
0.2287917
0
ARC
8
DEFAULT_255_1_388
10
18.9545779
20
-0.1424586
40
0.852639
50
344.4934746
51
353.9763743
0
ARC
8
DEFAULT_255_1_388
10
19.2912586
20
-0.2381809
40
0.5026273
50
329.2803599
51
344.7473406
0
ARC
8
DEFAULT_255_1_388
10
19.4028082
20
-0.2993962
40
0.3754848
50
324.9361395
51
328.6153007
0
ARC
8
DEFAULT_255_1_388
10
19.4453732
20
-0.3291414
40
0.3235566
50
280.5801797
51
324.9173226
0
ARC
8
DEFAULT_255_1_388
10
19.4002361
20
-0.1411764
40
0.5167077
50
269.5979457
51
281.6732777
0
ARC
8
DEFAULT_255_1_388
10
19.3921264
20
-0.1546887
40
0.5032026
50
256.6228565
51
270.5105488
0
ARC
8
DEFAULT_255_1_388
10
19.3469007
20
-0.3288655
40
0.3233092
50
215.8618351
51
257.2787793
0
ARC
8
DEFAULT_255_1_388
10
19.4617714
20
-0.2517894
40
0.4615831
50
197.9695203
51
215.2622745
0
ARC
8
DEFAULT_255_1_388
10
19.7413389
20
-0.1574359
40
0.7566307
50
187.8816486
51
198.2346584
0
ARC
8
DEFAULT_255_1_388
10
20.1866628
20
-0.0931547
40
1.2065653
50
180.8977266
51
188.0054894
0
ARC
8
DEFAULT_255_1_388
10
20.4916841
20
-0.08166
40
1.5117443
50
180.7434591
51
181.152202
0
ARC
8
DEFAULT_255_1_388
10
20.3241837
20
0.1273371
40
1.3441277
50
173.7674302
51
180.2315596
0
ARC
8
DEFAULT_255_1_388
10
19.8159706
20
0.1847779
40
0.8326847
50
164.3058537
51
173.9000553
0
ARC
8
DEFAULT_255_1_388
10
19.4883706
20
0.2791652
40
0.4917711
50
148.7922028
51
164.5682288
0
ARC
8
DEFAULT_255_1_388
10
19.3814444
20
0.3388457
40
0.3694204
50
144.5883979
51
148.1161588
0
ARC
8
DEFAULT_255_1_388
10
19.3427189
20
0.3658667
40
0.322202
50
101.6440149
51
144.5142619
0
ARC
8
DEFAULT_255_1_388
10
19.3905381
20
0.1758337
40
0.5180451
50
89.528284
51
102.5820197
0
ARC
8
DEFAULT_255_1_388
10
19.3994373
20
0.1714376
40
0.5224441
50
77.0437914
51
90.508231
0
ARC
8
DEFAULT_255_1_388
10
19.4446627
20
0.3562272
40
0.3322297
50
48.2777708
51
77.4996087
0
ARC
8
DEFAULT_255_1_388
10
19.4528367
20
0.3707557
40
0.315966
50
36.3141586
51
47.6307332
0
ARC
8
DEFAULT_255_1_388
10
19.3551089
20
0.3049159
40
0.4337313
50
18.2931065
51
35.6770203
0
ARC
8
DEFAULT_255_1_388
10
19.068993
20
0.2067107
40
0.7362203
50
8.0246996
51
18.5605636
0
ARC
8
DEFAULT_255_1_388
10
18.6006285
20
0.1375432
40
1.2096583
50
1.127539
51
8.1718423
0
ARC
8
DEFAULT_255_1_388
10
18.2357419
20
0.1232374
40
1.5747719
50
0.5432713
51
1.38669
0
ARC
8
DEFAULT_255_1_388
10
18.4414797
20
0.1539163
40
1.2018103
50
359.8092569
51
4.9408001
0
ARC
8
DEFAULT_255_1_388
10
18.9151379
20
0.19619
40
0.7262727
50
4.8364937
51
12.2906017
0
ARC
8
DEFAULT_255_1_388
10
19.2250843
20
0.2652485
40
0.4087324
50
12.0806994
51
23.8171225
0
ARC
8
DEFAULT_255_1_388
10
19.3571239
20
0.3211508
40
0.2653719
50
24.2874621
51
31.3934353
0
ARC
8
DEFAULT_255_1_388
10
19.4161675
20
0.3597822
40
0.1948607
50
30.7407708
51
82.4658033
0
ARC
8
DEFAULT_255_1_388
10
19.3959336
20
0.2604017
40
0.2961198
50
81.1057101
51
90.2187368
0
ARC
8
DEFAULT_255_1_388
10
19.3919148
20
0.2894421
40
0.2670929
50
89.380395
51
105.6763916
0
ARC
8
DEFAULT_255_1_388
10
19.371287
20
0.364432
40
0.1893189
50
105.7980655
51
149.7387869
0
ARC
8
DEFAULT_255_1_388
10
19.491001
20
0.2924719
40
0.3289892
50
149.4208441
51
163.628295
0
ARC
8
DEFAULT_255_1_388
10
19.726224
20
0.2207345
40
0.5749004
50
163.3764549
51
172.141138
0
ARC
8
DEFAULT_255_1_388
10
20.0974961
20
0.1675582
40
0.9499585
50
172.0258462
51
178.0705453
0
ARC
8
DEFAULT_255_1_388
10
20.4396514
20
0.1513682
40
1.2924734
50
177.8639301
51
179.5036263
0
ARC
8
DEFAULT_255_1_388
10
20.3177533
20
-0.1089849
40
1.170534
50
179.7995545
51
185.246089
0
ARC
8
DEFAULT_255_1_388
10
19.8629126
20
-0.1520596
40
0.7136613
50
185.1411911
51
193.0082205
0
ARC
8
DEFAULT_255_1_388
10
19.5655386
20
-0.2223559
40
0.4080987
50
192.7897338
51
205.2507384
0
ARC
8
DEFAULT_255_1_388
10
19.4477596
20
-0.2749462
40
0.2791522
50
205.8001921
51
211.2545876
0
ARC
8
DEFAULT_255_1_388
10
19.3889136
20
-0.3143868
40
0.2084074
50
210.3789935
51
238.4007996
0
ARC
8
DEFAULT_255_1_388
10
19.3867222
20
-0.3091214
40
0.2117943
50
239.6521916
51
265.9793852
0
ARC
8
DEFAULT_255_1_388
10
19.396307
20
-0.2334642
40
0.2879689
50
265.1324455
51
270.0603288
0
ARC
8
DEFAULT_255_1_388
10
19.3995447
20
-0.2699582
40
0.2514919
50
269.3314378
51
287.2180039
0
ARC
8
DEFAULT_255_1_388
10
19.415053
20
-0.3265709
40
0.1928357
50
287.7957942
51
329.0808983
0
ARC
8
DEFAULT_255_1_388
10
19.3073287
20
-0.2593349
40
0.319808
50
328.6635261
51
343.3325043
0
ARC
8
DEFAULT_255_1_388
10
19.0628745
20
-0.1831805
40
0.5758408
50
343.0498092
51
351.9392499
0
ARC
8
DEFAULT_255_1_388
10
18.6728067
20
-0.1256795
40
0.9701202
50
351.8071632
51
357.7957897
0
ARC
8
DEFAULT_255_1_388
10
18.3093544
20
-0.1068276
40
1.3340376
50
357.5870923
51
359.2682493
0
LINE
8
DEFAULT_255_1_388
10
20.9200199
20
-0.6398
11
20.7944245
21
-0.2964455
0
LINE
8
DEFAULT_255_1_388
10
20.7944245
20
-0.2964455
11
20.2432501
21
-0.2964455
0
LINE
8
DEFAULT_255_1_388
10
20.2432501
20
-0.2964455
11
20.1194618
21
-0.6398
0
LINE
8
DEFAULT_255_1_388
10
20.1194618
20
-0.6398
11
19.9405561
21
-0.6398
0
LINE
8
DEFAULT_255_1_388
10
19.9405561
20
-0.6398
11
20.4429379
21
0.6757898
0
LINE
8
DEFAULT_255_1_388
10
20.4429379
20
0.6757898
11
20.5947367
21
0.6757898
0
LINE
8
DEFAULT_255_1_388
10
20.5947367
20
0.6757898
11
21.0980221
21
-0.6398
0
LINE
8
DEFAULT_255_1_388
10
21.0980221
20
-0.6398
11
20.9200199
21
-0.6398
0
LINE
8
DEFAULT_255_1_388
10
20.5188373
20
0.4616451
11
20.2956569
21
-0.1536823
0
LINE
8
DEFAULT_255_1_388
10
20.2956569
20
-0.1536823
11
20.7429213
21
-0.1536823
0
LINE
8
DEFAULT_255_1_388
10
20.7429213
20
-0.1536823
11
20.5188373
21
0.4616451
0
LINE
8
DEFAULT_255_1_388
10
21.7314208
20
-0.6398
11
21.2751208
21
-0.6398
0
LINE
8
DEFAULT_255_1_388
10
21.2751208
20
-0.6398
11
21.2751208
21
0.6757898
0
LINE
8
DEFAULT_255_1_388
10
21.2751208
20
0.6757898
11
21.7052174
21
0.6757898
0
LINE
8
DEFAULT_255_1_388
10
21.7377458
20
-0.0244726
11
21.4486051
21
-0.0244726
0
LINE
8
DEFAULT_255_1_388
10
21.4486051
20
-0.0244726
11
21.4486051
21
-0.4979404
0
LINE
8
DEFAULT_255_1_388
10
21.4486051
20
-0.4979404
11
21.7350351
21
-0.4979404
0
LINE
8
DEFAULT_255_1_388
10
21.4486051
20
0.5330267
11
21.4486051
21
0.1146763
0
LINE
8
DEFAULT_255_1_388
10
21.4486051
20
0.1146763
11
21.7106388
21
0.1146763
0
LINE
8
DEFAULT_255_1_388
10
21.7052174
20
0.5330267
11
21.4486051
21
0.5330267
0
ARC
8
DEFAULT_255_1_388
10
21.7094595
20
-0.1530176
40
0.8288183
50
82.1256322
51
90.2932506
0
ARC
8
DEFAULT_255_1_388
10
21.7532169
20
0.152759
40
0.5199321
50
69.9044202
51
82.2857574
0
ARC
8
DEFAULT_255_1_388
10
21.8174162
20
0.3262993
40
0.3348993
50
51.1840204
51
70.018125
0
ARC
8
DEFAULT_255_1_388
10
21.8460994
20
0.3679945
40
0.2844579
50
12.1018086
51
50.421322
0
ARC
8
DEFAULT_255_1_388
10
21.6903866
20
0.3288937
40
0.4449429
50
359.5252354
51
12.8212369
0
ARC
8
DEFAULT_255_1_388
10
21.8681296
20
0.3210943
40
0.2672162
50
323.4907456
51
0.8818258
0
ARC
8
DEFAULT_255_1_388
10
21.8210708
20
0.3574523
40
0.3266736
50
298.6824053
51
323.2758285
0
ARC
8
DEFAULT_255_1_388
10
21.7804
20
0.4250509
40
0.4055105
50
293.1994739
51
299.139634
0
ARC
8
DEFAULT_255_1_388
10
21.8560949
20
-0.2595349
40
0.3229926
50
54.0009997
51
74.9168635
0
ARC
8
DEFAULT_255_1_388
10
21.8691876
20
-0.2373489
40
0.2973581
50
36.3578854
51
53.5293172
0
ARC
8
DEFAULT_255_1_388
10
21.8549244
20
-0.247515
40
0.3148715
50
4.8189348
51
36.3090187
0
ARC
8
DEFAULT_255_1_388
10
21.7672269
20
-0.2598617
40
0.4033265
50
359.9373213
51
5.5201284
0
ARC
8
DEFAULT_255_1_388
10
21.7307599
20
-0.2644267
40
0.4398126
50
344.7479357
51
0.5372278
0
ARC
8
DEFAULT_255_1_388
10
21.8422497
20
-0.2944795
40
0.3243441
50
311.1785587
51
344.6887681
0
ARC
8
DEFAULT_255_1_388
10
21.8094041
20
-0.2535916
40
0.3767511
50
286.0417804
51
310.8440924
0
ARC
8
DEFAULT_255_1_388
10
21.752345
20
-0.0683115
40
0.5705957
50
274.1044074
51
286.4070149
0
ARC
8
DEFAULT_255_1_388
10
21.7324665
20
0.1434901
40
0.7832907
50
269.9235077
51
274.4458593
0
ARC
8
DEFAULT_255_1_388
10
21.7376384
20
-0.1196538
40
0.3782955
50
269.6057074
51
281.3740795
0
ARC
8
DEFAULT_255_1_388
10
21.7635882
20
-0.2426431
40
0.2526069
50
281.105298
51
302.5134029
0
ARC
8
DEFAULT_255_1_388
10
21.7801269
20
-0.2723056
40
0.2187131
50
303.0365425
51
311.8818034
0
ARC
8
DEFAULT_255_1_388
10
21.7881447
20
-0.2818398
40
0.2062624
50
311.9916937
51
351.7143773
0
ARC
8
DEFAULT_255_1_388
10
21.6962472
20
-0.2632729
40
0.2999202
50
350.7343295
51
0.2221526
0
ARC
8
DEFAULT_255_1_388
10
21.684156
20
-0.256913
40
0.3120525
50
359.045729
51
17.2295312
0
ARC
8
DEFAULT_255_1_388
10
21.801059
20
-0.2221845
40
0.1901144
50
17.6685208
51
78.9940245
0
ARC
8
DEFAULT_255_1_388
10
21.7428951
20
-0.4309989
40
0.4065575
50
76.565218
51
90.7103392
0
LINE
8
DEFAULT_255_1_388
10
21.7378548
20
-0.0244726
11
21.7377458
21
-0.0244726
0
ARC
8
DEFAULT_255_1_388
10
21.7131777
20
0.4842949
40
0.3696273
50
269.6064514
51
281.4533785
0
ARC
8
DEFAULT_255_1_388
10
21.7382417
20
0.3660283
40
0.2487412
50
281.2044438
51
302.5143998
0
ARC
8
DEFAULT_255_1_388
10
21.7536671
20
0.3382576
40
0.2170405
50
303.0211308
51
309.8378766
0
ARC
8
DEFAULT_255_1_388
10
21.7742789
20
0.3151486
40
0.1860946
50
309.5229446
51
356.9509628
0
ARC
8
DEFAULT_255_1_388
10
21.6996915
20
0.3258831
40
0.2612347
50
355.4699226
51
0.0498632
0
ARC
8
DEFAULT_255_1_388
10
21.6682588
20
0.3283789
40
0.2926762
50
359.5558955
51
11.2092924
0
ARC
8
DEFAULT_255_1_388
10
21.7759556
20
0.3506667
40
0.1827036
50
10.9185717
51
31.322519
0
ARC
8
DEFAULT_255_1_388
10
21.8081104
20
0.3685571
40
0.1459418
50
31.8850633
51
52.1415586
0
ARC
8
DEFAULT_255_1_388
10
21.7772533
20
0.3249674
40
0.1993088
50
52.8283418
51
71.9850132
0
ARC
8
DEFAULT_255_1_388
10
21.7349693
20
0.2005158
40
0.3307407
50
71.686634
51
82.8453416
0
ARC
8
DEFAULT_255_1_388
10
21.7080341
20
-0.0030108
40
0.536039
50
82.6981895
51
90.1730083
0
ARC
8
DEFAULT_255_1_388
10
21.7055172
20
0.0848836
40
0.4481429
50
89.8851568
51
90.0383283
0
LINE
8
DEFAULT_255_1_388
10
23.2087487
20
0.138169
11
23.2087487
21
-0.0786865
0
LINE
8
DEFAULT_255_1_388
10
22.3783729
20
-0.1012756
11
22.3783729
21
0.1219048
0
LINE
8
DEFAULT_255_1_388
10
23.0415893
20
-0.1238647
11
23.0415893
21
0.1499153
0
LINE
8
DEFAULT_255_1_388
10
22.5455324
20
0.1625652
11
22.5455324
21
-0.1048898
0
ARC
8
DEFAULT_255_1_388
10
21.8309821
20
-0.0841882
40
1.3777776
50
353.8440855
51
0.2287917
0
ARC
8
DEFAULT_255_1_388
10
22.3528838
20
-0.1424586
40
0.852639
50
344.4934746
51
353.9763743
0
ARC
8
DEFAULT_255_1_388
10
22.6895645
20
-0.2381809
40
0.5026273
50
329.2803599
51
344.7473406
0
ARC
8
DEFAULT_255_1_388
10
22.8011141
20
-0.2993962
40
0.3754848
50
324.9361395
51
328.6153007
0
ARC
8
DEFAULT_255_1_388
10
22.8436791
20
-0.3291414
40
0.3235566
50
280.5801797
51
324.9173226
0
ARC
8
DEFAULT_255_1_388
10
22.798542
20
-0.1411764
40
0.5167077
50
269.5979457
51
281.6732777
0
ARC
8
DEFAULT_255_1_388
10
22.7904323
20
-0.1546887
40
0.5032026
50
256.6228565
51
270.5105488
0
ARC
8
DEFAULT_255_1_388
10
22.7452066
20
-0.3288655
40
0.3233092
50
215.8618351
51
257.2787793
0
ARC
8
DEFAULT_255_1_388
10
22.8600773
20
-0.2517894
40
0.4615831
50
197.9695203
51
215.2622745
0
ARC
8
DEFAULT_255_1_388
10
23.1396448
20
-0.1574359
40
0.7566307
50
187.8816486
51
198.2346584
0
ARC
8
DEFAULT_255_1_388
10
23.5849687
20
-0.0931547
40
1.2065653
50
180.8977266
51
188.0054894
0
ARC
8
DEFAULT_255_1_388
10
23.88999
20
-0.08166
40
1.5117443
50
180.7434591
51
181.152202
0
ARC
8
DEFAULT_255_1_388
10
23.7224896
20
0.1273371
40
1.3441277
50
173.7674302
51
180.2315596
0
ARC
8
DEFAULT_255_1_388
10
23.2142765
20
0.1847779
40
0.8326847
50
164.3058537
51
173.9000553
0
ARC
8
DEFAULT_255_1_388
10
22.8866765
20
0.2791652
40
0.4917711
50
148.7922028
51
164.5682288
0
ARC
8
DEFAULT_255_1_388
10
22.7797503
20
0.3388457
40
0.3694204
50
144.5883979
51
148.1161588
0
ARC
8
DEFAULT_255_1_388
10
22.7410248
20
0.3658667
40
0.322202
50
101.6440149
51
144.5142619
0
ARC
8
DEFAULT_255_1_388
10
22.788844
20
0.1758337
40
0.5180451
50
89.528284
51
102.5820197
0
ARC
8
DEFAULT_255_1_388
10
22.7977432
20
0.1714376
40
0.5224441
50
77.0437914
51
90.508231
0
ARC
8
DEFAULT_255_1_388
10
22.8429686
20
0.3562272
40
0.3322297
50
48.2777708
51
77.4996087
0
ARC
8
DEFAULT_255_1_388
10
22.8511426
20
0.3707557
40
0.315966
50
36.3141586
51
47.6307332
0
ARC
8
DEFAULT_255_1_388
10
22.7534148
20
0.3049159
40
0.4337313
50
18.2931065
51
35.6770203
0
ARC
8
DEFAULT_255_1_388
10
22.4672989
20
0.2067107
40
0.7362203
50
8.0246996
51
18.5605636
0
ARC
8
DEFAULT_255_1_388
10
21.9989344
20
0.1375432
40
1.2096583
50
1.127539
51
8.1718423
0
ARC
8
DEFAULT_255_1_388
10
21.6340478
20
0.1232374
40
1.5747719
50
0.5432713
51
1.38669
0
ARC
8
DEFAULT_255_1_388
10
21.8397856
20
0.1539163
40
1.2018103
50
359.8092569
51
4.9408001
0
ARC
8
DEFAULT_255_1_388
10
22.3134438
20
0.19619
40
0.7262727
50
4.8364937
51
12.2906017
0
ARC
8
DEFAULT_255_1_388
10
22.6233903
20
0.2652485
40
0.4087324
50
12.0806994
51
23.8171225
0
ARC
8
DEFAULT_255_1_388
10
22.7554298
20
0.3211508
40
0.2653719
50
24.2874621
51
31.3934353
0
ARC
8
DEFAULT_255_1_388
10
22.8144734
20
0.3597822
40
0.1948607
50
30.7407708
51
82.4658033
0
ARC
8
DEFAULT_255_1_388
10
22.7942395
20
0.2604017
40
0.2961198
50
81.1057101
51
90.2187368
0
ARC
8
DEFAULT_255_1_388
10
22.7902207
20
0.2894421
40
0.2670929
50
89.380395
51
105.6763916
0
ARC
8
DEFAULT_255_1_388
10
22.7695929
20
0.364432
40
0.1893189
50
105.7980655
51
149.7387869
0
ARC
8
DEFAULT_255_1_388
10
22.8893069
20
0.2924719
40
0.3289892
50
149.4208441
51
163.628295
0
ARC
8
DEFAULT_255_1_388
10
23.1245299
20
0.2207345
40
0.5749004
50
163.3764549
51
172.141138
0
ARC
8
DEFAULT_255_1_388
10
23.495802
20
0.1675582
40
0.9499585
50
172.0258462
51
178.0705453
0
ARC
8
DEFAULT_255_1_388
10
23.8379573
20
0.1513682
40
1.2924734
50
177.8639301
51
179.5036263
0
ARC
8
DEFAULT_255_1_388
10
23.7160592
20
-0.1089849
40
1.170534
50
179.7995545
51
185.246089
0
ARC
8
DEFAULT_255_1_388
10
23.2612185
20
-0.1520596
40
0.7136613
50
185.1411911
51
193.0082205
0
ARC
8
DEFAULT_255_1_388
10
22.9638445
20
-0.2223559
40
0.4080987
50
192.7897338
51
205.2507384
0
ARC
8
DEFAULT_255_1_388
10
22.8460655
20
-0.2749462
40
0.2791522
50
205.8001921
51
211.2545876
0
ARC
8
DEFAULT_255_1_388
10
22.7872195
20
-0.3143868
40
0.2084074
50
210.3789935
51
238.4007996
0
ARC
8
DEFAULT_255_1_388
10
22.7850281
20
-0.3091214
40
0.2117943
50
239.6521916
51
265.9793852
0
ARC
8
DEFAULT_255_1_388
10
22.7946129
20
-0.2334642
40
0.2879689
50
265.1324455
51
270.0603288
0
ARC
8
DEFAULT_255_1_388
10
22.7978507
20
-0.2699582
40
0.2514919
50
269.3314378
51
287.2180039
0
ARC
8
DEFAULT_255_1_388
10
22.8133589
20
-0.3265709
40
0.1928357
50
287.7957942
51
329.0808983
0
ARC
8
DEFAULT_255_1_388
10
22.7056346
20
-0.2593349
40
0.319808
50
328.6635261
51
343.3325043
0
ARC
8
DEFAULT_255_1_388
10
22.4611804
20
-0.1831805
40
0.5758408
50
343.0498092
51
351.9392499
0
ARC
8
DEFAULT_255_1_388
10
22.0711126
20
-0.1256795
40
0.9701202
50
351.8071632
51
357.7957897
0
ARC
8
DEFAULT_255_1_388
10
21.7076603
20
-0.1068276
40
1.3340376
50
357.5870923
51
359.2682493
0
ARC
8
DEFAULT_255_2_778
10
7.7537338
20
60.2762992
40
3.0484709
50
251.6854144
51
258.6071955
0
ARC
8
DEFAULT_255_2_778
10
7.539521
20
59.1946738
40
1.9458471
50
258.4992492
51
268.3986479
0
ARC
8
DEFAULT_255_2_778
10
7.5172314
20
58.7644206
40
1.5151737
50
268.7865272
51
269.9950384
0
ARC
8
DEFAULT_255_2_778
10
7.5277432
20
58.3132355
40
1.0640417
50
269.426895
51
279.6711067
0
ARC
8
DEFAULT_255_2_778
10
7.6417753
20
57.6836746
40
0.4243233
50
278.7731084
51
300.3324923
0
ARC
8
DEFAULT_255_2_778
10
7.760746
20
57.4810552
40
0.1893587
50
300.2240287
51
1.9041213
0
ARC
8
DEFAULT_255_2_778
10
7.7452705
20
57.4902089
40
0.2047497
50
359.1991369
51
359.99965
0
ARC
8
DEFAULT_255_2_778
10
7.7523233
20
57.4910378
40
0.1976988
50
359.7594145
51
47.1793976
0
ARC
8
DEFAULT_255_2_778
10
7.6187277
20
57.342431
40
0.3975169
50
47.6144502
51
60.8366176
0
ARC
8
DEFAULT_255_2_778
10
7.0190958
20
56.3264865
40
1.5771337
50
59.799464
51
64.8885807
0
ARC
8
DEFAULT_255_2_778
10
6.0948833
20
54.3974682
40
3.7160912
50
64.6076081
51
66.8386974
0
ARC
8
DEFAULT_255_2_778
10
9.6419609
20
62.7605052
40
5.368109
50
244.3032309
51
247.1393781
0
ARC
8
DEFAULT_255_2_778
10
8.5507088
20
60.500518
40
2.8584574
50
240.2323579
51
244.3709759
0
ARC
8
DEFAULT_255_2_778
10
7.7800475
20
59.1636591
40
1.315392
50
233.2209971
51
240.4606284
0
ARC
8
DEFAULT_255_2_778
10
7.3561477
20
58.5925187
40
0.6041399
50
225.6990744
51
232.9899679
0
ARC
8
DEFAULT_255_2_778
10
7.3965073
20
58.6169214
40
0.6499005
50
178.2783416
51
224.6550883
0
ARC
8
DEFAULT_255_2_778
10
7.5059624
20
58.6502974
40
0.7591885
50
157.033673
51
181.0453383
0
ARC
8
DEFAULT_255_2_778
10
7.378439
20
58.6911396
40
0.6259551
50
124.9113017
51
155.9211516
0
ARC
8
DEFAULT_255_2_778
10
7.5960466
20
58.3825681
40
1.0035357
50
100.4079723
51
125.0168617
0
ARC
8
DEFAULT_255_2_778
10
7.6991199
20
57.8885046
40
1.5081396
50
89.6483922
51
100.8684975
0
ARC
8
DEFAULT_255_2_778
10
7.7083242
20
57.5362988
40
1.8603169
50
89.5079487
51
89.9984402
0
ARC
8
DEFAULT_255_2_778
10
7.7099573
20
57.4710694
40
1.9255311
50
83.9170631
51
89.5732113
0
ARC
8
DEFAULT_255_2_778
10
7.5071517
20
55.4634957
40
3.9433074
50
80.7325723
51
84.0779772
0
ARC
8
DEFAULT_255_2_778
10
7.0208457
20
52.440582
40
7.0050837
50
78.5086351
51
80.7886813
0
ARC
8
DEFAULT_255_2_778
10
7.6620177
20
57.0400544
40
1.9415426
50
67.135818
51
78.0934208
0
ARC
8
DEFAULT_255_2_778
10
7.7851814
20
57.6104809
40
1.3579807
50
78.2126325
51
89.7333975
0
ARC
8
DEFAULT_255_2_778
10
7.7793853
20
58.0256211
40
0.9429038
50
89.2638155
51
100.5666868
0
ARC
8
DEFAULT_255_2_778
10
7.6660949
20
58.5954419
40
0.362036
50
99.4784875
51
124.329414
0
ARC
8
DEFAULT_255_2_778
10
7.5705593
20
58.743551
40
0.1859067
50
125.7571195
51
182.2824883
0
ARC
8
DEFAULT_255_2_778
10
7.5493239
20
58.7368629
40
0.1645253
50
180.2492993
51
239.8144161
0
ARC
8
DEFAULT_255_2_778
10
7.932718
20
59.3369128
40
0.876484
50
237.8725734
51
242.8068846
0
ARC
8
DEFAULT_255_2_778
10
9.4175857
20
62.1534958
40
4.0604642
50
242.3328458
51
244.031083
0
ARC
8
DEFAULT_255_2_778
10
12.3804066
20
68.2019314
40
10.7955807
50
243.950624
51
244.8024316
0
ARC
8
DEFAULT_255_2_778
10
15.4009918
20
74.5859175
40
17.8580926
50
244.7535425
51
244.9563234
0
ARC
8
DEFAULT_255_2_778
10
5.8652927
20
54.0843264
40
4.7527588
50
62.2505456
51
65.4301556
0
ARC
8
DEFAULT_255_2_778
10
6.9275435
20
56.0924172
40
2.4810291
50
57.2951304
51
62.3684211
0
ARC
8
DEFAULT_255_2_778
10
7.6807233
20
57.2557235
40
1.0952081
50
48.7345704
51
57.5685367
0
ARC
8
DEFAULT_255_2_778
10
8.0117486
20
57.6432722
40
0.5856147
50
44.3236031
51
48.0704418
0
ARC
8
DEFAULT_255_2_778
10
7.9783002
20
57.6232468
40
0.6236013
50
1.3523843
51
43.4925744
0
ARC
8
DEFAULT_255_2_778
10
7.7103531
20
57.5903151
40
0.8926473
50
359.9763756
51
3.0599076
0
ARC
8
DEFAULT_255_2_778
10
7.8645343
20
57.5752407
40
0.7386124
50
333.0361889
51
1.1408766
0
ARC
8
DEFAULT_255_2_778
10
7.8947908
20
57.5821919
40
0.7150741
50
300.8430083
51
331.4403095
0
ARC
8
DEFAULT_255_2_778
10
7.694568
20
57.8957162
40
1.0869673
50
281.4258583
51
301.4316118
0
ARC
8
DEFAULT_255_2_778
10
7.5632666
20
58.5039414
40
1.7091691
50
270.2273513
51
281.7010805
0
ARC
8
DEFAULT_255_2_778
10
7.5453797
20
58.9806043
40
2.1859577
50
269.9983113
51
270.6466065
0
LINE
8
DEFAULT_255_2_778
10
7.5453153
20
56.7946465
11
7.5438002
21
56.794647
0
ARC
8
DEFAULT_255_2_778
10
7.5509161
20
59.9775969
40
3.1829579
50
256.2431122
51
269.871909
0
ARC
8
DEFAULT_255_2_778
10
21.7538511
20
60.2021629
40
2.9720345
50
251.5709223
51
258.7508181
0
ARC
8
DEFAULT_255_2_778
10
21.5538128
20
59.1789385
40
1.9294488
50
258.6495077
51
268.8281511
0
ARC
8
DEFAULT_255_2_778
10
21.5355488
20
58.7841193
40
1.5343723
50
269.2085037
51
269.9981866
0
ARC
8
DEFAULT_255_2_778
10
21.5473849
20
58.3157184
40
1.0660376
50
269.3612297
51
279.5899087
0
ARC
8
DEFAULT_255_2_778
10
21.6608439
20
57.6842324
40
0.424527
50
278.6895227
51
300.2363944
0
ARC
8
DEFAULT_255_2_778
10
21.7799083
20
57.4807793
40
0.188796
50
300.1108484
51
1.9024905
0
ARC
8
DEFAULT_255_2_778
10
21.7439577
20
57.4914221
40
0.2246851
50
358.8842611
51
0.0019649
0
ARC
8
DEFAULT_255_2_778
10
21.7769791
20
57.4953385
40
0.1917038
50
358.831716
51
47.0900458
0
ARC
8
DEFAULT_255_2_778
10
21.6364654
20
57.335984
40
0.4041259
50
47.8812665
51
61.174665
0
ARC
8
DEFAULT_255_2_778
10
21.0418848
20
56.3160117
40
1.5846568
50
60.1210877
51
65.1917015
0
ARC
8
DEFAULT_255_2_778
10
20.1415278
20
54.4104122
40
3.6922188
50
64.9168629
51
67.1565628
0
ARC
8
DEFAULT_255_2_778
10
23.6275467
20
62.6819888
40
5.2839333
50
244.2656926
51
247.1407051
0
ARC
8
DEFAULT_255_2_778
10
22.5594997
20
60.473765
40
2.8309849
50
240.1545061
51
244.3326325
0
ARC
8
DEFAULT_255_2_778
10
21.7856548
20
59.1377346
40
1.2870531
50
232.697515
51
240.4357497
0
ARC
8
DEFAULT_255_2_778
10
21.3705506
20
58.5867218
40
0.5972006
50
225.5850892
51
232.3393736
0
ARC
8
DEFAULT_255_2_778
10
21.4133941
20
58.6162933
40
0.6483829
50
178.7795739
51
224.7095916
0
ARC
8
DEFAULT_255_2_778
10
21.6669319
20
58.6403135
40
0.9018316
50
179.997867
51
180.6487041
0
ARC
8
DEFAULT_255_2_778
10
21.5167738
20
58.6541249
40
0.7517998
50
156.9195758
51
181.050088
0
ARC
8
DEFAULT_255_2_778
10
21.3928482
20
58.6935712
40
0.6224513
50
124.7111133
51
155.7879672
0
ARC
8
DEFAULT_255_2_778
10
21.6055459
20
58.4016942
40
0.9835402
50
101.7934503
51
125.2143527
0
ARC
8
DEFAULT_255_2_778
10
21.729848
20
57.8491326
40
1.5498677
50
89.5248728
51
102.1166783
0
ARC
8
DEFAULT_255_2_778
10
21.7283109
20
57.2955834
40
2.1034129
50
83.2889725
51
89.6080411
0
ARC
8
DEFAULT_255_2_778
10
21.529975
20
55.5277668
40
3.8823067
50
79.4764054
51
83.4308492
0
ARC
8
DEFAULT_255_2_778
10
21.2186357
20
53.7745673
40
5.6628977
50
78.2224868
51
79.6190915
0
ARC
8
DEFAULT_255_2_778
10
21.6838473
20
57.0520715
40
1.9311543
50
67.1323814
51
78.3148813
0
ARC
8
DEFAULT_255_2_778
10
21.801359
20
57.6035614
40
1.3672981
50
78.4565774
51
89.7552271
0
ARC
8
DEFAULT_255_2_778
10
21.7951366
20
58.034447
40
0.9364778
50
89.2619009
51
100.5950934
0
ARC
8
DEFAULT_255_2_778
10
21.6824182
20
58.5999169
40
0.3599879
50
99.5087086
51
124.406715
0
ARC
8
DEFAULT_255_2_778
10
21.5878565
20
58.746343
40
0.1858061
50
125.8630185
51
182.2986975
0
ARC
8
DEFAULT_255_2_778
10
21.5497296
20
58.7388047
40
0.1475296
50
179.9666559
51
180.100057
0
ARC
8
DEFAULT_255_2_778
10
21.566185
20
58.738793
40
0.163985
50
180.0859454
51
239.8819968
0
ARC
8
DEFAULT_255_2_778
10
21.9379018
20
59.3255619
40
0.8584853
50
238.072871
51
243.0442008
0
ARC
8
DEFAULT_255_2_778
10
23.4872034
20
62.2905845
40
4.2038426
50
242.5409111
51
244.1884903
0
ARC
8
DEFAULT_255_2_778
10
26.6463384
20
68.785196
40
11.4260319
50
244.1076525
51
244.9219574
0
ARC
8
DEFAULT_255_2_778
10
29.9038827
20
75.708855
40
19.0777309
50
244.8743531
51
245.066969
0
ARC
8
DEFAULT_255_2_778
10
19.8865272
20
54.1166274
40
4.7250654
50
62.0340028
51
65.293009
0
ARC
8
DEFAULT_255_2_778
10
20.9507744
20
56.1115758
40
2.464003
50
57.1127289
51
62.13736
0
ARC
8
DEFAULT_255_2_778
10
21.7037139
20
57.2652906
40
1.0863604
50
48.3695509
51
57.4197129
0
ARC
8
DEFAULT_255_2_778
10
22.0286268
20
57.6420419
40
0.5889589
50
44.472493
51
47.6467012
0
ARC
8
DEFAULT_255_2_778
10
21.9979457
20
57.6249032
40
0.6229283
50
1.2061613
51
43.6203607
0
ARC
8
DEFAULT_255_2_778
10
21.7312413
20
57.5924903
40
0.890659
50
359.9779196
51
2.9299178
0
ARC
8
DEFAULT_255_2_778
10
21.8802547
20
57.5773837
40
0.7417924
50
333.172934
51
1.140392
0
ARC
8
DEFAULT_255_2_778
10
21.9146167
20
57.5820736
40
0.7135172
50
300.9808035
51
331.5913995
0
ARC
8
DEFAULT_255_2_778
10
21.7182603
20
57.8919862
40
1.0803281
50
281.9040909
51
301.4483918
0
ARC
8
DEFAULT_255_2_778
10
21.5848425
20
58.4905518
40
1.6935565
50
270.5796874
51
282.1436175
0
ARC
8
DEFAULT_255_2_778
10
21.5636722
20
58.9854735
40
2.1887267
50
269.9959074
51
271.0027751
0
LINE
8
DEFAULT_255_2_778
10
21.5635158
20
56.7967468
11
21.5625002
21
56.796747
0
ARC
8
DEFAULT_255_2_778
10
21.5700221
20
59.9855174
40
3.1887792
50
256.2556596
51
269.8648469
0
LINE
8
DEFAULT_255_2_778
10
6.7958002
20
56.887547
11
6.7958002
21
57.382247
0
LINE
8
DEFAULT_255_2_778
10
8.4164002
20
59.305247
11
8.4164002
21
58.829047
0
LINE
8
DEFAULT_255_2_778
10
6.7940002
20
56.885947
11
6.7958002
21
56.887547
0
LINE
8
DEFAULT_255_2_778
10
8.9866002
20
59.354747
11
9.6629002
21
59.354747
0
LINE
8
DEFAULT_255_2_778
10
9.6629002
20
59.354747
11
9.6629002
21
56.847347
0
LINE
8
DEFAULT_255_2_778
10
9.6629002
20
56.847347
11
8.9866002
21
56.847347
0
LINE
8
DEFAULT_255_2_778
10
8.9866002
20
56.847347
11
8.9866002
21
59.354747
0
LINE
8
DEFAULT_255_2_778
10
10.2809002
20
56.847347
11
10.2809002
21
59.354747
0
LINE
8
DEFAULT_255_2_778
10
10.2809002
20
59.354747
11
12.0132002
21
59.354747
0
LINE
8
DEFAULT_255_2_778
10
12.0132002
20
59.354747
11
12.0132002
21
58.901047
0
LINE
8
DEFAULT_255_2_778
10
12.0132002
20
58.901047
11
10.9321002
21
58.901047
0
LINE
8
DEFAULT_255_2_778
10
10.9321002
20
58.901047
11
10.9321002
21
58.334747
0
LINE
8
DEFAULT_255_2_778
10
10.9321002
20
58.334747
11
11.8735002
21
58.334747
0
LINE
8
DEFAULT_255_2_778
10
11.8735002
20
58.334747
11
11.8735002
21
57.921247
0
LINE
8
DEFAULT_255_2_778
10
11.8735002
20
57.921247
11
10.9321002
21
57.921247
0
LINE
8
DEFAULT_255_2_778
10
10.9321002
20
57.921247
11
10.9321002
21
57.325947
0
LINE
8
DEFAULT_255_2_778
10
10.9321002
20
57.325947
11
12.0412002
21
57.325947
0
LINE
8
DEFAULT_255_2_778
10
12.0412002
20
57.325947
11
12.0412002
21
56.845747
0
LINE
8
DEFAULT_255_2_778
10
12.0412002
20
56.845747
11
10.2809002
21
56.847347
0
LINE
8
DEFAULT_255_2_778
10
12.4817002
20
56.847347
11
12.4817002
21
59.354747
0
LINE
8
DEFAULT_255_2_778
10
12.4817002
20
59.354747
11
13.3575002
21
59.354747
0
LINE
8
DEFAULT_255_2_778
10
13.3575002
20
59.354747
11
13.9671002
21
57.752447
0
LINE
8
DEFAULT_255_2_778
10
13.9671002
20
57.752447
11
14.5897002
21
59.354747
0
LINE
8
DEFAULT_255_2_778
10
14.5897002
20
59.354747
11
15.4215002
21
59.354747
0
LINE
8
DEFAULT_255_2_778
10
15.4215002
20
59.354747
11
15.4215002
21
56.847347
0
LINE
8
DEFAULT_255_2_778
10
15.4215002
20
56.847347
11
14.7812002
21
56.847347
0
LINE
8
DEFAULT_255_2_778
10
14.7812002
20
56.847347
11
14.7812002
21
58.623147
0
LINE
8
DEFAULT_255_2_778
10
14.7812002
20
58.623147
11
14.0724002
21
56.822947
0
LINE
8
DEFAULT_255_2_778
10
14.0724002
20
56.822947
11
13.6515002
21
56.822947
0
LINE
8
DEFAULT_255_2_778
10
13.6515002
20
56.822947
11
12.9559002
21
58.623147
0
LINE
8
DEFAULT_255_2_778
10
12.9559002
20
58.623147
11
12.9559002
21
56.847047
0
LINE
8
DEFAULT_255_2_778
10
12.9559002
20
56.847047
11
12.4817002
21
56.847347
0
LINE
8
DEFAULT_255_2_778
10
16.0409002
20
56.847347
11
16.0409002
21
59.354747
0
LINE
8
DEFAULT_255_2_778
10
16.0409002
20
59.354747
11
17.7731002
21
59.354747
0
LINE
8
DEFAULT_255_2_778
10
17.7731002
20
59.354747
11
17.7731002
21
58.901047
0
LINE
8
DEFAULT_255_2_778
10
17.7731002
20
58.901047
11
16.6921002
21
58.901047
0
LINE
8
DEFAULT_255_2_778
10
16.6921002
20
58.901047
11
16.6921002
21
58.334747
0
LINE
8
DEFAULT_255_2_778
10
16.6921002
20
58.334747
11
17.6334002
21
58.334747
0
LINE
8
DEFAULT_255_2_778
10
17.6334002
20
58.334747
11
17.6334002
21
57.921247
0
LINE
8
DEFAULT_255_2_778
10
17.6334002
20
57.921247
11
16.6921002
21
57.921247
0
LINE
8
DEFAULT_255_2_778
10
16.6921002
20
57.921247
11
16.6921002
21
57.325947
0
LINE
8
DEFAULT_255_2_778
10
16.6921002
20
57.325947
11
17.8030002
21
57.325947
0
LINE
8
DEFAULT_255_2_778
10
17.8030002
20
57.325947
11
17.8030002
21
56.845747
0
LINE
8
DEFAULT_255_2_778
10
17.8030002
20
56.845747
11
16.0409002
21
56.847347
0
LINE
8
DEFAULT_255_2_778
10
18.2454002
20
56.847347
11
18.2454002
21
59.354747
0
LINE
8
DEFAULT_255_2_778
10
18.2454002
20
59.354747
11
19.0283002
21
59.354747
0
LINE
8
DEFAULT_255_2_778
10
19.0283002
20
59.354747
11
19.8586002
21
57.675947
0
LINE
8
DEFAULT_255_2_778
10
19.8586002
20
57.675947
11
19.8586002
21
59.354747
0
LINE
8
DEFAULT_255_2_778
10
19.8586002
20
59.354747
11
20.3343002
21
59.354747
0
LINE
8
DEFAULT_255_2_778
10
20.3343002
20
59.354747
11
20.3343002
21
56.847347
0
LINE
8
DEFAULT_255_2_778
10
20.3343002
20
56.847347
11
19.5739002
21
56.847347
0
LINE
8
DEFAULT_255_2_778
10
19.5739002
20
56.847347
11
18.7214002
21
58.548547
0
LINE
8
DEFAULT_255_2_778
10
18.7214002
20
58.548547
11
18.7214002
21
56.847347
0
LINE
8
DEFAULT_255_2_778
10
18.7214002
20
56.847347
11
18.2454002
21
56.847347
0
LINE
8
DEFAULT_255_2_778
10
20.8143002
20
56.887747
11
20.8143002
21
57.382547
0
LINE
8
DEFAULT_255_2_778
10
22.3745002
20
59.318247
11
22.4343002
21
59.307647
0
LINE
8
DEFAULT_255_2_778
10
22.4343002
20
59.307647
11
22.4343002
21
58.831447
0
LINE
8
DEFAULT_255_2_778
10
20.8124002
20
56.888047
11
20.8143002
21
56.887747
0
LINE
8
DEFAULT_255_1_388
10
8.5015457
20
55.1964892
11
8.3271577
21
55.1964892
0
LINE
8
DEFAULT_255_1_388
10
7.5482852
20
54.6426042
11
7.7226731
21
54.6426042
0
ARC
8
DEFAULT_255_1_388
10
8.4012304
20
56.2028821
40
1.4087688
50
248.9196578
51
254.1442424
0
ARC
8
DEFAULT_255_1_388
10
8.2122184
20
55.7162805
40
0.8867498
50
241.6337352
51
249.0064643
0
ARC
8
DEFAULT_255_1_388
10
8.0402498
20
55.4011764
40
0.5277799
50
230.4982261
51
241.8087583
0
ARC
8
DEFAULT_255_1_388
10
7.9520269
20
55.2887686
40
0.3849419
50
227.4062979
51
229.9877433
0
ARC
8
DEFAULT_255_1_388
10
7.8971615
20
55.2352155
40
0.3084129
50
200.6782127
51
228.1765252
0
ARC
8
DEFAULT_255_1_388
10
7.9052984
20
55.2335277
40
0.315461
50
179.506278
51
199.8695278
0
ARC
8
DEFAULT_255_1_388
10
7.9042573
20
55.2418671
40
0.3144584
50
132.4834401
51
181.0242352
0
ARC
8
DEFAULT_255_1_388
10
7.9711777
20
55.1786788
40
0.4063094
50
129.2526113
51
133.4249077
0
ARC
8
DEFAULT_255_1_388
10
7.987737
20
55.1538619
40
0.436014
50
101.9878945
51
128.8741833
0
ARC
8
DEFAULT_255_1_388
10
8.0325785
20
54.960236
40
0.6347415
50
89.5906376
51
102.3170567
0
ARC
8
DEFAULT_255_1_388
10
8.0405097
20
54.9960586
40
0.5989122
50
77.2359491
51
90.3248968
0
ARC
8
DEFAULT_255_1_388
10
8.0638028
20
55.1048554
40
0.4876594
50
63.8379856
51
77.0808925
0
ARC
8
DEFAULT_255_1_388
10
8.0950561
20
55.1630882
40
0.4216191
50
45.9863127
51
64.1608798
0
ARC
8
DEFAULT_255_1_388
10
8.1243955
20
55.196599
40
0.3771394
50
32.2747934
51
45.6544796
0
ARC
8
DEFAULT_255_1_388
10
8.1318761
20
55.1987426
40
0.3696765
50
359.6507495
51
32.6129943
0
ARC
8
DEFAULT_255_1_388
10
8.0257944
20
55.1992788
40
0.3013762
50
359.469654
51
14.983205
0
ARC
8
DEFAULT_255_1_388
10
8.1051196
20
55.2205288
40
0.2192542
50
14.9781954
51
48.2004799
0
ARC
8
DEFAULT_255_1_388
10
8.0866307
20
55.1972937
40
0.2489048
50
48.5926661
51
74.1242559
0
ARC
8
DEFAULT_255_1_388
10
8.0491109
20
55.0734607
40
0.3782845
50
73.7889321
51
86.6653996
0
ARC
8
DEFAULT_255_1_388
10
8.0375924
20
54.9376955
40
0.5145025
50
86.2642725
51
90.0533288
0
ARC
8
DEFAULT_255_1_388
10
8.0344017
20
54.9821376
40
0.4700681
50
89.669455
51
99.2313411
0
ARC
8
DEFAULT_255_1_388
10
8.0071176
20
55.1446401
40
0.3052945
50
99.0695987
51
113.7659242
0
ARC
8
DEFAULT_255_1_388
10
7.9763171
20
55.2172772
40
0.226407
50
114.0402885
51
127.9848946
0
ARC
8
DEFAULT_255_1_388
10
7.9492647
20
55.2505884
40
0.1835045
50
127.7287217
51
176.7106493
0
ARC
8
DEFAULT_255_1_388
10
8.0256312
20
55.239221
40
0.2604907
50
175.1780759
51
180.0581213
0
ARC
8
DEFAULT_255_1_388
10
7.9307656
20
55.2378411
40
0.1656287
50
179.6140658
51
228.124674
0
ARC
8
DEFAULT_255_1_388
10
7.9805013
20
55.283894
40
0.2332038
50
226.5785315
51
230.8792476
0
ARC
8
DEFAULT_255_1_388
10
8.03345
20
55.3541908
40
0.3211664
50
231.4636401
51
241.9261664
0
ARC
8
DEFAULT_255_1_388
10
8.1681283
20
55.6020349
40
0.6032345
50
241.7177136
51
248.3259138
0
ARC
8
DEFAULT_255_1_388
10
8.3239878
20
55.9881771
40
1.0196417
50
248.2007377
51
252.4527713
0
ARC
8
DEFAULT_255_1_388
10
8.4593405
20
56.4066092
40
1.4594143
50
252.3388938
51
254.347037
0
ARC
8
DEFAULT_255_1_388
10
7.6108705
20
53.3718095
40
1.6917621
50
71.0197462
51
74.4085467
0
ARC
8
DEFAULT_255_1_388
10
7.8015793
20
53.9223144
40
1.1091618
50
66.1845203
51
71.086519
0
ARC
8
DEFAULT_255_1_388
10
7.9766342
20
54.3164439
40
0.6779073
50
59.3537334
51
66.269255
0
ARC
8
DEFAULT_255_1_388
10
8.0766068
20
54.4855777
40
0.4814366
50
49.1021732
51
59.3294421
0
ARC
8
DEFAULT_255_1_388
10
8.1687056
20
54.5905575
40
0.3417875
50
32.7924183
51
49.2503526
0
ARC
8
DEFAULT_255_1_388
10
8.203667
20
54.6155311
40
0.2988789
50
31.121225
51
32.3977355
0
ARC
8
DEFAULT_255_1_388
10
8.1948848
20
54.6122728
40
0.3080861
50
8.1116803
51
30.7958224
0
ARC
8
DEFAULT_255_1_388
10
8.1037194
20
54.5967437
40
0.4005385
50
359.8390945
51
8.4707348
0
ARC
8
DEFAULT_255_1_388
10
8.1741242
20
54.5912751
40
0.3301608
50
337.4732479
51
0.7538283
0
ARC
8
DEFAULT_255_1_388
10
8.1942267
20
54.5890554
40
0.3107929
50
307.5917028
51
336.4313755
0
ARC
8
DEFAULT_255_1_388
10
8.1431324
20
54.6458509
40
0.3870096
50
307.6560665
51
308.4561779
0
ARC
8
DEFAULT_255_1_388
10
8.1165541
20
54.6866832
40
0.435591
50
284.3733666
51
307.1426212
0
ARC
8
DEFAULT_255_1_388
10
8.0608435
20
54.8916391
40
0.6479685
50
272.4384566
51
284.6464689
0
ARC
8
DEFAULT_255_1_388
10
8.046582
20
55.0940434
40
0.8508149
50
269.9708517
51
272.8180721
0
ARC
8
DEFAULT_255_1_388
10
8.0417503
20
54.8648283
40
0.6216151
50
248.2707343
51
270.4054609
0
ARC
8
DEFAULT_255_1_388
10
8.0356374
20
54.8433673
40
0.5994203
50
246.1380358
51
248.054058
0
ARC
8
DEFAULT_255_1_388
10
7.9885517
20
54.7444705
40
0.4899388
50
233.1671897
51
246.4951656
0
ARC
8
DEFAULT_255_1_388
10
7.9262152
20
54.6603137
40
0.3852115
50
215.3403381
51
233.084328
0
ARC
8
DEFAULT_255_1_388
10
7.8955516
20
54.6380093
40
0.3472969
50
179.2419235
51
215.2648426
0
ARC
8
DEFAULT_255_1_388
10
7.9819067
20
54.6395979
40
0.259251
50
179.3355796
51
199.1045873
0
ARC
8
DEFAULT_255_1_388
10
7.9445209
20
54.6298223
40
0.2207454
50
199.8830064
51
232.7061328
0
ARC
8
DEFAULT_255_1_388
10
7.9976483
20
54.6966456
40
0.306101
50
232.3736206
51
255.5136621
0
ARC
8
DEFAULT_255_1_388
10
8.0359989
20
54.8366177
40
0.4512213
50
255.2447928
51
267.5318292
0
ARC
8
DEFAULT_255_1_388
10
8.0458456
20
54.9752709
40
0.5901825
50
267.1564563
51
270.0294721
0
ARC
8
DEFAULT_255_1_388
10
8.0489781
20
54.9253623
40
0.5402814
50
269.6999944
51
278.1662446
0
ARC
8
DEFAULT_255_1_388
10
8.0777809
20
54.7306974
40
0.3435003
50
278.0229022
51
290.6255326
0
ARC
8
DEFAULT_255_1_388
10
8.1168975
20
54.6263547
40
0.2320666
50
290.6616368
51
307.0374127
0
ARC
8
DEFAULT_255_1_388
10
8.1506875
20
54.584904
40
0.1786372
50
306.3942078
51
355.303191
0
ARC
8
DEFAULT_255_1_388
10
8.0931168
20
54.5935186
40
0.2367516
50
354.3662092
51
0.0709489
0
ARC
8
DEFAULT_255_1_388
10
8.1091037
20
54.5960561
40
0.2207761
50
359.4175379
51
16.1975911
0
ARC
8
DEFAULT_255_1_388
10
8.1603155
20
54.6100954
40
0.1676828
50
16.4721294
51
52.6261798
0
ARC
8
DEFAULT_255_1_388
10
8.0679662
20
54.4881606
40
0.3206412
50
52.7381828
51
62.4979144
0
ARC
8
DEFAULT_255_1_388
10
7.9121415
20
54.1949236
40
0.6527035
50
62.2517425
51
68.1219454
0
ARC
8
DEFAULT_255_1_388
10
7.7186903
20
53.7194951
40
1.1659797
50
68.006043
51
71.8055127
0
ARC
8
DEFAULT_255_1_388
10
7.5166811
20
53.1136723
40
1.8045908
50
71.718361
51
73.9260743
0
LINE
8
DEFAULT_255_1_388
10
8.9126675
20
55.5768898
11
8.9126675
21
54.2613
0
LINE
8
DEFAULT_255_1_388
10
8.9126675
20
54.2613
11
8.7391831
21
54.2613
0
LINE
8
DEFAULT_255_1_388
10
8.7391831
20
54.2613
11
8.7391831
21
55.5768898
0
LINE
8
DEFAULT_255_1_388
10
8.7391831
20
55.5768898
11
8.9126675
21
55.5768898
0
LINE
8
DEFAULT_255_1_388
10
9.2298186
20
55.5768898
11
9.4539026
21
55.5768898
0
LINE
8
DEFAULT_255_1_388
10
9.4539026
20
55.5768898
11
9.8839993
21
54.5034553
0
LINE
8
DEFAULT_255_1_388
10
9.8839993
20
54.5034553
11
10.3140959
21
55.5768898
0
LINE
8
DEFAULT_255_1_388
10
10.3140959
20
55.5768898
11
10.5390835
21
55.5768898
0
LINE
8
DEFAULT_255_1_388
10
10.5390835
20
55.5768898
11
10.5390835
21
54.2613
0
LINE
8
DEFAULT_255_1_388
10
10.5390835
20
54.2613
11
10.3655991
21
54.2613
0
LINE
8
DEFAULT_255_1_388
10
10.3655991
20
54.2613
11
10.3655991
21
54.773621
0
LINE
8
DEFAULT_255_1_388
10
10.3655991
20
54.773621
11
10.3818633
21
55.3266025
0
LINE
8
DEFAULT_255_1_388
10
10.3818633
20
55.3266025
11
9.9499595
21
54.2613
0
LINE
8
DEFAULT_255_1_388
10
9.9499595
20
54.2613
11
9.8171355
21
54.2613
0
LINE
8
DEFAULT_255_1_388
10
9.8171355
20
54.2613
11
9.3861353
21
55.3238918
0
LINE
8
DEFAULT_255_1_388
10
9.3861353
20
55.3238918
11
9.403303
21
54.773621
0
LINE
8
DEFAULT_255_1_388
10
9.403303
20
54.773621
11
9.403303
21
54.2613
0
LINE
8
DEFAULT_255_1_388
10
9.403303
20
54.2613
11
9.2298186
21
54.2613
0
LINE
8
DEFAULT_255_1_388
10
9.2298186
20
54.2613
11
9.2298186
21
55.5768898
0
LINE
8
DEFAULT_255_1_388
10
11.7137173
20
54.2613
11
11.5881218
21
54.6046545
0
LINE
8
DEFAULT_255_1_388
10
11.5881218
20
54.6046545
11
11.0369475
21
54.6046545
0
LINE
8
DEFAULT_255_1_388
10
11.0369475
20
54.6046545
11
10.9131592
21
54.2613
0
LINE
8
DEFAULT_255_1_388
10
10.9131592
20
54.2613
11
10.7342534
21
54.2613
0
LINE
8
DEFAULT_255_1_388
10
10.7342534
20
54.2613
11
11.2366353
21
55.5768898
0
LINE
8
DEFAULT_255_1_388
10
11.2366353
20
55.5768898
11
11.3884341
21
55.5768898
0
LINE
8
DEFAULT_255_1_388
10
11.3884341
20
55.5768898
11
11.8917195
21
54.2613
0
LINE
8
DEFAULT_255_1_388
10
11.8917195
20
54.2613
11
11.7137173
21
54.2613
0
LINE
8
DEFAULT_255_1_388
10
11.3125347
20
55.3627451
11
11.0893542
21
54.7474177
0
LINE
8
DEFAULT_255_1_388
10
11.0893542
20
54.7474177
11
11.5366187
21
54.7474177
0
LINE
8
DEFAULT_255_1_388
10
11.5366187
20
54.7474177
11
11.3125347
21
55.3627451
0
LINE
8
DEFAULT_255_1_388
10
12.8612441
20
55.5768898
11
12.8612441
21
55.4341267
0
LINE
8
DEFAULT_255_1_388
10
12.8612441
20
55.4341267
11
12.438376
21
55.4341267
0
LINE
8
DEFAULT_255_1_388
10
12.438376
20
55.4341267
11
12.438376
21
54.2613
0
LINE
8
DEFAULT_255_1_388
10
12.438376
20
54.2613
11
12.2657952
21
54.2613
0
LINE
8
DEFAULT_255_1_388
10
12.2657952
20
54.2613
11
12.2657952
21
55.4341267
0
LINE
8
DEFAULT_255_1_388
10
12.2657952
20
55.4341267
11
11.8438306
21
55.4341267
0
LINE
8
DEFAULT_255_1_388
10
11.8438306
20
55.4341267
11
11.8438306
21
55.5768898
0
LINE
8
DEFAULT_255_1_388
10
11.8438306
20
55.5768898
11
12.8612441
21
55.5768898
0
LINE
8
DEFAULT_255_1_388
10
13.2425483
20
55.5768898
11
13.2425483
21
54.2613
0
LINE
8
DEFAULT_255_1_388
10
13.2425483
20
54.2613
11
13.069064
21
54.2613
0
LINE
8
DEFAULT_255_1_388
10
13.069064
20
54.2613
11
13.069064
21
55.5768898
0
LINE
8
DEFAULT_255_1_388
10
13.069064
20
55.5768898
11
13.2425483
21
55.5768898
0
LINE
8
DEFAULT_255_1_388
10
14.3530291
20
54.6787468
11
14.527417
21
54.6787468
0
LINE
8
DEFAULT_255_1_388
10
13.5145212
20
54.8576525
11
13.5145212
21
54.9841516
0
LINE
8
DEFAULT_255_1_388
10
14.527417
20
55.1540217
11
14.3530291
21
55.1540217
0
LINE
8
DEFAULT_255_1_388
10
13.6889092
20
54.9796337
11
13.6889092
21
54.8522312
0
ARC
8
DEFAULT_255_1_388
10
13.9108404
20
54.7459329
40
0.6202263
50
340.1774904
51
353.7812217
0
ARC
8
DEFAULT_255_1_388
10
14.0876257
20
54.6800893
40
0.4315926
50
311.4560052
51
340.4420756
0
ARC
8
DEFAULT_255_1_388
10
14.0838796
20
54.6925665
40
0.4434573
50
282.4332229
51
310.7514507
0
ARC
8
DEFAULT_255_1_388
10
14.0344614
20
54.8967703
40
0.6535262
50
269.9358869
51
282.8096729
0
ARC
8
DEFAULT_255_1_388
10
14.0286554
20
55.0480329
40
0.8048043
50
269.9995752
51
270.3612856
0
ARC
8
DEFAULT_255_1_388
10
14.0227044
20
54.7681781
40
0.5249831
50
250.7885263
51
270.6488451
0
ARC
8
DEFAULT_255_1_388
10
14.0037868
20
54.6964853
40
0.4510942
50
219.3628377
51
250.0611024
0
ARC
8
DEFAULT_255_1_388
10
14.0970743
20
54.7757653
40
0.5735046
50
193.5480293
51
219.5755675
0
ARC
8
DEFAULT_255_1_388
10
14.3638952
20
54.845052
40
0.849146
50
181.1220183
51
193.8754971
0
ARC
8
DEFAULT_255_1_388
10
14.5962185
20
54.8574914
40
1.0816971
50
179.9914644
51
181.5398227
0
ARC
8
DEFAULT_255_1_388
10
14.3885495
20
54.9883586
40
0.8740384
50
169.5837606
51
180.275782
0
ARC
8
DEFAULT_255_1_388
10
14.1818844
20
55.0265439
40
0.6638751
50
155.0367033
51
169.6002779
0
ARC
8
DEFAULT_255_1_388
10
14.0541302
20
55.0881336
40
0.5220662
50
136.7831557
51
155.2472983
0
ARC
8
DEFAULT_255_1_388
10
14.0103092
20
55.1253577
40
0.4646502
50
121.7633063
51
136.4281161
0
ARC
8
DEFAULT_255_1_388
10
14.0254932
20
55.0973049
40
0.4964979
50
95.6460018
51
121.5489589
0
ARC
8
DEFAULT_255_1_388
10
14.0431907
20
54.9725704
40
0.6223912
50
89.9245727
51
96.1375919
0
ARC
8
DEFAULT_255_1_388
10
14.0488612
20
54.9859721
40
0.6090084
50
76.6779212
51
90.456405
0
ARC
8
DEFAULT_255_1_388
10
14.0931425
20
55.164906
40
0.42469
50
47.4858803
51
76.9287069
0
ARC
8
DEFAULT_255_1_388
10
14.0766038
20
55.1536623
40
0.4441778
50
16.5424081
51
46.8934505
0
ARC
8
DEFAULT_255_1_388
10
13.8957088
20
55.0942265
40
0.6345318
50
5.4072971
51
17.0363711
0
ARC
8
DEFAULT_255_1_388
10
13.7338813
20
55.0682304
40
0.6250632
50
7.8888693
51
15.9242022
0
ARC
8
DEFAULT_255_1_388
10
13.9573799
20
55.1331309
40
0.3923364
50
15.7650676
51
27.9410069
0
ARC
8
DEFAULT_255_1_388
10
14.0815968
20
55.1996317
40
0.2514401
50
27.8167196
51
46.4007942
0
ARC
8
DEFAULT_255_1_388
10
14.0871809
20
55.1989882
40
0.2480958
50
47.4372362
51
75.0695672
0
ARC
8
DEFAULT_255_1_388
10
14.0524646
20
55.0781277
40
0.3738281
50
74.7009379
51
87.8124314
0
ARC
8
DEFAULT_255_1_388
10
14.0442262
20
54.9597659
40
0.4924321
50
87.3802571
51
90.0251599
0
ARC
8
DEFAULT_255_1_388
10
14.039891
20
55.0917997
40
0.3604218
50
89.3451886
51
108.5744412
0
ARC
8
DEFAULT_255_1_388
10
14.0244902
20
55.1495836
40
0.3007661
50
109.2998307
51
143.3037387
0
ARC
8
DEFAULT_255_1_388
10
14.1102192
20
55.0836584
40
0.4089031
50
143.075267
51
163.1918576
0
ARC
8
DEFAULT_255_1_388
10
14.3298026
20
55.0143652
40
0.6391492
50
162.9375929
51
174.6208776
0
ARC
8
DEFAULT_255_1_388
10
14.6252408
20
54.9819711
40
0.9363344
50
174.342123
51
180.1430283
0
ARC
8
DEFAULT_255_1_388
10
14.5204949
20
54.8476117
40
0.8315986
50
179.6817261
51
189.150555
0
ARC
8
DEFAULT_255_1_388
10
14.2391698
20
54.8007559
40
0.5464044
50
188.9911061
51
203.5772363
0
ARC
8
DEFAULT_255_1_388
10
14.117699
20
54.7503539
40
0.4149206
50
203.9075402
51
215.1312435
0
ARC
8
DEFAULT_255_1_388
10
14.0138788
20
54.6698907
40
0.2837747
50
213.9071511
51
263.8848919
0
ARC
8
DEFAULT_255_1_388
10
14.0279781
20
54.7581519
40
0.3730641
50
263.1757928
51
270.1031044
0
ARC
8
DEFAULT_255_1_388
10
14.031586
20
54.8984511
40
0.5133712
50
269.6722503
51
279.0606936
0
ARC
8
DEFAULT_255_1_388
10
14.0616016
20
54.717015
40
0.3294739
50
278.8749101
51
293.6349581
0
ARC
8
DEFAULT_255_1_388
10
14.0976219
20
54.6324251
40
0.2375405
50
293.8553806
51
310.0518171
0
ARC
8
DEFAULT_255_1_388
10
14.0981728
20
54.6254021
40
0.2318463
50
311.0644687
51
332.0111037
0
ARC
8
DEFAULT_255_1_388
10
13.9640402
20
54.6993702
40
0.3850112
50
331.6586806
51
343.2877423
0
ARC
8
DEFAULT_255_1_388
10
13.7319867
20
54.7706806
40
0.6277712
50
343.1446576
51
351.0103568
0
ARC
8
DEFAULT_255_1_388
10
13.568719
20
54.8006873
40
0.7937327
50
350.71248
51
351.1626997
0
LINE
8
DEFAULT_255_1_388
10
16.0951013
20
55.1964892
11
15.9207134
21
55.1964892
0
LINE
8
DEFAULT_255_1_388
10
15.1418408
20
54.6426042
11
15.3162288
21
54.6426042
0
ARC
8
DEFAULT_255_1_388
10
15.9947861
20
56.2028821
40
1.4087688
50
248.9196578
51
254.1442424
0
ARC
8
DEFAULT_255_1_388
10
15.8057741
20
55.7162805
40
0.8867498
50
241.6337352
51
249.0064643
0
ARC
8
DEFAULT_255_1_388
10
15.6338054
20
55.4011764
40
0.5277799
50
230.4982261
51
241.8087583
0
ARC
8
DEFAULT_255_1_388
10
15.5455825
20
55.2887686
40
0.3849419
50
227.4062979
51
229.9877433
0
ARC
8
DEFAULT_255_1_388
10
15.4907172
20
55.2352155
40
0.3084129
50
200.6782127
51
228.1765252
0
ARC
8
DEFAULT_255_1_388
10
15.4988541
20
55.2335277
40
0.315461
50
179.506278
51
199.8695278
0
ARC
8
DEFAULT_255_1_388
10
15.497813
20
55.2418671
40
0.3144584
50
132.4834401
51
181.0242352
0
ARC
8
DEFAULT_255_1_388
10
15.5647334
20
55.1786788
40
0.4063094
50
129.2526113
51
133.4249077
0
ARC
8
DEFAULT_255_1_388
10
15.5812926
20
55.1538619
40
0.436014
50
101.9878945
51
128.8741833
0
ARC
8
DEFAULT_255_1_388
10
15.6261342
20
54.960236
40
0.6347415
50
89.5906376
51
102.3170567
0
ARC
8
DEFAULT_255_1_388
10
15.6340653
20
54.9960586
40
0.5989122
50
77.2359491
51
90.3248968
0
ARC
8
DEFAULT_255_1_388
10
15.6573584
20
55.1048554
40
0.4876594
50
63.8379856
51
77.0808925
0
ARC
8
DEFAULT_255_1_388
10
15.6886118
20
55.1630882
40
0.4216191
50
45.9863127
51
64.1608798
0
ARC
8
DEFAULT_255_1_388
10
15.7179511
20
55.196599
40
0.3771394
50
32.2747934
51
45.6544796
0
ARC
8
DEFAULT_255_1_388
10
15.7254318
20
55.1987426
40
0.3696765
50
359.6507495
51
32.6129943
0
ARC
8
DEFAULT_255_1_388
10
15.6193501
20
55.1992788
40
0.3013762
50
359.469654
51
14.983205
0
ARC
8
DEFAULT_255_1_388
10
15.6986753
20
55.2205288
40
0.2192542
50
14.9781954
51
48.2004799
0
ARC
8
DEFAULT_255_1_388
10
15.6801864
20
55.1972937
40
0.2489048
50
48.5926661
51
74.1242559
0
ARC
8
DEFAULT_255_1_388
10
15.6426666
20
55.0734607
40
0.3782845
50
73.7889321
51
86.6653996
0
ARC
8
DEFAULT_255_1_388
10
15.6311481
20
54.9376955
40
0.5145025
50
86.2642725
51
90.0533288
0
ARC
8
DEFAULT_255_1_388
10
15.6279573
20
54.9821376
40
0.4700681
50
89.669455
51
99.2313411
0
ARC
8
DEFAULT_255_1_388
10
15.6006733
20
55.1446401
40
0.3052945
50
99.0695987
51
113.7659242
0
ARC
8
DEFAULT_255_1_388
10
15.5698728
20
55.2172772
40
0.226407
50
114.0402885
51
127.9848946
0
ARC
8
DEFAULT_255_1_388
10
15.5428204
20
55.2505884
40
0.1835045
50
127.7287217
51
176.7106493
0
ARC
8
DEFAULT_255_1_388
10
15.6191869
20
55.239221
40
0.2604907
50
175.1780759
51
180.0581213
0
ARC
8
DEFAULT_255_1_388
10
15.5243212
20
55.2378411
40
0.1656287
50
179.6140658
51
228.124674
0
ARC
8
DEFAULT_255_1_388
10
15.574057
20
55.283894
40
0.2332038
50
226.5785315
51
230.8792476
0
ARC
8
DEFAULT_255_1_388
10
15.6270056
20
55.3541908
40
0.3211664
50
231.4636401
51
241.9261664
0
ARC
8
DEFAULT_255_1_388
10
15.761684
20
55.6020349
40
0.6032345
50
241.7177136
51
248.3259138
0
ARC
8
DEFAULT_255_1_388
10
15.9175435
20
55.9881771
40
1.0196417
50
248.2007377
51
252.4527713
0
ARC
8
DEFAULT_255_1_388
10
16.0528961
20
56.4066092
40
1.4594143
50
252.3388938
51
254.347037
0
ARC
8
DEFAULT_255_1_388
10
15.2044262
20
53.3718095
40
1.6917621
50
71.0197462
51
74.4085467
0
ARC
8
DEFAULT_255_1_388
10
15.395135
20
53.9223144
40
1.1091618
50
66.1845203
51
71.086519
0
ARC
8
DEFAULT_255_1_388
10
15.5701899
20
54.3164439
40
0.6779073
50
59.3537334
51
66.269255
0
ARC
8
DEFAULT_255_1_388
10
15.6701625
20
54.4855777
40
0.4814366
50
49.1021732
51
59.3294421
0
ARC
8
DEFAULT_255_1_388
10
15.7622613
20
54.5905575
40
0.3417875
50
32.7924183
51
49.2503526
0
ARC
8
DEFAULT_255_1_388
10
15.7972227
20
54.6155311
40
0.2988789
50
31.121225
51
32.3977355
0
ARC
8
DEFAULT_255_1_388
10
15.7884405
20
54.6122728
40
0.3080861
50
8.1116803
51
30.7958224
0
ARC
8
DEFAULT_255_1_388
10
15.6972751
20
54.5967437
40
0.4005385
50
359.8390945
51
8.4707348
0
ARC
8
DEFAULT_255_1_388
10
15.7676798
20
54.5912751
40
0.3301608
50
337.4732479
51
0.7538283
0
ARC
8
DEFAULT_255_1_388
10
15.7877823
20
54.5890554
40
0.3107929
50
307.5917028
51
336.4313755
0
ARC
8
DEFAULT_255_1_388
10
15.7366881
20
54.6458509
40
0.3870096
50
307.6560665
51
308.4561779
0
ARC
8
DEFAULT_255_1_388
10
15.7101098
20
54.6866832
40
0.435591
50
284.3733666
51
307.1426212
0
ARC
8
DEFAULT_255_1_388
10
15.6543992
20
54.8916391
40
0.6479685
50
272.4384566
51
284.6464689
0
ARC
8
DEFAULT_255_1_388
10
15.6401377
20
55.0940434
40
0.8508149
50
269.9708517
51
272.8180721
0
ARC
8
DEFAULT_255_1_388
10
15.6353059
20
54.8648283
40
0.6216151
50
248.2707343
51
270.4054609
0
ARC
8
DEFAULT_255_1_388
10
15.6291931
20
54.8433673
40
0.5994203
50
246.1380358
51
248.054058
0
ARC
8
DEFAULT_255_1_388
10
15.5821073
20
54.7444705
40
0.4899388
50
233.1671897
51
246.4951656
0
ARC
8
DEFAULT_255_1_388
10
15.5197709
20
54.6603137
40
0.3852115
50
215.3403381
51
233.084328
0
ARC
8
DEFAULT_255_1_388
10
15.4891073
20
54.6380093
40
0.3472969
50
179.2419235
51
215.2648426
0
ARC
8
DEFAULT_255_1_388
10
15.5754624
20
54.6395979
40
0.259251
50
179.3355796
51
199.1045873
0
ARC
8
DEFAULT_255_1_388
10
15.5380765
20
54.6298223
40
0.2207454
50
199.8830064
51
232.7061328
0
ARC
8
DEFAULT_255_1_388
10
15.591204
20
54.6966456
40
0.306101
50
232.3736206
51
255.5136621
0
ARC
8
DEFAULT_255_1_388
10
15.6295546
20
54.8366177
40
0.4512213
50
255.2447928
51
267.5318292
0
ARC
8
DEFAULT_255_1_388
10
15.6394013
20
54.9752709
40
0.5901825
50
267.1564563
51
270.0294721
0
ARC
8
DEFAULT_255_1_388
10
15.6425338
20
54.9253623
40
0.5402814
50
269.6999944
51
278.1662446
0
ARC
8
DEFAULT_255_1_388
10
15.6713365
20
54.7306974
40
0.3435003
50
278.0229022
51
290.6255326
0
ARC
8
DEFAULT_255_1_388
10
15.7104532
20
54.6263547
40
0.2320666
50
290.6616368
51
307.0374127
0
ARC
8
DEFAULT_255_1_388
10
15.7442432
20
54.584904
40
0.1786372
50
306.3942078
51
355.303191
0
ARC
8
DEFAULT_255_1_388
10
15.6866725
20
54.5935186
40
0.2367516
50
354.3662092
51
0.0709489
0
ARC
8
DEFAULT_255_1_388
10
15.7026594
20
54.5960561
40
0.2207761
50
359.4175379
51
16.1975911
0
ARC
8
DEFAULT_255_1_388
10
15.7538711
20
54.6100954
40
0.1676828
50
16.4721294
51
52.6261798
0
ARC
8
DEFAULT_255_1_388
10
15.6615219
20
54.4881606
40
0.3206412
50
52.7381828
51
62.4979144
0
ARC
8
DEFAULT_255_1_388
10
15.5056972
20
54.1949236
40
0.6527035
50
62.2517425
51
68.1219454
0
ARC
8
DEFAULT_255_1_388
10
15.312246
20
53.7194951
40
1.1659797
50
68.006043
51
71.8055127
0
ARC
8
DEFAULT_255_1_388
10
15.1102368
20
53.1136723
40
1.8045908
50
71.718361
51
73.9260743
0
LINE
8
DEFAULT_255_1_388
10
17.1260684
20
55.5768898
11
17.1260684
21
55.4829191
0
LINE
8
DEFAULT_255_1_388
10
17.1260684
20
55.4829191
11
16.581219
21
54.2613
0
LINE
8
DEFAULT_255_1_388
10
16.581219
20
54.2613
11
16.4059275
21
54.2613
0
LINE
8
DEFAULT_255_1_388
10
16.4059275
20
54.2613
11
16.9489697
21
55.439548
0
LINE
8
DEFAULT_255_1_388
10
16.9489697
20
55.439548
11
16.2369609
21
55.439548
0
LINE
8
DEFAULT_255_1_388
10
16.2369609
20
55.439548
11
16.2369609
21
55.5768898
0
LINE
8
DEFAULT_255_1_388
10
16.2369609
20
55.5768898
11
17.1260684
21
55.5768898
0
LINE
8
DEFAULT_255_1_388
10
17.6808569
20
54.8883737
11
17.6808569
21
54.7519355
0
LINE
8
DEFAULT_255_1_388
10
17.6808569
20
54.7519355
11
17.2399175
21
54.7519355
0
LINE
8
DEFAULT_255_1_388
10
17.2399175
20
54.7519355
11
17.2399175
21
54.8883737
0
LINE
8
DEFAULT_255_1_388
10
17.2399175
20
54.8883737
11
17.6808569
21
54.8883737
0
LINE
8
DEFAULT_255_1_388
10
18.5320146
20
55.5768898
11
18.5320146
21
54.703143
0
LINE
8
DEFAULT_255_1_388
10
18.5320146
20
54.703143
11
18.7145347
21
54.703143
0
LINE
8
DEFAULT_255_1_388
10
18.7145347
20
54.703143
11
18.7145347
21
54.5667048
0
LINE
8
DEFAULT_255_1_388
10
18.7145347
20
54.5667048
11
18.5320146
21
54.5667048
0
LINE
8
DEFAULT_255_1_388
10
18.5320146
20
54.5667048
11
18.5320146
21
54.2613
0
LINE
8
DEFAULT_255_1_388
10
18.5320146
20
54.2613
11
18.3639517
21
54.2613
0
LINE
8
DEFAULT_255_1_388
10
18.3639517
20
54.2613
11
18.3639517
21
54.5667048
0
LINE
8
DEFAULT_255_1_388
10
18.3639517
20
54.5667048
11
17.7648884
21
54.5667048
0
LINE
8
DEFAULT_255_1_388
10
17.7648884
20
54.5667048
11
17.7648884
21
54.6651933
0
LINE
8
DEFAULT_255_1_388
10
17.7648884
20
54.6651933
11
18.3540125
21
55.5768898
0
LINE
8
DEFAULT_255_1_388
10
18.3540125
20
55.5768898
11
18.5320146
21
55.5768898
0
LINE
8
DEFAULT_255_1_388
10
18.3440732
20
55.3121455
11
17.954637
21
54.703143
0
LINE
8
DEFAULT_255_1_388
10
17.954637
20
54.703143
11
18.3639517
21
54.703143
0
LINE
8
DEFAULT_255_1_388
10
18.3639517
20
54.703143
11
18.3639517
21
55.348288
0
LINE
8
DEFAULT_255_1_388
10
18.3639517
20
55.348288
11
18.3440732
21
55.3121455
0
LINE
8
DEFAULT_255_1_388
10
19.6903843
20
55.039269
11
19.6903843
21
54.8224135
0
LINE
8
DEFAULT_255_1_388
10
18.8600085
20
54.7998244
11
18.8600085
21
55.0230048
0
LINE
8
DEFAULT_255_1_388
10
19.5232249
20
54.7772353
11
19.5232249
21
55.0510153
0
LINE
8
DEFAULT_255_1_388
10
19.027168
20
55.0636652
11
19.027168
21
54.7962102
0
ARC
8
DEFAULT_255_1_388
10
18.3126177
20
54.8169118
40
1.3777776
50
353.8440855
51
0.2287917
0
ARC
8
DEFAULT_255_1_388
10
18.8345194
20
54.7586414
40
0.852639
50
344.4934746
51
353.9763743
0
ARC
8
DEFAULT_255_1_388
10
19.1712001
20
54.6629191
40
0.5026273
50
329.2803599
51
344.7473406
0
ARC
8
DEFAULT_255_1_388
10
19.2827497
20
54.6017038
40
0.3754848
50
324.9361395
51
328.6153007
0
ARC
8
DEFAULT_255_1_388
10
19.3253147
20
54.5719586
40
0.3235566
50
280.5801797
51
324.9173226
0
ARC
8
DEFAULT_255_1_388
10
19.2801776
20
54.7599236
40
0.5167077
50
269.5979457
51
281.6732777
0
ARC
8
DEFAULT_255_1_388
10
19.2720679
20
54.7464113
40
0.5032026
50
256.6228565
51
270.5105488
0
ARC
8
DEFAULT_255_1_388
10
19.2268422
20
54.5722345
40
0.3233092
50
215.8618351
51
257.2787793
0
ARC
8
DEFAULT_255_1_388
10
19.3417129
20
54.6493106
40
0.4615831
50
197.9695203
51
215.2622745
0
ARC
8
DEFAULT_255_1_388
10
19.6212804
20
54.7436641
40
0.7566307
50
187.8816486
51
198.2346584
0
ARC
8
DEFAULT_255_1_388
10
20.0666043
20
54.8079453
40
1.2065653
50
180.8977266
51
188.0054894
0
ARC
8
DEFAULT_255_1_388
10
20.3716256
20
54.81944
40
1.5117443
50
180.7434591
51
181.152202
0
ARC
8
DEFAULT_255_1_388
10
20.2041252
20
55.0284371
40
1.3441277
50
173.7674302
51
180.2315596
0
ARC
8
DEFAULT_255_1_388
10
19.6959121
20
55.0858779
40
0.8326847
50
164.3058537
51
173.9000553
0
ARC
8
DEFAULT_255_1_388
10
19.3683121
20
55.1802652
40
0.4917711
50
148.7922028
51
164.5682288
0
ARC
8
DEFAULT_255_1_388
10
19.2613859
20
55.2399457
40
0.3694204
50
144.5883979
51
148.1161588
0
ARC
8
DEFAULT_255_1_388
10
19.2226604
20
55.2669667
40
0.322202
50
101.6440149
51
144.5142619
0
ARC
8
DEFAULT_255_1_388
10
19.2704796
20
55.0769337
40
0.5180451
50
89.528284
51
102.5820197
0
ARC
8
DEFAULT_255_1_388
10
19.2793788
20
55.0725376
40
0.5224441
50
77.0437914
51
90.508231
0
ARC
8
DEFAULT_255_1_388
10
19.3246042
20
55.2573272
40
0.3322297
50
48.2777708
51
77.4996087
0
ARC
8
DEFAULT_255_1_388
10
19.3327782
20
55.2718557
40
0.315966
50
36.3141586
51
47.6307332
0
ARC
8
DEFAULT_255_1_388
10
19.2350504
20
55.2060159
40
0.4337313
50
18.2931065
51
35.6770203
0
ARC
8
DEFAULT_255_1_388
10
18.9489345
20
55.1078107
40
0.7362203
50
8.0246996
51
18.5605636
0
ARC
8
DEFAULT_255_1_388
10
18.48057
20
55.0386432
40
1.2096583
50
1.127539
51
8.1718423
0
ARC
8
DEFAULT_255_1_388
10
18.1156834
20
55.0243374
40
1.5747719
50
0.5432713
51
1.38669
0
ARC
8
DEFAULT_255_1_388
10
18.3214212
20
55.0550163
40
1.2018103
50
359.8092569
51
4.9408001
0
ARC
8
DEFAULT_255_1_388
10
18.7950794
20
55.09729
40
0.7262727
50
4.8364937
51
12.2906017
0
ARC
8
DEFAULT_255_1_388
10
19.1050258
20
55.1663485
40
0.4087324
50
12.0806994
51
23.8171225
0
ARC
8
DEFAULT_255_1_388
10
19.2370654
20
55.2222508
40
0.2653719
50
24.2874621
51
31.3934353
0
ARC
8
DEFAULT_255_1_388
10
19.296109
20
55.2608822
40
0.1948607
50
30.7407708
51
82.4658033
0
ARC
8
DEFAULT_255_1_388
10
19.2758751
20
55.1615017
40
0.2961198
50
81.1057101
51
90.2187368
0
ARC
8
DEFAULT_255_1_388
10
19.2718563
20
55.1905421
40
0.2670929
50
89.380395
51
105.6763916
0
ARC
8
DEFAULT_255_1_388
10
19.2512285
20
55.265532
40
0.1893189
50
105.7980655
51
149.7387869
0
ARC
8
DEFAULT_255_1_388
10
19.3709425
20
55.1935719
40
0.3289892
50
149.4208441
51
163.628295
0
ARC
8
DEFAULT_255_1_388
10
19.6061655
20
55.1218345
40
0.5749004
50
163.3764549
51
172.141138
0
ARC
8
DEFAULT_255_1_388
10
19.9774376
20
55.0686582
40
0.9499585
50
172.0258462
51
178.0705453
0
ARC
8
DEFAULT_255_1_388
10
20.3195929
20
55.0524682
40
1.2924734
50
177.8639301
51
179.5036263
0
ARC
8
DEFAULT_255_1_388
10
20.1976948
20
54.7921151
40
1.170534
50
179.7995545
51
185.246089
0
ARC
8
DEFAULT_255_1_388
10
19.7428541
20
54.7490404
40
0.7136613
50
185.1411911
51
193.0082205
0
ARC
8
DEFAULT_255_1_388
10
19.4454801
20
54.6787441
40
0.4080987
50
192.7897338
51
205.2507384
0
ARC
8
DEFAULT_255_1_388
10
19.3277011
20
54.6261538
40
0.2791522
50
205.8001921
51
211.2545876
0
ARC
8
DEFAULT_255_1_388
10
19.2688551
20
54.5867132
40
0.2084074
50
210.3789935
51
238.4007996
0
ARC
8
DEFAULT_255_1_388
10
19.2666637
20
54.5919786
40
0.2117943
50
239.6521916
51
265.9793852
0
ARC
8
DEFAULT_255_1_388
10
19.2762485
20
54.6676358
40
0.2879689
50
265.1324455
51
270.0603288
0
ARC
8
DEFAULT_255_1_388
10
19.2794863
20
54.6311418
40
0.2514919
50
269.3314378
51
287.2180039
0
ARC
8
DEFAULT_255_1_388
10
19.2949945
20
54.5745291
40
0.1928357
50
287.7957942
51
329.0808983
0
ARC
8
DEFAULT_255_1_388
10
19.1872702
20
54.6417651
40
0.319808
50
328.6635261
51
343.3325043
0
ARC
8
DEFAULT_255_1_388
10
18.942816
20
54.7179195
40
0.5758408
50
343.0498092
51
351.9392499
0
ARC
8
DEFAULT_255_1_388
10
18.5527482
20
54.7754205
40
0.9701202
50
351.8071632
51
357.7957897
0
ARC
8
DEFAULT_255_1_388
10
18.1892959
20
54.7942724
40
1.3340376
50
357.5870923
51
359.2682493
0
LINE
8
DEFAULT_255_1_388
10
20.7294834
20
55.039269
11
20.7294834
21
54.8224135
0
LINE
8
DEFAULT_255_1_388
10
19.8991077
20
54.7998244
11
19.8991077
21
55.0230048
0
LINE
8
DEFAULT_255_1_388
10
20.562324
20
54.7772353
11
20.562324
21
55.0510153
0
LINE
8
DEFAULT_255_1_388
10
20.0662671
20
55.0636652
11
20.0662671
21
54.7962102
0
ARC
8
DEFAULT_255_1_388
10
19.3517168
20
54.8169118
40
1.3777776
50
353.8440855
51
0.2287917
0
ARC
8
DEFAULT_255_1_388
10
19.8736185
20
54.7586414
40
0.852639
50
344.4934746
51
353.9763743
0
ARC
8
DEFAULT_255_1_388
10
20.2102993
20
54.6629191
40
0.5026273
50
329.2803599
51
344.7473406
0
ARC
8
DEFAULT_255_1_388
10
20.3218488
20
54.6017038
40
0.3754848
50
324.9361395
51
328.6153007
0
ARC
8
DEFAULT_255_1_388
10
20.3644138
20
54.5719586
40
0.3235566
50
280.5801797
51
324.9173226
0
ARC
8
DEFAULT_255_1_388
10
20.3192767
20
54.7599236
40
0.5167077
50
269.5979457
51
281.6732777
0
ARC
8
DEFAULT_255_1_388
10
20.311167
20
54.7464113
40
0.5032026
50
256.6228565
51
270.5105488
0
ARC
8
DEFAULT_255_1_388
10
20.2659413
20
54.5722345
40
0.3233092
50
215.8618351
51
257.2787793
0
ARC
8
DEFAULT_255_1_388
10
20.380812
20
54.6493106
40
0.4615831
50
197.9695203
51
215.2622745
0
ARC
8
DEFAULT_255_1_388
10
20.6603796
20
54.7436641
40
0.7566307
50
187.8816486
51
198.2346584
0
ARC
8
DEFAULT_255_1_388
10
21.1057034
20
54.8079453
40
1.2065653
50
180.8977266
51
188.0054894
0
ARC
8
DEFAULT_255_1_388
10
21.4107248
20
54.81944
40
1.5117443
50
180.7434591
51
181.152202
0
ARC
8
DEFAULT_255_1_388
10
21.2432243
20
55.0284371
40
1.3441277
50
173.7674302
51
180.2315596
0
ARC
8
DEFAULT_255_1_388
10
20.7350112
20
55.0858779
40
0.8326847
50
164.3058537
51
173.9000553
0
ARC
8
DEFAULT_255_1_388
10
20.4074112
20
55.1802652
40
0.4917711
50
148.7922028
51
164.5682288
0
ARC
8
DEFAULT_255_1_388
10
20.300485
20
55.2399457
40
0.3694204
50
144.5883979
51
148.1161588
0
ARC
8
DEFAULT_255_1_388
10
20.2617595
20
55.2669667
40
0.322202
50
101.6440149
51
144.5142619
0
ARC
8
DEFAULT_255_1_388
10
20.3095787
20
55.0769337
40
0.5180451
50
89.528284
51
102.5820197
0
ARC
8
DEFAULT_255_1_388
10
20.3184779
20
55.0725376
40
0.5224441
50
77.0437914
51
90.508231
0
ARC
8
DEFAULT_255_1_388
10
20.3637033
20
55.2573272
40
0.3322297
50
48.2777708
51
77.4996087
0
ARC
8
DEFAULT_255_1_388
10
20.3718773
20
55.2718557
40
0.315966
50
36.3141586
51
47.6307332
0
ARC
8
DEFAULT_255_1_388
10
20.2741495
20
55.2060159
40
0.4337313
50
18.2931065
51
35.6770203
0
ARC
8
DEFAULT_255_1_388
10
19.9880336
20
55.1078107
40
0.7362203
50
8.0246996
51
18.5605636
0
ARC
8
DEFAULT_255_1_388
10
19.5196691
20
55.0386432
40
1.2096583
50
1.127539
51
8.1718423
0
ARC
8
DEFAULT_255_1_388
10
19.1547825
20
55.0243374
40
1.5747719
50
0.5432713
51
1.38669
0
ARC
8
DEFAULT_255_1_388
10
19.3605204
20
55.0550163
40
1.2018103
50
359.8092569
51
4.9408001
0
ARC
8
DEFAULT_255_1_388
10
19.8341785
20
55.09729
40
0.7262727
50
4.8364937
51
12.2906017
0
ARC
8
DEFAULT_255_1_388
10
20.144125
20
55.1663485
40
0.4087324
50
12.0806994
51
23.8171225
0
ARC
8
DEFAULT_255_1_388
10
20.2761646
20
55.2222508
40
0.2653719
50
24.2874621
51
31.3934353
0
ARC
8
DEFAULT_255_1_388
10
20.3352082
20
55.2608822
40
0.1948607
50
30.7407708
51
82.4658033
0
ARC
8
DEFAULT_255_1_388
10
20.3149742
20
55.1615017
40
0.2961198
50
81.1057101
51
90.2187368
0
ARC
8
DEFAULT_255_1_388
10
20.3109554
20
55.1905421
40
0.2670929
50
89.380395
51
105.6763916
0
ARC
8
DEFAULT_255_1_388
10
20.2903276
20
55.265532
40
0.1893189
50
105.7980655
51
149.7387869
0
ARC
8
DEFAULT_255_1_388
10
20.4100416
20
55.1935719
40
0.3289892
50
149.4208441
51
163.628295
0
ARC
8
DEFAULT_255_1_388
10
20.6452646
20
55.1218345
40
0.5749004
50
163.3764549
51
172.141138
0
ARC
8
DEFAULT_255_1_388
10
21.0165367
20
55.0686582
40
0.9499585
50
172.0258462
51
178.0705453
0
ARC
8
DEFAULT_255_1_388
10
21.358692
20
55.0524682
40
1.2924734
50
177.8639301
51
179.5036263
0
ARC
8
DEFAULT_255_1_388
10
21.2367939
20
54.7921151
40
1.170534
50
179.7995545
51
185.246089
0
ARC
8
DEFAULT_255_1_388
10
20.7819532
20
54.7490404
40
0.7136613
50
185.1411911
51
193.0082205
0
ARC
8
DEFAULT_255_1_388
10
20.4845793
20
54.6787441
40
0.4080987
50
192.7897338
51
205.2507384
0
ARC
8
DEFAULT_255_1_388
10
20.3668003
20
54.6261538
40
0.2791522
50
205.8001921
51
211.2545876
0
ARC
8
DEFAULT_255_1_388
10
20.3079542
20
54.5867132
40
0.2084074
50
210.3789935
51
238.4007996
0
ARC
8
DEFAULT_255_1_388
10
20.3057628
20
54.5919786
40
0.2117943
50
239.6521916
51
265.9793852
0
ARC
8
DEFAULT_255_1_388
10
20.3153477
20
54.6676358
40
0.2879689
50
265.1324455
51
270.0603288
0
ARC
8
DEFAULT_255_1_388
10
20.3185854
20
54.6311418
40
0.2514919
50
269.3314378
51
287.2180039
0
ARC
8
DEFAULT_255_1_388
10
20.3340936
20
54.5745291
40
0.1928357
50
287.7957942
51
329.0808983
0
ARC
8
DEFAULT_255_1_388
10
20.2263693
20
54.6417651
40
0.319808
50
328.6635261
51
343.3325043
0
ARC
8
DEFAULT_255_1_388
10
19.9819152
20
54.7179195
40
0.5758408
50
343.0498092
51
351.9392499
0
ARC
8
DEFAULT_255_1_388
10
19.5918473
20
54.7754205
40
0.9701202
50
351.8071632
51
357.7957897
0
ARC
8
DEFAULT_255_1_388
10
19.228395
20
54.7942724
40
1.3340376
50
357.5870923
51
359.2682493
0
LINE
8
DEFAULT_255_1_388
10
4.1680903
20
53.5924898
11
4.1680903
21
52.4187596
0
LINE
8
DEFAULT_255_1_388
10
4.1680903
20
52.4187596
11
4.7915498
21
52.4187596
0
LINE
8
DEFAULT_255_1_388
10
4.7915498
20
52.4187596
11
4.7915498
21
52.2769
0
LINE
8
DEFAULT_255_1_388
10
4.7915498
20
52.2769
11
3.9937024
21
52.2769
0
LINE
8
DEFAULT_255_1_388
10
3.9937024
20
52.2769
11
3.9937024
21
53.5924898
0
LINE
8
DEFAULT_255_1_388
10
3.9937024
20
53.5924898
11
4.1680903
21
53.5924898
0
LINE
8
DEFAULT_255_1_388
10
5.4421162
20
53.3665987
11
5.4421162
21
52.9825838
0
LINE
8
DEFAULT_255_1_388
10
5.4421162
20
52.9825838
11
5.8089634
21
52.9825838
0
LINE
8
DEFAULT_255_1_388
10
5.8089634
20
52.9825838
11
5.8089634
21
52.8244601
0
LINE
8
DEFAULT_255_1_388
10
5.8089634
20
52.8244601
11
5.4421162
21
52.8244601
0
LINE
8
DEFAULT_255_1_388
10
5.4421162
20
52.8244601
11
5.4421162
21
52.4088204
0
LINE
8
DEFAULT_255_1_388
10
5.4421162
20
52.4088204
11
5.2740532
21
52.4088204
0
LINE
8
DEFAULT_255_1_388
10
5.2740532
20
52.4088204
11
5.2740532
21
52.8244601
0
LINE
8
DEFAULT_255_1_388
10
5.2740532
20
52.8244601
11
4.9072061
21
52.8244601
0
LINE
8
DEFAULT_255_1_388
10
4.9072061
20
52.8244601
11
4.9072061
21
52.9825838
0
LINE
8
DEFAULT_255_1_388
10
4.9072061
20
52.9825838
11
5.2740532
21
52.9825838
0
LINE
8
DEFAULT_255_1_388
10
5.2740532
20
52.9825838
11
5.2740532
21
53.3665987
0
LINE
8
DEFAULT_255_1_388
10
5.2740532
20
53.3665987
11
5.4421162
21
53.3665987
0
LINE
8
DEFAULT_255_1_388
10
4.1855367
20
5.9674898
11
4.1855367
21
4.6519
0
LINE
8
DEFAULT_255_1_388
10
4.1855367
20
4.6519
11
4.0120523
21
4.6519
0
LINE
8
DEFAULT_255_1_388
10
4.0120523
20
4.6519
11
4.0120523
21
5.9674898
0
LINE
8
DEFAULT_255_1_388
10
4.0120523
20
5.9674898
11
4.1855367
21
5.9674898
0
LINE
8
DEFAULT_255_1_388
10
5.22825
20
5.3747516
11
5.22825
21
5.2328919
0
LINE
8
DEFAULT_255_1_388
10
5.22825
20
5.2328919
11
4.6761722
21
5.2328919
0
LINE
8
DEFAULT_255_1_388
10
4.6761722
20
5.2328919
11
4.6761722
21
4.6519
0
LINE
8
DEFAULT_255_1_388
10
4.6761722
20
4.6519
11
4.5026878
21
4.6519
0
LINE
8
DEFAULT_255_1_388
10
4.5026878
20
4.6519
11
4.5026878
21
5.9674898
0
LINE
8
DEFAULT_255_1_388
10
4.5026878
20
5.9674898
11
5.3177029
21
5.9674898
0
LINE
8
DEFAULT_255_1_388
10
5.3177029
20
5.9674898
11
5.3177029
21
5.8247267
0
LINE
8
DEFAULT_255_1_388
10
5.3177029
20
5.8247267
11
4.6761722
21
5.8247267
0
LINE
8
DEFAULT_255_1_388
10
4.6761722
20
5.8247267
11
4.6761722
21
5.3747516
0
LINE
8
DEFAULT_255_1_388
10
4.6761722
20
5.3747516
11
5.22825
21
5.3747516
0
LINE
8
DEFAULT_255_1_388
10
6.3441521
20
4.7883382
11
6.3441521
21
4.6519
0
LINE
8
DEFAULT_255_1_388
10
6.3441521
20
4.6519
11
5.4821517
21
4.6519
0
LINE
8
DEFAULT_255_1_388
10
5.4821517
20
4.6519
11
5.4821517
21
4.7720741
0
LINE
8
DEFAULT_255_1_388
10
5.4821517
20
4.7720741
11
5.9375481
21
5.2780702
0
LINE
8
DEFAULT_255_1_388
10
5.6240113
20
5.5798607
11
5.4568519
21
5.5798607
0
LINE
8
DEFAULT_255_1_388
10
6.0360367
20
5.170546
11
5.6836465
21
4.7883382
0
LINE
8
DEFAULT_255_1_388
10
5.6836465
20
4.7883382
11
6.3441521
21
4.7883382
0
ARC
8
DEFAULT_255_1_388
10
4.4199541
20
6.6200983
40
2.0258655
50
318.5132526
51
320.7829045
0
ARC
8
DEFAULT_255_1_388
10
5.0147498
20
6.1359929
40
1.2589638
50
320.7372878
51
323.9739031
0
ARC
8
DEFAULT_255_1_388
10
5.455643
20
5.8165554
40
0.7145141
50
323.8962701
51
328.64194
0
ARC
8
DEFAULT_255_1_388
10
5.6858687
20
5.6745545
40
0.4440242
50
328.8294576
51
331.7891185
0
ARC
8
DEFAULT_255_1_388
10
5.7981007
20
5.6166374
40
0.3177517
50
331.4254512
51
352.9365785
0
ARC
8
DEFAULT_255_1_388
10
5.8134007
20
5.613205
40
0.3021496
50
353.2257659
51
0.0166158
0
ARC
8
DEFAULT_255_1_388
10
5.8370768
20
5.6157894
40
0.2784847
50
359.486299
51
15.9343185
0
ARC
8
DEFAULT_255_1_388
10
5.8941035
20
5.6311269
40
0.2194403
50
16.1712913
51
43.5286088
0
ARC
8
DEFAULT_255_1_388
10
5.9027979
20
5.6398191
40
0.2071504
50
43.4417391
51
83.1661095
0
ARC
8
DEFAULT_255_1_388
10
5.887714
20
5.5569316
40
0.2912888
50
82.160179
51
90.1505708
0
ARC
8
DEFAULT_255_1_388
10
5.8841622
20
5.4965279
40
0.3517025
50
89.5460741
51
102.5418361
0
ARC
8
DEFAULT_255_1_388
10
5.8568342
20
5.6124933
40
0.2325748
50
102.1738499
51
129.206123
0
ARC
8
DEFAULT_255_1_388
10
5.8479795
20
5.6264664
40
0.2161591
50
129.72865
51
135.753947
0
ARC
8
DEFAULT_255_1_388
10
5.8616277
20
5.6155728
40
0.2335433
50
136.1757367
51
166.3673339
0
ARC
8
DEFAULT_255_1_388
10
5.9748966
20
5.5852148
40
0.3507873
50
165.9090694
51
178.8684636
0
ARC
8
DEFAULT_255_1_388
10
6.0724737
20
5.5799263
40
0.4484624
50
178.4391136
51
180.0083808
0
ARC
8
DEFAULT_255_1_388
10
5.9145439
20
5.5843197
40
0.4577138
50
163.2878482
51
180.5581842
0
ARC
8
DEFAULT_255_1_388
10
5.824348
20
5.6091393
40
0.3641968
50
133.4540601
51
162.947111
0
ARC
8
DEFAULT_255_1_388
10
5.8444362
20
5.5877789
40
0.3935189
50
100.7869829
51
133.4382499
0
ARC
8
DEFAULT_255_1_388
10
5.8835607
20
5.4135399
40
0.5720313
50
89.660664
51
101.3702276
0
ARC
8
DEFAULT_255_1_388
10
5.8910216
20
5.4204263
40
0.5651495
50
78.2172678
51
90.412935
0
ARC
8
DEFAULT_255_1_388
10
5.9309681
20
5.6031511
40
0.378122
50
55.9269121
51
78.4888449
0
ARC
8
DEFAULT_255_1_388
10
5.9530397
20
5.6412187
40
0.3342379
50
47.929771
51
55.4049217
0
ARC
8
DEFAULT_255_1_388
10
5.9644927
20
5.6528618
40
0.3179217
50
4.334829
51
48.0560205
0
ARC
8
DEFAULT_255_1_388
10
5.8412729
20
5.6337487
40
0.442341
50
359.9251713
51
5.5971671
0
ARC
8
DEFAULT_255_1_388
10
5.8894883
20
5.6400728
40
0.3941854
50
337.8914027
51
358.9967534
0
ARC
8
DEFAULT_255_1_388
10
5.5842453
20
5.7578295
40
0.7213271
50
326.9132501
51
338.3508308
0
ARC
8
DEFAULT_255_1_388
10
5.1358565
20
6.0452105
40
1.2538973
50
319.6471833
51
327.0959558
0
ARC
8
DEFAULT_255_1_388
10
4.7045223
20
6.401005
40
1.8129975
50
317.2588228
51
319.9045804
0
LINE
8
DEFAULT_255_1_388
10
4.1784367
20
13.9049898
11
4.1784367
21
12.5894
0
LINE
8
DEFAULT_255_1_388
10
4.1784367
20
12.5894
11
4.0049523
21
12.5894
0
LINE
8
DEFAULT_255_1_388
10
4.0049523
20
12.5894
11
4.0049523
21
13.9049898
0
LINE
8
DEFAULT_255_1_388
10
4.0049523
20
13.9049898
11
4.1784367
21
13.9049898
0
LINE
8
DEFAULT_255_1_388
10
5.22115
20
13.3122516
11
5.22115
21
13.1703919
0
LINE
8
DEFAULT_255_1_388
10
5.22115
20
13.1703919
11
4.6690722
21
13.1703919
0
LINE
8
DEFAULT_255_1_388
10
4.6690722
20
13.1703919
11
4.6690722
21
12.5894
0
LINE
8
DEFAULT_255_1_388
10
4.6690722
20
12.5894
11
4.4955878
21
12.5894
0
LINE
8
DEFAULT_255_1_388
10
4.4955878
20
12.5894
11
4.4955878
21
13.9049898
0
LINE
8
DEFAULT_255_1_388
10
4.4955878
20
13.9049898
11
5.3106029
21
13.9049898
0
LINE
8
DEFAULT_255_1_388
10
5.3106029
20
13.9049898
11
5.3106029
21
13.7622267
0
LINE
8
DEFAULT_255_1_388
10
5.3106029
20
13.7622267
11
4.6690722
21
13.7622267
0
LINE
8
DEFAULT_255_1_388
10
4.6690722
20
13.7622267
11
4.6690722
21
13.3122516
0
LINE
8
DEFAULT_255_1_388
10
4.6690722
20
13.3122516
11
5.22115
21
13.3122516
0
LINE
8
DEFAULT_255_1_388
10
6.0244188
20
13.9113148
11
6.0244188
21
12.5894
0
LINE
8
DEFAULT_255_1_388
10
6.0244188
20
12.5894
11
5.8563559
21
12.5894
0
LINE
8
DEFAULT_255_1_388
10
5.8563559
20
12.5894
11
5.8563559
21
13.703495
0
LINE
8
DEFAULT_255_1_388
10
5.8563559
20
13.703495
11
5.5193263
21
13.5797066
0
LINE
8
DEFAULT_255_1_388
10
5.5193263
20
13.5797066
11
5.5193263
21
13.7315055
0
LINE
8
DEFAULT_255_1_388
10
5.5193263
20
13.7315055
11
5.9982155
21
13.9113148
0
LINE
8
DEFAULT_255_1_388
10
5.9982155
20
13.9113148
11
6.0244188
21
13.9113148
0
LINE
8
DEFAULT_255_1_388
10
4.4829094
20
21.0419317
11
4.1729868
21
21.0419317
0
LINE
8
DEFAULT_255_1_388
10
4.1729868
20
21.0419317
11
4.1729868
21
20.5269
0
LINE
8
DEFAULT_255_1_388
10
4.1729868
20
20.5269
11
3.9995024
21
20.5269
0
LINE
8
DEFAULT_255_1_388
10
3.9995024
20
20.5269
11
3.9995024
21
21.8424898
0
LINE
8
DEFAULT_255_1_388
10
3.9995024
20
21.8424898
11
4.4847165
21
21.8424898
0
LINE
8
DEFAULT_255_1_388
10
4.1729868
20
21.6997267
11
4.1729868
21
21.1837914
0
LINE
8
DEFAULT_255_1_388
10
4.1729868
20
21.1837914
11
4.4847165
21
21.1837914
0
LINE
8
DEFAULT_255_1_388
10
4.4946557
20
21.6997267
11
4.1729868
21
21.6997267
0
ARC
8
DEFAULT_255_1_388
10
4.4894538
20
21.1608334
40
0.6816729
50
78.8380084
51
90.398184
0
ARC
8
DEFAULT_255_1_388
10
4.5362569
20
21.3881796
40
0.449571
50
58.9633273
51
79.0810717
0
ARC
8
DEFAULT_255_1_388
10
4.5701953
20
21.4511823
40
0.3781049
50
48.0194715
51
58.4475592
0
ARC
8
DEFAULT_255_1_388
10
4.5801773
20
21.4607818
40
0.3642936
50
3.3374546
51
48.1766642
0
ARC
8
DEFAULT_255_1_388
10
4.441658
20
21.4408581
40
0.5038766
50
359.9483251
51
4.6822857
0
ARC
8
DEFAULT_255_1_388
10
4.4556503
20
21.4360779
40
0.4899031
50
346.1879032
51
0.5059221
0
ARC
8
DEFAULT_255_1_388
10
4.6085295
20
21.3963763
40
0.3319729
50
310.8832219
51
346.5426612
0
ARC
8
DEFAULT_255_1_388
10
4.5738143
20
21.4432853
40
0.3901853
50
286.6925305
51
310.228778
0
ARC
8
DEFAULT_255_1_388
10
4.5097873
20
21.6446585
40
0.6014737
50
274.6848219
51
287.0247342
0
ARC
8
DEFAULT_255_1_388
10
4.4844422
20
21.8931088
40
0.8511785
50
269.8968222
51
275.0192639
0
ARC
8
DEFAULT_255_1_388
10
4.4875415
20
21.6593144
40
0.4755314
50
269.6596206
51
279.4150542
0
ARC
8
DEFAULT_255_1_388
10
4.5164873
20
21.4915945
40
0.3053379
50
279.2050006
51
294.9901776
0
ARC
8
DEFAULT_255_1_388
10
4.5491508
20
21.4187353
40
0.2255036
50
295.2886769
51
311.2912669
0
ARC
8
DEFAULT_255_1_388
10
4.5571249
20
21.4068938
40
0.2113522
50
311.7853512
51
347.2860549
0
ARC
8
DEFAULT_255_1_388
10
4.446441
20
21.435343
40
0.3256011
50
346.6891629
51
0.1057086
0
ARC
8
DEFAULT_255_1_388
10
4.354187
20
21.4386247
40
0.417863
50
359.63239
51
359.9961329
0
ARC
8
DEFAULT_255_1_388
10
4.4706475
20
21.4413987
40
0.3014155
50
359.4673371
51
15.5931159
0
ARC
8
DEFAULT_255_1_388
10
4.5409538
20
21.4603937
40
0.2285918
50
15.7441779
51
46.620186
0
ARC
8
DEFAULT_255_1_388
10
4.5243298
20
21.4412361
40
0.2539359
50
46.8628482
51
75.6676625
0
ARC
8
DEFAULT_255_1_388
10
4.4912354
20
21.3221243
40
0.3775415
50
75.2763152
51
88.2916439
0
ARC
8
DEFAULT_255_1_388
10
4.4846354
20
21.2219097
40
0.4779221
50
87.8589087
51
88.7986197
0
LINE
8
DEFAULT_255_1_388
10
5.9855371
20
20.6633382
11
5.9855371
21
20.5269
0
LINE
8
DEFAULT_255_1_388
10
5.9855371
20
20.5269
11
5.1235366
21
20.5269
0
LINE
8
DEFAULT_255_1_388
10
5.1235366
20
20.5269
11
5.1235366
21
20.6470741
0
LINE
8
DEFAULT_255_1_388
10
5.1235366
20
20.6470741
11
5.5789331
21
21.1530702
0
LINE
8
DEFAULT_255_1_388
10
5.2653962
20
21.4548607
11
5.0982368
21
21.4548607
0
LINE
8
DEFAULT_255_1_388
10
5.6774216
20
21.045546
11
5.3250314
21
20.6633382
0
LINE
8
DEFAULT_255_1_388
10
5.3250314
20
20.6633382
11
5.9855371
21
20.6633382
0
ARC
8
DEFAULT_255_1_388
10
4.061339
20
22.4950983
40
2.0258655
50
318.5132526
51
320.7829045
0
ARC
8
DEFAULT_255_1_388
10
4.6561347
20
22.0109929
40
1.2589638
50
320.7372878
51
323.9739031
0
ARC
8
DEFAULT_255_1_388
10
5.0970279
20
21.6915554
40
0.7145141
50
323.8962701
51
328.64194
0
ARC
8
DEFAULT_255_1_388
10
5.3272536
20
21.5495545
40
0.4440242
50
328.8294576
51
331.7891185
0
ARC
8
DEFAULT_255_1_388
10
5.4394856
20
21.4916374
40
0.3177517
50
331.4254512
51
352.9365785
0
ARC
8
DEFAULT_255_1_388
10
5.4547856
20
21.488205
40
0.3021496
50
353.2257659
51
0.0166158
0
ARC
8
DEFAULT_255_1_388
10
5.4784617
20
21.4907894
40
0.2784847
50
359.486299
51
15.9343185
0
ARC
8
DEFAULT_255_1_388
10
5.5354884
20
21.5061269
40
0.2194403
50
16.1712913
51
43.5286088
0
ARC
8
DEFAULT_255_1_388
10
5.5441828
20
21.5148191
40
0.2071504
50
43.4417391
51
83.1661095
0
ARC
8
DEFAULT_255_1_388
10
5.5290989
20
21.4319316
40
0.2912888
50
82.160179
51
90.1505708
0
ARC
8
DEFAULT_255_1_388
10
5.5255471
20
21.3715279
40
0.3517025
50
89.5460741
51
102.5418361
0
ARC
8
DEFAULT_255_1_388
10
5.4982191
20
21.4874933
40
0.2325748
50
102.1738499
51
129.206123
0
ARC
8
DEFAULT_255_1_388
10
5.4893644
20
21.5014664
40
0.2161591
50
129.72865
51
135.753947
0
ARC
8
DEFAULT_255_1_388
10
5.5030127
20
21.4905728
40
0.2335433
50
136.1757367
51
166.3673339
0
ARC
8
DEFAULT_255_1_388
10
5.6162815
20
21.4602148
40
0.3507873
50
165.9090694
51
178.8684636
0
ARC
8
DEFAULT_255_1_388
10
5.7138586
20
21.4549263
40
0.4484624
50
178.4391136
51
180.0083808
0
ARC
8
DEFAULT_255_1_388
10
5.5559288
20
21.4593197
40
0.4577138
50
163.2878482
51
180.5581842
0
ARC
8
DEFAULT_255_1_388
10
5.4657329
20
21.4841393
40
0.3641968
50
133.4540601
51
162.947111
0
ARC
8
DEFAULT_255_1_388
10
5.4858211
20
21.4627789
40
0.3935189
50
100.7869829
51
133.4382499
0
ARC
8
DEFAULT_255_1_388
10
5.5249456
20
21.2885399
40
0.5720313
50
89.660664
51
101.3702276
0
ARC
8
DEFAULT_255_1_388
10
5.5324065
20
21.2954263
40
0.5651495
50
78.2172678
51
90.412935
0
ARC
8
DEFAULT_255_1_388
10
5.5723531
20
21.4781511
40
0.378122
50
55.9269121
51
78.4888449
0
ARC
8
DEFAULT_255_1_388
10
5.5944246
20
21.5162187
40
0.3342379
50
47.929771
51
55.4049217
0
ARC
8
DEFAULT_255_1_388
10
5.6058776
20
21.5278618
40
0.3179217
50
4.334829
51
48.0560205
0
ARC
8
DEFAULT_255_1_388
10
5.4826578
20
21.5087487
40
0.442341
50
359.9251713
51
5.5971671
0
ARC
8
DEFAULT_255_1_388
10
5.5308732
20
21.5150728
40
0.3941854
50
337.8914027
51
358.9967534
0
ARC
8
DEFAULT_255_1_388
10
5.2256303
20
21.6328295
40
0.7213271
50
326.9132501
51
338.3508308
0
ARC
8
DEFAULT_255_1_388
10
4.7772414
20
21.9202105
40
1.2538973
50
319.6471833
51
327.0959558
0
ARC
8
DEFAULT_255_1_388
10
4.3459073
20
22.276005
40
1.8129975
50
317.2588228
51
319.9045804
0
LINE
8
DEFAULT_255_1_388
10
4.4754094
20
28.9794317
11
4.1654868
21
28.9794317
0
LINE
8
DEFAULT_255_1_388
10
4.1654868
20
28.9794317
11
4.1654868
21
28.4644
0
LINE
8
DEFAULT_255_1_388
10
4.1654868
20
28.4644
11
3.9920024
21
28.4644
0
LINE
8
DEFAULT_255_1_388
10
3.9920024
20
28.4644
11
3.9920024
21
29.7799898
0
LINE
8
DEFAULT_255_1_388
10
3.9920024
20
29.7799898
11
4.4772165
21
29.7799898
0
LINE
8
DEFAULT_255_1_388
10
4.1654868
20
29.6372267
11
4.1654868
21
29.1212914
0
LINE
8
DEFAULT_255_1_388
10
4.1654868
20
29.1212914
11
4.4772165
21
29.1212914
0
LINE
8
DEFAULT_255_1_388
10
4.4871557
20
29.6372267
11
4.1654868
21
29.6372267
0
ARC
8
DEFAULT_255_1_388
10
4.4819538
20
29.0983334
40
0.6816729
50
78.8380084
51
90.398184
0
ARC
8
DEFAULT_255_1_388
10
4.5287569
20
29.3256796
40
0.449571
50
58.9633273
51
79.0810717
0
ARC
8
DEFAULT_255_1_388
10
4.5626953
20
29.3886823
40
0.3781049
50
48.0194715
51
58.4475592
0
ARC
8
DEFAULT_255_1_388
10
4.5726773
20
29.3982818
40
0.3642936
50
3.3374546
51
48.1766642
0
ARC
8
DEFAULT_255_1_388
10
4.434158
20
29.3783581
40
0.5038766
50
359.9483251
51
4.6822857
0
ARC
8
DEFAULT_255_1_388
10
4.4481503
20
29.3735779
40
0.4899031
50
346.1879032
51
0.5059221
0
ARC
8
DEFAULT_255_1_388
10
4.6010295
20
29.3338763
40
0.3319729
50
310.8832219
51
346.5426612
0
ARC
8
DEFAULT_255_1_388
10
4.5663143
20
29.3807853
40
0.3901853
50
286.6925305
51
310.228778
0
ARC
8
DEFAULT_255_1_388
10
4.5022873
20
29.5821585
40
0.6014737
50
274.6848219
51
287.0247342
0
ARC
8
DEFAULT_255_1_388
10
4.4769422
20
29.8306088
40
0.8511785
50
269.8968222
51
275.0192639
0
ARC
8
DEFAULT_255_1_388
10
4.4800415
20
29.5968144
40
0.4755314
50
269.6596206
51
279.4150542
0
ARC
8
DEFAULT_255_1_388
10
4.5089873
20
29.4290945
40
0.3053379
50
279.2050006
51
294.9901776
0
ARC
8
DEFAULT_255_1_388
10
4.5416508
20
29.3562353
40
0.2255036
50
295.2886769
51
311.2912669
0
ARC
8
DEFAULT_255_1_388
10
4.5496249
20
29.3443938
40
0.2113522
50
311.7853512
51
347.2860549
0
ARC
8
DEFAULT_255_1_388
10
4.438941
20
29.372843
40
0.3256011
50
346.6891629
51
0.1057086
0
ARC
8
DEFAULT_255_1_388
10
4.346687
20
29.3761247
40
0.417863
50
359.63239
51
359.9961329
0
ARC
8
DEFAULT_255_1_388
10
4.4631475
20
29.3788987
40
0.3014155
50
359.4673371
51
15.5931159
0
ARC
8
DEFAULT_255_1_388
10
4.5334538
20
29.3978937
40
0.2285918
50
15.7441779
51
46.620186
0
ARC
8
DEFAULT_255_1_388
10
4.5168298
20
29.3787361
40
0.2539359
50
46.8628482
51
75.6676625
0
ARC
8
DEFAULT_255_1_388
10
4.4837354
20
29.2596243
40
0.3775415
50
75.2763152
51
88.2916439
0
ARC
8
DEFAULT_255_1_388
10
4.4771354
20
29.1594097
40
0.4779221
50
87.8589087
51
88.7986197
0
LINE
8
DEFAULT_255_1_388
10
5.6654038
20
29.7863148
11
5.6654038
21
28.4644
0
LINE
8
DEFAULT_255_1_388
10
5.6654038
20
28.4644
11
5.4973408
21
28.4644
0
LINE
8
DEFAULT_255_1_388
10
5.4973408
20
28.4644
11
5.4973408
21
29.578495
0
LINE
8
DEFAULT_255_1_388
10
5.4973408
20
29.578495
11
5.1603112
21
29.4547066
0
LINE
8
DEFAULT_255_1_388
10
5.1603112
20
29.4547066
11
5.1603112
21
29.6065055
0
LINE
8
DEFAULT_255_1_388
10
5.1603112
20
29.6065055
11
5.6392004
21
29.7863148
0
LINE
8
DEFAULT_255_1_388
10
5.6392004
20
29.7863148
11
5.6654038
21
29.7863148
0
LINE
8
DEFAULT_255_1_388
10
4.2427444
20
37.7174898
11
4.5598955
21
37.2133009
0
LINE
8
DEFAULT_255_1_388
10
4.5598955
20
37.2133009
11
4.8752395
21
37.7174898
0
LINE
8
DEFAULT_255_1_388
10
4.8752395
20
37.7174898
11
5.0794451
21
37.7174898
0
LINE
8
DEFAULT_255_1_388
10
5.0794451
20
37.7174898
11
4.6638054
21
37.0651163
0
LINE
8
DEFAULT_255_1_388
10
4.6638054
20
37.0651163
11
5.0893843
21
36.4019
0
LINE
8
DEFAULT_255_1_388
10
5.0893843
20
36.4019
11
4.8833716
21
36.4019
0
LINE
8
DEFAULT_255_1_388
10
4.8833716
20
36.4019
11
4.5598955
21
36.9151246
0
LINE
8
DEFAULT_255_1_388
10
4.5598955
20
36.9151246
11
4.2346123
21
36.4019
0
LINE
8
DEFAULT_255_1_388
10
4.2346123
20
36.4019
11
4.0295032
21
36.4019
0
LINE
8
DEFAULT_255_1_388
10
4.0295032
20
36.4019
11
4.4559856
21
37.0651163
0
LINE
8
DEFAULT_255_1_388
10
4.4559856
20
37.0651163
11
4.0394424
21
37.7174898
0
LINE
8
DEFAULT_255_1_388
10
4.0394424
20
37.7174898
11
4.2427444
21
37.7174898
0
LINE
8
DEFAULT_255_1_388
10
6.1095085
20
36.5383382
11
6.1095085
21
36.4019
0
LINE
8
DEFAULT_255_1_388
10
6.1095085
20
36.4019
11
5.2475081
21
36.4019
0
LINE
8
DEFAULT_255_1_388
10
5.2475081
20
36.4019
11
5.2475081
21
36.5220741
0
LINE
8
DEFAULT_255_1_388
10
5.2475081
20
36.5220741
11
5.7029045
21
37.0280702
0
LINE
8
DEFAULT_255_1_388
10
5.3893677
20
37.3298607
11
5.2222083
21
37.3298607
0
LINE
8
DEFAULT_255_1_388
10
5.8013931
20
36.920546
11
5.4490029
21
36.5383382
0
LINE
8
DEFAULT_255_1_388
10
5.4490029
20
36.5383382
11
6.1095085
21
36.5383382
0
ARC
8
DEFAULT_255_1_388
10
4.1853105
20
38.3700983
40
2.0258655
50
318.5132526
51
320.7829045
0
ARC
8
DEFAULT_255_1_388
10
4.7801062
20
37.8859929
40
1.2589638
50
320.7372878
51
323.9739031
0
ARC
8
DEFAULT_255_1_388
10
5.2209994
20
37.5665554
40
0.7145141
50
323.8962701
51
328.64194
0
ARC
8
DEFAULT_255_1_388
10
5.4512251
20
37.4245545
40
0.4440242
50
328.8294576
51
331.7891185
0
ARC
8
DEFAULT_255_1_388
10
5.5634571
20
37.3666374
40
0.3177517
50
331.4254512
51
352.9365785
0
ARC
8
DEFAULT_255_1_388
10
5.5787571
20
37.363205
40
0.3021496
50
353.2257659
51
0.0166158
0
ARC
8
DEFAULT_255_1_388
10
5.6024332
20
37.3657894
40
0.2784847
50
359.486299
51
15.9343185
0
ARC
8
DEFAULT_255_1_388
10
5.6594599
20
37.3811269
40
0.2194403
50
16.1712913
51
43.5286088
0
ARC
8
DEFAULT_255_1_388
10
5.6681543
20
37.3898191
40
0.2071504
50
43.4417391
51
83.1661095
0
ARC
8
DEFAULT_255_1_388
10
5.6530704
20
37.3069316
40
0.2912888
50
82.160179
51
90.1505708
0
ARC
8
DEFAULT_255_1_388
10
5.6495186
20
37.2465279
40
0.3517025
50
89.5460741
51
102.5418361
0
ARC
8
DEFAULT_255_1_388
10
5.6221906
20
37.3624933
40
0.2325748
50
102.1738499
51
129.206123
0
ARC
8
DEFAULT_255_1_388
10
5.6133359
20
37.3764664
40
0.2161591
50
129.72865
51
135.753947
0
ARC
8
DEFAULT_255_1_388
10
5.6269841
20
37.3655728
40
0.2335433
50
136.1757367
51
166.3673339
0
ARC
8
DEFAULT_255_1_388
10
5.740253
20
37.3352148
40
0.3507873
50
165.9090694
51
178.8684636
0
ARC
8
DEFAULT_255_1_388
10
5.8378301
20
37.3299263
40
0.4484624
50
178.4391136
51
180.0083808
0
ARC
8
DEFAULT_255_1_388
10
5.6799003
20
37.3343197
40
0.4577138
50
163.2878482
51
180.5581842
0
ARC
8
DEFAULT_255_1_388
10
5.5897044
20
37.3591393
40
0.3641968
50
133.4540601
51
162.947111
0
ARC
8
DEFAULT_255_1_388
10
5.6097926
20
37.3377789
40
0.3935189
50
100.7869829
51
133.4382499
0
ARC
8
DEFAULT_255_1_388
10
5.6489171
20
37.1635399
40
0.5720313
50
89.660664
51
101.3702276
0
ARC
8
DEFAULT_255_1_388
10
5.656378
20
37.1704263
40
0.5651495
50
78.2172678
51
90.412935
0
ARC
8
DEFAULT_255_1_388
10
5.6963245
20
37.3531511
40
0.378122
50
55.9269121
51
78.4888449
0
ARC
8
DEFAULT_255_1_388
10
5.7183961
20
37.3912187
40
0.3342379
50
47.929771
51
55.4049217
0
ARC
8
DEFAULT_255_1_388
10
5.7298491
20
37.4028618
40
0.3179217
50
4.334829
51
48.0560205
0
ARC
8
DEFAULT_255_1_388
10
5.6066293
20
37.3837487
40
0.442341
50
359.9251713
51
5.5971671
0
ARC
8
DEFAULT_255_1_388
10
5.6548447
20
37.3900728
40
0.3941854
50
337.8914027
51
358.9967534
0
ARC
8
DEFAULT_255_1_388
10
5.3496017
20
37.5078295
40
0.7213271
50
326.9132501
51
338.3508308
0
ARC
8
DEFAULT_255_1_388
10
4.9012129
20
37.7952105
40
1.2538973
50
319.6471833
51
327.0959558
0
ARC
8
DEFAULT_255_1_388
10
4.4698787
20
38.151005
40
1.8129975
50
317.2588228
51
319.9045804
0
LINE
8
DEFAULT_255_1_388
10
4.2348444
20
45.6549898
11
4.5519955
21
45.1508009
0
LINE
8
DEFAULT_255_1_388
10
4.5519955
20
45.1508009
11
4.8673395
21
45.6549898
0
LINE
8
DEFAULT_255_1_388
10
4.8673395
20
45.6549898
11
5.0715451
21
45.6549898
0
LINE
8
DEFAULT_255_1_388
10
5.0715451
20
45.6549898
11
4.6559054
21
45.0026163
0
LINE
8
DEFAULT_255_1_388
10
4.6559054
20
45.0026163
11
5.0814843
21
44.3394
0
LINE
8
DEFAULT_255_1_388
10
5.0814843
20
44.3394
11
4.8754716
21
44.3394
0
LINE
8
DEFAULT_255_1_388
10
4.8754716
20
44.3394
11
4.5519955
21
44.8526246
0
LINE
8
DEFAULT_255_1_388
10
4.5519955
20
44.8526246
11
4.2267123
21
44.3394
0
LINE
8
DEFAULT_255_1_388
10
4.2267123
20
44.3394
11
4.0216032
21
44.3394
0
LINE
8
DEFAULT_255_1_388
10
4.0216032
20
44.3394
11
4.4480856
21
45.0026163
0
LINE
8
DEFAULT_255_1_388
10
4.4480856
20
45.0026163
11
4.0315424
21
45.6549898
0
LINE
8
DEFAULT_255_1_388
10
4.0315424
20
45.6549898
11
4.2348444
21
45.6549898
0
LINE
8
DEFAULT_255_1_388
10
5.7889752
20
45.6613148
11
5.7889752
21
44.3394
0
LINE
8
DEFAULT_255_1_388
10
5.7889752
20
44.3394
11
5.6209123
21
44.3394
0
LINE
8
DEFAULT_255_1_388
10
5.6209123
20
44.3394
11
5.6209123
21
45.453495
0
LINE
8
DEFAULT_255_1_388
10
5.6209123
20
45.453495
11
5.2838827
21
45.3297066
0
LINE
8
DEFAULT_255_1_388
10
5.2838827
20
45.3297066
11
5.2838827
21
45.4815055
0
LINE
8
DEFAULT_255_1_388
10
5.2838827
20
45.4815055
11
5.7627719
21
45.6613148
0
LINE
8
DEFAULT_255_1_388
10
5.7627719
20
45.6613148
11
5.7889752
21
45.6613148
0
LINE
8
DEFAULT_255_1_388
10
23.0074024
20
53.5924898
11
23.2314864
21
53.5924898
0
LINE
8
DEFAULT_255_1_388
10
23.2314864
20
53.5924898
11
23.6615831
21
52.5190553
0
LINE
8
DEFAULT_255_1_388
10
23.6615831
20
52.5190553
11
24.0916797
21
53.5924898
0
LINE
8
DEFAULT_255_1_388
10
24.0916797
20
53.5924898
11
24.3166673
21
53.5924898
0
LINE
8
DEFAULT_255_1_388
10
24.3166673
20
53.5924898
11
24.3166673
21
52.2769
0
LINE
8
DEFAULT_255_1_388
10
24.3166673
20
52.2769
11
24.1431829
21
52.2769
0
LINE
8
DEFAULT_255_1_388
10
24.1431829
20
52.2769
11
24.1431829
21
52.789221
0
LINE
8
DEFAULT_255_1_388
10
24.1431829
20
52.789221
11
24.1594471
21
53.3422025
0
LINE
8
DEFAULT_255_1_388
10
24.1594471
20
53.3422025
11
23.7275433
21
52.2769
0
LINE
8
DEFAULT_255_1_388
10
23.7275433
20
52.2769
11
23.5947193
21
52.2769
0
LINE
8
DEFAULT_255_1_388
10
23.5947193
20
52.2769
11
23.163719
21
53.3394918
0
LINE
8
DEFAULT_255_1_388
10
23.163719
20
53.3394918
11
23.1808868
21
52.789221
0
LINE
8
DEFAULT_255_1_388
10
23.1808868
20
52.789221
11
23.1808868
21
52.2769
0
LINE
8
DEFAULT_255_1_388
10
23.1808868
20
52.2769
11
23.0074024
21
52.2769
0
LINE
8
DEFAULT_255_1_388
10
23.0074024
20
52.2769
11
23.0074024
21
53.5924898
0
ENDSEC
0
EOF