0
SECTION
2
HEADER
9
$MEASUREMENT
70
1
0
ENDSEC
0
SECTION
2
TABLES
0
TABLE
2
LTYPE
0
LTYPE
72
65
70
64
2
CONTINUOUS
3
______
73
0
40
0
0
ENDTAB
0
TABLE
2
LAYER
0
LAYER
2
DEFAULT_255_2_778
70
0
62
255
6
CONTINUOUS
0
ENDTAB
0
ENDSEC
0
SECTION
2
ENTITIES
0
LINE
8
DEFAULT_255_2_778
10
49.7281403
20
162.7514352
11
49.8281403
21
162.7514352
0
LINE
8
DEFAULT_255_2_778
10
49.8281403
20
162.7514352
11
49.8281403
21
-0.2562648
0
LINE
8
DEFAULT_255_2_778
10
49.8281403
20
-0.2562648
11
0.1780403
21
-0.2562648
0
LINE
8
DEFAULT_255_2_778
10
0.1780403
20
-0.2562648
11
0.1780403
21
162.7514352
0
LINE
8
DEFAULT_255_2_778
10
0.1780403
20
162.7514352
11
0.2280403
21
162.7514352
0
LINE
8
DEFAULT_255_2_778
10
7.5030403
20
157.2555648
11
7.5030403
21
156.8086648
0
LINE
8
DEFAULT_255_2_778
10
7.5030403
20
156.8086648
11
5.5030403
21
156.8086648
0
LINE
8
DEFAULT_255_2_778
10
5.5030403
20
156.8086648
11
5.5030403
21
157.2555648
0
LINE
8
DEFAULT_255_2_778
10
19.7529403
20
263.1137648
11
15.1532403
21
263.1137648
0
LINE
8
DEFAULT_255_2_778
10
15.1532403
20
263.1137648
11
15.1532403
21
260.0135648
0
LINE
8
DEFAULT_255_2_778
10
15.1532403
20
260.0135648
11
14.3030403
21
260.0135648
0
LINE
8
DEFAULT_255_2_778
10
14.3030403
20
260.0135648
11
14.3030403
21
210.6134648
0
LINE
8
DEFAULT_255_2_778
10
14.3030403
20
210.6134648
11
15.1532403
21
210.6134648
0
LINE
8
DEFAULT_255_2_778
10
15.1532403
20
210.6134648
11
15.1532403
21
207.5133648
0
LINE
8
DEFAULT_255_2_778
10
15.1532403
20
207.5133648
11
19.7532403
21
207.5133648
0
LINE
8
DEFAULT_255_2_778
10
19.7532403
20
207.5133648
11
19.7532403
21
210.6134648
0
LINE
8
DEFAULT_255_2_778
10
19.7532403
20
210.6134648
11
20.6033403
21
210.6134648
0
LINE
8
DEFAULT_255_2_778
10
20.6033403
20
210.6134648
11
20.6033403
21
260.0135648
0
LINE
8
DEFAULT_255_2_778
10
20.6033403
20
260.0135648
11
19.7532403
21
260.0135648
0
LINE
8
DEFAULT_255_2_778
10
19.7532403
20
260.0135648
11
19.7532403
21
263.1137648
0
LINE
8
DEFAULT_255_2_778
10
7.5030403
20
160.7519648
11
0.8701403
21
160.7514648
0
LINE
8
DEFAULT_255_2_778
10
0.8701403
20
160.7514648
11
0.8701403
21
159.2578648
0
LINE
8
DEFAULT_255_2_778
10
0.8701403
20
159.2578648
11
0.8781403
21
159.2578648
0
LINE
8
DEFAULT_255_2_778
10
0.8781403
20
159.2578648
11
0.8781403
21
157.2578648
0
LINE
8
DEFAULT_255_2_778
10
0.8781403
20
157.2578648
11
1.2390403
21
157.2634648
0
LINE
8
DEFAULT_255_2_778
10
1.2390403
20
157.2634648
11
1.2615403
21
157.3319648
0
LINE
8
DEFAULT_255_2_778
10
1.2615403
20
157.3319648
11
1.2789403
21
157.4412648
0
LINE
8
DEFAULT_255_2_778
10
1.2789403
20
157.4412648
11
1.2861403
21
157.5050648
0
LINE
8
DEFAULT_255_2_778
10
1.2861403
20
157.5050648
11
1.2937403
21
157.5920648
0
LINE
8
DEFAULT_255_2_778
10
1.2937403
20
157.5920648
11
1.2982403
21
157.6560648
0
LINE
8
DEFAULT_255_2_778
10
1.2982403
20
157.6560648
11
1.2964403
21
161.3837648
0
LINE
8
DEFAULT_255_2_778
10
1.2964403
20
161.3837648
11
1.2892403
21
161.4745648
0
LINE
8
DEFAULT_255_2_778
10
1.2892403
20
161.4745648
11
1.2789403
21
161.5727648
0
LINE
8
DEFAULT_255_2_778
10
1.2789403
20
161.5727648
11
1.2535403
21
161.7134648
0
LINE
8
DEFAULT_255_2_778
10
1.2535403
20
161.7134648
11
1.2228403
21
161.7539648
0
LINE
8
DEFAULT_255_2_778
10
1.2228403
20
161.7539648
11
1.1943403
21
161.6766648
0
LINE
8
DEFAULT_255_2_778
10
1.1943403
20
161.6766648
11
1.1824403
21
161.6060648
0
LINE
8
DEFAULT_255_2_778
10
1.1824403
20
161.6060648
11
1.1715403
21
161.5152648
0
LINE
8
DEFAULT_255_2_778
10
1.1715403
20
161.5152648
11
1.1638403
21
161.4290648
0
LINE
8
DEFAULT_255_2_778
10
1.1638403
20
161.4290648
11
1.1570403
21
161.3324648
0
LINE
8
DEFAULT_255_2_778
10
1.1570403
20
161.3324648
11
1.1527403
21
161.2544648
0
LINE
8
DEFAULT_255_2_778
10
1.1527403
20
161.2544648
11
1.1490403
21
161.1723648
0
LINE
8
DEFAULT_255_2_778
10
1.1490403
20
161.1723648
11
1.1461403
21
161.0866648
0
LINE
8
DEFAULT_255_2_778
10
1.1461403
20
161.0866648
11
1.1437403
21
160.9982648
0
LINE
8
DEFAULT_255_2_778
10
1.1437403
20
160.9982648
11
1.1413403
21
160.8152648
0
LINE
8
DEFAULT_255_2_778
10
1.1413403
20
160.8152648
11
1.1411403
21
160.7530648
0
LINE
8
DEFAULT_255_2_778
10
49.1280403
20
159.2578648
11
49.1201403
21
159.2578648
0
LINE
8
DEFAULT_255_2_778
10
49.1201403
20
159.2578648
11
49.1201403
21
157.2578648
0
LINE
8
DEFAULT_255_2_778
10
49.1201403
20
157.2578648
11
48.7592403
21
157.2634648
0
LINE
8
DEFAULT_255_2_778
10
48.7592403
20
157.2634648
11
48.7367403
21
157.3319648
0
LINE
8
DEFAULT_255_2_778
10
48.7367403
20
157.3319648
11
48.7193403
21
157.4412648
0
LINE
8
DEFAULT_255_2_778
10
48.7193403
20
157.4412648
11
48.7108403
21
157.5187648
0
LINE
8
DEFAULT_255_2_778
10
48.7108403
20
157.5187648
11
48.7044403
21
157.5920648
0
LINE
8
DEFAULT_255_2_778
10
48.7044403
20
157.5920648
11
48.6999403
21
157.6560648
0
LINE
8
DEFAULT_255_2_778
10
48.6999403
20
157.6560648
11
48.7018403
21
161.3837648
0
LINE
8
DEFAULT_255_2_778
10
48.7018403
20
161.3837648
11
48.7089403
21
161.4745648
0
LINE
8
DEFAULT_255_2_778
10
48.7089403
20
161.4745648
11
48.7193403
21
161.5727648
0
LINE
8
DEFAULT_255_2_778
10
48.7193403
20
161.5727648
11
48.7447403
21
161.7134648
0
LINE
8
DEFAULT_255_2_778
10
48.7447403
20
161.7134648
11
48.7753403
21
161.7539648
0
LINE
8
DEFAULT_255_2_778
10
48.7753403
20
161.7539648
11
48.8039403
21
161.6766648
0
LINE
8
DEFAULT_255_2_778
10
48.8039403
20
161.6766648
11
48.8158403
21
161.6060648
0
LINE
8
DEFAULT_255_2_778
10
48.8158403
20
161.6060648
11
48.8267403
21
161.5152648
0
LINE
8
DEFAULT_255_2_778
10
48.8267403
20
161.5152648
11
48.8343403
21
161.4290648
0
LINE
8
DEFAULT_255_2_778
10
48.8343403
20
161.4290648
11
48.8412403
21
161.3324648
0
LINE
8
DEFAULT_255_2_778
10
48.8412403
20
161.3324648
11
48.8455403
21
161.2544648
0
LINE
8
DEFAULT_255_2_778
10
48.8455403
20
161.2544648
11
48.8492403
21
161.1723648
0
LINE
8
DEFAULT_255_2_778
10
48.8492403
20
161.1723648
11
48.8521403
21
161.0866648
0
LINE
8
DEFAULT_255_2_778
10
48.8521403
20
161.0866648
11
48.8545403
21
160.9982648
0
LINE
8
DEFAULT_255_2_778
10
48.8545403
20
160.9982648
11
48.8568403
21
160.8152648
0
LINE
8
DEFAULT_255_2_778
10
48.8568403
20
160.8152648
11
48.8571403
21
160.7530648
0
LINE
8
DEFAULT_255_2_778
10
0.2280403
20
289.7437648
11
49.7281403
21
289.7437648
0
LINE
8
DEFAULT_255_2_778
10
49.7281403
20
289.7437648
11
49.7281403
21
162.7437648
0
LINE
8
DEFAULT_255_2_778
10
49.7281403
20
162.7437648
11
0.2280403
21
162.7437648
0
LINE
8
DEFAULT_255_2_778
10
0.2280403
20
162.7437648
11
0.2280403
21
289.7437648
0
LINE
8
DEFAULT_255_2_778
10
0.1780403
20
159.2583648
11
0.8701403
21
159.2583648
0
LINE
8
DEFAULT_255_2_778
10
49.8281403
20
161.7436648
11
48.7830403
21
161.7436648
0
LINE
8
DEFAULT_255_2_778
10
1.2152423
20
161.7436041
11
0.1780423
21
161.7436041
0
LINE
8
DEFAULT_255_2_778
10
44.5031423
20
156.8086041
11
44.5031423
21
157.2555041
0
LINE
8
DEFAULT_255_2_778
10
42.5032736
20
157.2554857
11
42.5032736
21
156.8085857
0
LINE
8
DEFAULT_255_2_778
10
42.5032736
20
156.8085857
11
49.8282736
21
156.8085857
0
LINE
8
DEFAULT_255_2_778
10
48.7698736
20
161.7554857
11
1.2279736
21
161.7554857
0
LINE
8
DEFAULT_255_2_778
10
48.6825736
20
160.7548857
11
1.3155736
21
160.7548857
0
LINE
8
DEFAULT_255_2_778
10
48.6828736
20
158.2547857
11
1.3155736
21
158.2547857
0
LINE
8
DEFAULT_255_2_778
10
1.2279736
20
157.2554857
11
48.7701736
21
157.2554857
0
LINE
8
DEFAULT_255_2_778
10
10.2171736
20
288.1757857
11
10.0242736
21
288.1757857
0
LINE
8
DEFAULT_255_2_778
10
10.0242736
20
288.1757857
11
9.6170736
21
287.9143857
0
LINE
8
DEFAULT_255_2_778
10
9.6170736
20
287.9143857
11
9.6170736
21
287.7024857
0
LINE
8
DEFAULT_255_2_778
10
9.6170736
20
287.7024857
11
9.9306736
21
287.8670857
0
LINE
8
DEFAULT_255_2_778
10
9.9306736
20
287.8670857
11
9.9893736
21
287.9133857
0
LINE
8
DEFAULT_255_2_778
10
9.9893736
20
287.9133857
11
9.9893736
21
286.4856857
0
LINE
8
DEFAULT_255_2_778
10
9.9893736
20
286.4856857
11
10.2171736
21
286.4856857
0
LINE
8
DEFAULT_255_2_778
10
10.2171736
20
286.4856857
11
10.2171736
21
288.1757857
0
LINE
8
DEFAULT_255_2_778
10
19.5424736
20
288.1855857
11
19.4050736
21
288.1855857
0
LINE
8
DEFAULT_255_2_778
10
19.4050736
20
288.1855857
11
18.8640736
21
286.3578857
0
LINE
8
DEFAULT_255_2_778
10
18.8640736
20
286.3578857
11
19.0013736
21
286.3578857
0
LINE
8
DEFAULT_255_2_778
10
19.0013736
20
286.3578857
11
19.5424736
21
288.1855857
0
LINE
8
DEFAULT_255_2_778
10
13.5974736
20
287.7434857
11
13.3770736
21
287.7434857
0
LINE
8
DEFAULT_255_2_778
10
13.3770736
20
287.7434857
11
13.3797736
21
287.8037857
0
LINE
8
DEFAULT_255_2_778
10
13.3797736
20
287.8037857
11
13.3839736
21
287.8339857
0
LINE
8
DEFAULT_255_2_778
10
13.3839736
20
287.8339857
11
13.3940736
21
287.8786857
0
LINE
8
DEFAULT_255_2_778
10
13.3940736
20
287.8786857
11
13.4141736
21
287.9360857
0
LINE
8
DEFAULT_255_2_778
10
13.4141736
20
287.9360857
11
13.4509736
21
288.0024857
0
LINE
8
DEFAULT_255_2_778
10
13.4509736
20
288.0024857
11
13.5226736
21
288.0805857
0
LINE
8
DEFAULT_255_2_778
10
13.5226736
20
288.0805857
11
13.6660736
21
288.1649857
0
LINE
8
DEFAULT_255_2_778
10
13.6660736
20
288.1649857
11
13.8427736
21
288.2059857
0
LINE
8
DEFAULT_255_2_778
10
13.8427736
20
288.2059857
11
14.1290736
21
288.1892857
0
LINE
8
DEFAULT_255_2_778
10
14.1290736
20
288.1892857
11
14.2970736
21
288.1207857
0
LINE
8
DEFAULT_255_2_778
10
14.2970736
20
288.1207857
11
14.3920736
21
288.0450857
0
LINE
8
DEFAULT_255_2_778
10
14.3920736
20
288.0450857
11
14.4465736
21
287.9723857
0
LINE
8
DEFAULT_255_2_778
10
14.4465736
20
287.9723857
11
14.4724736
21
287.9172857
0
LINE
8
DEFAULT_255_2_778
10
14.4724736
20
287.9172857
11
14.4859736
21
287.8738857
0
LINE
8
DEFAULT_255_2_778
10
14.4859736
20
287.8738857
11
14.4920736
21
287.8442857
0
LINE
8
DEFAULT_255_2_778
10
14.4920736
20
287.8442857
11
14.4915736
21
287.6775857
0
LINE
8
DEFAULT_255_2_778
10
14.4915736
20
287.6775857
11
14.4811736
21
287.6331857
0
LINE
8
DEFAULT_255_2_778
10
14.4811736
20
287.6331857
11
14.4597736
21
287.5762857
0
LINE
8
DEFAULT_255_2_778
10
14.4597736
20
287.5762857
11
14.4211736
21
287.5108857
0
LINE
8
DEFAULT_255_2_778
10
14.4211736
20
287.5108857
11
14.3364736
21
287.4243857
0
LINE
8
DEFAULT_255_2_778
10
14.3364736
20
287.4243857
11
14.2192736
21
287.3553857
0
LINE
8
DEFAULT_255_2_778
10
14.2192736
20
287.3553857
11
14.3290736
21
287.3158857
0
LINE
8
DEFAULT_255_2_778
10
14.3290736
20
287.3158857
11
14.4105736
21
287.2595857
0
LINE
8
DEFAULT_255_2_778
10
14.4105736
20
287.2595857
11
14.4639736
21
287.2015857
0
LINE
8
DEFAULT_255_2_778
10
14.4639736
20
287.2015857
11
14.4946736
21
287.1518857
0
LINE
8
DEFAULT_255_2_778
10
14.4946736
20
287.1518857
11
14.5100736
21
287.1161857
0
LINE
8
DEFAULT_255_2_778
10
14.5100736
20
287.1161857
11
14.5214736
21
287.0788857
0
LINE
8
DEFAULT_255_2_778
10
14.5214736
20
287.0788857
11
14.5290736
21
287.0401857
0
LINE
8
DEFAULT_255_2_778
10
14.5290736
20
287.0401857
11
14.5280736
21
286.8639857
0
LINE
8
DEFAULT_255_2_778
10
14.5280736
20
286.8639857
11
14.5206736
21
286.8258857
0
LINE
8
DEFAULT_255_2_778
10
14.5206736
20
286.8258857
11
14.5100736
21
286.7883857
0
LINE
8
DEFAULT_255_2_778
10
14.5100736
20
286.7883857
11
14.4886736
21
286.7338857
0
LINE
8
DEFAULT_255_2_778
10
14.4886736
20
286.7338857
11
14.4602736
21
286.6824857
0
LINE
8
DEFAULT_255_2_778
10
14.4602736
20
286.6824857
11
14.4118736
21
286.6210857
0
LINE
8
DEFAULT_255_2_778
10
14.4118736
20
286.6210857
11
14.3213736
21
286.5467857
0
LINE
8
DEFAULT_255_2_778
10
14.3213736
20
286.5467857
11
14.1800736
21
286.4816857
0
LINE
8
DEFAULT_255_2_778
10
14.1800736
20
286.4816857
11
13.9493736
21
286.4470857
0
LINE
8
DEFAULT_255_2_778
10
13.9493736
20
286.4470857
11
13.7559736
21
286.4681857
0
LINE
8
DEFAULT_255_2_778
10
13.7559736
20
286.4681857
11
13.6115736
21
286.5263857
0
LINE
8
DEFAULT_255_2_778
10
13.6115736
20
286.5263857
11
13.5017736
21
286.6073857
0
LINE
8
DEFAULT_255_2_778
10
13.5017736
20
286.6073857
11
13.4368736
21
286.6800857
0
LINE
8
DEFAULT_255_2_778
10
13.4368736
20
286.6800857
11
13.3950736
21
286.7459857
0
LINE
8
DEFAULT_255_2_778
10
13.3950736
20
286.7459857
11
13.3627736
21
286.8171857
0
LINE
8
DEFAULT_255_2_778
10
13.3627736
20
286.8171857
11
13.3448736
21
286.8729857
0
LINE
8
DEFAULT_255_2_778
10
13.3448736
20
286.8729857
11
13.3358736
21
286.9108857
0
LINE
8
DEFAULT_255_2_778
10
13.3358736
20
286.9108857
11
13.3289736
21
286.9491857
0
LINE
8
DEFAULT_255_2_778
10
13.3289736
20
286.9491857
11
13.5615736
21
286.9491857
0
LINE
8
DEFAULT_255_2_778
10
13.5615736
20
286.9491857
11
13.5800736
21
286.8885857
0
LINE
8
DEFAULT_255_2_778
10
13.5800736
20
286.8885857
11
13.6183736
21
286.8126857
0
LINE
8
DEFAULT_255_2_778
10
13.6183736
20
286.8126857
11
13.6993736
21
286.7205857
0
LINE
8
DEFAULT_255_2_778
10
13.6993736
20
286.7205857
11
13.8181736
21
286.6570857
0
LINE
8
DEFAULT_255_2_778
10
13.8181736
20
286.6570857
11
14.0152736
21
286.6441857
0
LINE
8
DEFAULT_255_2_778
10
14.0152736
20
286.6441857
11
14.1541736
21
286.6935857
0
LINE
8
DEFAULT_255_2_778
10
14.1541736
20
286.6935857
11
14.2388736
21
286.7660857
0
LINE
8
DEFAULT_255_2_778
10
14.2388736
20
286.7660857
11
14.2787736
21
286.8285857
0
LINE
8
DEFAULT_255_2_778
10
14.2787736
20
286.8285857
11
14.2962736
21
286.8748857
0
LINE
8
DEFAULT_255_2_778
10
14.2962736
20
286.8748857
11
14.3041736
21
286.9113857
0
LINE
8
DEFAULT_255_2_778
10
14.3041736
20
286.9113857
11
14.3025736
21
287.0116857
0
LINE
8
DEFAULT_255_2_778
10
14.3025736
20
287.0116857
11
14.2933736
21
287.0486857
0
LINE
8
DEFAULT_255_2_778
10
14.2933736
20
287.0486857
11
14.2740736
21
287.0954857
0
LINE
8
DEFAULT_255_2_778
10
14.2740736
20
287.0954857
11
14.2308736
21
287.1560857
0
LINE
8
DEFAULT_255_2_778
10
14.2308736
20
287.1560857
11
14.1393736
21
287.2164857
0
LINE
8
DEFAULT_255_2_778
10
14.1393736
20
287.2164857
11
13.8485736
21
287.2624857
0
LINE
8
DEFAULT_255_2_778
10
13.8485736
20
287.2624857
11
13.8107736
21
287.2590857
0
LINE
8
DEFAULT_255_2_778
10
13.8107736
20
287.2590857
11
13.8107736
21
287.4492857
0
LINE
8
DEFAULT_255_2_778
10
13.8107736
20
287.4492857
11
14.0819736
21
287.4873857
0
LINE
8
DEFAULT_255_2_778
10
14.0819736
20
287.4873857
11
14.2012736
21
287.5664857
0
LINE
8
DEFAULT_255_2_778
10
14.2012736
20
287.5664857
11
14.2478736
21
287.6339857
0
LINE
8
DEFAULT_255_2_778
10
14.2478736
20
287.6339857
11
14.2655736
21
287.6823857
0
LINE
8
DEFAULT_255_2_778
10
14.2655736
20
287.6823857
11
14.2716736
21
287.7127857
0
LINE
8
DEFAULT_255_2_778
10
14.2716736
20
287.7127857
11
14.2697736
21
287.7955857
0
LINE
8
DEFAULT_255_2_778
10
14.2697736
20
287.7955857
11
14.2592736
21
287.8357857
0
LINE
8
DEFAULT_255_2_778
10
14.2592736
20
287.8357857
11
14.2314736
21
287.8913857
0
LINE
8
DEFAULT_255_2_778
10
14.2314736
20
287.8913857
11
14.1507736
21
287.9715857
0
LINE
8
DEFAULT_255_2_778
10
14.1507736
20
287.9715857
11
13.9242736
21
288.0278857
0
LINE
8
DEFAULT_255_2_778
10
13.9242736
20
288.0278857
11
13.7453736
21
287.9852857
0
LINE
8
DEFAULT_255_2_778
10
13.7453736
20
287.9852857
11
13.6493736
21
287.9067857
0
LINE
8
DEFAULT_255_2_778
10
13.6493736
20
287.9067857
11
13.6186736
21
287.8553857
0
LINE
8
DEFAULT_255_2_778
10
13.6186736
20
287.8553857
11
13.6059736
21
287.8175857
0
LINE
8
DEFAULT_255_2_778
10
13.6059736
20
287.8175857
11
13.6003736
21
287.7871857
0
LINE
8
DEFAULT_255_2_778
10
13.6003736
20
287.7871857
11
13.5977736
21
287.7545857
0
LINE
8
DEFAULT_255_2_778
10
13.5977736
20
287.7545857
11
13.5974736
21
287.7431857
0
LINE
8
DEFAULT_255_2_778
10
5.3157736
20
288.1855857
11
5.3178736
21
287.0671857
0
LINE
8
DEFAULT_255_2_778
10
5.3178736
20
287.0671857
11
5.3194736
21
287.0399857
0
LINE
8
DEFAULT_255_2_778
10
5.3194736
20
287.0399857
11
5.3218736
21
287.0126857
0
LINE
8
DEFAULT_255_2_778
10
5.3218736
20
287.0126857
11
5.3250736
21
286.9854857
0
LINE
8
DEFAULT_255_2_778
10
5.3250736
20
286.9854857
11
5.3292736
21
286.9581857
0
LINE
8
DEFAULT_255_2_778
10
5.3292736
20
286.9581857
11
5.3408736
21
286.9039857
0
LINE
8
DEFAULT_255_2_778
10
5.3408736
20
286.9039857
11
5.3567736
21
286.8504857
0
LINE
8
DEFAULT_255_2_778
10
5.3567736
20
286.8504857
11
5.3768736
21
286.7986857
0
LINE
8
DEFAULT_255_2_778
10
5.3768736
20
286.7986857
11
5.4014736
21
286.7488857
0
LINE
8
DEFAULT_255_2_778
10
5.4014736
20
286.7488857
11
5.4467736
21
286.6800857
0
LINE
8
DEFAULT_255_2_778
10
5.4467736
20
286.6800857
11
5.5020736
21
286.6200857
0
LINE
8
DEFAULT_255_2_778
10
5.5020736
20
286.6200857
11
5.5896736
21
286.5549857
0
LINE
8
DEFAULT_255_2_778
10
5.5896736
20
286.5549857
11
5.7152736
21
286.4959857
0
LINE
8
DEFAULT_255_2_778
10
5.7152736
20
286.4959857
11
5.8782736
21
286.4549857
0
LINE
8
DEFAULT_255_2_778
10
5.8782736
20
286.4549857
11
6.0438736
21
286.4456857
0
LINE
8
DEFAULT_255_2_778
10
6.0438736
20
286.4456857
11
6.1798736
21
286.4652857
0
LINE
8
DEFAULT_255_2_778
10
6.1798736
20
286.4652857
11
6.3105736
21
286.5123857
0
LINE
8
DEFAULT_255_2_778
10
6.3105736
20
286.5123857
11
6.4076736
21
286.5697857
0
LINE
8
DEFAULT_255_2_778
10
6.4076736
20
286.5697857
11
6.4936736
21
286.6425857
0
LINE
8
DEFAULT_255_2_778
10
6.4936736
20
286.6425857
11
6.5484736
21
286.7057857
0
LINE
8
DEFAULT_255_2_778
10
6.5484736
20
286.7057857
11
6.5791736
21
286.7515857
0
LINE
8
DEFAULT_255_2_778
10
6.5791736
20
286.7515857
11
6.6045736
21
286.7996857
0
LINE
8
DEFAULT_255_2_778
10
6.6045736
20
286.7996857
11
6.6243736
21
286.8502857
0
LINE
8
DEFAULT_255_2_778
10
6.6243736
20
286.8502857
11
6.6392736
21
286.9023857
0
LINE
8
DEFAULT_255_2_778
10
6.6392736
20
286.9023857
11
6.6497736
21
286.9560857
0
LINE
8
DEFAULT_255_2_778
10
6.6497736
20
286.9560857
11
6.6537736
21
286.9833857
0
LINE
8
DEFAULT_255_2_778
10
6.6537736
20
286.9833857
11
6.6569736
21
287.0108857
0
LINE
8
DEFAULT_255_2_778
10
6.6569736
20
287.0108857
11
6.6595736
21
287.0383857
0
LINE
8
DEFAULT_255_2_778
10
6.6595736
20
287.0383857
11
6.6632736
21
287.0936857
0
LINE
8
DEFAULT_255_2_778
10
6.6632736
20
287.0936857
11
6.6648736
21
288.1853857
0
LINE
8
DEFAULT_255_2_778
10
6.6648736
20
288.1853857
11
6.4336736
21
288.1853857
0
LINE
8
DEFAULT_255_2_778
10
6.4336736
20
288.1853857
11
6.4317736
21
287.1163857
0
LINE
8
DEFAULT_255_2_778
10
6.4317736
20
287.1163857
11
6.4304736
21
287.0936857
0
LINE
8
DEFAULT_255_2_778
10
6.4304736
20
287.0936857
11
6.4285736
21
287.0708857
0
LINE
8
DEFAULT_255_2_778
10
6.4285736
20
287.0708857
11
6.4259736
21
287.0481857
0
LINE
8
DEFAULT_255_2_778
10
6.4259736
20
287.0481857
11
6.4225736
21
287.0256857
0
LINE
8
DEFAULT_255_2_778
10
6.4225736
20
287.0256857
11
6.4124736
21
286.9806857
0
LINE
8
DEFAULT_255_2_778
10
6.4124736
20
286.9806857
11
6.3981736
21
286.9362857
0
LINE
8
DEFAULT_255_2_778
10
6.3981736
20
286.9362857
11
6.3693736
21
286.8716857
0
LINE
8
DEFAULT_255_2_778
10
6.3693736
20
286.8716857
11
6.3320736
21
286.8113857
0
LINE
8
DEFAULT_255_2_778
10
6.3320736
20
286.8113857
11
6.2865736
21
286.7573857
0
LINE
8
DEFAULT_255_2_778
10
6.2865736
20
286.7573857
11
6.2145736
21
286.6980857
0
LINE
8
DEFAULT_255_2_778
10
6.2145736
20
286.6980857
11
6.1306736
21
286.6576857
0
LINE
8
DEFAULT_255_2_778
10
6.1306736
20
286.6576857
11
6.0386736
21
286.6375857
0
LINE
8
DEFAULT_255_2_778
10
6.0386736
20
286.6375857
11
5.9203736
21
286.6412857
0
LINE
8
DEFAULT_255_2_778
10
5.9203736
20
286.6412857
11
5.8298736
21
286.6671857
0
LINE
8
DEFAULT_255_2_778
10
5.8298736
20
286.6671857
11
5.7486736
21
286.7129857
0
LINE
8
DEFAULT_255_2_778
10
5.7486736
20
286.7129857
11
5.6795736
21
286.7761857
0
LINE
8
DEFAULT_255_2_778
10
5.6795736
20
286.7761857
11
5.6367736
21
286.8322857
0
LINE
8
DEFAULT_255_2_778
10
5.6367736
20
286.8322857
11
5.6020736
21
286.8938857
0
LINE
8
DEFAULT_255_2_778
10
5.6020736
20
286.8938857
11
5.5837736
21
286.9370857
0
LINE
8
DEFAULT_255_2_778
10
5.5837736
20
286.9370857
11
5.5697736
21
286.9811857
0
LINE
8
DEFAULT_255_2_778
10
5.5697736
20
286.9811857
11
5.5599736
21
287.0259857
0
LINE
8
DEFAULT_255_2_778
10
5.5599736
20
287.0259857
11
5.5565736
21
287.0483857
0
LINE
8
DEFAULT_255_2_778
10
5.5565736
20
287.0483857
11
5.5538736
21
287.0708857
0
LINE
8
DEFAULT_255_2_778
10
5.5538736
20
287.0708857
11
5.5517736
21
287.0936857
0
LINE
8
DEFAULT_255_2_778
10
5.5517736
20
287.0936857
11
5.5493736
21
287.1391857
0
LINE
8
DEFAULT_255_2_778
10
5.5493736
20
287.1391857
11
5.5485736
21
288.1853857
0
LINE
8
DEFAULT_255_2_778
10
5.5485736
20
288.1853857
11
5.3160736
21
288.1853857
0
LINE
8
DEFAULT_255_2_778
10
13.0363736
20
287.2047857
11
12.4507736
21
287.2047857
0
LINE
8
DEFAULT_255_2_778
10
12.4507736
20
287.2047857
11
12.4507736
21
287.0444857
0
LINE
8
DEFAULT_255_2_778
10
12.4507736
20
287.0444857
11
13.0363736
21
287.0444857
0
LINE
8
DEFAULT_255_2_778
10
13.0363736
20
287.0444857
11
13.0363736
21
287.2047857
0
LINE
8
DEFAULT_255_2_778
10
3.2604698
20
287.7350531
11
3.4991698
21
287.7350531
0
LINE
8
DEFAULT_255_2_778
10
3.4991698
20
287.7350531
11
3.4980698
21
287.7818531
0
LINE
8
DEFAULT_255_2_778
10
3.4980698
20
287.7818531
11
3.4954698
21
287.8051531
0
LINE
8
DEFAULT_255_2_778
10
3.4954698
20
287.8051531
11
3.4914698
21
287.8284531
0
LINE
8
DEFAULT_255_2_778
10
3.4914698
20
287.8284531
11
3.4864698
21
287.8514531
0
LINE
8
DEFAULT_255_2_778
10
3.4864698
20
287.8514531
11
3.4723698
21
287.8964531
0
LINE
8
DEFAULT_255_2_778
10
3.4723698
20
287.8964531
11
3.4536698
21
287.9395531
0
LINE
8
DEFAULT_255_2_778
10
3.4536698
20
287.9395531
11
3.4165698
21
287.9993531
0
LINE
8
DEFAULT_255_2_778
10
3.4165698
20
287.9993531
11
3.3694698
21
288.0514531
0
LINE
8
DEFAULT_255_2_778
10
3.3694698
20
288.0514531
11
3.2744698
21
288.1208531
0
LINE
8
DEFAULT_255_2_778
10
3.2744698
20
288.1208531
11
3.1234698
21
288.1840531
0
LINE
8
DEFAULT_255_2_778
10
3.1234698
20
288.1840531
11
2.8921698
21
288.2184531
0
LINE
8
DEFAULT_255_2_778
10
2.8921698
20
288.2184531
11
2.6815698
21
288.2046531
0
LINE
8
DEFAULT_255_2_778
10
2.6815698
20
288.2046531
11
2.5241698
21
288.1581531
0
LINE
8
DEFAULT_255_2_778
10
2.5241698
20
288.1581531
11
2.4016698
21
288.0885531
0
LINE
8
DEFAULT_255_2_778
10
2.4016698
20
288.0885531
11
2.3137698
21
288.0104531
0
LINE
8
DEFAULT_255_2_778
10
2.3137698
20
288.0104531
11
2.2407698
21
287.9184531
0
LINE
8
DEFAULT_255_2_778
10
2.2407698
20
287.9184531
11
2.1936698
21
287.8371531
0
LINE
8
DEFAULT_255_2_778
10
2.1936698
20
287.8371531
11
2.1563698
21
287.7511531
0
LINE
8
DEFAULT_255_2_778
10
2.1563698
20
287.7511531
11
2.1343698
21
287.6842531
0
LINE
8
DEFAULT_255_2_778
10
2.1343698
20
287.6842531
11
2.1174698
21
287.6159531
0
LINE
8
DEFAULT_255_2_778
10
2.1174698
20
287.6159531
11
2.1047698
21
287.5466531
0
LINE
8
DEFAULT_255_2_778
10
2.1047698
20
287.5466531
11
2.0986698
21
287.5001531
0
LINE
8
DEFAULT_255_2_778
10
2.0986698
20
287.5001531
11
2.0941698
21
287.4535531
0
LINE
8
DEFAULT_255_2_778
10
2.0941698
20
287.4535531
11
2.0928698
21
287.2191531
0
LINE
8
DEFAULT_255_2_778
10
2.0928698
20
287.2191531
11
2.0968698
21
287.1722531
0
LINE
8
DEFAULT_255_2_778
10
2.0968698
20
287.1722531
11
2.1023698
21
287.1257531
0
LINE
8
DEFAULT_255_2_778
10
2.1023698
20
287.1257531
11
2.1097698
21
287.0794531
0
LINE
8
DEFAULT_255_2_778
10
2.1097698
20
287.0794531
11
2.1245698
21
287.0106531
0
LINE
8
DEFAULT_255_2_778
10
2.1245698
20
287.0106531
11
2.1439698
21
286.9428531
0
LINE
8
DEFAULT_255_2_778
10
2.1439698
20
286.9428531
11
2.1685698
21
286.8770531
0
LINE
8
DEFAULT_255_2_778
10
2.1685698
20
286.8770531
11
2.2097698
21
286.7926531
0
LINE
8
DEFAULT_255_2_778
10
2.2097698
20
286.7926531
11
2.2611698
21
286.7140531
0
LINE
8
DEFAULT_255_2_778
10
2.2611698
20
286.7140531
11
2.3399698
21
286.6267531
0
LINE
8
DEFAULT_255_2_778
10
2.3399698
20
286.6267531
11
2.4333698
21
286.5555531
0
LINE
8
DEFAULT_255_2_778
10
2.4333698
20
286.5555531
11
2.5606698
21
286.4954531
0
LINE
8
DEFAULT_255_2_778
10
2.5606698
20
286.4954531
11
2.7672698
21
286.4539531
0
LINE
8
DEFAULT_255_2_778
10
2.7672698
20
286.4539531
11
3.0011698
21
286.4616531
0
LINE
8
DEFAULT_255_2_778
10
3.0011698
20
286.4616531
11
3.1599698
21
286.5018531
0
LINE
8
DEFAULT_255_2_778
10
3.1599698
20
286.5018531
11
3.2858698
21
286.5642531
0
LINE
8
DEFAULT_255_2_778
10
3.2858698
20
286.5642531
11
3.3604698
21
286.6214531
0
LINE
8
DEFAULT_255_2_778
10
3.3604698
20
286.6214531
11
3.4083698
21
286.6730531
0
LINE
8
DEFAULT_255_2_778
10
3.4083698
20
286.6730531
11
3.4469698
21
286.7320531
0
LINE
8
DEFAULT_255_2_778
10
3.4469698
20
286.7320531
11
3.4670698
21
286.7746531
0
LINE
8
DEFAULT_255_2_778
10
3.4670698
20
286.7746531
11
3.4824698
21
286.8190531
0
LINE
8
DEFAULT_255_2_778
10
3.4824698
20
286.8190531
11
3.4882698
21
286.8418531
0
LINE
8
DEFAULT_255_2_778
10
3.4882698
20
286.8418531
11
3.4927698
21
286.8648531
0
LINE
8
DEFAULT_255_2_778
10
3.4927698
20
286.8648531
11
3.4961698
21
286.8881531
0
LINE
8
DEFAULT_255_2_778
10
3.4961698
20
286.8881531
11
3.4983698
21
286.9116531
0
LINE
8
DEFAULT_255_2_778
10
3.4983698
20
286.9116531
11
3.4991698
21
286.9352531
0
LINE
8
DEFAULT_255_2_778
10
3.4991698
20
286.9352531
11
3.2604698
21
286.9352531
0
LINE
8
DEFAULT_255_2_778
10
3.2604698
20
286.9352531
11
3.2583698
21
286.9193531
0
LINE
8
DEFAULT_255_2_778
10
3.2583698
20
286.9193531
11
3.2517698
21
286.8878531
0
LINE
8
DEFAULT_255_2_778
10
3.2517698
20
286.8878531
11
3.2355698
21
286.8420531
0
LINE
8
DEFAULT_255_2_778
10
3.2355698
20
286.8420531
11
3.2125698
21
286.7994531
0
LINE
8
DEFAULT_255_2_778
10
3.2125698
20
286.7994531
11
3.1712698
21
286.7500531
0
LINE
8
DEFAULT_255_2_778
10
3.1712698
20
286.7500531
11
3.0776698
21
286.6875531
0
LINE
8
DEFAULT_255_2_778
10
3.0776698
20
286.6875531
11
2.9061698
21
286.6465531
0
LINE
8
DEFAULT_255_2_778
10
2.9061698
20
286.6465531
11
2.7138698
21
286.6632531
0
LINE
8
DEFAULT_255_2_778
10
2.7138698
20
286.6632531
11
2.5810698
21
286.7219531
0
LINE
8
DEFAULT_255_2_778
10
2.5810698
20
286.7219531
11
2.4958698
21
286.7960531
0
LINE
8
DEFAULT_255_2_778
10
2.4958698
20
286.7960531
11
2.4301698
21
286.8883531
0
LINE
8
DEFAULT_255_2_778
10
2.4301698
20
286.8883531
11
2.3889698
21
286.9759531
0
LINE
8
DEFAULT_255_2_778
10
2.3889698
20
286.9759531
11
2.3682698
21
287.0370531
0
LINE
8
DEFAULT_255_2_778
10
2.3682698
20
287.0370531
11
2.3526698
21
287.0995531
0
LINE
8
DEFAULT_255_2_778
10
2.3526698
20
287.0995531
11
2.3465698
21
287.1312531
0
LINE
8
DEFAULT_255_2_778
10
2.3465698
20
287.1312531
11
2.3412698
21
287.1630531
0
LINE
8
DEFAULT_255_2_778
10
2.3412698
20
287.1630531
11
2.3436698
21
287.5485531
0
LINE
8
DEFAULT_255_2_778
10
2.3436698
20
287.5485531
11
2.3497698
21
287.5802531
0
LINE
8
DEFAULT_255_2_778
10
2.3497698
20
287.5802531
11
2.3656698
21
287.6427531
0
LINE
8
DEFAULT_255_2_778
10
2.3656698
20
287.6427531
11
2.3931698
21
287.7186531
0
LINE
8
DEFAULT_255_2_778
10
2.3931698
20
287.7186531
11
2.4386698
21
287.8041531
0
LINE
8
DEFAULT_255_2_778
10
2.4386698
20
287.8041531
11
2.5103698
21
287.8916531
0
LINE
8
DEFAULT_255_2_778
10
2.5103698
20
287.8916531
11
2.6154698
21
287.9665531
0
LINE
8
DEFAULT_255_2_778
10
2.6154698
20
287.9665531
11
2.7849698
21
288.0173531
0
LINE
8
DEFAULT_255_2_778
10
2.7849698
20
288.0173531
11
2.9940698
21
288.0115531
0
LINE
8
DEFAULT_255_2_778
10
2.9940698
20
288.0115531
11
3.1151698
21
287.9686531
0
LINE
8
DEFAULT_255_2_778
10
3.1151698
20
287.9686531
11
3.1816698
21
287.9226531
0
LINE
8
DEFAULT_255_2_778
10
3.1816698
20
287.9226531
11
3.2231698
21
287.8734531
0
LINE
8
DEFAULT_255_2_778
10
3.2231698
20
287.8734531
11
3.2448698
21
287.8300531
0
LINE
8
DEFAULT_255_2_778
10
3.2448698
20
287.8300531
11
3.2543698
21
287.7990531
0
LINE
8
DEFAULT_255_2_778
10
3.2543698
20
287.7990531
11
3.2575698
21
287.7832531
0
LINE
8
DEFAULT_255_2_778
10
3.2575698
20
287.7832531
11
3.2596698
21
287.7670531
0
LINE
8
DEFAULT_255_2_778
10
3.2596698
20
287.7670531
11
3.2607698
21
287.7347531
0
LINE
8
DEFAULT_255_2_778
10
17.4857688
20
288.1855739
11
17.1833688
21
288.1855739
0
LINE
8
DEFAULT_255_2_778
10
17.1833688
20
288.1855739
11
17.1833688
21
286.4856739
0
LINE
8
DEFAULT_255_2_778
10
17.1833688
20
286.4856739
11
17.4145688
21
286.4856739
0
LINE
8
DEFAULT_255_2_778
10
17.4145688
20
286.4856739
11
17.4145688
21
287.8953739
0
LINE
8
DEFAULT_255_2_778
10
17.4145688
20
287.8953739
11
18.2350688
21
286.4856739
0
LINE
8
DEFAULT_255_2_778
10
18.2350688
20
286.4856739
11
18.5470688
21
286.4856739
0
LINE
8
DEFAULT_255_2_778
10
18.5470688
20
286.4856739
11
18.5470688
21
288.1855739
0
LINE
8
DEFAULT_255_2_778
10
18.5470688
20
288.1855739
11
18.3157688
21
288.1855739
0
LINE
8
DEFAULT_255_2_778
10
18.3157688
20
288.1855739
11
18.3157688
21
286.7602739
0
LINE
8
DEFAULT_255_2_778
10
18.3157688
20
286.7602739
11
17.4857688
21
288.1855739
0
LINE
8
DEFAULT_255_2_778
10
4.3745583
20
287.3976739
11
4.0904583
21
287.3998739
0
LINE
8
DEFAULT_255_2_778
10
4.0904583
20
287.3998739
11
4.0904583
21
287.9924739
0
LINE
8
DEFAULT_255_2_778
10
4.0904583
20
287.9924739
11
4.5891583
21
287.9816739
0
LINE
8
DEFAULT_255_2_778
10
4.5891583
20
287.9816739
11
4.6820583
21
287.9448739
0
LINE
8
DEFAULT_255_2_778
10
4.6820583
20
287.9448739
11
4.7494583
21
287.8884739
0
LINE
8
DEFAULT_255_2_778
10
4.7494583
20
287.8884739
11
4.8037583
21
287.8003739
0
LINE
8
DEFAULT_255_2_778
10
4.8037583
20
287.8003739
11
4.8177583
21
287.7498739
0
LINE
8
DEFAULT_255_2_778
10
4.8177583
20
287.7498739
11
4.8174583
21
287.6371739
0
LINE
8
DEFAULT_255_2_778
10
4.8174583
20
287.6371739
11
4.7981583
21
287.5733739
0
LINE
8
DEFAULT_255_2_778
10
4.7981583
20
287.5733739
11
4.7360583
21
287.4876739
0
LINE
8
DEFAULT_255_2_778
10
4.7360583
20
287.4876739
11
4.6362583
21
287.4312739
0
LINE
8
DEFAULT_255_2_778
10
4.6362583
20
287.4312739
11
4.4312583
21
287.3974739
0
LINE
8
DEFAULT_255_2_778
10
4.4312583
20
287.3974739
11
4.3745583
21
287.3976739
0
LINE
8
DEFAULT_255_2_778
10
3.8578583
20
286.4854739
11
4.0904583
21
286.4854739
0
LINE
8
DEFAULT_255_2_778
10
4.0904583
20
286.4854739
11
4.0904583
21
287.2071739
0
LINE
8
DEFAULT_255_2_778
10
4.0904583
20
287.2071739
11
4.3975583
21
287.2029739
0
LINE
8
DEFAULT_255_2_778
10
4.3975583
20
287.2029739
11
4.7050583
21
287.2370739
0
LINE
8
DEFAULT_255_2_778
10
4.7050583
20
287.2370739
11
4.8122583
21
287.2794739
0
LINE
8
DEFAULT_255_2_778
10
4.8122583
20
287.2794739
11
4.9071583
21
287.3482739
0
LINE
8
DEFAULT_255_2_778
10
4.9071583
20
287.3482739
11
4.9720583
21
287.4222739
0
LINE
8
DEFAULT_255_2_778
10
4.9720583
20
287.4222739
11
5.0114583
21
287.4897739
0
LINE
8
DEFAULT_255_2_778
10
5.0114583
20
287.4897739
11
5.0325583
21
287.5440739
0
LINE
8
DEFAULT_255_2_778
10
5.0325583
20
287.5440739
11
5.0426583
21
287.5815739
0
LINE
8
DEFAULT_255_2_778
10
5.0426583
20
287.5815739
11
5.0495583
21
287.6196739
0
LINE
8
DEFAULT_255_2_778
10
5.0495583
20
287.6196739
11
5.0474583
21
287.7757739
0
LINE
8
DEFAULT_255_2_778
10
5.0474583
20
287.7757739
11
5.0400583
21
287.8144739
0
LINE
8
DEFAULT_255_2_778
10
5.0400583
20
287.8144739
11
5.0238583
21
287.8710739
0
LINE
8
DEFAULT_255_2_778
10
5.0238583
20
287.8710739
11
5.0013583
21
287.9250739
0
LINE
8
DEFAULT_255_2_778
10
5.0013583
20
287.9250739
11
4.9616583
21
287.9911739
0
LINE
8
DEFAULT_255_2_778
10
4.9616583
20
287.9911739
11
4.9103583
21
288.0477739
0
LINE
8
DEFAULT_255_2_778
10
4.9103583
20
288.0477739
11
4.8143583
21
288.1133739
0
LINE
8
DEFAULT_255_2_778
10
4.8143583
20
288.1133739
11
4.6460583
21
288.1702739
0
LINE
8
DEFAULT_255_2_778
10
4.6460583
20
288.1702739
11
4.4730583
21
288.1853739
0
LINE
8
DEFAULT_255_2_778
10
4.4730583
20
288.1853739
11
3.8581583
21
288.1853739
0
LINE
8
DEFAULT_255_2_778
10
3.8581583
20
288.1853739
11
3.8578583
21
286.4854739
0
LINE
8
DEFAULT_255_2_778
10
11.7377156
20
287.2979948
11
11.7999156
21
287.1793948
0
LINE
8
DEFAULT_255_2_778
10
11.7999156
20
287.1793948
11
11.8160156
21
287.1029948
0
LINE
8
DEFAULT_255_2_778
10
11.8160156
20
287.1029948
11
11.8179156
21
286.9613948
0
LINE
8
DEFAULT_255_2_778
10
11.8179156
20
286.9613948
11
11.8099156
21
286.9097948
0
LINE
8
DEFAULT_255_2_778
10
11.8099156
20
286.9097948
11
11.7790156
21
286.8182948
0
LINE
8
DEFAULT_255_2_778
10
11.7790156
20
286.8182948
11
11.6591156
21
286.6840948
0
LINE
8
DEFAULT_255_2_778
10
11.6591156
20
286.6840948
11
11.4959156
21
286.6340948
0
LINE
8
DEFAULT_255_2_778
10
11.4959156
20
286.6340948
11
11.2990156
21
286.6666948
0
LINE
8
DEFAULT_255_2_778
10
11.2990156
20
286.6666948
11
11.1924156
21
286.7491948
0
LINE
8
DEFAULT_255_2_778
10
11.1924156
20
286.7491948
11
11.1416156
21
286.8309948
0
LINE
8
DEFAULT_255_2_778
10
11.1416156
20
286.8309948
11
11.1199156
21
286.8944948
0
LINE
8
DEFAULT_255_2_778
10
11.1199156
20
286.8944948
11
11.1109156
21
286.9407948
0
LINE
8
DEFAULT_255_2_778
10
11.1109156
20
286.9407948
11
11.1096156
21
287.0926948
0
LINE
8
DEFAULT_255_2_778
10
11.1096156
20
287.0926948
11
11.1151156
21
287.1280948
0
LINE
8
DEFAULT_255_2_778
10
11.1151156
20
287.1280948
11
11.1297156
21
287.1828948
0
LINE
8
DEFAULT_255_2_778
10
11.1297156
20
287.1828948
11
11.1665156
21
287.2595948
0
LINE
8
DEFAULT_255_2_778
10
11.1665156
20
287.2595948
11
11.2493156
21
287.3487948
0
LINE
8
DEFAULT_255_2_778
10
11.2493156
20
287.3487948
11
11.5136156
21
287.4140948
0
LINE
8
DEFAULT_255_2_778
10
11.5136156
20
287.4140948
11
11.7290156
21
287.3077948
0
LINE
8
DEFAULT_255_2_778
10
11.7290156
20
287.3077948
11
11.7377156
21
287.2979948
0
LINE
8
DEFAULT_255_2_778
10
11.7832156
20
287.7511948
11
12.0060156
21
287.7511948
0
LINE
8
DEFAULT_255_2_778
10
12.0060156
20
287.7511948
11
12.0036156
21
287.8093948
0
LINE
8
DEFAULT_255_2_778
10
12.0036156
20
287.8093948
11
12.0015156
21
287.8289948
0
LINE
8
DEFAULT_255_2_778
10
12.0015156
20
287.8289948
11
11.9949156
21
287.8678948
0
LINE
8
DEFAULT_255_2_778
10
11.9949156
20
287.8678948
11
11.9851156
21
287.9059948
0
LINE
8
DEFAULT_255_2_778
10
11.9851156
20
287.9059948
11
11.9639156
21
287.9607948
0
LINE
8
DEFAULT_255_2_778
10
11.9639156
20
287.9607948
11
11.9348156
21
288.0115948
0
LINE
8
DEFAULT_255_2_778
10
11.9348156
20
288.0115948
11
11.8840156
21
288.0710948
0
LINE
8
DEFAULT_255_2_778
10
11.8840156
20
288.0710948
11
11.8060156
21
288.1297948
0
LINE
8
DEFAULT_255_2_778
10
11.8060156
20
288.1297948
11
11.6795156
21
288.1808948
0
LINE
8
DEFAULT_255_2_778
10
11.6795156
20
288.1808948
11
11.4660156
21
288.2009948
0
LINE
8
DEFAULT_255_2_778
10
11.4660156
20
288.2009948
11
11.2927156
21
288.1710948
0
LINE
8
DEFAULT_255_2_778
10
11.2927156
20
288.1710948
11
11.1691156
21
288.1117948
0
LINE
8
DEFAULT_255_2_778
10
11.1691156
20
288.1117948
11
11.0781156
21
288.0374948
0
LINE
8
DEFAULT_255_2_778
10
11.0781156
20
288.0374948
11
11.0045156
21
287.9458948
0
LINE
8
DEFAULT_255_2_778
10
11.0045156
20
287.9458948
11
10.9471156
21
287.8432948
0
LINE
8
DEFAULT_255_2_778
10
10.9471156
20
287.8432948
11
10.9238156
21
287.7892948
0
LINE
8
DEFAULT_255_2_778
10
10.9238156
20
287.7892948
11
10.8979156
21
287.7154948
0
LINE
8
DEFAULT_255_2_778
10
10.8979156
20
287.7154948
11
10.8773156
21
287.6400948
0
LINE
8
DEFAULT_255_2_778
10
10.8773156
20
287.6400948
11
10.8688156
21
287.6019948
0
LINE
8
DEFAULT_255_2_778
10
10.8688156
20
287.6019948
11
10.8614156
21
287.5635948
0
LINE
8
DEFAULT_255_2_778
10
10.8614156
20
287.5635948
11
10.8551156
21
287.5249948
0
LINE
8
DEFAULT_255_2_778
10
10.8551156
20
287.5249948
11
10.8498156
21
287.4863948
0
LINE
8
DEFAULT_255_2_778
10
10.8498156
20
287.4863948
11
10.8453156
21
287.4474948
0
LINE
8
DEFAULT_255_2_778
10
10.8453156
20
287.4474948
11
10.8416156
21
287.4085948
0
LINE
8
DEFAULT_255_2_778
10
10.8416156
20
287.4085948
11
10.8413156
21
287.0963948
0
LINE
8
DEFAULT_255_2_778
10
10.8413156
20
287.0963948
11
10.8453156
21
287.0574948
0
LINE
8
DEFAULT_255_2_778
10
10.8453156
20
287.0574948
11
10.8503156
21
287.0187948
0
LINE
8
DEFAULT_255_2_778
10
10.8503156
20
287.0187948
11
10.8566156
21
286.9801948
0
LINE
8
DEFAULT_255_2_778
10
10.8566156
20
286.9801948
11
10.8643156
21
286.9417948
0
LINE
8
DEFAULT_255_2_778
10
10.8643156
20
286.9417948
11
10.8733156
21
286.9036948
0
LINE
8
DEFAULT_255_2_778
10
10.8733156
20
286.9036948
11
10.8961156
21
286.8288948
0
LINE
8
DEFAULT_255_2_778
10
10.8961156
20
286.8288948
11
10.9342156
21
286.7388948
0
LINE
8
DEFAULT_255_2_778
10
10.9342156
20
286.7388948
11
10.9844156
21
286.6549948
0
LINE
8
DEFAULT_255_2_778
10
10.9844156
20
286.6549948
11
11.0482156
21
286.5803948
0
LINE
8
DEFAULT_255_2_778
10
11.0482156
20
286.5803948
11
11.1419156
21
286.5097948
0
LINE
8
DEFAULT_255_2_778
10
11.1419156
20
286.5097948
11
11.2686156
21
286.4581948
0
LINE
8
DEFAULT_255_2_778
10
11.2686156
20
286.4581948
11
11.4824156
21
286.4385948
0
LINE
8
DEFAULT_255_2_778
10
11.4824156
20
286.4385948
11
11.6745156
21
286.4726948
0
LINE
8
DEFAULT_255_2_778
10
11.6745156
20
286.4726948
11
11.7983156
21
286.5309948
0
LINE
8
DEFAULT_255_2_778
10
11.7983156
20
286.5309948
11
11.8898156
21
286.6044948
0
LINE
8
DEFAULT_255_2_778
10
11.8898156
20
286.6044948
11
11.9518156
21
286.6803948
0
LINE
8
DEFAULT_255_2_778
10
11.9518156
20
286.6803948
11
11.9896156
21
286.7489948
0
LINE
8
DEFAULT_255_2_778
10
11.9896156
20
286.7489948
11
12.0110156
21
286.8036948
0
LINE
8
DEFAULT_255_2_778
10
12.0110156
20
286.8036948
11
12.0266156
21
286.8603948
0
LINE
8
DEFAULT_255_2_778
10
12.0266156
20
286.8603948
11
12.0340156
21
286.8986948
0
LINE
8
DEFAULT_255_2_778
10
12.0340156
20
286.8986948
11
12.0391156
21
286.9375948
0
LINE
8
DEFAULT_255_2_778
10
12.0391156
20
286.9375948
11
12.0385156
21
287.1132948
0
LINE
8
DEFAULT_255_2_778
10
12.0385156
20
287.1132948
11
12.0332156
21
287.1518948
0
LINE
8
DEFAULT_255_2_778
10
12.0332156
20
287.1518948
11
12.0256156
21
287.1902948
0
LINE
8
DEFAULT_255_2_778
10
12.0256156
20
287.1902948
11
12.0097156
21
287.2468948
0
LINE
8
DEFAULT_255_2_778
10
12.0097156
20
287.2468948
11
11.9883156
21
287.3013948
0
LINE
8
DEFAULT_255_2_778
10
11.9883156
20
287.3013948
11
11.9504156
21
287.3698948
0
LINE
8
DEFAULT_255_2_778
10
11.9504156
20
287.3698948
11
11.8893156
21
287.4463948
0
LINE
8
DEFAULT_255_2_778
10
11.8893156
20
287.4463948
11
11.8144156
21
287.5093948
0
LINE
8
DEFAULT_255_2_778
10
11.8144156
20
287.5093948
11
11.7097156
21
287.5619948
0
LINE
8
DEFAULT_255_2_778
10
11.7097156
20
287.5619948
11
11.5565156
21
287.5924948
0
LINE
8
DEFAULT_255_2_778
10
11.5565156
20
287.5924948
11
11.4006156
21
287.5823948
0
LINE
8
DEFAULT_255_2_778
10
11.4006156
20
287.5823948
11
11.2720156
21
287.5365948
0
LINE
8
DEFAULT_255_2_778
10
11.2720156
20
287.5365948
11
11.1601156
21
287.4577948
0
LINE
8
DEFAULT_255_2_778
10
11.1601156
20
287.4577948
11
11.0810156
21
287.3714948
0
LINE
8
DEFAULT_255_2_778
10
11.0810156
20
287.3714948
11
11.0591156
21
287.3392948
0
LINE
8
DEFAULT_255_2_778
10
11.0591156
20
287.3392948
11
11.0638156
21
287.3952948
0
LINE
8
DEFAULT_255_2_778
10
11.0638156
20
287.3952948
11
11.0702156
21
287.4513948
0
LINE
8
DEFAULT_255_2_778
10
11.0702156
20
287.4513948
11
11.0784156
21
287.5072948
0
LINE
8
DEFAULT_255_2_778
10
11.0784156
20
287.5072948
11
11.0889156
21
287.5627948
0
LINE
8
DEFAULT_255_2_778
10
11.0889156
20
287.5627948
11
11.1019156
21
287.6178948
0
LINE
8
DEFAULT_255_2_778
10
11.1019156
20
287.6178948
11
11.1371156
21
287.7249948
0
LINE
8
DEFAULT_255_2_778
10
11.1371156
20
287.7249948
11
11.1868156
21
287.8265948
0
LINE
8
DEFAULT_255_2_778
10
11.1868156
20
287.8265948
11
11.2464156
21
287.9056948
0
LINE
8
DEFAULT_255_2_778
10
11.2464156
20
287.9056948
11
11.3361156
21
287.9747948
0
LINE
8
DEFAULT_255_2_778
10
11.3361156
20
287.9747948
11
11.4718156
21
288.0123948
0
LINE
8
DEFAULT_255_2_778
10
11.4718156
20
288.0123948
11
11.6118156
21
287.9982948
0
LINE
8
DEFAULT_255_2_778
10
11.6118156
20
287.9982948
11
11.7335156
21
287.9167948
0
LINE
8
DEFAULT_255_2_778
10
11.7335156
20
287.9167948
11
11.7697156
21
287.8485948
0
LINE
8
DEFAULT_255_2_778
10
11.7697156
20
287.8485948
11
11.7771156
21
287.8210948
0
LINE
8
DEFAULT_255_2_778
10
11.7771156
20
287.8210948
11
11.7819156
21
287.7929948
0
LINE
8
DEFAULT_255_2_778
10
11.7819156
20
287.7929948
11
11.7832156
21
287.7511948
0
LINE
8
DEFAULT_255_2_778
10
22.0746583
20
287.3976739
11
21.7905583
21
287.3998739
0
LINE
8
DEFAULT_255_2_778
10
21.7905583
20
287.3998739
11
21.7905583
21
287.9924739
0
LINE
8
DEFAULT_255_2_778
10
21.7905583
20
287.9924739
11
22.2892583
21
287.9816739
0
LINE
8
DEFAULT_255_2_778
10
22.2892583
20
287.9816739
11
22.3821583
21
287.9448739
0
LINE
8
DEFAULT_255_2_778
10
22.3821583
20
287.9448739
11
22.4495583
21
287.8884739
0
LINE
8
DEFAULT_255_2_778
10
22.4495583
20
287.8884739
11
22.5038583
21
287.8003739
0
LINE
8
DEFAULT_255_2_778
10
22.5038583
20
287.8003739
11
22.5178583
21
287.7498739
0
LINE
8
DEFAULT_255_2_778
10
22.5178583
20
287.7498739
11
22.5175583
21
287.6371739
0
LINE
8
DEFAULT_255_2_778
10
22.5175583
20
287.6371739
11
22.4982583
21
287.5733739
0
LINE
8
DEFAULT_255_2_778
10
22.4982583
20
287.5733739
11
22.4361583
21
287.4876739
0
LINE
8
DEFAULT_255_2_778
10
22.4361583
20
287.4876739
11
22.3363583
21
287.4312739
0
LINE
8
DEFAULT_255_2_778
10
22.3363583
20
287.4312739
11
22.1313583
21
287.3974739
0
LINE
8
DEFAULT_255_2_778
10
22.1313583
20
287.3974739
11
22.0746583
21
287.3976739
0
LINE
8
DEFAULT_255_2_778
10
21.5579583
20
286.4854739
11
21.7905583
21
286.4854739
0
LINE
8
DEFAULT_255_2_778
10
21.7905583
20
286.4854739
11
21.7905583
21
287.2071739
0
LINE
8
DEFAULT_255_2_778
10
21.7905583
20
287.2071739
11
22.0976583
21
287.2029739
0
LINE
8
DEFAULT_255_2_778
10
22.0976583
20
287.2029739
11
22.4051583
21
287.2370739
0
LINE
8
DEFAULT_255_2_778
10
22.4051583
20
287.2370739
11
22.5123583
21
287.2794739
0
LINE
8
DEFAULT_255_2_778
10
22.5123583
20
287.2794739
11
22.6072583
21
287.3482739
0
LINE
8
DEFAULT_255_2_778
10
22.6072583
20
287.3482739
11
22.6721583
21
287.4222739
0
LINE
8
DEFAULT_255_2_778
10
22.6721583
20
287.4222739
11
22.7115583
21
287.4897739
0
LINE
8
DEFAULT_255_2_778
10
22.7115583
20
287.4897739
11
22.7326583
21
287.5440739
0
LINE
8
DEFAULT_255_2_778
10
22.7326583
20
287.5440739
11
22.7427583
21
287.5815739
0
LINE
8
DEFAULT_255_2_778
10
22.7427583
20
287.5815739
11
22.7496583
21
287.6196739
0
LINE
8
DEFAULT_255_2_778
10
22.7496583
20
287.6196739
11
22.7475583
21
287.7757739
0
LINE
8
DEFAULT_255_2_778
10
22.7475583
20
287.7757739
11
22.7401583
21
287.8144739
0
LINE
8
DEFAULT_255_2_778
10
22.7401583
20
287.8144739
11
22.7239583
21
287.8710739
0
LINE
8
DEFAULT_255_2_778
10
22.7239583
20
287.8710739
11
22.7014583
21
287.9250739
0
LINE
8
DEFAULT_255_2_778
10
22.7014583
20
287.9250739
11
22.6617583
21
287.9911739
0
LINE
8
DEFAULT_255_2_778
10
22.6617583
20
287.9911739
11
22.6104583
21
288.0477739
0
LINE
8
DEFAULT_255_2_778
10
22.6104583
20
288.0477739
11
22.5144583
21
288.1133739
0
LINE
8
DEFAULT_255_2_778
10
22.5144583
20
288.1133739
11
22.3461583
21
288.1702739
0
LINE
8
DEFAULT_255_2_778
10
22.3461583
20
288.1702739
11
22.1731583
21
288.1853739
0
LINE
8
DEFAULT_255_2_778
10
22.1731583
20
288.1853739
11
21.5582583
21
288.1853739
0
LINE
8
DEFAULT_255_2_778
10
21.5582583
20
288.1853739
11
21.5579583
21
286.4854739
0
LINE
8
DEFAULT_255_2_778
10
20.030349
20
287.9927323
11
20.030349
21
286.6782323
0
LINE
8
DEFAULT_255_2_778
10
20.030349
20
286.6782323
11
20.545749
21
286.6922323
0
LINE
8
DEFAULT_255_2_778
10
20.545749
20
286.6922323
11
20.695249
21
286.7425323
0
LINE
8
DEFAULT_255_2_778
10
20.695249
20
286.7425323
11
20.794649
21
286.8113323
0
LINE
8
DEFAULT_255_2_778
10
20.794649
20
286.8113323
11
20.849749
21
286.8766323
0
LINE
8
DEFAULT_255_2_778
10
20.849749
20
286.8766323
11
20.891249
21
286.9526323
0
LINE
8
DEFAULT_255_2_778
10
20.891249
20
286.9526323
11
20.921449
21
287.0354323
0
LINE
8
DEFAULT_255_2_778
10
20.921449
20
287.0354323
11
20.934949
21
287.0867323
0
LINE
8
DEFAULT_255_2_778
10
20.934949
20
287.0867323
11
20.942049
21
287.1211323
0
LINE
8
DEFAULT_255_2_778
10
20.942049
20
287.1211323
11
20.948149
21
287.1555323
0
LINE
8
DEFAULT_255_2_778
10
20.948149
20
287.1555323
11
20.953149
21
287.1899323
0
LINE
8
DEFAULT_255_2_778
10
20.953149
20
287.1899323
11
20.956849
21
287.2243323
0
LINE
8
DEFAULT_255_2_778
10
20.956849
20
287.2243323
11
20.959549
21
287.2584323
0
LINE
8
DEFAULT_255_2_778
10
20.959549
20
287.2584323
11
20.959549
21
287.3958323
0
LINE
8
DEFAULT_255_2_778
10
20.959549
20
287.3958323
11
20.956849
21
287.4304323
0
LINE
8
DEFAULT_255_2_778
10
20.956849
20
287.4304323
11
20.953149
21
287.4651323
0
LINE
8
DEFAULT_255_2_778
10
20.953149
20
287.4651323
11
20.945549
21
287.5172323
0
LINE
8
DEFAULT_255_2_778
10
20.945549
20
287.5172323
11
20.930649
21
287.5860323
0
LINE
8
DEFAULT_255_2_778
10
20.930649
20
287.5860323
11
20.909749
21
287.6527323
0
LINE
8
DEFAULT_255_2_778
10
20.909749
20
287.6527323
11
20.873849
21
287.7313323
0
LINE
8
DEFAULT_255_2_778
10
20.873849
20
287.7313323
11
20.825149
21
287.8022323
0
LINE
8
DEFAULT_255_2_778
10
20.825149
20
287.8022323
11
20.735649
21
287.8847323
0
LINE
8
DEFAULT_255_2_778
10
20.735649
20
287.8847323
11
20.595749
21
287.9567323
0
LINE
8
DEFAULT_255_2_778
10
20.595749
20
287.9567323
11
20.477949
21
287.9826323
0
LINE
8
DEFAULT_255_2_778
10
20.477949
20
287.9826323
11
20.030349
21
287.9927323
0
LINE
8
DEFAULT_255_2_778
10
19.975549
20
286.4853323
11
19.797749
21
286.4853323
0
LINE
8
DEFAULT_255_2_778
10
19.797749
20
286.4853323
11
19.797749
21
288.1853323
0
LINE
8
DEFAULT_255_2_778
10
19.797749
20
288.1853323
11
20.420049
21
288.1866323
0
LINE
8
DEFAULT_255_2_778
10
20.420049
20
288.1866323
11
20.642249
21
288.1490323
0
LINE
8
DEFAULT_255_2_778
10
20.642249
20
288.1490323
11
20.832249
21
288.0697323
0
LINE
8
DEFAULT_255_2_778
10
20.832249
20
288.0697323
11
20.943149
21
287.9924323
0
LINE
8
DEFAULT_255_2_778
10
20.943149
20
287.9924323
11
21.020649
21
287.9130323
0
LINE
8
DEFAULT_255_2_778
10
21.020649
20
287.9130323
11
21.070949
21
287.8403323
0
LINE
8
DEFAULT_255_2_778
10
21.070949
20
287.8403323
11
21.111149
21
287.7606323
0
LINE
8
DEFAULT_255_2_778
10
21.111149
20
287.7606323
11
21.142349
21
287.6760323
0
LINE
8
DEFAULT_255_2_778
10
21.142349
20
287.6760323
11
21.160649
21
287.6101323
0
LINE
8
DEFAULT_255_2_778
10
21.160649
20
287.6101323
11
21.174649
21
287.5431323
0
LINE
8
DEFAULT_255_2_778
10
21.174649
20
287.5431323
11
21.182049
21
287.4982323
0
LINE
8
DEFAULT_255_2_778
10
21.182049
20
287.4982323
11
21.187849
21
287.4532323
0
LINE
8
DEFAULT_255_2_778
10
21.187849
20
287.4532323
11
21.190249
21
287.1859323
0
LINE
8
DEFAULT_255_2_778
10
21.190249
20
287.1859323
11
21.184949
21
287.1418323
0
LINE
8
DEFAULT_255_2_778
10
21.184949
20
287.1418323
11
21.173849
21
287.0756323
0
LINE
8
DEFAULT_255_2_778
10
21.173849
20
287.0756323
11
21.158749
21
287.0100323
0
LINE
8
DEFAULT_255_2_778
10
21.158749
20
287.0100323
11
21.139149
21
286.9454323
0
LINE
8
DEFAULT_255_2_778
10
21.139149
20
286.9454323
11
21.105349
21
286.8626323
0
LINE
8
DEFAULT_255_2_778
10
21.105349
20
286.8626323
11
21.061349
21
286.7848323
0
LINE
8
DEFAULT_255_2_778
10
21.061349
20
286.7848323
11
20.991249
21
286.6975323
0
LINE
8
DEFAULT_255_2_778
10
20.991249
20
286.6975323
11
20.888049
21
286.6107323
0
LINE
8
DEFAULT_255_2_778
10
20.888049
20
286.6107323
11
20.748649
21
286.5396323
0
LINE
8
DEFAULT_255_2_778
10
20.748649
20
286.5396323
11
20.553349
21
286.4946323
0
LINE
8
DEFAULT_255_2_778
10
20.553349
20
286.4946323
11
20.331449
21
286.4845323
0
LINE
8
DEFAULT_255_2_778
10
20.331449
20
286.4845323
11
19.975549
21
286.4853323
0
LINE
8
DEFAULT_255_2_778
10
16.2506583
20
287.3976739
11
15.9665583
21
287.3998739
0
LINE
8
DEFAULT_255_2_778
10
15.9665583
20
287.3998739
11
15.9665583
21
287.9924739
0
LINE
8
DEFAULT_255_2_778
10
15.9665583
20
287.9924739
11
16.4652583
21
287.9816739
0
LINE
8
DEFAULT_255_2_778
10
16.4652583
20
287.9816739
11
16.5581583
21
287.9448739
0
LINE
8
DEFAULT_255_2_778
10
16.5581583
20
287.9448739
11
16.6255583
21
287.8884739
0
LINE
8
DEFAULT_255_2_778
10
16.6255583
20
287.8884739
11
16.6798583
21
287.8003739
0
LINE
8
DEFAULT_255_2_778
10
16.6798583
20
287.8003739
11
16.6938583
21
287.7498739
0
LINE
8
DEFAULT_255_2_778
10
16.6938583
20
287.7498739
11
16.6935583
21
287.6371739
0
LINE
8
DEFAULT_255_2_778
10
16.6935583
20
287.6371739
11
16.6742583
21
287.5733739
0
LINE
8
DEFAULT_255_2_778
10
16.6742583
20
287.5733739
11
16.6121583
21
287.4876739
0
LINE
8
DEFAULT_255_2_778
10
16.6121583
20
287.4876739
11
16.5123583
21
287.4312739
0
LINE
8
DEFAULT_255_2_778
10
16.5123583
20
287.4312739
11
16.3073583
21
287.3974739
0
LINE
8
DEFAULT_255_2_778
10
16.3073583
20
287.3974739
11
16.2506583
21
287.3976739
0
LINE
8
DEFAULT_255_2_778
10
15.7339583
20
286.4854739
11
15.9665583
21
286.4854739
0
LINE
8
DEFAULT_255_2_778
10
15.9665583
20
286.4854739
11
15.9665583
21
287.2071739
0
LINE
8
DEFAULT_255_2_778
10
15.9665583
20
287.2071739
11
16.2736583
21
287.2029739
0
LINE
8
DEFAULT_255_2_778
10
16.2736583
20
287.2029739
11
16.5811583
21
287.2370739
0
LINE
8
DEFAULT_255_2_778
10
16.5811583
20
287.2370739
11
16.6883583
21
287.2794739
0
LINE
8
DEFAULT_255_2_778
10
16.6883583
20
287.2794739
11
16.7832583
21
287.3482739
0
LINE
8
DEFAULT_255_2_778
10
16.7832583
20
287.3482739
11
16.8481583
21
287.4222739
0
LINE
8
DEFAULT_255_2_778
10
16.8481583
20
287.4222739
11
16.8875583
21
287.4897739
0
LINE
8
DEFAULT_255_2_778
10
16.8875583
20
287.4897739
11
16.9086583
21
287.5440739
0
LINE
8
DEFAULT_255_2_778
10
16.9086583
20
287.5440739
11
16.9187583
21
287.5815739
0
LINE
8
DEFAULT_255_2_778
10
16.9187583
20
287.5815739
11
16.9256583
21
287.6196739
0
LINE
8
DEFAULT_255_2_778
10
16.9256583
20
287.6196739
11
16.9235583
21
287.7757739
0
LINE
8
DEFAULT_255_2_778
10
16.9235583
20
287.7757739
11
16.9161583
21
287.8144739
0
LINE
8
DEFAULT_255_2_778
10
16.9161583
20
287.8144739
11
16.8999583
21
287.8710739
0
LINE
8
DEFAULT_255_2_778
10
16.8999583
20
287.8710739
11
16.8774583
21
287.9250739
0
LINE
8
DEFAULT_255_2_778
10
16.8774583
20
287.9250739
11
16.8377583
21
287.9911739
0
LINE
8
DEFAULT_255_2_778
10
16.8377583
20
287.9911739
11
16.7864583
21
288.0477739
0
LINE
8
DEFAULT_255_2_778
10
16.7864583
20
288.0477739
11
16.6904583
21
288.1133739
0
LINE
8
DEFAULT_255_2_778
10
16.6904583
20
288.1133739
11
16.5221583
21
288.1702739
0
LINE
8
DEFAULT_255_2_778
10
16.5221583
20
288.1702739
11
16.3491583
21
288.1853739
0
LINE
8
DEFAULT_255_2_778
10
16.3491583
20
288.1853739
11
15.7342583
21
288.1853739
0
LINE
8
DEFAULT_255_2_778
10
15.7342583
20
288.1853739
11
15.7339583
21
286.4854739
0
ARC
8
DEFAULT_255_2_778
10
12.4032207
20
280.9134662
40
2.5001373
50
121.9137478
51
179.9977684
0
ARC
8
DEFAULT_255_2_778
10
12.4077091
20
280.9058361
40
2.5089867
50
120.0008527
51
121.9086401
0
ARC
8
DEFAULT_255_2_778
10
12.4024558
20
280.9160015
40
2.4975565
50
100.2066129
51
120.0130885
0
ARC
8
DEFAULT_255_2_778
10
12.4031409
20
280.9118413
40
2.5017722
50
89.9990251
51
100.2051719
0
ARC
8
DEFAULT_255_2_778
10
12.4035665
20
280.9151667
40
2.4984469
50
64.7638706
51
90.008784
0
ARC
8
DEFAULT_255_2_778
10
12.4006779
20
280.9095256
40
2.5047813
50
59.9969664
51
64.7591174
0
ARC
8
DEFAULT_255_2_778
10
12.4031285
20
280.9135623
40
2.5000602
50
1.9146849
51
59.9993419
0
ARC
8
DEFAULT_255_2_778
10
12.3942952
20
280.9135715
40
2.5088883
50
359.9998204
51
1.9077366
0
ARC
8
DEFAULT_255_2_778
10
12.4031259
20
280.9135547
40
2.5000575
50
301.9154232
51
0.0002045
0
ARC
8
DEFAULT_255_2_778
10
12.3988525
20
280.9209601
40
2.5086027
50
300.0007804
51
301.9088542
0
ARC
8
DEFAULT_255_2_778
10
12.4039111
20
280.9111257
40
2.4975565
50
280.2066129
51
300.0130885
0
ARC
8
DEFAULT_255_2_778
10
12.403226
20
280.9152859
40
2.5017722
50
269.9990251
51
280.2051719
0
ARC
8
DEFAULT_255_2_778
10
12.4028004
20
280.9119605
40
2.4984469
50
244.7638706
51
270.008784
0
ARC
8
DEFAULT_255_2_778
10
12.4056889
20
280.9176015
40
2.5047813
50
239.9969664
51
244.7591174
0
ARC
8
DEFAULT_255_2_778
10
12.4032464
20
280.9136894
40
2.5001721
50
181.9174559
51
240.0006095
0
ARC
8
DEFAULT_255_2_778
10
12.4112501
20
280.9135497
40
2.5081666
50
179.999683
51
181.9081483
0
LINE
8
DEFAULT_255_2_778
10
8.6023834
20
287.0966636
11
8.0107834
21
287.0966636
0
LINE
8
DEFAULT_255_2_778
10
8.0107834
20
287.0966636
11
8.6023834
21
287.9435636
0
LINE
8
DEFAULT_255_2_778
10
8.6023834
20
287.9435636
11
8.6023834
21
287.0966636
0
LINE
8
DEFAULT_255_2_778
10
8.8302834
20
288.1856636
11
8.5616834
21
288.1856636
0
LINE
8
DEFAULT_255_2_778
10
8.5616834
20
288.1856636
11
7.8123834
21
287.1156636
0
LINE
8
DEFAULT_255_2_778
10
7.8123834
20
287.1156636
11
7.8123834
21
286.9108636
0
LINE
8
DEFAULT_255_2_778
10
7.8123834
20
286.9108636
11
8.6026834
21
286.9108636
0
LINE
8
DEFAULT_255_2_778
10
8.6026834
20
286.9108636
11
8.6026834
21
286.4857636
0
LINE
8
DEFAULT_255_2_778
10
8.6026834
20
286.4857636
11
8.8304834
21
286.4857636
0
LINE
8
DEFAULT_255_2_778
10
8.8304834
20
286.4857636
11
8.8304834
21
286.9108636
0
LINE
8
DEFAULT_255_2_778
10
8.8304834
20
286.9108636
11
9.1521834
21
286.9108636
0
LINE
8
DEFAULT_255_2_778
10
9.1521834
20
286.9108636
11
9.1521834
21
287.0963636
0
LINE
8
DEFAULT_255_2_778
10
9.1521834
20
287.0963636
11
8.8304834
21
287.0963636
0
LINE
8
DEFAULT_255_2_778
10
8.8304834
20
287.0963636
11
8.8302834
21
288.1856636
0
LINE
8
DEFAULT_255_2_778
10
9.9030834
20
280.9135636
11
9.9030834
21
280.9135636
0
ARC
8
DEFAULT_255_2_778
10
12.3960657
20
280.9198095
40
3.2430541
50
180.0000039
51
180.1064768
0
ARC
8
DEFAULT_255_2_778
10
12.3969914
20
280.9197766
40
3.2439797
50
135.0008507
51
179.999424
0
ARC
8
DEFAULT_255_2_778
10
12.3969233
20
280.9197085
40
3.2439798
50
90.000576
51
134.9991493
0
ARC
8
DEFAULT_255_2_778
10
12.3968904
20
280.9206342
40
3.2430541
50
89.8935232
51
89.9999961
0
ARC
8
DEFAULT_255_2_778
10
12.408944
20
280.9206342
40
3.2430541
50
90.0000039
51
90.1064768
0
ARC
8
DEFAULT_255_2_778
10
12.4089112
20
280.9197085
40
3.2439797
50
45.0008507
51
89.999424
0
ARC
8
DEFAULT_255_2_778
10
12.4088431
20
280.9197766
40
3.2439798
50
0.000576
51
44.9991493
0
ARC
8
DEFAULT_255_2_778
10
12.4097687
20
280.9198095
40
3.2430541
50
359.8935232
51
359.9999961
0
ARC
8
DEFAULT_255_2_778
10
12.4097687
20
280.9077559
40
3.2430541
50
0.0000039
51
0.1064768
0
ARC
8
DEFAULT_255_2_778
10
12.4088431
20
280.9077887
40
3.2439797
50
315.0008507
51
359.999424
0
ARC
8
DEFAULT_255_2_778
10
12.4089112
20
280.9078568
40
3.2439798
50
270.000576
51
314.9991493
0
ARC
8
DEFAULT_255_2_778
10
12.408944
20
280.9069312
40
3.2430541
50
269.8935232
51
269.9999961
0
ARC
8
DEFAULT_255_2_778
10
12.3968904
20
280.9069312
40
3.2430541
50
270.0000039
51
270.1064768
0
ARC
8
DEFAULT_255_2_778
10
12.3969233
20
280.9078568
40
3.2439797
50
225.0008507
51
269.999424
0
ARC
8
DEFAULT_255_2_778
10
12.3969914
20
280.9077887
40
3.2439798
50
180.000576
51
224.9991493
0
ARC
8
DEFAULT_255_2_778
10
12.3960657
20
280.9077559
40
3.2430541
50
179.8935232
51
179.9999961
0
LINE
8
DEFAULT_255_2_778
10
9.1530172
20
280.9137827
11
9.1530172
21
280.9137827
0
LINE
8
DEFAULT_255_2_778
10
9.9642032
20
280.3637364
11
14.8418032
21
280.3637364
0
LINE
8
DEFAULT_255_2_778
10
14.8418032
20
281.4636364
11
9.9642032
21
281.4636364
0
ARC
8
DEFAULT_255_2_778
10
4.6001993
20
280.9760407
40
0.9471211
50
138.5969044
51
180.1465178
0
ARC
8
DEFAULT_255_2_778
10
4.6004332
20
280.9769146
40
0.9467189
50
92.2461493
51
138.6459367
0
ARC
8
DEFAULT_255_2_778
10
4.603148
20
280.9476997
40
0.976019
50
89.9980462
51
92.3381798
0
ARC
8
DEFAULT_255_2_778
10
4.6057191
20
280.9765916
40
0.9471305
50
49.1137343
51
90.1535204
0
ARC
8
DEFAULT_255_2_778
10
4.6064647
20
280.9764803
40
0.9467268
50
2.2652623
51
49.1522587
0
ARC
8
DEFAULT_255_2_778
10
4.5768888
20
280.9736595
40
0.9763924
50
359.9976072
51
2.3620595
0
ARC
8
DEFAULT_255_2_778
10
4.6061541
20
280.9710809
40
0.9471305
50
319.1137343
51
0.1535204
0
ARC
8
DEFAULT_255_2_778
10
4.6060428
20
280.9703353
40
0.9467268
50
272.2652623
51
319.1522587
0
ARC
8
DEFAULT_255_2_778
10
4.6032221
20
280.9999112
40
0.9763924
50
269.9976072
51
272.3620595
0
ARC
8
DEFAULT_255_2_778
10
4.6006435
20
280.9706459
40
0.9471305
50
229.1137343
51
270.1535204
0
ARC
8
DEFAULT_255_2_778
10
4.5998979
20
280.9707572
40
0.9467268
50
182.2652623
51
229.1522587
0
ARC
8
DEFAULT_255_2_778
10
4.6294738
20
280.9735779
40
0.9763924
50
179.9976072
51
182.3620595
0
LINE
8
DEFAULT_255_2_778
10
3.6530813
20
280.9736187
11
3.6530813
21
280.9736187
0
LINE
8
DEFAULT_255_2_778
10
2.0531459
20
283.5236541
11
7.1532459
21
283.5236541
0
LINE
8
DEFAULT_255_2_778
10
7.1532459
20
283.5236541
11
7.1532459
21
278.4235541
0
LINE
8
DEFAULT_255_2_778
10
7.1532459
20
278.4235541
11
2.0531459
21
278.4235541
0
LINE
8
DEFAULT_255_2_778
10
2.0531459
20
278.4235541
11
2.0531459
21
283.5236541
0
ARC
8
DEFAULT_255_2_778
10
29.6001993
20
280.9760407
40
0.9471211
50
138.5969044
51
180.1465178
0
ARC
8
DEFAULT_255_2_778
10
29.6004332
20
280.9769146
40
0.9467189
50
92.2461493
51
138.6459367
0
ARC
8
DEFAULT_255_2_778
10
29.603148
20
280.9476997
40
0.976019
50
89.9980462
51
92.3381798
0
ARC
8
DEFAULT_255_2_778
10
29.6057191
20
280.9765916
40
0.9471305
50
49.1137343
51
90.1535204
0
ARC
8
DEFAULT_255_2_778
10
29.6064647
20
280.9764803
40
0.9467268
50
2.2652623
51
49.1522587
0
ARC
8
DEFAULT_255_2_778
10
29.5768888
20
280.9736595
40
0.9763924
50
359.9976072
51
2.3620595
0
ARC
8
DEFAULT_255_2_778
10
29.6061541
20
280.9710809
40
0.9471305
50
319.1137343
51
0.1535204
0
ARC
8
DEFAULT_255_2_778
10
29.6060428
20
280.9703353
40
0.9467268
50
272.2652623
51
319.1522587
0
ARC
8
DEFAULT_255_2_778
10
29.6032221
20
280.9999112
40
0.9763924
50
269.9976072
51
272.3620595
0
ARC
8
DEFAULT_255_2_778
10
29.6006435
20
280.9706459
40
0.9471305
50
229.1137343
51
270.1535204
0
ARC
8
DEFAULT_255_2_778
10
29.5998979
20
280.9707572
40
0.9467268
50
182.2652623
51
229.1522587
0
ARC
8
DEFAULT_255_2_778
10
29.6294738
20
280.9735779
40
0.9763924
50
179.9976072
51
182.3620595
0
LINE
8
DEFAULT_255_2_778
10
28.6530813
20
280.9736187
11
28.6530813
21
280.9736187
0
LINE
8
DEFAULT_255_2_778
10
27.0530765
20
283.5236948
11
32.1531765
21
283.5236948
0
LINE
8
DEFAULT_255_2_778
10
32.1531765
20
283.5236948
11
32.1531765
21
278.4235948
0
LINE
8
DEFAULT_255_2_778
10
32.1531765
20
278.4235948
11
27.0530765
21
278.4235948
0
LINE
8
DEFAULT_255_2_778
10
27.0530765
20
278.4235948
11
27.0530765
21
283.5236948
0
LINE
8
DEFAULT_255_2_778
10
7.7879765
20
276.2536948
11
8.0591765
21
276.2917948
0
LINE
8
DEFAULT_255_2_778
10
8.0591765
20
276.2917948
11
8.1785765
21
276.3709948
0
LINE
8
DEFAULT_255_2_778
10
8.1785765
20
276.3709948
11
8.2250765
21
276.4383948
0
LINE
8
DEFAULT_255_2_778
10
8.2250765
20
276.4383948
11
8.2428765
21
276.4867948
0
LINE
8
DEFAULT_255_2_778
10
8.2428765
20
276.4867948
11
8.2486765
21
276.5172948
0
LINE
8
DEFAULT_255_2_778
10
8.2486765
20
276.5172948
11
8.2467765
21
276.6000948
0
LINE
8
DEFAULT_255_2_778
10
8.2467765
20
276.6000948
11
8.2361765
21
276.6402948
0
LINE
8
DEFAULT_255_2_778
10
8.2361765
20
276.6402948
11
8.2084765
21
276.6958948
0
LINE
8
DEFAULT_255_2_778
10
8.2084765
20
276.6958948
11
8.1277765
21
276.7759948
0
LINE
8
DEFAULT_255_2_778
10
8.1277765
20
276.7759948
11
7.9012765
21
276.8323948
0
LINE
8
DEFAULT_255_2_778
10
7.9012765
20
276.8323948
11
7.7223765
21
276.7897948
0
LINE
8
DEFAULT_255_2_778
10
7.7223765
20
276.7897948
11
7.6265765
21
276.7111948
0
LINE
8
DEFAULT_255_2_778
10
7.6265765
20
276.7111948
11
7.5958765
21
276.6598948
0
LINE
8
DEFAULT_255_2_778
10
7.5958765
20
276.6598948
11
7.5831765
21
276.6219948
0
LINE
8
DEFAULT_255_2_778
10
7.5831765
20
276.6219948
11
7.5776765
21
276.5915948
0
LINE
8
DEFAULT_255_2_778
10
7.5776765
20
276.5915948
11
7.5749765
21
276.5590948
0
LINE
8
DEFAULT_255_2_778
10
7.5749765
20
276.5590948
11
7.5749765
21
276.5476948
0
LINE
8
DEFAULT_255_2_778
10
7.5749765
20
276.5476948
11
7.3545765
21
276.5476948
0
LINE
8
DEFAULT_255_2_778
10
7.3545765
20
276.5476948
11
7.3572765
21
276.6079948
0
LINE
8
DEFAULT_255_2_778
10
7.3572765
20
276.6079948
11
7.3614765
21
276.6381948
0
LINE
8
DEFAULT_255_2_778
10
7.3614765
20
276.6381948
11
7.3715765
21
276.6828948
0
LINE
8
DEFAULT_255_2_778
10
7.3715765
20
276.6828948
11
7.3916765
21
276.7402948
0
LINE
8
DEFAULT_255_2_778
10
7.3916765
20
276.7402948
11
7.4284765
21
276.8066948
0
LINE
8
DEFAULT_255_2_778
10
7.4284765
20
276.8066948
11
7.5001765
21
276.8847948
0
LINE
8
DEFAULT_255_2_778
10
7.5001765
20
276.8847948
11
7.6435765
21
276.9691948
0
LINE
8
DEFAULT_255_2_778
10
7.6435765
20
276.9691948
11
7.8202765
21
277.0101948
0
LINE
8
DEFAULT_255_2_778
10
7.8202765
20
277.0101948
11
8.1065765
21
276.9934948
0
LINE
8
DEFAULT_255_2_778
10
8.1065765
20
276.9934948
11
8.2745765
21
276.9249948
0
LINE
8
DEFAULT_255_2_778
10
8.2745765
20
276.9249948
11
8.3692765
21
276.8492948
0
LINE
8
DEFAULT_255_2_778
10
8.3692765
20
276.8492948
11
8.4237765
21
276.7765948
0
LINE
8
DEFAULT_255_2_778
10
8.4237765
20
276.7765948
11
8.4497765
21
276.7214948
0
LINE
8
DEFAULT_255_2_778
10
8.4497765
20
276.7214948
11
8.4631765
21
276.6780948
0
LINE
8
DEFAULT_255_2_778
10
8.4631765
20
276.6780948
11
8.4692765
21
276.6484948
0
LINE
8
DEFAULT_255_2_778
10
8.4692765
20
276.6484948
11
8.4687765
21
276.4817948
0
LINE
8
DEFAULT_255_2_778
10
8.4687765
20
276.4817948
11
8.4584765
21
276.4373948
0
LINE
8
DEFAULT_255_2_778
10
8.4584765
20
276.4373948
11
8.4370765
21
276.3804948
0
LINE
8
DEFAULT_255_2_778
10
8.4370765
20
276.3804948
11
8.3983765
21
276.3150948
0
LINE
8
DEFAULT_255_2_778
10
8.3983765
20
276.3150948
11
8.3137765
21
276.2285948
0
LINE
8
DEFAULT_255_2_778
10
8.3137765
20
276.2285948
11
8.1964765
21
276.1595948
0
LINE
8
DEFAULT_255_2_778
10
8.1964765
20
276.1595948
11
8.3063765
21
276.1200948
0
LINE
8
DEFAULT_255_2_778
10
8.3063765
20
276.1200948
11
8.3877765
21
276.0637948
0
LINE
8
DEFAULT_255_2_778
10
8.3877765
20
276.0637948
11
8.4412765
21
276.0057948
0
LINE
8
DEFAULT_255_2_778
10
8.4412765
20
276.0057948
11
8.4719765
21
275.9560948
0
LINE
8
DEFAULT_255_2_778
10
8.4719765
20
275.9560948
11
8.4872765
21
275.9203948
0
LINE
8
DEFAULT_255_2_778
10
8.4872765
20
275.9203948
11
8.4983765
21
275.8830948
0
LINE
8
DEFAULT_255_2_778
10
8.4983765
20
275.8830948
11
8.5060765
21
275.8446948
0
LINE
8
DEFAULT_255_2_778
10
8.5060765
20
275.8446948
11
8.5050765
21
275.6684948
0
LINE
8
DEFAULT_255_2_778
10
8.5050765
20
275.6684948
11
8.4975765
21
275.6303948
0
LINE
8
DEFAULT_255_2_778
10
8.4975765
20
275.6303948
11
8.4870765
21
275.5927948
0
LINE
8
DEFAULT_255_2_778
10
8.4870765
20
275.5927948
11
8.4655765
21
275.5382948
0
LINE
8
DEFAULT_255_2_778
10
8.4655765
20
275.5382948
11
8.4372765
21
275.4869948
0
LINE
8
DEFAULT_255_2_778
10
8.4372765
20
275.4869948
11
8.3888765
21
275.4255948
0
LINE
8
DEFAULT_255_2_778
10
8.3888765
20
275.4255948
11
8.2983765
21
275.3512948
0
LINE
8
DEFAULT_255_2_778
10
8.2983765
20
275.3512948
11
8.1570765
21
275.2861948
0
LINE
8
DEFAULT_255_2_778
10
8.1570765
20
275.2861948
11
7.9263765
21
275.2514948
0
LINE
8
DEFAULT_255_2_778
10
7.9263765
20
275.2514948
11
7.7329765
21
275.2726948
0
LINE
8
DEFAULT_255_2_778
10
7.7329765
20
275.2726948
11
7.5884765
21
275.3308948
0
LINE
8
DEFAULT_255_2_778
10
7.5884765
20
275.3308948
11
7.4786765
21
275.4117948
0
LINE
8
DEFAULT_255_2_778
10
7.4786765
20
275.4117948
11
7.4138765
21
275.4845948
0
LINE
8
DEFAULT_255_2_778
10
7.4138765
20
275.4845948
11
7.3720765
21
275.5504948
0
LINE
8
DEFAULT_255_2_778
10
7.3720765
20
275.5504948
11
7.3397765
21
275.6216948
0
LINE
8
DEFAULT_255_2_778
10
7.3397765
20
275.6216948
11
7.3217765
21
275.6774948
0
LINE
8
DEFAULT_255_2_778
10
7.3217765
20
275.6774948
11
7.3127765
21
275.7152948
0
LINE
8
DEFAULT_255_2_778
10
7.3127765
20
275.7152948
11
7.3059765
21
275.7536948
0
LINE
8
DEFAULT_255_2_778
10
7.3059765
20
275.7536948
11
7.5384765
21
275.7536948
0
LINE
8
DEFAULT_255_2_778
10
7.5384765
20
275.7536948
11
7.5567765
21
275.6933948
0
LINE
8
DEFAULT_255_2_778
10
7.5567765
20
275.6933948
11
7.5951765
21
275.6173948
0
LINE
8
DEFAULT_255_2_778
10
7.5951765
20
275.6173948
11
7.6760765
21
275.5252948
0
LINE
8
DEFAULT_255_2_778
10
7.6760765
20
275.5252948
11
7.7948765
21
275.4620948
0
LINE
8
DEFAULT_255_2_778
10
7.7948765
20
275.4620948
11
7.9919765
21
275.4490948
0
LINE
8
DEFAULT_255_2_778
10
7.9919765
20
275.4490948
11
8.1308765
21
275.4985948
0
LINE
8
DEFAULT_255_2_778
10
8.1308765
20
275.4985948
11
8.2155765
21
275.5710948
0
LINE
8
DEFAULT_255_2_778
10
8.2155765
20
275.5710948
11
8.2555765
21
275.6335948
0
LINE
8
DEFAULT_255_2_778
10
8.2555765
20
275.6335948
11
8.2729765
21
275.6798948
0
LINE
8
DEFAULT_255_2_778
10
8.2729765
20
275.6798948
11
8.2809765
21
275.7163948
0
LINE
8
DEFAULT_255_2_778
10
8.2809765
20
275.7163948
11
8.2793765
21
275.8166948
0
LINE
8
DEFAULT_255_2_778
10
8.2793765
20
275.8166948
11
8.2700765
21
275.8536948
0
LINE
8
DEFAULT_255_2_778
10
8.2700765
20
275.8536948
11
8.2507765
21
275.9004948
0
LINE
8
DEFAULT_255_2_778
10
8.2507765
20
275.9004948
11
8.2076765
21
275.9610948
0
LINE
8
DEFAULT_255_2_778
10
8.2076765
20
275.9610948
11
8.1160765
21
276.0213948
0
LINE
8
DEFAULT_255_2_778
10
8.1160765
20
276.0213948
11
7.8252765
21
276.0674948
0
LINE
8
DEFAULT_255_2_778
10
7.8252765
20
276.0674948
11
7.7874765
21
276.0639948
0
LINE
8
DEFAULT_255_2_778
10
7.7874765
20
276.0639948
11
7.7874765
21
276.2542948
0
LINE
8
DEFAULT_255_2_778
10
7.0505765
20
276.0504948
11
6.4830765
21
276.0504948
0
LINE
8
DEFAULT_255_2_778
10
6.4830765
20
276.0504948
11
6.4830765
21
275.9007948
0
LINE
8
DEFAULT_255_2_778
10
6.4830765
20
275.9007948
11
7.0505765
21
275.9007948
0
LINE
8
DEFAULT_255_2_778
10
7.0505765
20
275.9007948
11
7.0505765
21
276.0504948
0
LINE
8
DEFAULT_255_2_778
10
15.3534765
20
276.0504948
11
14.7859765
21
276.0504948
0
LINE
8
DEFAULT_255_2_778
10
14.7859765
20
276.0504948
11
14.7859765
21
275.9007948
0
LINE
8
DEFAULT_255_2_778
10
14.7859765
20
275.9007948
11
15.3534765
21
275.9007948
0
LINE
8
DEFAULT_255_2_778
10
15.3534765
20
275.9007948
11
15.3534765
21
276.0504948
0
LINE
8
DEFAULT_255_2_778
10
9.8728765
20
276.9895948
11
8.8367765
21
276.9895948
0
LINE
8
DEFAULT_255_2_778
10
8.8367765
20
276.9895948
11
8.8367765
21
275.2895948
0
LINE
8
DEFAULT_255_2_778
10
8.8367765
20
275.2895948
11
9.8945765
21
275.2895948
0
LINE
8
DEFAULT_255_2_778
10
9.8945765
20
275.2895948
11
9.8945765
21
275.4824948
0
LINE
8
DEFAULT_255_2_778
10
9.8945765
20
275.4824948
11
9.0693765
21
275.4824948
0
LINE
8
DEFAULT_255_2_778
10
9.0693765
20
275.4824948
11
9.0693765
21
276.0679948
0
LINE
8
DEFAULT_255_2_778
10
9.0693765
20
276.0679948
11
9.8416765
21
276.0679948
0
LINE
8
DEFAULT_255_2_778
10
9.8416765
20
276.0679948
11
9.8416765
21
276.2605948
0
LINE
8
DEFAULT_255_2_778
10
9.8416765
20
276.2605948
11
9.0693765
21
276.2605948
0
LINE
8
DEFAULT_255_2_778
10
9.0693765
20
276.2605948
11
9.0693765
21
276.7966948
0
LINE
8
DEFAULT_255_2_778
10
9.0693765
20
276.7966948
11
9.8728765
21
276.7966948
0
LINE
8
DEFAULT_255_2_778
10
9.8728765
20
276.7966948
11
9.8728765
21
276.9895948
0
LINE
8
DEFAULT_255_2_778
10
4.3005765
20
276.9884948
11
4.1301765
21
276.9884948
0
LINE
8
DEFAULT_255_2_778
10
4.1301765
20
276.9884948
11
3.6813765
21
276.7040948
0
LINE
8
DEFAULT_255_2_778
10
3.6813765
20
276.7040948
11
3.7641765
21
276.5542948
0
LINE
8
DEFAULT_255_2_778
10
3.7641765
20
276.5542948
11
4.1108765
21
276.7751948
0
LINE
8
DEFAULT_255_2_778
10
4.1108765
20
276.7751948
11
4.1108765
21
275.2884948
0
LINE
8
DEFAULT_255_2_778
10
4.1108765
20
275.2884948
11
4.3007765
21
275.2884948
0
LINE
8
DEFAULT_255_2_778
10
4.3007765
20
275.2884948
11
4.3007765
21
276.9884948
0
LINE
8
DEFAULT_255_2_778
10
14.5208765
20
276.9884948
11
13.4169765
21
276.9884948
0
LINE
8
DEFAULT_255_2_778
10
13.4169765
20
276.9884948
11
13.4169765
21
276.8265948
0
LINE
8
DEFAULT_255_2_778
10
13.4169765
20
276.8265948
11
14.3192765
21
276.8265948
0
LINE
8
DEFAULT_255_2_778
10
14.3192765
20
276.8265948
11
13.5667765
21
275.2884948
0
LINE
8
DEFAULT_255_2_778
10
13.5667765
20
275.2884948
11
13.7826765
21
275.2884948
0
LINE
8
DEFAULT_255_2_778
10
13.7826765
20
275.2884948
11
14.5205765
21
276.8265948
0
LINE
8
DEFAULT_255_2_778
10
14.5205765
20
276.8265948
11
14.5205765
21
276.9884948
0
LINE
8
DEFAULT_255_2_778
10
20.9242765
20
275.5252948
11
20.9594765
21
275.5999948
0
LINE
8
DEFAULT_255_2_778
10
20.9594765
20
275.5999948
11
20.9819765
21
275.6626948
0
LINE
8
DEFAULT_255_2_778
10
20.9819765
20
275.6626948
11
21.0007765
21
275.7311948
0
LINE
8
DEFAULT_255_2_778
10
21.0007765
20
275.7311948
11
21.0160765
21
275.8057948
0
LINE
8
DEFAULT_255_2_778
10
21.0160765
20
275.8057948
11
21.0242765
21
275.8586948
0
LINE
8
DEFAULT_255_2_778
10
21.0242765
20
275.8586948
11
21.0309765
21
275.9142948
0
LINE
8
DEFAULT_255_2_778
10
21.0309765
20
275.9142948
11
21.0359765
21
275.9724948
0
LINE
8
DEFAULT_255_2_778
10
21.0359765
20
275.9724948
11
21.0348765
21
276.3177948
0
LINE
8
DEFAULT_255_2_778
10
21.0348765
20
276.3177948
11
21.0293765
21
276.3756948
0
LINE
8
DEFAULT_255_2_778
10
21.0293765
20
276.3756948
11
21.0221765
21
276.4309948
0
LINE
8
DEFAULT_255_2_778
10
21.0221765
20
276.4309948
11
21.0131765
21
276.4838948
0
LINE
8
DEFAULT_255_2_778
10
21.0131765
20
276.4838948
11
20.9967765
21
276.5584948
0
LINE
8
DEFAULT_255_2_778
10
20.9967765
20
276.5584948
11
20.9766765
21
276.6272948
0
LINE
8
DEFAULT_255_2_778
10
20.9766765
20
276.6272948
11
20.9441765
21
276.7103948
0
LINE
8
DEFAULT_255_2_778
10
20.9441765
20
276.7103948
11
20.9049765
21
276.7833948
0
LINE
8
DEFAULT_255_2_778
10
20.9049765
20
276.7833948
11
20.8464765
21
276.8603948
0
LINE
8
DEFAULT_255_2_778
10
20.8464765
20
276.8603948
11
20.7626765
21
276.9320948
0
LINE
8
DEFAULT_255_2_778
10
20.7626765
20
276.9320948
11
20.6459765
21
276.9871948
0
LINE
8
DEFAULT_255_2_778
10
20.6459765
20
276.9871948
11
20.4879765
21
277.0125948
0
LINE
8
DEFAULT_255_2_778
10
20.4879765
20
277.0125948
11
20.3043765
21
276.9947948
0
LINE
8
DEFAULT_255_2_778
10
20.3043765
20
276.9947948
11
20.1681765
21
276.9400948
0
LINE
8
DEFAULT_255_2_778
10
20.1681765
20
276.9400948
11
20.0826765
21
276.8752948
0
LINE
8
DEFAULT_255_2_778
10
20.0826765
20
276.8752948
11
20.0117765
21
276.7897948
0
LINE
8
DEFAULT_255_2_778
10
20.0117765
20
276.7897948
11
19.9725765
21
276.7209948
0
LINE
8
DEFAULT_255_2_778
10
19.9725765
20
276.7209948
11
19.9395765
21
276.6410948
0
LINE
8
DEFAULT_255_2_778
10
19.9395765
20
276.6410948
11
19.9191765
21
276.5741948
0
LINE
8
DEFAULT_255_2_778
10
19.9191765
20
276.5741948
11
19.9021765
21
276.5010948
0
LINE
8
DEFAULT_255_2_778
10
19.9021765
20
276.5010948
11
19.8929765
21
276.4492948
0
LINE
8
DEFAULT_255_2_778
10
19.8929765
20
276.4492948
11
19.8852765
21
276.3944948
0
LINE
8
DEFAULT_255_2_778
10
19.8852765
20
276.3944948
11
19.8794765
21
276.3370948
0
LINE
8
DEFAULT_255_2_778
10
19.8794765
20
276.3370948
11
19.8804765
21
275.9298948
0
LINE
8
DEFAULT_255_2_778
10
19.8804765
20
275.9298948
11
19.8865765
21
275.8732948
0
LINE
8
DEFAULT_255_2_778
10
19.8865765
20
275.8732948
11
19.8942765
21
275.8195948
0
LINE
8
DEFAULT_255_2_778
10
19.8942765
20
275.8195948
11
19.9035765
21
275.7684948
0
LINE
8
DEFAULT_255_2_778
10
19.9035765
20
275.7684948
11
19.9204765
21
275.6970948
0
LINE
8
DEFAULT_255_2_778
10
19.9204765
20
275.6970948
11
19.9410765
21
275.6316948
0
LINE
8
DEFAULT_255_2_778
10
19.9410765
20
275.6316948
11
19.9738765
21
275.5538948
0
LINE
8
DEFAULT_255_2_778
10
19.9738765
20
275.5538948
11
20.0239765
21
275.4699948
0
LINE
8
DEFAULT_255_2_778
10
20.0239765
20
275.4699948
11
20.0966765
21
275.3882948
0
LINE
8
DEFAULT_255_2_778
10
20.0966765
20
275.3882948
11
20.1990765
21
275.3189948
0
LINE
8
DEFAULT_255_2_778
10
20.1990765
20
275.3189948
11
20.3390765
21
275.2739948
0
LINE
8
DEFAULT_255_2_778
10
20.3390765
20
275.2739948
11
20.5422765
21
275.2689948
0
LINE
8
DEFAULT_255_2_778
10
20.5422765
20
275.2689948
11
20.6877765
21
275.3062948
0
LINE
8
DEFAULT_255_2_778
10
20.6877765
20
275.3062948
11
20.7948765
21
275.3689948
0
LINE
8
DEFAULT_255_2_778
10
20.7948765
20
275.3689948
11
20.8716765
21
275.4451948
0
LINE
8
DEFAULT_255_2_778
10
20.8716765
20
275.4451948
11
20.9242765
21
275.5252948
0
LINE
8
DEFAULT_255_2_778
10
20.7591765
20
276.6585948
11
20.7925765
21
276.5759948
0
LINE
8
DEFAULT_255_2_778
10
20.7925765
20
276.5759948
11
20.8110765
21
276.5047948
0
LINE
8
DEFAULT_255_2_778
10
20.8110765
20
276.5047948
11
20.8226765
21
276.4404948
0
LINE
8
DEFAULT_255_2_778
10
20.8226765
20
276.4404948
11
20.8295765
21
276.3878948
0
LINE
8
DEFAULT_255_2_778
10
20.8295765
20
276.3878948
11
20.8348765
21
276.3314948
0
LINE
8
DEFAULT_255_2_778
10
20.8348765
20
276.3314948
11
20.8335765
21
275.9309948
0
LINE
8
DEFAULT_255_2_778
10
20.8335765
20
275.9309948
11
20.8277765
21
275.8761948
0
LINE
8
DEFAULT_255_2_778
10
20.8277765
20
275.8761948
11
20.8176765
21
275.8089948
0
LINE
8
DEFAULT_255_2_778
10
20.8176765
20
275.8089948
11
20.8015765
21
275.7345948
0
LINE
8
DEFAULT_255_2_778
10
20.8015765
20
275.7345948
11
20.7769765
21
275.6591948
0
LINE
8
DEFAULT_255_2_778
10
20.7769765
20
275.6591948
11
20.7234765
21
275.5604948
0
LINE
8
DEFAULT_255_2_778
10
20.7234765
20
275.5604948
11
20.6311765
21
275.4726948
0
LINE
8
DEFAULT_255_2_778
10
20.6311765
20
275.4726948
11
20.4713765
21
275.4271948
0
LINE
8
DEFAULT_255_2_778
10
20.4713765
20
275.4271948
11
20.2961765
21
275.4639948
0
LINE
8
DEFAULT_255_2_778
10
20.2961765
20
275.4639948
11
20.1940765
21
275.5528948
0
LINE
8
DEFAULT_255_2_778
10
20.1940765
20
275.5528948
11
20.1437765
21
275.6377948
0
LINE
8
DEFAULT_255_2_778
10
20.1437765
20
275.6377948
11
20.1207765
21
275.6988948
0
LINE
8
DEFAULT_255_2_778
10
20.1207765
20
275.6988948
11
20.1019765
21
275.7703948
0
LINE
8
DEFAULT_255_2_778
10
20.1019765
20
275.7703948
11
20.0908765
21
275.8306948
0
LINE
8
DEFAULT_255_2_778
10
20.0908765
20
275.8306948
11
20.0847765
21
275.8740948
0
LINE
8
DEFAULT_255_2_778
10
20.0847765
20
275.8740948
11
20.0797765
21
275.9200948
0
LINE
8
DEFAULT_255_2_778
10
20.0797765
20
275.9200948
11
20.0757765
21
275.9687948
0
LINE
8
DEFAULT_255_2_778
10
20.0757765
20
275.9687948
11
20.0770765
21
276.3190948
0
LINE
8
DEFAULT_255_2_778
10
20.0770765
20
276.3190948
11
20.0815765
21
276.3677948
0
LINE
8
DEFAULT_255_2_778
10
20.0815765
20
276.3677948
11
20.0874765
21
276.4137948
0
LINE
8
DEFAULT_255_2_778
10
20.0874765
20
276.4137948
11
20.0982765
21
276.4785948
0
LINE
8
DEFAULT_255_2_778
10
20.0982765
20
276.4785948
11
20.1114765
21
276.5378948
0
LINE
8
DEFAULT_255_2_778
10
20.1114765
20
276.5378948
11
20.1334765
21
276.6082948
0
LINE
8
DEFAULT_255_2_778
10
20.1334765
20
276.6082948
11
20.1673765
21
276.6828948
0
LINE
8
DEFAULT_255_2_778
10
20.1673765
20
276.6828948
11
20.2175765
21
276.7524948
0
LINE
8
DEFAULT_255_2_778
10
20.2175765
20
276.7524948
11
20.3099765
21
276.8196948
0
LINE
8
DEFAULT_255_2_778
10
20.3099765
20
276.8196948
11
20.4422765
21
276.8508948
0
LINE
8
DEFAULT_255_2_778
10
20.4422765
20
276.8508948
11
20.5954765
21
276.8228948
0
LINE
8
DEFAULT_255_2_778
10
20.5954765
20
276.8228948
11
20.6962765
21
276.7505948
0
LINE
8
DEFAULT_255_2_778
10
20.6962765
20
276.7505948
11
20.7530765
21
276.6704948
0
LINE
8
DEFAULT_255_2_778
10
20.7530765
20
276.6704948
11
20.7591765
21
276.6585948
0
LINE
8
DEFAULT_255_2_778
10
18.6192765
20
275.2884948
11
19.2227765
21
275.2982948
0
LINE
8
DEFAULT_255_2_778
10
19.2227765
20
275.2982948
11
19.3875765
21
275.3448948
0
LINE
8
DEFAULT_255_2_778
10
19.3875765
20
275.3448948
11
19.4865765
21
275.4083948
0
LINE
8
DEFAULT_255_2_778
10
19.4865765
20
275.4083948
11
19.5402765
21
275.4670948
0
LINE
8
DEFAULT_255_2_778
10
19.5402765
20
275.4670948
11
19.5730765
21
275.5221948
0
LINE
8
DEFAULT_255_2_778
10
19.5730765
20
275.5221948
11
19.5918765
21
275.5681948
0
LINE
8
DEFAULT_255_2_778
10
19.5918765
20
275.5681948
11
19.6053765
21
275.6181948
0
LINE
8
DEFAULT_255_2_778
10
19.6053765
20
275.6181948
11
19.6114765
21
275.6538948
0
LINE
8
DEFAULT_255_2_778
10
19.6114765
20
275.6538948
11
19.6114765
21
275.8269948
0
LINE
8
DEFAULT_255_2_778
10
19.6114765
20
275.8269948
11
19.6050765
21
275.8621948
0
LINE
8
DEFAULT_255_2_778
10
19.6050765
20
275.8621948
11
19.5910765
21
275.9110948
0
LINE
8
DEFAULT_255_2_778
10
19.5910765
20
275.9110948
11
19.5640765
21
275.9695948
0
LINE
8
DEFAULT_255_2_778
10
19.5640765
20
275.9695948
11
19.5169765
21
276.0317948
0
LINE
8
DEFAULT_255_2_778
10
19.5169765
20
276.0317948
11
19.4412765
21
276.0901948
0
LINE
8
DEFAULT_255_2_778
10
19.4412765
20
276.0901948
11
19.3074765
21
276.1409948
0
LINE
8
DEFAULT_255_2_778
10
19.3074765
20
276.1409948
11
19.2264765
21
276.1547948
0
LINE
8
DEFAULT_255_2_778
10
19.2264765
20
276.1547948
11
19.4315765
21
276.2309948
0
LINE
8
DEFAULT_255_2_778
10
19.4315765
20
276.2309948
11
19.5106765
21
276.3134948
0
LINE
8
DEFAULT_255_2_778
10
19.5106765
20
276.3134948
11
19.5450765
21
276.3841948
0
LINE
8
DEFAULT_255_2_778
10
19.5450765
20
276.3841948
11
19.5614765
21
276.4452948
0
LINE
8
DEFAULT_255_2_778
10
19.5614765
20
276.4452948
11
19.5664765
21
276.4783948
0
LINE
8
DEFAULT_255_2_778
10
19.5664765
20
276.4783948
11
19.5651765
21
276.6328948
0
LINE
8
DEFAULT_255_2_778
10
19.5651765
20
276.6328948
11
19.5547765
21
276.6868948
0
LINE
8
DEFAULT_255_2_778
10
19.5547765
20
276.6868948
11
19.5312765
21
276.7545948
0
LINE
8
DEFAULT_255_2_778
10
19.5312765
20
276.7545948
11
19.4727765
21
276.8431948
0
LINE
8
DEFAULT_255_2_778
10
19.4727765
20
276.8431948
11
19.3309765
21
276.9376948
0
LINE
8
DEFAULT_255_2_778
10
19.3309765
20
276.9376948
11
18.9060765
21
276.9884948
0
LINE
8
DEFAULT_255_2_778
10
18.9060765
20
276.9884948
11
18.6194765
21
276.9884948
0
LINE
8
DEFAULT_255_2_778
10
18.6194765
20
276.9884948
11
18.6192765
21
275.2884948
0
LINE
8
DEFAULT_255_2_778
10
18.8158765
20
276.8291948
11
19.2452765
21
276.7767948
0
LINE
8
DEFAULT_255_2_778
10
19.2452765
20
276.7767948
11
19.3042765
21
276.7270948
0
LINE
8
DEFAULT_255_2_778
10
19.3042765
20
276.7270948
11
19.3336765
21
276.6783948
0
LINE
8
DEFAULT_255_2_778
10
19.3336765
20
276.6783948
11
19.3494765
21
276.6315948
0
LINE
8
DEFAULT_255_2_778
10
19.3494765
20
276.6315948
11
19.3550765
21
276.6053948
0
LINE
8
DEFAULT_255_2_778
10
19.3550765
20
276.6053948
11
19.3534765
21
276.4436948
0
LINE
8
DEFAULT_255_2_778
10
19.3534765
20
276.4436948
11
19.3272765
21
276.3701948
0
LINE
8
DEFAULT_255_2_778
10
19.3272765
20
276.3701948
11
19.2309765
21
276.2745948
0
LINE
8
DEFAULT_255_2_778
10
19.2309765
20
276.2745948
11
18.9092765
21
276.2267948
0
LINE
8
DEFAULT_255_2_778
10
18.9092765
20
276.2267948
11
18.8158765
21
276.2267948
0
LINE
8
DEFAULT_255_2_778
10
18.8158765
20
276.2267948
11
18.8158765
21
276.8291948
0
LINE
8
DEFAULT_255_2_778
10
18.9224765
20
275.4483948
11
18.8158765
21
275.4483948
0
LINE
8
DEFAULT_255_2_778
10
18.8158765
20
275.4483948
11
18.8158765
21
276.0745948
0
LINE
8
DEFAULT_255_2_778
10
18.8158765
20
276.0745948
11
19.2759765
21
276.0166948
0
LINE
8
DEFAULT_255_2_778
10
19.2759765
20
276.0166948
11
19.3717765
21
275.9227948
0
LINE
8
DEFAULT_255_2_778
10
19.3717765
20
275.9227948
11
19.3989765
21
275.8504948
0
LINE
8
DEFAULT_255_2_778
10
19.3989765
20
275.8504948
11
19.4063765
21
275.8049948
0
LINE
8
DEFAULT_255_2_778
10
19.4063765
20
275.8049948
11
19.4045765
21
275.6988948
0
LINE
8
DEFAULT_255_2_778
10
19.4045765
20
275.6988948
11
19.3926765
21
275.6417948
0
LINE
8
DEFAULT_255_2_778
10
19.3926765
20
275.6417948
11
19.3489765
21
275.5549948
0
LINE
8
DEFAULT_255_2_778
10
19.3489765
20
275.5549948
11
19.2939765
21
275.5049948
0
LINE
8
DEFAULT_255_2_778
10
19.2939765
20
275.5049948
11
19.0055765
21
275.4490948
0
LINE
8
DEFAULT_255_2_778
10
19.0055765
20
275.4490948
11
18.9224765
21
275.4483948
0
LINE
8
DEFAULT_255_2_778
10
17.8847765
20
276.0457948
11
17.3690765
21
276.0457948
0
LINE
8
DEFAULT_255_2_778
10
17.3690765
20
276.0457948
11
17.5587765
21
276.5963948
0
LINE
8
DEFAULT_255_2_778
10
17.5587765
20
276.5963948
11
17.6291765
21
276.8204948
0
LINE
8
DEFAULT_255_2_778
10
17.6291765
20
276.8204948
11
17.7267765
21
276.5127948
0
LINE
8
DEFAULT_255_2_778
10
17.7267765
20
276.5127948
11
17.8847765
21
276.0457948
0
LINE
8
DEFAULT_255_2_778
10
17.7551765
20
276.9884948
11
17.5066765
21
276.9884948
0
LINE
8
DEFAULT_255_2_778
10
17.5066765
20
276.9884948
11
16.9018765
21
275.2884948
0
LINE
8
DEFAULT_255_2_778
10
16.9018765
20
275.2884948
11
17.1010765
21
275.2884948
0
LINE
8
DEFAULT_255_2_778
10
17.1010765
20
275.2884948
11
17.3098765
21
275.8838948
0
LINE
8
DEFAULT_255_2_778
10
17.3098765
20
275.8838948
11
17.9434765
21
275.8838948
0
LINE
8
DEFAULT_255_2_778
10
17.9434765
20
275.8838948
11
18.1522765
21
275.2884948
0
LINE
8
DEFAULT_255_2_778
10
18.1522765
20
275.2884948
11
18.3647765
21
275.2884948
0
LINE
8
DEFAULT_255_2_778
10
18.3647765
20
275.2884948
11
17.7551765
21
276.9884948
0
LINE
8
DEFAULT_255_2_778
10
16.6269765
20
275.5252948
11
16.6621765
21
275.5999948
0
LINE
8
DEFAULT_255_2_778
10
16.6621765
20
275.5999948
11
16.6843765
21
275.6626948
0
LINE
8
DEFAULT_255_2_778
10
16.6843765
20
275.6626948
11
16.7031765
21
275.7311948
0
LINE
8
DEFAULT_255_2_778
10
16.7031765
20
275.7311948
11
16.7184765
21
275.8057948
0
LINE
8
DEFAULT_255_2_778
10
16.7184765
20
275.8057948
11
16.7266765
21
275.8586948
0
LINE
8
DEFAULT_255_2_778
10
16.7266765
20
275.8586948
11
16.7332765
21
275.9142948
0
LINE
8
DEFAULT_255_2_778
10
16.7332765
20
275.9142948
11
16.7383765
21
275.9724948
0
LINE
8
DEFAULT_255_2_778
10
16.7383765
20
275.9724948
11
16.7372765
21
276.3177948
0
LINE
8
DEFAULT_255_2_778
10
16.7372765
20
276.3177948
11
16.7316765
21
276.3756948
0
LINE
8
DEFAULT_255_2_778
10
16.7316765
20
276.3756948
11
16.7245765
21
276.4309948
0
LINE
8
DEFAULT_255_2_778
10
16.7245765
20
276.4309948
11
16.7158765
21
276.4838948
0
LINE
8
DEFAULT_255_2_778
10
16.7158765
20
276.4838948
11
16.6994765
21
276.5584948
0
LINE
8
DEFAULT_255_2_778
10
16.6994765
20
276.5584948
11
16.6793765
21
276.6272948
0
LINE
8
DEFAULT_255_2_778
10
16.6793765
20
276.6272948
11
16.6467765
21
276.7103948
0
LINE
8
DEFAULT_255_2_778
10
16.6467765
20
276.7103948
11
16.6073765
21
276.7833948
0
LINE
8
DEFAULT_255_2_778
10
16.6073765
20
276.7833948
11
16.5488765
21
276.8603948
0
LINE
8
DEFAULT_255_2_778
10
16.5488765
20
276.8603948
11
16.4649765
21
276.9320948
0
LINE
8
DEFAULT_255_2_778
10
16.4649765
20
276.9320948
11
16.3483765
21
276.9871948
0
LINE
8
DEFAULT_255_2_778
10
16.3483765
20
276.9871948
11
16.1903765
21
277.0125948
0
LINE
8
DEFAULT_255_2_778
10
16.1903765
20
277.0125948
11
16.0067765
21
276.9947948
0
LINE
8
DEFAULT_255_2_778
10
16.0067765
20
276.9947948
11
15.8704765
21
276.9400948
0
LINE
8
DEFAULT_255_2_778
10
15.8704765
20
276.9400948
11
15.7850765
21
276.8752948
0
LINE
8
DEFAULT_255_2_778
10
15.7850765
20
276.8752948
11
15.7141765
21
276.7897948
0
LINE
8
DEFAULT_255_2_778
10
15.7141765
20
276.7897948
11
15.6749765
21
276.7209948
0
LINE
8
DEFAULT_255_2_778
10
15.6749765
20
276.7209948
11
15.6418765
21
276.6410948
0
LINE
8
DEFAULT_255_2_778
10
15.6418765
20
276.6410948
11
15.6215765
21
276.5741948
0
LINE
8
DEFAULT_255_2_778
10
15.6215765
20
276.5741948
11
15.6045765
21
276.5010948
0
LINE
8
DEFAULT_255_2_778
10
15.6045765
20
276.5010948
11
15.5953765
21
276.4492948
0
LINE
8
DEFAULT_255_2_778
10
15.5953765
20
276.4492948
11
15.5876765
21
276.3944948
0
LINE
8
DEFAULT_255_2_778
10
15.5876765
20
276.3944948
11
15.5818765
21
276.3370948
0
LINE
8
DEFAULT_255_2_778
10
15.5818765
20
276.3370948
11
15.5828765
21
275.9298948
0
LINE
8
DEFAULT_255_2_778
10
15.5828765
20
275.9298948
11
15.5889765
21
275.8732948
0
LINE
8
DEFAULT_255_2_778
10
15.5889765
20
275.8732948
11
15.5966765
21
275.8195948
0
LINE
8
DEFAULT_255_2_778
10
15.5966765
20
275.8195948
11
15.6058765
21
275.7684948
0
LINE
8
DEFAULT_255_2_778
10
15.6058765
20
275.7684948
11
15.6228765
21
275.6970948
0
LINE
8
DEFAULT_255_2_778
10
15.6228765
20
275.6970948
11
15.6434765
21
275.6316948
0
LINE
8
DEFAULT_255_2_778
10
15.6434765
20
275.6316948
11
15.6765765
21
275.5538948
0
LINE
8
DEFAULT_255_2_778
10
15.6765765
20
275.5538948
11
15.7265765
21
275.4699948
0
LINE
8
DEFAULT_255_2_778
10
15.7265765
20
275.4699948
11
15.7993765
21
275.3882948
0
LINE
8
DEFAULT_255_2_778
10
15.7993765
20
275.3882948
11
15.9016765
21
275.3189948
0
LINE
8
DEFAULT_255_2_778
10
15.9016765
20
275.3189948
11
16.0416765
21
275.2739948
0
LINE
8
DEFAULT_255_2_778
10
16.0416765
20
275.2739948
11
16.2445765
21
275.2689948
0
LINE
8
DEFAULT_255_2_778
10
16.2445765
20
275.2689948
11
16.3901765
21
275.3062948
0
LINE
8
DEFAULT_255_2_778
10
16.3901765
20
275.3062948
11
16.4972765
21
275.3689948
0
LINE
8
DEFAULT_255_2_778
10
16.4972765
20
275.3689948
11
16.5740765
21
275.4451948
0
LINE
8
DEFAULT_255_2_778
10
16.5740765
20
275.4451948
11
16.6269765
21
275.5252948
0
LINE
8
DEFAULT_255_2_778
10
16.4620765
20
276.6585948
11
16.4951765
21
276.5759948
0
LINE
8
DEFAULT_255_2_778
10
16.4951765
20
276.5759948
11
16.5136765
21
276.5047948
0
LINE
8
DEFAULT_255_2_778
10
16.5136765
20
276.5047948
11
16.5253765
21
276.4404948
0
LINE
8
DEFAULT_255_2_778
10
16.5253765
20
276.4404948
11
16.5321765
21
276.3878948
0
LINE
8
DEFAULT_255_2_778
10
16.5321765
20
276.3878948
11
16.5374765
21
276.3314948
0
LINE
8
DEFAULT_255_2_778
10
16.5374765
20
276.3314948
11
16.5361765
21
275.9309948
0
LINE
8
DEFAULT_255_2_778
10
16.5361765
20
275.9309948
11
16.5303765
21
275.8761948
0
LINE
8
DEFAULT_255_2_778
10
16.5303765
20
275.8761948
11
16.5202765
21
275.8089948
0
LINE
8
DEFAULT_255_2_778
10
16.5202765
20
275.8089948
11
16.5041765
21
275.7345948
0
LINE
8
DEFAULT_255_2_778
10
16.5041765
20
275.7345948
11
16.4795765
21
275.6591948
0
LINE
8
DEFAULT_255_2_778
10
16.4795765
20
275.6591948
11
16.4260765
21
275.5604948
0
LINE
8
DEFAULT_255_2_778
10
16.4260765
20
275.5604948
11
16.3337765
21
275.4726948
0
LINE
8
DEFAULT_255_2_778
10
16.3337765
20
275.4726948
11
16.1739765
21
275.4271948
0
LINE
8
DEFAULT_255_2_778
10
16.1739765
20
275.4271948
11
15.9987765
21
275.4639948
0
LINE
8
DEFAULT_255_2_778
10
15.9987765
20
275.4639948
11
15.8966765
21
275.5528948
0
LINE
8
DEFAULT_255_2_778
10
15.8966765
20
275.5528948
11
15.8463765
21
275.6377948
0
LINE
8
DEFAULT_255_2_778
10
15.8463765
20
275.6377948
11
15.8233765
21
275.6988948
0
LINE
8
DEFAULT_255_2_778
10
15.8233765
20
275.6988948
11
15.8045765
21
275.7703948
0
LINE
8
DEFAULT_255_2_778
10
15.8045765
20
275.7703948
11
15.7934765
21
275.8306948
0
LINE
8
DEFAULT_255_2_778
10
15.7934765
20
275.8306948
11
15.7873765
21
275.8740948
0
LINE
8
DEFAULT_255_2_778
10
15.7873765
20
275.8740948
11
15.7823765
21
275.9200948
0
LINE
8
DEFAULT_255_2_778
10
15.7823765
20
275.9200948
11
15.7783765
21
275.9687948
0
LINE
8
DEFAULT_255_2_778
10
15.7783765
20
275.9687948
11
15.7797765
21
276.3190948
0
LINE
8
DEFAULT_255_2_778
10
15.7797765
20
276.3190948
11
15.7842765
21
276.3677948
0
LINE
8
DEFAULT_255_2_778
10
15.7842765
20
276.3677948
11
15.7900765
21
276.4137948
0
LINE
8
DEFAULT_255_2_778
10
15.7900765
20
276.4137948
11
15.8006765
21
276.4785948
0
LINE
8
DEFAULT_255_2_778
10
15.8006765
20
276.4785948
11
15.8138765
21
276.5378948
0
LINE
8
DEFAULT_255_2_778
10
15.8138765
20
276.5378948
11
15.8358765
21
276.6082948
0
LINE
8
DEFAULT_255_2_778
10
15.8358765
20
276.6082948
11
15.8696765
21
276.6828948
0
LINE
8
DEFAULT_255_2_778
10
15.8696765
20
276.6828948
11
15.9199765
21
276.7524948
0
LINE
8
DEFAULT_255_2_778
10
15.9199765
20
276.7524948
11
16.0122765
21
276.8196948
0
LINE
8
DEFAULT_255_2_778
10
16.0122765
20
276.8196948
11
16.1445765
21
276.8508948
0
LINE
8
DEFAULT_255_2_778
10
16.1445765
20
276.8508948
11
16.2977765
21
276.8228948
0
LINE
8
DEFAULT_255_2_778
10
16.2977765
20
276.8228948
11
16.3985765
21
276.7505948
0
LINE
8
DEFAULT_255_2_778
10
16.3985765
20
276.7505948
11
16.4554765
21
276.6704948
0
LINE
8
DEFAULT_255_2_778
10
16.4554765
20
276.6704948
11
16.4620765
21
276.6585948
0
LINE
8
DEFAULT_255_2_778
10
13.0312765
20
275.5252948
11
13.0664765
21
275.5999948
0
LINE
8
DEFAULT_255_2_778
10
13.0664765
20
275.5999948
11
13.0886765
21
275.6626948
0
LINE
8
DEFAULT_255_2_778
10
13.0886765
20
275.6626948
11
13.1074765
21
275.7311948
0
LINE
8
DEFAULT_255_2_778
10
13.1074765
20
275.7311948
11
13.1227765
21
275.8057948
0
LINE
8
DEFAULT_255_2_778
10
13.1227765
20
275.8057948
11
13.1309765
21
275.8586948
0
LINE
8
DEFAULT_255_2_778
10
13.1309765
20
275.8586948
11
13.1375765
21
275.9142948
0
LINE
8
DEFAULT_255_2_778
10
13.1375765
20
275.9142948
11
13.1426765
21
275.9724948
0
LINE
8
DEFAULT_255_2_778
10
13.1426765
20
275.9724948
11
13.1415765
21
276.3177948
0
LINE
8
DEFAULT_255_2_778
10
13.1415765
20
276.3177948
11
13.1360765
21
276.3756948
0
LINE
8
DEFAULT_255_2_778
10
13.1360765
20
276.3756948
11
13.1288765
21
276.4309948
0
LINE
8
DEFAULT_255_2_778
10
13.1288765
20
276.4309948
11
13.1201765
21
276.4838948
0
LINE
8
DEFAULT_255_2_778
10
13.1201765
20
276.4838948
11
13.1037765
21
276.5584948
0
LINE
8
DEFAULT_255_2_778
10
13.1037765
20
276.5584948
11
13.0836765
21
276.6272948
0
LINE
8
DEFAULT_255_2_778
10
13.0836765
20
276.6272948
11
13.0510765
21
276.7103948
0
LINE
8
DEFAULT_255_2_778
10
13.0510765
20
276.7103948
11
13.0116765
21
276.7833948
0
LINE
8
DEFAULT_255_2_778
10
13.0116765
20
276.7833948
11
12.9531765
21
276.8603948
0
LINE
8
DEFAULT_255_2_778
10
12.9531765
20
276.8603948
11
12.8693765
21
276.9320948
0
LINE
8
DEFAULT_255_2_778
10
12.8693765
20
276.9320948
11
12.7526765
21
276.9871948
0
LINE
8
DEFAULT_255_2_778
10
12.7526765
20
276.9871948
11
12.5946765
21
277.0125948
0
LINE
8
DEFAULT_255_2_778
10
12.5946765
20
277.0125948
11
12.4110765
21
276.9947948
0
LINE
8
DEFAULT_255_2_778
10
12.4110765
20
276.9947948
11
12.2747765
21
276.9400948
0
LINE
8
DEFAULT_255_2_778
10
12.2747765
20
276.9400948
11
12.1893765
21
276.8752948
0
LINE
8
DEFAULT_255_2_778
10
12.1893765
20
276.8752948
11
12.1184765
21
276.7897948
0
LINE
8
DEFAULT_255_2_778
10
12.1184765
20
276.7897948
11
12.0792765
21
276.7209948
0
LINE
8
DEFAULT_255_2_778
10
12.0792765
20
276.7209948
11
12.0461765
21
276.6410948
0
LINE
8
DEFAULT_255_2_778
10
12.0461765
20
276.6410948
11
12.0258765
21
276.5741948
0
LINE
8
DEFAULT_255_2_778
10
12.0258765
20
276.5741948
11
12.0088765
21
276.5010948
0
LINE
8
DEFAULT_255_2_778
10
12.0088765
20
276.5010948
11
11.9996765
21
276.4492948
0
LINE
8
DEFAULT_255_2_778
10
11.9996765
20
276.4492948
11
11.9919765
21
276.3944948
0
LINE
8
DEFAULT_255_2_778
10
11.9919765
20
276.3944948
11
11.9861765
21
276.3370948
0
LINE
8
DEFAULT_255_2_778
10
11.9861765
20
276.3370948
11
11.9871765
21
275.9298948
0
LINE
8
DEFAULT_255_2_778
10
11.9871765
20
275.9298948
11
11.9932765
21
275.8732948
0
LINE
8
DEFAULT_255_2_778
10
11.9932765
20
275.8732948
11
12.0009765
21
275.8195948
0
LINE
8
DEFAULT_255_2_778
10
12.0009765
20
275.8195948
11
12.0102765
21
275.7684948
0
LINE
8
DEFAULT_255_2_778
10
12.0102765
20
275.7684948
11
12.0271765
21
275.6970948
0
LINE
8
DEFAULT_255_2_778
10
12.0271765
20
275.6970948
11
12.0477765
21
275.6316948
0
LINE
8
DEFAULT_255_2_778
10
12.0477765
20
275.6316948
11
12.0808765
21
275.5538948
0
LINE
8
DEFAULT_255_2_778
10
12.0808765
20
275.5538948
11
12.1308765
21
275.4699948
0
LINE
8
DEFAULT_255_2_778
10
12.1308765
20
275.4699948
11
12.2036765
21
275.3882948
0
LINE
8
DEFAULT_255_2_778
10
12.2036765
20
275.3882948
11
12.3060765
21
275.3189948
0
LINE
8
DEFAULT_255_2_778
10
12.3060765
20
275.3189948
11
12.4459765
21
275.2739948
0
LINE
8
DEFAULT_255_2_778
10
12.4459765
20
275.2739948
11
12.6489765
21
275.2689948
0
LINE
8
DEFAULT_255_2_778
10
12.6489765
20
275.2689948
11
12.7944765
21
275.3062948
0
LINE
8
DEFAULT_255_2_778
10
12.7944765
20
275.3062948
11
12.9015765
21
275.3689948
0
LINE
8
DEFAULT_255_2_778
10
12.9015765
20
275.3689948
11
12.9783765
21
275.4451948
0
LINE
8
DEFAULT_255_2_778
10
12.9783765
20
275.4451948
11
13.0312765
21
275.5252948
0
LINE
8
DEFAULT_255_2_778
10
12.2512765
20
275.6374948
11
12.2282765
21
275.6985948
0
LINE
8
DEFAULT_255_2_778
10
12.2282765
20
275.6985948
11
12.2094765
21
275.7700948
0
LINE
8
DEFAULT_255_2_778
10
12.2094765
20
275.7700948
11
12.1983765
21
275.8303948
0
LINE
8
DEFAULT_255_2_778
10
12.1983765
20
275.8303948
11
12.1922765
21
275.8737948
0
LINE
8
DEFAULT_255_2_778
10
12.1922765
20
275.8737948
11
12.1872765
21
275.9197948
0
LINE
8
DEFAULT_255_2_778
10
12.1872765
20
275.9197948
11
12.1832765
21
275.9684948
0
LINE
8
DEFAULT_255_2_778
10
12.1832765
20
275.9684948
11
12.1845765
21
276.3187948
0
LINE
8
DEFAULT_255_2_778
10
12.1845765
20
276.3187948
11
12.1890765
21
276.3674948
0
LINE
8
DEFAULT_255_2_778
10
12.1890765
20
276.3674948
11
12.1948765
21
276.4135948
0
LINE
8
DEFAULT_255_2_778
10
12.1948765
20
276.4135948
11
12.2054765
21
276.4783948
0
LINE
8
DEFAULT_255_2_778
10
12.2054765
20
276.4783948
11
12.2186765
21
276.5375948
0
LINE
8
DEFAULT_255_2_778
10
12.2186765
20
276.5375948
11
12.2406765
21
276.6079948
0
LINE
8
DEFAULT_255_2_778
10
12.2406765
20
276.6079948
11
12.2745765
21
276.6825948
0
LINE
8
DEFAULT_255_2_778
10
12.2745765
20
276.6825948
11
12.3247765
21
276.7521948
0
LINE
8
DEFAULT_255_2_778
10
12.3247765
20
276.7521948
11
12.4171765
21
276.8193948
0
LINE
8
DEFAULT_255_2_778
10
12.4171765
20
276.8193948
11
12.5494765
21
276.8505948
0
LINE
8
DEFAULT_255_2_778
10
12.5494765
20
276.8505948
11
12.7026765
21
276.8225948
0
LINE
8
DEFAULT_255_2_778
10
12.7026765
20
276.8225948
11
12.8034765
21
276.7503948
0
LINE
8
DEFAULT_255_2_778
10
12.8034765
20
276.7503948
11
12.8603765
21
276.6701948
0
LINE
8
DEFAULT_255_2_778
10
12.8603765
20
276.6701948
11
12.8954765
21
276.5889948
0
LINE
8
DEFAULT_255_2_778
10
12.8954765
20
276.5889948
11
12.9182765
21
276.5045948
0
LINE
8
DEFAULT_255_2_778
10
12.9182765
20
276.5045948
11
12.9298765
21
276.4402948
0
LINE
8
DEFAULT_255_2_778
10
12.9298765
20
276.4402948
11
12.9367765
21
276.3875948
0
LINE
8
DEFAULT_255_2_778
10
12.9367765
20
276.3875948
11
12.9420765
21
276.3312948
0
LINE
8
DEFAULT_255_2_778
10
12.9420765
20
276.3312948
11
12.9407765
21
275.9306948
0
LINE
8
DEFAULT_255_2_778
10
12.9407765
20
275.9306948
11
12.9349765
21
275.8758948
0
LINE
8
DEFAULT_255_2_778
10
12.9349765
20
275.8758948
11
12.9248765
21
275.8086948
0
LINE
8
DEFAULT_255_2_778
10
12.9248765
20
275.8086948
11
12.9087765
21
275.7343948
0
LINE
8
DEFAULT_255_2_778
10
12.9087765
20
275.7343948
11
12.8841765
21
275.6589948
0
LINE
8
DEFAULT_255_2_778
10
12.8841765
20
275.6589948
11
12.8306765
21
275.5602948
0
LINE
8
DEFAULT_255_2_778
10
12.8306765
20
275.5602948
11
12.7383765
21
275.4723948
0
LINE
8
DEFAULT_255_2_778
10
12.7383765
20
275.4723948
11
12.5785765
21
275.4268948
0
LINE
8
DEFAULT_255_2_778
10
12.5785765
20
275.4268948
11
12.4033765
21
275.4636948
0
LINE
8
DEFAULT_255_2_778
10
12.4033765
20
275.4636948
11
12.3012765
21
275.5525948
0
LINE
8
DEFAULT_255_2_778
10
12.3012765
20
275.5525948
11
12.2512765
21
275.6374948
0
LINE
8
DEFAULT_255_2_778
10
10.9968765
20
276.0057948
11
11.1212765
21
275.9824948
0
LINE
8
DEFAULT_255_2_778
10
11.1212765
20
275.9824948
11
11.2278765
21
275.9285948
0
LINE
8
DEFAULT_255_2_778
10
11.2278765
20
275.9285948
11
11.2781765
21
275.8726948
0
LINE
8
DEFAULT_255_2_778
10
11.2781765
20
275.8726948
11
11.3098765
21
275.8144948
0
LINE
8
DEFAULT_255_2_778
10
11.3098765
20
275.8144948
11
11.3275765
21
275.7634948
0
LINE
8
DEFAULT_255_2_778
10
11.3275765
20
275.7634948
11
11.3360765
21
275.7237948
0
LINE
8
DEFAULT_255_2_778
10
11.3360765
20
275.7237948
11
11.3341765
21
275.6078948
0
LINE
8
DEFAULT_255_2_778
10
11.3341765
20
275.6078948
11
11.3233765
21
275.5734948
0
LINE
8
DEFAULT_255_2_778
10
11.3233765
20
275.5734948
11
11.3005765
21
275.5329948
0
LINE
8
DEFAULT_255_2_778
10
11.3005765
20
275.5329948
11
11.2400765
21
275.4779948
0
LINE
8
DEFAULT_255_2_778
10
11.2400765
20
275.4779948
11
11.1598765
21
275.4406948
0
LINE
8
DEFAULT_255_2_778
10
11.1598765
20
275.4406948
11
10.9994765
21
275.4088948
0
LINE
8
DEFAULT_255_2_778
10
10.9994765
20
275.4088948
11
10.8410765
21
275.4099948
0
LINE
8
DEFAULT_255_2_778
10
10.8410765
20
275.4099948
11
10.6954765
21
275.4565948
0
LINE
8
DEFAULT_255_2_778
10
10.6954765
20
275.4565948
11
10.6200765
21
275.5234948
0
LINE
8
DEFAULT_255_2_778
10
10.6200765
20
275.5234948
11
10.5764765
21
275.5954948
0
LINE
8
DEFAULT_255_2_778
10
10.5764765
20
275.5954948
11
10.5526765
21
275.6570948
0
LINE
8
DEFAULT_255_2_778
10
10.5526765
20
275.6570948
11
10.5375765
21
275.7120948
0
LINE
8
DEFAULT_255_2_778
10
10.5375765
20
275.7120948
11
10.5314765
21
275.7414948
0
LINE
8
DEFAULT_255_2_778
10
10.5314765
20
275.7414948
11
10.2978765
21
275.7414948
0
LINE
8
DEFAULT_255_2_778
10
10.2978765
20
275.7414948
11
10.2994765
21
275.7009948
0
LINE
8
DEFAULT_255_2_778
10
10.2994765
20
275.7009948
11
10.3012765
21
275.6811948
0
LINE
8
DEFAULT_255_2_778
10
10.3012765
20
275.6811948
11
10.3068765
21
275.6425948
0
LINE
8
DEFAULT_255_2_778
10
10.3068765
20
275.6425948
11
10.3152765
21
275.6052948
0
LINE
8
DEFAULT_255_2_778
10
10.3152765
20
275.6052948
11
10.3335765
21
275.5512948
0
LINE
8
DEFAULT_255_2_778
10
10.3335765
20
275.5512948
11
10.3681765
21
275.4824948
0
LINE
8
DEFAULT_255_2_778
10
10.3681765
20
275.4824948
11
10.4266765
21
275.4041948
0
LINE
8
DEFAULT_255_2_778
10
10.4266765
20
275.4041948
11
10.5150765
21
275.3271948
0
LINE
8
DEFAULT_255_2_778
10
10.5150765
20
275.3271948
11
10.6542765
21
275.2580948
0
LINE
8
DEFAULT_255_2_778
10
10.6542765
20
275.2580948
11
10.7870765
21
275.2244948
0
LINE
8
DEFAULT_255_2_778
10
10.7870765
20
275.2244948
11
11.0386765
21
275.2146948
0
LINE
8
DEFAULT_255_2_778
10
11.0386765
20
275.2146948
11
11.2669765
21
275.2691948
0
LINE
8
DEFAULT_255_2_778
10
11.2669765
20
275.2691948
11
11.4045765
21
275.3443948
0
LINE
8
DEFAULT_255_2_778
10
11.4045765
20
275.3443948
11
11.4754765
21
275.4091948
0
LINE
8
DEFAULT_255_2_778
10
11.4754765
20
275.4091948
11
11.5204765
21
275.4715948
0
LINE
8
DEFAULT_255_2_778
10
11.5204765
20
275.4715948
11
11.5471765
21
275.5234948
0
LINE
8
DEFAULT_255_2_778
10
11.5471765
20
275.5234948
11
11.5675765
21
275.5790948
0
LINE
8
DEFAULT_255_2_778
10
11.5675765
20
275.5790948
11
11.5776765
21
275.6173948
0
LINE
8
DEFAULT_255_2_778
10
11.5776765
20
275.6173948
11
11.5847765
21
275.6567948
0
LINE
8
DEFAULT_255_2_778
10
11.5847765
20
275.6567948
11
11.5842765
21
275.8184948
0
LINE
8
DEFAULT_255_2_778
10
11.5842765
20
275.8184948
11
11.5765765
21
275.8578948
0
LINE
8
DEFAULT_255_2_778
10
11.5765765
20
275.8578948
11
11.5657765
21
275.8962948
0
LINE
8
DEFAULT_255_2_778
10
11.5657765
20
275.8962948
11
11.5432765
21
275.9504948
0
LINE
8
DEFAULT_255_2_778
10
11.5432765
20
275.9504948
11
11.5133765
21
275.9996948
0
LINE
8
DEFAULT_255_2_778
10
11.5133765
20
275.9996948
11
11.4617765
21
276.0555948
0
LINE
8
DEFAULT_255_2_778
10
11.4617765
20
276.0555948
11
11.3283765
21
276.1359948
0
LINE
8
DEFAULT_255_2_778
10
11.3283765
20
276.1359948
11
11.1447765
21
276.2010948
0
LINE
8
DEFAULT_255_2_778
10
11.1447765
20
276.2010948
11
10.7605765
21
276.2767948
0
LINE
8
DEFAULT_255_2_778
10
10.7605765
20
276.2767948
11
10.6909765
21
276.3087948
0
LINE
8
DEFAULT_255_2_778
10
10.6909765
20
276.3087948
11
10.6452765
21
276.3452948
0
LINE
8
DEFAULT_255_2_778
10
10.6452765
20
276.3452948
11
10.6065765
21
276.3931948
0
LINE
8
DEFAULT_255_2_778
10
10.6065765
20
276.3931948
11
10.5862765
21
276.4296948
0
LINE
8
DEFAULT_255_2_778
10
10.5862765
20
276.4296948
11
10.5708765
21
276.4682948
0
LINE
8
DEFAULT_255_2_778
10
10.5708765
20
276.4682948
11
10.5653765
21
276.4878948
0
LINE
8
DEFAULT_255_2_778
10
10.5653765
20
276.4878948
11
10.5600765
21
276.5174948
0
LINE
8
DEFAULT_255_2_778
10
10.5600765
20
276.5174948
11
10.5610765
21
276.5746948
0
LINE
8
DEFAULT_255_2_778
10
10.5610765
20
276.5746948
11
10.5679765
21
276.6010948
0
LINE
8
DEFAULT_255_2_778
10
10.5679765
20
276.6010948
11
10.5944765
21
276.6489948
0
LINE
8
DEFAULT_255_2_778
10
10.5944765
20
276.6489948
11
10.6348765
21
276.6899948
0
LINE
8
DEFAULT_255_2_778
10
10.6348765
20
276.6899948
11
10.7245765
21
276.7429948
0
LINE
8
DEFAULT_255_2_778
10
10.7245765
20
276.7429948
11
10.8722765
21
276.7849948
0
LINE
8
DEFAULT_255_2_778
10
10.8722765
20
276.7849948
11
11.0193765
21
276.7886948
0
LINE
8
DEFAULT_255_2_778
10
11.0193765
20
276.7886948
11
11.1317765
21
276.7593948
0
LINE
8
DEFAULT_255_2_778
10
11.1317765
20
276.7593948
11
11.1947765
21
276.7222948
0
LINE
8
DEFAULT_255_2_778
10
11.1947765
20
276.7222948
11
11.2447765
21
276.6704948
0
LINE
8
DEFAULT_255_2_778
10
11.2447765
20
276.6704948
11
11.2741765
21
276.6219948
0
LINE
8
DEFAULT_255_2_778
10
11.2741765
20
276.6219948
11
11.2976765
21
276.5656948
0
LINE
8
DEFAULT_255_2_778
10
11.2976765
20
276.5656948
11
11.3103765
21
276.5235948
0
LINE
8
DEFAULT_255_2_778
10
11.3103765
20
276.5235948
11
11.5463765
21
276.5235948
0
LINE
8
DEFAULT_255_2_778
10
11.5463765
20
276.5235948
11
11.5426765
21
276.5521948
0
LINE
8
DEFAULT_255_2_778
10
11.5426765
20
276.5521948
11
11.5328765
21
276.6066948
0
LINE
8
DEFAULT_255_2_778
10
11.5328765
20
276.6066948
11
11.5196765
21
276.6574948
0
LINE
8
DEFAULT_255_2_778
10
11.5196765
20
276.6574948
11
11.5029765
21
276.7045948
0
LINE
8
DEFAULT_255_2_778
10
11.5029765
20
276.7045948
11
11.4823765
21
276.7479948
0
LINE
8
DEFAULT_255_2_778
10
11.4823765
20
276.7479948
11
11.4437765
21
276.8058948
0
LINE
8
DEFAULT_255_2_778
10
11.4437765
20
276.8058948
11
11.3953765
21
276.8545948
0
LINE
8
DEFAULT_255_2_778
10
11.3953765
20
276.8545948
11
11.3156765
21
276.9056948
0
LINE
8
DEFAULT_255_2_778
10
11.3156765
20
276.9056948
11
11.1743765
21
276.9564948
0
LINE
8
DEFAULT_255_2_778
10
11.1743765
20
276.9564948
11
10.9203765
21
276.9889948
0
LINE
8
DEFAULT_255_2_778
10
10.9203765
20
276.9889948
11
10.7732765
21
276.9770948
0
LINE
8
DEFAULT_255_2_778
10
10.7732765
20
276.9770948
11
10.6558765
21
276.9418948
0
LINE
8
DEFAULT_255_2_778
10
10.6558765
20
276.9418948
11
10.5446765
21
276.8789948
0
LINE
8
DEFAULT_255_2_778
10
10.5446765
20
276.8789948
11
10.4645765
21
276.8106948
0
LINE
8
DEFAULT_255_2_778
10
10.4645765
20
276.8106948
11
10.4126765
21
276.7511948
0
LINE
8
DEFAULT_255_2_778
10
10.4126765
20
276.7511948
11
10.3700765
21
276.6857948
0
LINE
8
DEFAULT_255_2_778
10
10.3700765
20
276.6857948
11
10.3478765
21
276.6397948
0
LINE
8
DEFAULT_255_2_778
10
10.3478765
20
276.6397948
11
10.3279765
21
276.5804948
0
LINE
8
DEFAULT_255_2_778
10
10.3279765
20
276.5804948
11
10.3208765
21
276.5439948
0
LINE
8
DEFAULT_255_2_778
10
10.3208765
20
276.5439948
11
10.3226765
21
276.4333948
0
LINE
8
DEFAULT_255_2_778
10
10.3226765
20
276.4333948
11
10.3311765
21
276.3968948
0
LINE
8
DEFAULT_255_2_778
10
10.3311765
20
276.3968948
11
10.3475765
21
276.3492948
0
LINE
8
DEFAULT_255_2_778
10
10.3475765
20
276.3492948
11
10.3695765
21
276.3031948
0
LINE
8
DEFAULT_255_2_778
10
10.3695765
20
276.3031948
11
10.4113765
21
276.2386948
0
LINE
8
DEFAULT_255_2_778
10
10.4113765
20
276.2386948
11
10.4618765
21
276.1817948
0
LINE
8
DEFAULT_255_2_778
10
10.4618765
20
276.1817948
11
10.5393765
21
276.1208948
0
LINE
8
DEFAULT_255_2_778
10
10.5393765
20
276.1208948
11
10.6483765
21
276.0684948
0
LINE
8
DEFAULT_255_2_778
10
10.6483765
20
276.0684948
11
10.8425765
21
276.0235948
0
LINE
8
DEFAULT_255_2_778
10
10.8425765
20
276.0235948
11
10.9971765
21
276.0057948
0
LINE
8
DEFAULT_255_2_778
10
5.9054765
20
276.1071948
11
5.9676765
21
275.9885948
0
LINE
8
DEFAULT_255_2_778
10
5.9676765
20
275.9885948
11
5.9837765
21
275.9121948
0
LINE
8
DEFAULT_255_2_778
10
5.9837765
20
275.9121948
11
5.9856765
21
275.7705948
0
LINE
8
DEFAULT_255_2_778
10
5.9856765
20
275.7705948
11
5.9777765
21
275.7189948
0
LINE
8
DEFAULT_255_2_778
10
5.9777765
20
275.7189948
11
5.9467765
21
275.6274948
0
LINE
8
DEFAULT_255_2_778
10
5.9467765
20
275.6274948
11
5.8268765
21
275.4932948
0
LINE
8
DEFAULT_255_2_778
10
5.8268765
20
275.4932948
11
5.6636765
21
275.4430948
0
LINE
8
DEFAULT_255_2_778
10
5.6636765
20
275.4430948
11
5.4667765
21
275.4755948
0
LINE
8
DEFAULT_255_2_778
10
5.4667765
20
275.4755948
11
5.3604765
21
275.5581948
0
LINE
8
DEFAULT_255_2_778
10
5.3604765
20
275.5581948
11
5.3096765
21
275.6398948
0
LINE
8
DEFAULT_255_2_778
10
5.3096765
20
275.6398948
11
5.2879765
21
275.7033948
0
LINE
8
DEFAULT_255_2_778
10
5.2879765
20
275.7033948
11
5.2789765
21
275.7496948
0
LINE
8
DEFAULT_255_2_778
10
5.2789765
20
275.7496948
11
5.2776765
21
275.9015948
0
LINE
8
DEFAULT_255_2_778
10
5.2776765
20
275.9015948
11
5.2831765
21
275.9367948
0
LINE
8
DEFAULT_255_2_778
10
5.2831765
20
275.9367948
11
5.2977765
21
275.9914948
0
LINE
8
DEFAULT_255_2_778
10
5.2977765
20
275.9914948
11
5.3345765
21
276.0682948
0
LINE
8
DEFAULT_255_2_778
10
5.3345765
20
276.0682948
11
5.4173765
21
276.1573948
0
LINE
8
DEFAULT_255_2_778
10
5.4173765
20
276.1573948
11
5.6816765
21
276.2227948
0
LINE
8
DEFAULT_255_2_778
10
5.6816765
20
276.2227948
11
5.8970765
21
276.1163948
0
LINE
8
DEFAULT_255_2_778
10
5.8970765
20
276.1163948
11
5.9054765
21
276.1071948
0
LINE
8
DEFAULT_255_2_778
10
5.9509765
20
276.5603948
11
6.1737765
21
276.5603948
0
LINE
8
DEFAULT_255_2_778
10
6.1737765
20
276.5603948
11
6.1713765
21
276.6185948
0
LINE
8
DEFAULT_255_2_778
10
6.1713765
20
276.6185948
11
6.1692765
21
276.6381948
0
LINE
8
DEFAULT_255_2_778
10
6.1692765
20
276.6381948
11
6.1626765
21
276.6767948
0
LINE
8
DEFAULT_255_2_778
10
6.1626765
20
276.6767948
11
6.1528765
21
276.7148948
0
LINE
8
DEFAULT_255_2_778
10
6.1528765
20
276.7148948
11
6.1319765
21
276.7698948
0
LINE
8
DEFAULT_255_2_778
10
6.1319765
20
276.7698948
11
6.1028765
21
276.8206948
0
LINE
8
DEFAULT_255_2_778
10
6.1028765
20
276.8206948
11
6.0520765
21
276.8802948
0
LINE
8
DEFAULT_255_2_778
10
6.0520765
20
276.8802948
11
5.9739765
21
276.9389948
0
LINE
8
DEFAULT_255_2_778
10
5.9739765
20
276.9389948
11
5.8472765
21
276.9900948
0
LINE
8
DEFAULT_255_2_778
10
5.8472765
20
276.9900948
11
5.6337765
21
277.0101948
0
LINE
8
DEFAULT_255_2_778
10
5.6337765
20
277.0101948
11
5.4604765
21
276.9802948
0
LINE
8
DEFAULT_255_2_778
10
5.4604765
20
276.9802948
11
5.3368765
21
276.9209948
0
LINE
8
DEFAULT_255_2_778
10
5.3368765
20
276.9209948
11
5.2458765
21
276.8466948
0
LINE
8
DEFAULT_255_2_778
10
5.2458765
20
276.8466948
11
5.1723765
21
276.7550948
0
LINE
8
DEFAULT_255_2_778
10
5.1723765
20
276.7550948
11
5.1148765
21
276.6524948
0
LINE
8
DEFAULT_255_2_778
10
5.1148765
20
276.6524948
11
5.0916765
21
276.5984948
0
LINE
8
DEFAULT_255_2_778
10
5.0916765
20
276.5984948
11
5.0656765
21
276.5246948
0
LINE
8
DEFAULT_255_2_778
10
5.0656765
20
276.5246948
11
5.0450765
21
276.4492948
0
LINE
8
DEFAULT_255_2_778
10
5.0450765
20
276.4492948
11
5.0365765
21
276.4111948
0
LINE
8
DEFAULT_255_2_778
10
5.0365765
20
276.4111948
11
5.0291765
21
276.3727948
0
LINE
8
DEFAULT_255_2_778
10
5.0291765
20
276.3727948
11
5.0228765
21
276.3341948
0
LINE
8
DEFAULT_255_2_778
10
5.0228765
20
276.3341948
11
5.0175765
21
276.2954948
0
LINE
8
DEFAULT_255_2_778
10
5.0175765
20
276.2954948
11
5.0130765
21
276.2566948
0
LINE
8
DEFAULT_255_2_778
10
5.0130765
20
276.2566948
11
5.0093765
21
276.2177948
0
LINE
8
DEFAULT_255_2_778
10
5.0093765
20
276.2177948
11
5.0090765
21
275.9055948
0
LINE
8
DEFAULT_255_2_778
10
5.0090765
20
275.9055948
11
5.0130765
21
275.8666948
0
LINE
8
DEFAULT_255_2_778
10
5.0130765
20
275.8666948
11
5.0180765
21
275.8277948
0
LINE
8
DEFAULT_255_2_778
10
5.0180765
20
275.8277948
11
5.0244765
21
275.7890948
0
LINE
8
DEFAULT_255_2_778
10
5.0244765
20
275.7890948
11
5.0320765
21
275.7507948
0
LINE
8
DEFAULT_255_2_778
10
5.0320765
20
275.7507948
11
5.0410765
21
275.7126948
0
LINE
8
DEFAULT_255_2_778
10
5.0410765
20
275.7126948
11
5.0635765
21
275.6377948
0
LINE
8
DEFAULT_255_2_778
10
5.0635765
20
275.6377948
11
5.1016765
21
275.5477948
0
LINE
8
DEFAULT_255_2_778
10
5.1016765
20
275.5477948
11
5.1522765
21
275.4639948
0
LINE
8
DEFAULT_255_2_778
10
5.1522765
20
275.4639948
11
5.2159765
21
275.3893948
0
LINE
8
DEFAULT_255_2_778
10
5.2159765
20
275.3893948
11
5.3096765
21
275.3186948
0
LINE
8
DEFAULT_255_2_778
10
5.3096765
20
275.3186948
11
5.4363765
21
275.2670948
0
LINE
8
DEFAULT_255_2_778
10
5.4363765
20
275.2670948
11
5.6501765
21
275.2474948
0
LINE
8
DEFAULT_255_2_778
10
5.6501765
20
275.2474948
11
5.8422765
21
275.2816948
0
LINE
8
DEFAULT_255_2_778
10
5.8422765
20
275.2816948
11
5.9660765
21
275.3398948
0
LINE
8
DEFAULT_255_2_778
10
5.9660765
20
275.3398948
11
6.0576765
21
275.4133948
0
LINE
8
DEFAULT_255_2_778
10
6.0576765
20
275.4133948
11
6.1192765
21
275.4893948
0
LINE
8
DEFAULT_255_2_778
10
6.1192765
20
275.4893948
11
6.1570765
21
275.5578948
0
LINE
8
DEFAULT_255_2_778
10
6.1570765
20
275.5578948
11
6.1782765
21
275.6126948
0
LINE
8
DEFAULT_255_2_778
10
6.1782765
20
275.6126948
11
6.1938765
21
275.6692948
0
LINE
8
DEFAULT_255_2_778
10
6.1938765
20
275.6692948
11
6.2012765
21
275.7075948
0
LINE
8
DEFAULT_255_2_778
10
6.2012765
20
275.7075948
11
6.2063765
21
275.7464948
0
LINE
8
DEFAULT_255_2_778
10
6.2063765
20
275.7464948
11
6.2057765
21
275.9221948
0
LINE
8
DEFAULT_255_2_778
10
6.2057765
20
275.9221948
11
6.2004765
21
275.9608948
0
LINE
8
DEFAULT_255_2_778
10
6.2004765
20
275.9608948
11
6.1928765
21
275.9991948
0
LINE
8
DEFAULT_255_2_778
10
6.1928765
20
275.9991948
11
6.1769765
21
276.0557948
0
LINE
8
DEFAULT_255_2_778
10
6.1769765
20
276.0557948
11
6.1555765
21
276.1102948
0
LINE
8
DEFAULT_255_2_778
10
6.1555765
20
276.1102948
11
6.1176765
21
276.1788948
0
LINE
8
DEFAULT_255_2_778
10
6.1176765
20
276.1788948
11
6.0565765
21
276.2552948
0
LINE
8
DEFAULT_255_2_778
10
6.0565765
20
276.2552948
11
5.9816765
21
276.3182948
0
LINE
8
DEFAULT_255_2_778
10
5.9816765
20
276.3182948
11
5.8768765
21
276.3709948
0
LINE
8
DEFAULT_255_2_778
10
5.8768765
20
276.3709948
11
5.7237765
21
276.4013948
0
LINE
8
DEFAULT_255_2_778
10
5.7237765
20
276.4013948
11
5.5675765
21
276.3912948
0
LINE
8
DEFAULT_255_2_778
10
5.5675765
20
276.3912948
11
5.4390765
21
276.3455948
0
LINE
8
DEFAULT_255_2_778
10
5.4390765
20
276.3455948
11
5.3270765
21
276.2666948
0
LINE
8
DEFAULT_255_2_778
10
5.3270765
20
276.2666948
11
5.2479765
21
276.1804948
0
LINE
8
DEFAULT_255_2_778
10
5.2479765
20
276.1804948
11
5.2260765
21
276.1481948
0
LINE
8
DEFAULT_255_2_778
10
5.2260765
20
276.1481948
11
5.2307765
21
276.2042948
0
LINE
8
DEFAULT_255_2_778
10
5.2307765
20
276.2042948
11
5.2371765
21
276.2603948
0
LINE
8
DEFAULT_255_2_778
10
5.2371765
20
276.2603948
11
5.2453765
21
276.3164948
0
LINE
8
DEFAULT_255_2_778
10
5.2453765
20
276.3164948
11
5.2559765
21
276.3719948
0
LINE
8
DEFAULT_255_2_778
10
5.2559765
20
276.3719948
11
5.2688765
21
276.4269948
0
LINE
8
DEFAULT_255_2_778
10
5.2688765
20
276.4269948
11
5.3040765
21
276.5341948
0
LINE
8
DEFAULT_255_2_778
10
5.3040765
20
276.5341948
11
5.3538765
21
276.6357948
0
LINE
8
DEFAULT_255_2_778
10
5.3538765
20
276.6357948
11
5.4133765
21
276.7148948
0
LINE
8
DEFAULT_255_2_778
10
5.4133765
20
276.7148948
11
5.5030765
21
276.7839948
0
LINE
8
DEFAULT_255_2_778
10
5.5030765
20
276.7839948
11
5.6387765
21
276.8214948
0
LINE
8
DEFAULT_255_2_778
10
5.6387765
20
276.8214948
11
5.7787765
21
276.8074948
0
LINE
8
DEFAULT_255_2_778
10
5.7787765
20
276.8074948
11
5.9004765
21
276.7262948
0
LINE
8
DEFAULT_255_2_778
10
5.9004765
20
276.7262948
11
5.9366765
21
276.6579948
0
LINE
8
DEFAULT_255_2_778
10
5.9366765
20
276.6579948
11
5.9441765
21
276.6304948
0
LINE
8
DEFAULT_255_2_778
10
5.9441765
20
276.6304948
11
5.9485765
21
276.6024948
0
LINE
8
DEFAULT_255_2_778
10
5.9485765
20
276.6024948
11
5.9509765
21
276.5603948
0
LINE
8
DEFAULT_255_2_778
10
2.8561765
20
275.9398948
11
2.2693765
21
275.9398948
0
LINE
8
DEFAULT_255_2_778
10
2.2693765
20
275.9398948
11
2.8561765
21
276.7701948
0
LINE
8
DEFAULT_255_2_778
10
2.8561765
20
276.7701948
11
2.8561765
21
275.9398948
0
LINE
8
DEFAULT_255_2_778
10
3.0432765
20
276.9884948
11
2.8209765
21
276.9884948
0
LINE
8
DEFAULT_255_2_778
10
2.8209765
20
276.9884948
11
2.0893765
21
275.9637948
0
LINE
8
DEFAULT_255_2_778
10
2.0893765
20
275.9637948
11
2.0893765
21
275.7779948
0
LINE
8
DEFAULT_255_2_778
10
2.0893765
20
275.7779948
11
2.8561765
21
275.7779948
0
LINE
8
DEFAULT_255_2_778
10
2.8561765
20
275.7779948
11
2.8561765
21
275.2884948
0
LINE
8
DEFAULT_255_2_778
10
2.8561765
20
275.2884948
11
3.0432765
21
275.2884948
0
LINE
8
DEFAULT_255_2_778
10
3.0432765
20
275.2884948
11
3.0432765
21
275.7779948
0
LINE
8
DEFAULT_255_2_778
10
3.0432765
20
275.7779948
11
3.3056765
21
275.7779948
0
LINE
8
DEFAULT_255_2_778
10
3.3056765
20
275.7779948
11
3.3056765
21
275.9398948
0
LINE
8
DEFAULT_255_2_778
10
3.3056765
20
275.9398948
11
3.0432765
21
275.9398948
0
LINE
8
DEFAULT_255_2_778
10
3.0432765
20
275.9398948
11
3.0432765
21
276.9884948
0
LINE
8
DEFAULT_255_2_778
10
2.4889765
20
209.9504948
11
2.6132765
21
209.9274948
0
LINE
8
DEFAULT_255_2_778
10
2.6132765
20
209.9274948
11
2.7198765
21
209.8734948
0
LINE
8
DEFAULT_255_2_778
10
2.7198765
20
209.8734948
11
2.7701765
21
209.8176948
0
LINE
8
DEFAULT_255_2_778
10
2.7701765
20
209.8176948
11
2.8019765
21
209.7594948
0
LINE
8
DEFAULT_255_2_778
10
2.8019765
20
209.7594948
11
2.8196765
21
209.7083948
0
LINE
8
DEFAULT_255_2_778
10
2.8196765
20
209.7083948
11
2.8281765
21
209.6686948
0
LINE
8
DEFAULT_255_2_778
10
2.8281765
20
209.6686948
11
2.8262765
21
209.5527948
0
LINE
8
DEFAULT_255_2_778
10
2.8262765
20
209.5527948
11
2.8154765
21
209.5183948
0
LINE
8
DEFAULT_255_2_778
10
2.8154765
20
209.5183948
11
2.7926765
21
209.4778948
0
LINE
8
DEFAULT_255_2_778
10
2.7926765
20
209.4778948
11
2.7320765
21
209.4228948
0
LINE
8
DEFAULT_255_2_778
10
2.7320765
20
209.4228948
11
2.6518765
21
209.3855948
0
LINE
8
DEFAULT_255_2_778
10
2.6518765
20
209.3855948
11
2.4915765
21
209.3537948
0
LINE
8
DEFAULT_255_2_778
10
2.4915765
20
209.3537948
11
2.3330765
21
209.3548948
0
LINE
8
DEFAULT_255_2_778
10
2.3330765
20
209.3548948
11
2.1875765
21
209.4014948
0
LINE
8
DEFAULT_255_2_778
10
2.1875765
20
209.4014948
11
2.1121765
21
209.4683948
0
LINE
8
DEFAULT_255_2_778
10
2.1121765
20
209.4683948
11
2.0684765
21
209.5403948
0
LINE
8
DEFAULT_255_2_778
10
2.0684765
20
209.5403948
11
2.0446765
21
209.6019948
0
LINE
8
DEFAULT_255_2_778
10
2.0446765
20
209.6019948
11
2.0295765
21
209.6570948
0
LINE
8
DEFAULT_255_2_778
10
2.0295765
20
209.6570948
11
2.0232765
21
209.6863948
0
LINE
8
DEFAULT_255_2_778
10
2.0232765
20
209.6863948
11
1.7893765
21
209.6863948
0
LINE
8
DEFAULT_255_2_778
10
1.7893765
20
209.6863948
11
1.7909765
21
209.6458948
0
LINE
8
DEFAULT_255_2_778
10
1.7909765
20
209.6458948
11
1.7927765
21
209.6260948
0
LINE
8
DEFAULT_255_2_778
10
1.7927765
20
209.6260948
11
1.7983765
21
209.5874948
0
LINE
8
DEFAULT_255_2_778
10
1.7983765
20
209.5874948
11
1.8068765
21
209.5501948
0
LINE
8
DEFAULT_255_2_778
10
1.8068765
20
209.5501948
11
1.8250765
21
209.4961948
0
LINE
8
DEFAULT_255_2_778
10
1.8250765
20
209.4961948
11
1.8597765
21
209.4273948
0
LINE
8
DEFAULT_255_2_778
10
1.8597765
20
209.4273948
11
1.9184765
21
209.3490948
0
LINE
8
DEFAULT_255_2_778
10
1.9184765
20
209.3490948
11
2.0065765
21
209.2720948
0
LINE
8
DEFAULT_255_2_778
10
2.0065765
20
209.2720948
11
2.1457765
21
209.2032948
0
LINE
8
DEFAULT_255_2_778
10
2.1457765
20
209.2032948
11
2.2785765
21
209.1696948
0
LINE
8
DEFAULT_255_2_778
10
2.2785765
20
209.1696948
11
2.5301765
21
209.1598948
0
LINE
8
DEFAULT_255_2_778
10
2.5301765
20
209.1598948
11
2.7585765
21
209.2143948
0
LINE
8
DEFAULT_255_2_778
10
2.7585765
20
209.2143948
11
2.8961765
21
209.2892948
0
LINE
8
DEFAULT_255_2_778
10
2.8961765
20
209.2892948
11
2.9670765
21
209.3540948
0
LINE
8
DEFAULT_255_2_778
10
2.9670765
20
209.3540948
11
3.0119765
21
209.4165948
0
LINE
8
DEFAULT_255_2_778
10
3.0119765
20
209.4165948
11
3.0384765
21
209.4683948
0
LINE
8
DEFAULT_255_2_778
10
3.0384765
20
209.4683948
11
3.0588765
21
209.5236948
0
LINE
8
DEFAULT_255_2_778
10
3.0588765
20
209.5236948
11
3.0688765
21
209.5620948
0
LINE
8
DEFAULT_255_2_778
10
3.0688765
20
209.5620948
11
3.0760765
21
209.6014948
0
LINE
8
DEFAULT_255_2_778
10
3.0760765
20
209.6014948
11
3.0754765
21
209.7628948
0
LINE
8
DEFAULT_255_2_778
10
3.0754765
20
209.7628948
11
3.0678765
21
209.8022948
0
LINE
8
DEFAULT_255_2_778
10
3.0678765
20
209.8022948
11
3.0569765
21
209.8406948
0
LINE
8
DEFAULT_255_2_778
10
3.0569765
20
209.8406948
11
3.0347765
21
209.8948948
0
LINE
8
DEFAULT_255_2_778
10
3.0347765
20
209.8948948
11
3.0048765
21
209.9440948
0
LINE
8
DEFAULT_255_2_778
10
3.0048765
20
209.9440948
11
2.9532765
21
209.9999948
0
LINE
8
DEFAULT_255_2_778
10
2.9532765
20
209.9999948
11
2.8199765
21
210.0800948
0
LINE
8
DEFAULT_255_2_778
10
2.8199765
20
210.0800948
11
2.6362765
21
210.1451948
0
LINE
8
DEFAULT_255_2_778
10
2.6362765
20
210.1451948
11
2.2521765
21
210.2208948
0
LINE
8
DEFAULT_255_2_778
10
2.2521765
20
210.2208948
11
2.1825765
21
210.2528948
0
LINE
8
DEFAULT_255_2_778
10
2.1825765
20
210.2528948
11
2.1364765
21
210.2893948
0
LINE
8
DEFAULT_255_2_778
10
2.1364765
20
210.2893948
11
2.0978765
21
210.3372948
0
LINE
8
DEFAULT_255_2_778
10
2.0978765
20
210.3372948
11
2.0774765
21
210.3737948
0
LINE
8
DEFAULT_255_2_778
10
2.0774765
20
210.3737948
11
2.0621765
21
210.4123948
0
LINE
8
DEFAULT_255_2_778
10
2.0621765
20
210.4123948
11
2.0565765
21
210.4319948
0
LINE
8
DEFAULT_255_2_778
10
2.0565765
20
210.4319948
11
2.0512765
21
210.4616948
0
LINE
8
DEFAULT_255_2_778
10
2.0512765
20
210.4616948
11
2.0523765
21
210.5187948
0
LINE
8
DEFAULT_255_2_778
10
2.0523765
20
210.5187948
11
2.0592765
21
210.5452948
0
LINE
8
DEFAULT_255_2_778
10
2.0592765
20
210.5452948
11
2.0856765
21
210.5931948
0
LINE
8
DEFAULT_255_2_778
10
2.0856765
20
210.5931948
11
2.1261765
21
210.6341948
0
LINE
8
DEFAULT_255_2_778
10
2.1261765
20
210.6341948
11
2.2158765
21
210.6870948
0
LINE
8
DEFAULT_255_2_778
10
2.2158765
20
210.6870948
11
2.3634765
21
210.7291948
0
LINE
8
DEFAULT_255_2_778
10
2.3634765
20
210.7291948
11
2.5106765
21
210.7328948
0
LINE
8
DEFAULT_255_2_778
10
2.5106765
20
210.7328948
11
2.6230765
21
210.7034948
0
LINE
8
DEFAULT_255_2_778
10
2.6230765
20
210.7034948
11
2.6857765
21
210.6663948
0
LINE
8
DEFAULT_255_2_778
10
2.6857765
20
210.6663948
11
2.7357765
21
210.6145948
0
LINE
8
DEFAULT_255_2_778
10
2.7357765
20
210.6145948
11
2.7651765
21
210.5661948
0
LINE
8
DEFAULT_255_2_778
10
2.7651765
20
210.5661948
11
2.7886765
21
210.5097948
0
LINE
8
DEFAULT_255_2_778
10
2.7886765
20
210.5097948
11
2.8013765
21
210.4676948
0
LINE
8
DEFAULT_255_2_778
10
2.8013765
20
210.4676948
11
3.0376765
21
210.4676948
0
LINE
8
DEFAULT_255_2_778
10
3.0376765
20
210.4676948
11
3.0339765
21
210.4962948
0
LINE
8
DEFAULT_255_2_778
10
3.0339765
20
210.4962948
11
3.0241765
21
210.5507948
0
LINE
8
DEFAULT_255_2_778
10
3.0241765
20
210.5507948
11
3.0109765
21
210.6015948
0
LINE
8
DEFAULT_255_2_778
10
3.0109765
20
210.6015948
11
2.9942765
21
210.6486948
0
LINE
8
DEFAULT_255_2_778
10
2.9942765
20
210.6486948
11
2.9736765
21
210.6920948
0
LINE
8
DEFAULT_255_2_778
10
2.9736765
20
210.6920948
11
2.9349765
21
210.7497948
0
LINE
8
DEFAULT_255_2_778
10
2.9349765
20
210.7497948
11
2.8865765
21
210.7984948
0
LINE
8
DEFAULT_255_2_778
10
2.8865765
20
210.7984948
11
2.8069765
21
210.8494948
0
LINE
8
DEFAULT_255_2_778
10
2.8069765
20
210.8494948
11
2.6653765
21
210.9002948
0
LINE
8
DEFAULT_255_2_778
10
2.6653765
20
210.9002948
11
2.4116765
21
210.9328948
0
LINE
8
DEFAULT_255_2_778
10
2.4116765
20
210.9328948
11
2.2645765
21
210.9209948
0
LINE
8
DEFAULT_255_2_778
10
2.2645765
20
210.9209948
11
2.1470765
21
210.8857948
0
LINE
8
DEFAULT_255_2_778
10
2.1470765
20
210.8857948
11
2.0359765
21
210.8230948
0
LINE
8
DEFAULT_255_2_778
10
2.0359765
20
210.8230948
11
1.9557765
21
210.7547948
0
LINE
8
DEFAULT_255_2_778
10
1.9557765
20
210.7547948
11
1.9039765
21
210.6952948
0
LINE
8
DEFAULT_255_2_778
10
1.9039765
20
210.6952948
11
1.8613765
21
210.6301948
0
LINE
8
DEFAULT_255_2_778
10
1.8613765
20
210.6301948
11
1.8390765
21
210.5841948
0
LINE
8
DEFAULT_255_2_778
10
1.8390765
20
210.5841948
11
1.8192765
21
210.5248948
0
LINE
8
DEFAULT_255_2_778
10
1.8192765
20
210.5248948
11
1.8121765
21
210.4883948
0
LINE
8
DEFAULT_255_2_778
10
1.8121765
20
210.4883948
11
1.8139765
21
210.3777948
0
LINE
8
DEFAULT_255_2_778
10
1.8139765
20
210.3777948
11
1.8224765
21
210.3412948
0
LINE
8
DEFAULT_255_2_778
10
1.8224765
20
210.3412948
11
1.8388765
21
210.2935948
0
LINE
8
DEFAULT_255_2_778
10
1.8388765
20
210.2935948
11
1.8607765
21
210.2475948
0
LINE
8
DEFAULT_255_2_778
10
1.8607765
20
210.2475948
11
1.9025765
21
210.1830948
0
LINE
8
DEFAULT_255_2_778
10
1.9025765
20
210.1830948
11
1.9531765
21
210.1261948
0
LINE
8
DEFAULT_255_2_778
10
1.9531765
20
210.1261948
11
2.0306765
21
210.0652948
0
LINE
8
DEFAULT_255_2_778
10
2.0306765
20
210.0652948
11
2.1396765
21
210.0128948
0
LINE
8
DEFAULT_255_2_778
10
2.1396765
20
210.0128948
11
2.3338765
21
209.9678948
0
LINE
8
DEFAULT_255_2_778
10
2.3338765
20
209.9678948
11
2.4883765
21
209.9501948
0
LINE
8
DEFAULT_255_2_778
10
4.6404765
20
210.9285948
11
3.2794765
21
210.9285948
0
LINE
8
DEFAULT_255_2_778
10
3.2794765
20
210.9285948
11
3.2794765
21
210.7666948
0
LINE
8
DEFAULT_255_2_778
10
3.2794765
20
210.7666948
11
3.8446765
21
210.7666948
0
LINE
8
DEFAULT_255_2_778
10
3.8446765
20
210.7666948
11
3.8446765
21
209.2286948
0
LINE
8
DEFAULT_255_2_778
10
3.8446765
20
209.2286948
11
4.0687765
21
209.2286948
0
LINE
8
DEFAULT_255_2_778
10
4.0687765
20
209.2286948
11
4.0687765
21
210.7666948
0
LINE
8
DEFAULT_255_2_778
10
4.0687765
20
210.7666948
11
4.6404765
21
210.7666948
0
LINE
8
DEFAULT_255_2_778
10
4.6404765
20
210.7666948
11
4.6404765
21
210.9285948
0
LINE
8
DEFAULT_255_2_778
10
6.0393765
20
210.6129948
11
6.0962765
21
210.5415948
0
LINE
8
DEFAULT_255_2_778
10
6.0962765
20
210.5415948
11
6.1422765
21
210.4610948
0
LINE
8
DEFAULT_255_2_778
10
6.1422765
20
210.4610948
11
6.1695765
21
210.3946948
0
LINE
8
DEFAULT_255_2_778
10
6.1695765
20
210.3946948
11
6.1843765
21
210.3475948
0
LINE
8
DEFAULT_255_2_778
10
6.1843765
20
210.3475948
11
6.1965765
21
210.2980948
0
LINE
8
DEFAULT_255_2_778
10
6.1965765
20
210.2980948
11
6.2060765
21
210.2465948
0
LINE
8
DEFAULT_255_2_778
10
6.2060765
20
210.2465948
11
6.2097765
21
210.2197948
0
LINE
8
DEFAULT_255_2_778
10
6.2097765
20
210.2197948
11
6.2094765
21
209.9361948
0
LINE
8
DEFAULT_255_2_778
10
6.2094765
20
209.9361948
11
6.2012765
21
209.8834948
0
LINE
8
DEFAULT_255_2_778
10
6.2012765
20
209.8834948
11
6.1904765
21
209.8329948
0
LINE
8
DEFAULT_255_2_778
10
6.1904765
20
209.8329948
11
6.1766765
21
209.7848948
0
LINE
8
DEFAULT_255_2_778
10
6.1766765
20
209.7848948
11
6.1510765
21
209.7168948
0
LINE
8
DEFAULT_255_2_778
10
6.1510765
20
209.7168948
11
6.1189765
21
209.6538948
0
LINE
8
DEFAULT_255_2_778
10
6.1189765
20
209.6538948
11
6.0433765
21
209.5501948
0
LINE
8
DEFAULT_255_2_778
10
6.0433765
20
209.5501948
11
5.9382765
21
209.4591948
0
LINE
8
DEFAULT_255_2_778
10
5.9382765
20
209.4591948
11
5.7972765
21
209.3937948
0
LINE
8
DEFAULT_255_2_778
10
5.7972765
20
209.3937948
11
5.5924765
21
209.3667948
0
LINE
8
DEFAULT_255_2_778
10
5.5924765
20
209.3667948
11
5.3900765
21
209.3977948
0
LINE
8
DEFAULT_255_2_778
10
5.3900765
20
209.3977948
11
5.2506765
21
209.4662948
0
LINE
8
DEFAULT_255_2_778
10
5.2506765
20
209.4662948
11
5.1469765
21
209.5601948
0
LINE
8
DEFAULT_255_2_778
10
5.1469765
20
209.5601948
11
5.0844765
21
209.6474948
0
LINE
8
DEFAULT_255_2_778
10
5.0844765
20
209.6474948
11
5.0437765
21
209.7297948
0
LINE
8
DEFAULT_255_2_778
10
5.0437765
20
209.7297948
11
5.0185765
21
209.8017948
0
LINE
8
DEFAULT_255_2_778
10
5.0185765
20
209.8017948
11
5.0040765
21
209.8591948
0
LINE
8
DEFAULT_255_2_778
10
5.0040765
20
209.8591948
11
4.9963765
21
209.8991948
0
LINE
8
DEFAULT_255_2_778
10
4.9963765
20
209.8991948
11
4.9905765
21
209.9403948
0
LINE
8
DEFAULT_255_2_778
10
4.9905765
20
209.9403948
11
4.9863765
21
209.9832948
0
LINE
8
DEFAULT_255_2_778
10
4.9863765
20
209.9832948
11
4.9873765
21
210.1848948
0
LINE
8
DEFAULT_255_2_778
10
4.9873765
20
210.1848948
11
4.9921765
21
210.2271948
0
LINE
8
DEFAULT_255_2_778
10
4.9921765
20
210.2271948
11
4.9984765
21
210.2681948
0
LINE
8
DEFAULT_255_2_778
10
4.9984765
20
210.2681948
11
5.0111765
21
210.3272948
0
LINE
8
DEFAULT_255_2_778
10
5.0111765
20
210.3272948
11
5.0339765
21
210.4012948
0
LINE
8
DEFAULT_255_2_778
10
5.0339765
20
210.4012948
11
5.0717765
21
210.4862948
0
LINE
8
DEFAULT_255_2_778
10
5.0717765
20
210.4862948
11
5.1310765
21
210.5769948
0
LINE
8
DEFAULT_255_2_778
10
5.1310765
20
210.5769948
11
5.2289765
21
210.6748948
0
LINE
8
DEFAULT_255_2_778
10
5.2289765
20
210.6748948
11
5.3601765
21
210.7494948
0
LINE
8
DEFAULT_255_2_778
10
5.3601765
20
210.7494948
11
5.5506765
21
210.7891948
0
LINE
8
DEFAULT_255_2_778
10
5.5506765
20
210.7891948
11
5.7697765
21
210.7695948
0
LINE
8
DEFAULT_255_2_778
10
5.7697765
20
210.7695948
11
5.9237765
21
210.7060948
0
LINE
8
DEFAULT_255_2_778
10
5.9237765
20
210.7060948
11
6.0393765
21
210.6129948
0
LINE
8
DEFAULT_255_2_778
10
6.3547765
20
209.6437948
11
6.3952765
21
209.7353948
0
LINE
8
DEFAULT_255_2_778
10
6.3952765
20
209.7353948
11
6.4187765
21
209.8067948
0
LINE
8
DEFAULT_255_2_778
10
6.4187765
20
209.8067948
11
6.4311765
21
209.8557948
0
LINE
8
DEFAULT_255_2_778
10
6.4311765
20
209.8557948
11
6.4412765
21
209.9057948
0
LINE
8
DEFAULT_255_2_778
10
6.4412765
20
209.9057948
11
6.4486765
21
209.9565948
0
LINE
8
DEFAULT_255_2_778
10
6.4486765
20
209.9565948
11
6.4468765
21
210.2187948
0
LINE
8
DEFAULT_255_2_778
10
6.4468765
20
210.2187948
11
6.4388765
21
210.2689948
0
LINE
8
DEFAULT_255_2_778
10
6.4388765
20
210.2689948
11
6.4285765
21
210.3179948
0
LINE
8
DEFAULT_255_2_778
10
6.4285765
20
210.3179948
11
6.4084765
21
210.3893948
0
LINE
8
DEFAULT_255_2_778
10
6.4084765
20
210.3893948
11
6.3827765
21
210.4581948
0
LINE
8
DEFAULT_255_2_778
10
6.3827765
20
210.4581948
11
6.3396765
21
210.5457948
0
LINE
8
DEFAULT_255_2_778
10
6.3396765
20
210.5457948
11
6.2716765
21
210.6486948
0
LINE
8
DEFAULT_255_2_778
10
6.2716765
20
210.6486948
11
6.1885765
21
210.7428948
0
LINE
8
DEFAULT_255_2_778
10
6.1885765
20
210.7428948
11
6.0933765
21
210.8203948
0
LINE
8
DEFAULT_255_2_778
10
6.0933765
20
210.8203948
11
5.9628765
21
210.8899948
0
LINE
8
DEFAULT_255_2_778
10
5.9628765
20
210.8899948
11
5.7890765
21
210.9389948
0
LINE
8
DEFAULT_255_2_778
10
5.7890765
20
210.9389948
11
5.5628765
21
210.9524948
0
LINE
8
DEFAULT_255_2_778
10
5.5628765
20
210.9524948
11
5.3477765
21
210.9227948
0
LINE
8
DEFAULT_255_2_778
10
5.3477765
20
210.9227948
11
5.1844765
21
210.8624948
0
LINE
8
DEFAULT_255_2_778
10
5.1844765
20
210.8624948
11
5.0630765
21
210.7854948
0
LINE
8
DEFAULT_255_2_778
10
5.0630765
20
210.7854948
11
4.9749765
21
210.7031948
0
LINE
8
DEFAULT_255_2_778
10
4.9749765
20
210.7031948
11
4.8987765
21
210.6047948
0
LINE
8
DEFAULT_255_2_778
10
4.8987765
20
210.6047948
11
4.8463765
21
210.5142948
0
LINE
8
DEFAULT_255_2_778
10
4.8463765
20
210.5142948
11
4.8058765
21
210.4221948
0
LINE
8
DEFAULT_255_2_778
10
4.8058765
20
210.4221948
11
4.7823765
21
210.3507948
0
LINE
8
DEFAULT_255_2_778
10
4.7823765
20
210.3507948
11
4.7698765
21
210.3018948
0
LINE
8
DEFAULT_255_2_778
10
4.7698765
20
210.3018948
11
4.7598765
21
210.2520948
0
LINE
8
DEFAULT_255_2_778
10
4.7598765
20
210.2520948
11
4.7524765
21
210.2012948
0
LINE
8
DEFAULT_255_2_778
10
4.7524765
20
210.2012948
11
4.7540765
21
209.9411948
0
LINE
8
DEFAULT_255_2_778
10
4.7540765
20
209.9411948
11
4.7616765
21
209.8914948
0
LINE
8
DEFAULT_255_2_778
10
4.7616765
20
209.8914948
11
4.7717765
21
209.8430948
0
LINE
8
DEFAULT_255_2_778
10
4.7717765
20
209.8430948
11
4.7913765
21
209.7723948
0
LINE
8
DEFAULT_255_2_778
10
4.7913765
20
209.7723948
11
4.8164765
21
209.7043948
0
LINE
8
DEFAULT_255_2_778
10
4.8164765
20
209.7043948
11
4.8582765
21
209.6178948
0
LINE
8
DEFAULT_255_2_778
10
4.8582765
20
209.6178948
11
4.9241765
21
209.5162948
0
LINE
8
DEFAULT_255_2_778
10
4.9241765
20
209.5162948
11
5.0050765
21
209.4228948
0
LINE
8
DEFAULT_255_2_778
10
5.0050765
20
209.4228948
11
5.0984765
21
209.3453948
0
LINE
8
DEFAULT_255_2_778
10
5.0984765
20
209.3453948
11
5.2265765
21
209.2746948
0
LINE
8
DEFAULT_255_2_778
10
5.2265765
20
209.2746948
11
5.3980765
21
209.2233948
0
LINE
8
DEFAULT_255_2_778
10
5.3980765
20
209.2233948
11
5.6226765
21
209.2056948
0
LINE
8
DEFAULT_255_2_778
10
5.6226765
20
209.2056948
11
5.8419765
21
209.2315948
0
LINE
8
DEFAULT_255_2_778
10
5.8419765
20
209.2315948
11
6.0086765
21
209.2905948
0
LINE
8
DEFAULT_255_2_778
10
6.0086765
20
209.2905948
11
6.1327765
21
209.3678948
0
LINE
8
DEFAULT_255_2_778
10
6.1327765
20
209.3678948
11
6.2229765
21
209.4511948
0
LINE
8
DEFAULT_255_2_778
10
6.2229765
20
209.4511948
11
6.3010765
21
209.5517948
0
LINE
8
DEFAULT_255_2_778
10
6.3010765
20
209.5517948
11
6.3547765
21
209.6437948
0
LINE
8
DEFAULT_255_2_778
10
7.1418765
20
209.9464948
11
7.5501765
21
209.9745948
0
LINE
8
DEFAULT_255_2_778
10
7.5501765
20
209.9745948
11
7.7247765
21
210.0335948
0
LINE
8
DEFAULT_255_2_778
10
7.7247765
20
210.0335948
11
7.8311765
21
210.1073948
0
LINE
8
DEFAULT_255_2_778
10
7.8311765
20
210.1073948
11
7.9041765
21
210.1999948
0
LINE
8
DEFAULT_255_2_778
10
7.9041765
20
210.1999948
11
7.9350765
21
210.2674948
0
LINE
8
DEFAULT_255_2_778
10
7.9350765
20
210.2674948
11
7.9493765
21
210.3158948
0
LINE
8
DEFAULT_255_2_778
10
7.9493765
20
210.3158948
11
7.9565765
21
210.3541948
0
LINE
8
DEFAULT_255_2_778
10
7.9565765
20
210.3541948
11
7.9546765
21
210.5296948
0
LINE
8
DEFAULT_255_2_778
10
7.9546765
20
210.5296948
11
7.9440765
21
210.5788948
0
LINE
8
DEFAULT_255_2_778
10
7.9440765
20
210.5788948
11
7.9194765
21
210.6468948
0
LINE
8
DEFAULT_255_2_778
10
7.9194765
20
210.6468948
11
7.8631765
21
210.7359948
0
LINE
8
DEFAULT_255_2_778
10
7.8631765
20
210.7359948
11
7.7411765
21
210.8370948
0
LINE
8
DEFAULT_255_2_778
10
7.7411765
20
210.8370948
11
7.5360765
21
210.9055948
0
LINE
8
DEFAULT_255_2_778
10
7.5360765
20
210.9055948
11
7.2342765
21
210.9285948
0
LINE
8
DEFAULT_255_2_778
10
7.2342765
20
210.9285948
11
6.8579765
21
210.9285948
0
LINE
8
DEFAULT_255_2_778
10
6.8579765
20
210.9285948
11
6.8579765
21
209.2286948
0
LINE
8
DEFAULT_255_2_778
10
6.8579765
20
209.2286948
11
7.0815765
21
209.2286948
0
LINE
8
DEFAULT_255_2_778
10
7.0815765
20
209.2286948
11
7.0815765
21
209.9464948
0
LINE
8
DEFAULT_255_2_778
10
7.0815765
20
209.9464948
11
7.1418765
21
209.9464948
0
LINE
8
DEFAULT_255_2_778
10
7.0818765
20
210.7666948
11
7.5456765
21
210.7235948
0
LINE
8
DEFAULT_255_2_778
10
7.5456765
20
210.7235948
11
7.6564765
21
210.6402948
0
LINE
8
DEFAULT_255_2_778
10
7.6564765
20
210.6402948
11
7.7062765
21
210.5478948
0
LINE
8
DEFAULT_255_2_778
10
7.7062765
20
210.5478948
11
7.7199765
21
210.4928948
0
LINE
8
DEFAULT_255_2_778
10
7.7199765
20
210.4928948
11
7.7176765
21
210.3528948
0
LINE
8
DEFAULT_255_2_778
10
7.7176765
20
210.3528948
11
7.6961765
21
210.2838948
0
LINE
8
DEFAULT_255_2_778
10
7.6961765
20
210.2838948
11
7.6212765
21
210.1901948
0
LINE
8
DEFAULT_255_2_778
10
7.6212765
20
210.1901948
11
7.3183765
21
210.1120948
0
LINE
8
DEFAULT_255_2_778
10
7.3183765
20
210.1120948
11
7.0818765
21
210.1081948
0
LINE
8
DEFAULT_255_2_778
10
7.0818765
20
210.1081948
11
7.0818765
21
210.7666948
0
LINE
8
DEFAULT_255_2_778
10
3.6086479
20
215.8855333
11
3.3760479
21
215.8855333
0
LINE
8
DEFAULT_255_2_778
10
3.3760479
20
215.8855333
11
3.3776479
21
214.7960333
0
LINE
8
DEFAULT_255_2_778
10
3.3776479
20
214.7960333
11
3.3802479
21
214.7465333
0
LINE
8
DEFAULT_255_2_778
10
3.3802479
20
214.7465333
11
3.3821479
21
214.7219333
0
LINE
8
DEFAULT_255_2_778
10
3.3821479
20
214.7219333
11
3.3847479
21
214.6973333
0
LINE
8
DEFAULT_255_2_778
10
3.3847479
20
214.6973333
11
3.3919479
21
214.6483333
0
LINE
8
DEFAULT_255_2_778
10
3.3919479
20
214.6483333
11
3.4025479
21
214.5996333
0
LINE
8
DEFAULT_255_2_778
10
3.4025479
20
214.5996333
11
3.4167479
21
214.5515333
0
LINE
8
DEFAULT_255_2_778
10
3.4167479
20
214.5515333
11
3.4347479
21
214.5044333
0
LINE
8
DEFAULT_255_2_778
10
3.4347479
20
214.5044333
11
3.4686479
21
214.4372333
0
LINE
8
DEFAULT_255_2_778
10
3.4686479
20
214.4372333
11
3.5109479
21
214.3753333
0
LINE
8
DEFAULT_255_2_778
10
3.5109479
20
214.3753333
11
3.5615479
21
214.3205333
0
LINE
8
DEFAULT_255_2_778
10
3.5615479
20
214.3205333
11
3.6406479
21
214.2599333
0
LINE
8
DEFAULT_255_2_778
10
3.6406479
20
214.2599333
11
3.7766479
21
214.1946333
0
LINE
8
DEFAULT_255_2_778
10
3.7766479
20
214.1946333
11
3.9475479
21
214.1541333
0
LINE
8
DEFAULT_255_2_778
10
3.9475479
20
214.1541333
11
4.1211479
21
214.1506333
0
LINE
8
DEFAULT_255_2_778
10
4.1211479
20
214.1506333
11
4.2944479
21
214.1845333
0
LINE
8
DEFAULT_255_2_778
10
4.2944479
20
214.1845333
11
4.4349479
21
214.2440333
0
LINE
8
DEFAULT_255_2_778
10
4.4349479
20
214.2440333
11
4.5174479
21
214.2999333
0
LINE
8
DEFAULT_255_2_778
10
4.5174479
20
214.2999333
11
4.5703479
21
214.3507333
0
LINE
8
DEFAULT_255_2_778
10
4.5703479
20
214.3507333
11
4.6142479
21
214.4091333
0
LINE
8
DEFAULT_255_2_778
10
4.6142479
20
214.4091333
11
4.6494479
21
214.4740333
0
LINE
8
DEFAULT_255_2_778
10
4.6494479
20
214.4740333
11
4.6767479
21
214.5438333
0
LINE
8
DEFAULT_255_2_778
10
4.6767479
20
214.5438333
11
4.6910479
21
214.5925333
0
LINE
8
DEFAULT_255_2_778
10
4.6910479
20
214.5925333
11
4.7026479
21
214.6425333
0
LINE
8
DEFAULT_255_2_778
10
4.7026479
20
214.6425333
11
4.7119479
21
214.6933333
0
LINE
8
DEFAULT_255_2_778
10
4.7119479
20
214.6933333
11
4.7188479
21
214.7446333
0
LINE
8
DEFAULT_255_2_778
10
4.7188479
20
214.7446333
11
4.7238479
21
214.7960333
0
LINE
8
DEFAULT_255_2_778
10
4.7238479
20
214.7960333
11
4.7259479
21
215.8863333
0
LINE
8
DEFAULT_255_2_778
10
4.7259479
20
215.8863333
11
4.4947479
21
215.8863333
0
LINE
8
DEFAULT_255_2_778
10
4.4947479
20
215.8863333
11
4.4925479
21
214.8274333
0
LINE
8
DEFAULT_255_2_778
10
4.4925479
20
214.8274333
11
4.4907479
21
214.7983333
0
LINE
8
DEFAULT_255_2_778
10
4.4907479
20
214.7983333
11
4.4880479
21
214.7692333
0
LINE
8
DEFAULT_255_2_778
10
4.4880479
20
214.7692333
11
4.4846479
21
214.7404333
0
LINE
8
DEFAULT_255_2_778
10
4.4846479
20
214.7404333
11
4.4801479
21
214.7118333
0
LINE
8
DEFAULT_255_2_778
10
4.4801479
20
214.7118333
11
4.4677479
21
214.6560333
0
LINE
8
DEFAULT_255_2_778
10
4.4677479
20
214.6560333
11
4.4494479
21
214.6023333
0
LINE
8
DEFAULT_255_2_778
10
4.4494479
20
214.6023333
11
4.4163479
21
214.5390333
0
LINE
8
DEFAULT_255_2_778
10
4.4163479
20
214.5390333
11
4.3407479
21
214.4507333
0
LINE
8
DEFAULT_255_2_778
10
4.3407479
20
214.4507333
11
4.2290479
21
214.3782333
0
LINE
8
DEFAULT_255_2_778
10
4.2290479
20
214.3782333
11
4.0835479
21
214.3422333
0
LINE
8
DEFAULT_255_2_778
10
4.0835479
20
214.3422333
11
3.9181479
21
214.3604333
0
LINE
8
DEFAULT_255_2_778
10
3.9181479
20
214.3604333
11
3.7869479
21
214.4247333
0
LINE
8
DEFAULT_255_2_778
10
3.7869479
20
214.4247333
11
3.7176479
21
214.4941333
0
LINE
8
DEFAULT_255_2_778
10
3.7176479
20
214.4941333
11
3.6747479
21
214.5666333
0
LINE
8
DEFAULT_255_2_778
10
3.6747479
20
214.5666333
11
3.6535479
21
214.6203333
0
LINE
8
DEFAULT_255_2_778
10
3.6535479
20
214.6203333
11
3.6374479
21
214.6769333
0
LINE
8
DEFAULT_255_2_778
10
3.6374479
20
214.6769333
11
3.6255479
21
214.7356333
0
LINE
8
DEFAULT_255_2_778
10
3.6255479
20
214.7356333
11
3.6207479
21
214.7655333
0
LINE
8
DEFAULT_255_2_778
10
3.6207479
20
214.7655333
11
3.6168479
21
214.7957333
0
LINE
8
DEFAULT_255_2_778
10
3.6168479
20
214.7957333
11
3.6136479
21
214.8259333
0
LINE
8
DEFAULT_255_2_778
10
3.6136479
20
214.8259333
11
3.6109479
21
214.8560333
0
LINE
8
DEFAULT_255_2_778
10
3.6109479
20
214.8560333
11
3.6094479
21
215.8863333
0
LINE
8
DEFAULT_255_2_778
10
5.4448688
20
215.8855739
11
5.1424688
21
215.8855739
0
LINE
8
DEFAULT_255_2_778
10
5.1424688
20
215.8855739
11
5.1424688
21
214.1856739
0
LINE
8
DEFAULT_255_2_778
10
5.1424688
20
214.1856739
11
5.3736688
21
214.1856739
0
LINE
8
DEFAULT_255_2_778
10
5.3736688
20
214.1856739
11
5.3736688
21
215.5953739
0
LINE
8
DEFAULT_255_2_778
10
5.3736688
20
215.5953739
11
6.1941688
21
214.1856739
0
LINE
8
DEFAULT_255_2_778
10
6.1941688
20
214.1856739
11
6.5061688
21
214.1856739
0
LINE
8
DEFAULT_255_2_778
10
6.5061688
20
214.1856739
11
6.5061688
21
215.8855739
0
LINE
8
DEFAULT_255_2_778
10
6.5061688
20
215.8855739
11
6.2748688
21
215.8855739
0
LINE
8
DEFAULT_255_2_778
10
6.2748688
20
215.8855739
11
6.2748688
21
214.4602739
0
LINE
8
DEFAULT_255_2_778
10
6.2748688
20
214.4602739
11
5.4448688
21
215.8855739
0
LINE
8
DEFAULT_255_2_778
10
2.6820428
20
215.036305
11
2.7989428
21
215.008005
0
LINE
8
DEFAULT_255_2_778
10
2.7989428
20
215.008005
11
2.8754428
21
214.945805
0
LINE
8
DEFAULT_255_2_778
10
2.8754428
20
214.945805
11
2.9159428
21
214.880505
0
LINE
8
DEFAULT_255_2_778
10
2.9159428
20
214.880505
11
2.9365428
21
214.818305
0
LINE
8
DEFAULT_255_2_778
10
2.9365428
20
214.818305
11
2.9476428
21
214.764005
0
LINE
8
DEFAULT_255_2_778
10
2.9476428
20
214.764005
11
2.9648428
21
214.655605
0
LINE
8
DEFAULT_255_2_778
10
2.9648428
20
214.655605
11
2.9945428
21
214.461405
0
LINE
8
DEFAULT_255_2_778
10
2.9945428
20
214.461405
11
3.0111428
21
214.375605
0
LINE
8
DEFAULT_255_2_778
10
3.0111428
20
214.375605
11
3.0389428
21
214.270105
0
LINE
8
DEFAULT_255_2_778
10
3.0389428
20
214.270105
11
3.0664428
21
214.187005
0
LINE
8
DEFAULT_255_2_778
10
3.0664428
20
214.187005
11
2.8196428
21
214.187005
0
LINE
8
DEFAULT_255_2_778
10
2.8196428
20
214.187005
11
2.7862428
21
214.307405
0
LINE
8
DEFAULT_255_2_778
10
2.7862428
20
214.307405
11
2.7651428
21
214.404705
0
LINE
8
DEFAULT_255_2_778
10
2.7651428
20
214.404705
11
2.7569428
21
214.454205
0
LINE
8
DEFAULT_255_2_778
10
2.7569428
20
214.454205
11
2.7505428
21
214.504205
0
LINE
8
DEFAULT_255_2_778
10
2.7505428
20
214.504205
11
2.7413428
21
214.605805
0
LINE
8
DEFAULT_255_2_778
10
2.7413428
20
214.605805
11
2.7352428
21
214.656405
0
LINE
8
DEFAULT_255_2_778
10
2.7352428
20
214.656405
11
2.7262428
21
214.705805
0
LINE
8
DEFAULT_255_2_778
10
2.7262428
20
214.705805
11
2.7085428
21
214.765105
0
LINE
8
DEFAULT_255_2_778
10
2.7085428
20
214.765105
11
2.6804428
21
214.820705
0
LINE
8
DEFAULT_255_2_778
10
2.6804428
20
214.820705
11
2.6219428
21
214.887905
0
LINE
8
DEFAULT_255_2_778
10
2.6219428
20
214.887905
11
2.5460428
21
214.931305
0
LINE
8
DEFAULT_255_2_778
10
2.5460428
20
214.931305
11
2.4219428
21
214.947405
0
LINE
8
DEFAULT_255_2_778
10
2.4219428
20
214.947405
11
2.0221428
21
214.947705
0
LINE
8
DEFAULT_255_2_778
10
2.0221428
20
214.947705
11
2.0221428
21
214.186205
0
LINE
8
DEFAULT_255_2_778
10
2.0221428
20
214.186205
11
1.7893428
21
214.186205
0
LINE
8
DEFAULT_255_2_778
10
1.7893428
20
214.186205
11
1.7893428
21
215.886105
0
LINE
8
DEFAULT_255_2_778
10
1.7893428
20
215.886105
11
2.5743428
21
215.880105
0
LINE
8
DEFAULT_255_2_778
10
2.5743428
20
215.880105
11
2.7884428
21
215.822905
0
LINE
8
DEFAULT_255_2_778
10
2.7884428
20
215.822905
11
2.8979428
21
215.749305
0
LINE
8
DEFAULT_255_2_778
10
2.8979428
20
215.749305
11
2.9535428
21
215.682105
0
LINE
8
DEFAULT_255_2_778
10
2.9535428
20
215.682105
11
2.9871428
21
215.616805
0
LINE
8
DEFAULT_255_2_778
10
2.9871428
20
215.616805
11
3.0056428
21
215.560705
0
LINE
8
DEFAULT_255_2_778
10
3.0056428
20
215.560705
11
3.0146428
21
215.517305
0
LINE
8
DEFAULT_255_2_778
10
3.0146428
20
215.517305
11
3.0127428
21
215.371505
0
LINE
8
DEFAULT_255_2_778
10
3.0127428
20
215.371505
11
3.0027428
21
215.328705
0
LINE
8
DEFAULT_255_2_778
10
3.0027428
20
215.328705
11
2.9820428
21
215.273605
0
LINE
8
DEFAULT_255_2_778
10
2.9820428
20
215.273605
11
2.9455428
21
215.209905
0
LINE
8
DEFAULT_255_2_778
10
2.9455428
20
215.209905
11
2.8757428
21
215.135505
0
LINE
8
DEFAULT_255_2_778
10
2.8757428
20
215.135505
11
2.7241428
21
215.050305
0
LINE
8
DEFAULT_255_2_778
10
2.7241428
20
215.050305
11
2.6820428
21
215.036305
0
LINE
8
DEFAULT_255_2_778
10
2.0219428
20
215.140005
11
2.6050428
21
215.161705
0
LINE
8
DEFAULT_255_2_778
10
2.6050428
20
215.161705
11
2.7169428
21
215.224705
0
LINE
8
DEFAULT_255_2_778
10
2.7169428
20
215.224705
11
2.7569428
21
215.274405
0
LINE
8
DEFAULT_255_2_778
10
2.7569428
20
215.274405
11
2.7741428
21
215.313105
0
LINE
8
DEFAULT_255_2_778
10
2.7741428
20
215.313105
11
2.7820428
21
215.344305
0
LINE
8
DEFAULT_255_2_778
10
2.7820428
20
215.344305
11
2.7804428
21
215.464905
0
LINE
8
DEFAULT_255_2_778
10
2.7804428
20
215.464905
11
2.7691428
21
215.507805
0
LINE
8
DEFAULT_255_2_778
10
2.7691428
20
215.507805
11
2.7413428
21
215.566305
0
LINE
8
DEFAULT_255_2_778
10
2.7413428
20
215.566305
11
2.6921428
21
215.620505
0
LINE
8
DEFAULT_255_2_778
10
2.6921428
20
215.620505
11
2.5317428
21
215.681405
0
LINE
8
DEFAULT_255_2_778
10
2.5317428
20
215.681405
11
2.2772428
21
215.693505
0
LINE
8
DEFAULT_255_2_778
10
2.2772428
20
215.693505
11
2.0219428
21
215.693305
0
LINE
8
DEFAULT_255_2_778
10
2.0219428
20
215.693305
11
2.0219428
21
215.140005
0
LINE
8
DEFAULT_255_2_778
10
9.4029428
20
225.885805
11
8.1737428
21
225.885805
0
LINE
8
DEFAULT_255_2_778
10
8.1737428
20
225.885805
11
8.1737428
21
225.692905
0
LINE
8
DEFAULT_255_2_778
10
8.1737428
20
225.692905
11
8.7436428
21
225.692905
0
LINE
8
DEFAULT_255_2_778
10
8.7436428
20
225.692905
11
8.7436428
21
224.185605
0
LINE
8
DEFAULT_255_2_778
10
8.7436428
20
224.185605
11
8.9762428
21
224.185605
0
LINE
8
DEFAULT_255_2_778
10
8.9762428
20
224.185605
11
8.9762428
21
225.692905
0
LINE
8
DEFAULT_255_2_778
10
8.9762428
20
225.692905
11
9.4032428
21
225.692905
0
LINE
8
DEFAULT_255_2_778
10
6.8182688
20
225.8857739
11
6.5158688
21
225.8857739
0
LINE
8
DEFAULT_255_2_778
10
6.5158688
20
225.8857739
11
6.5158688
21
224.1858739
0
LINE
8
DEFAULT_255_2_778
10
6.5158688
20
224.1858739
11
6.7470688
21
224.1858739
0
LINE
8
DEFAULT_255_2_778
10
6.7470688
20
224.1858739
11
6.7470688
21
225.5955739
0
LINE
8
DEFAULT_255_2_778
10
6.7470688
20
225.5955739
11
7.5675688
21
224.1858739
0
LINE
8
DEFAULT_255_2_778
10
7.5675688
20
224.1858739
11
7.8795688
21
224.1858739
0
LINE
8
DEFAULT_255_2_778
10
7.8795688
20
224.1858739
11
7.8795688
21
225.8857739
0
LINE
8
DEFAULT_255_2_778
10
7.8795688
20
225.8857739
11
7.6482688
21
225.8857739
0
LINE
8
DEFAULT_255_2_778
10
7.6482688
20
225.8857739
11
7.6482688
21
224.4604739
0
LINE
8
DEFAULT_255_2_778
10
7.6482688
20
224.4604739
11
6.8182688
21
225.8857739
0
LINE
8
DEFAULT_255_2_778
10
6.0893959
20
225.8857739
11
5.8567959
21
225.8857739
0
LINE
8
DEFAULT_255_2_778
10
5.8567959
20
225.8857739
11
5.8567959
21
224.1858739
0
LINE
8
DEFAULT_255_2_778
10
5.8567959
20
224.1858739
11
6.0893959
21
224.1858739
0
LINE
8
DEFAULT_255_2_778
10
6.0893959
20
224.1858739
11
6.0893959
21
225.8857739
0
LINE
8
DEFAULT_255_2_778
10
2.1663959
20
225.8857739
11
1.7893959
21
225.8857739
0
LINE
8
DEFAULT_255_2_778
10
1.7893959
20
225.8857739
11
1.7893959
21
224.1858739
0
LINE
8
DEFAULT_255_2_778
10
1.7893959
20
224.1858739
11
2.0219959
21
224.1858739
0
LINE
8
DEFAULT_255_2_778
10
2.0219959
20
224.1858739
11
2.0219959
21
225.7074739
0
LINE
8
DEFAULT_255_2_778
10
2.0219959
20
225.7074739
11
2.5820959
21
224.1858739
0
LINE
8
DEFAULT_255_2_778
10
2.5820959
20
224.1858739
11
2.8156959
21
224.1858739
0
LINE
8
DEFAULT_255_2_778
10
2.8156959
20
224.1858739
11
3.3615959
21
225.7098739
0
LINE
8
DEFAULT_255_2_778
10
3.3615959
20
225.7098739
11
3.3615959
21
224.1858739
0
LINE
8
DEFAULT_255_2_778
10
3.3615959
20
224.1858739
11
3.5940959
21
224.1858739
0
LINE
8
DEFAULT_255_2_778
10
3.5940959
20
224.1858739
11
3.5940959
21
225.8857739
0
LINE
8
DEFAULT_255_2_778
10
3.5940959
20
225.8857739
11
3.2170959
21
225.8857739
0
LINE
8
DEFAULT_255_2_778
10
3.2170959
20
225.8857739
11
2.7000959
21
224.4628739
0
LINE
8
DEFAULT_255_2_778
10
2.7000959
20
224.4628739
11
2.1663959
21
225.8857739
0
LINE
8
DEFAULT_255_2_778
10
5.0437959
20
224.8218739
11
4.3917959
21
224.8218739
0
LINE
8
DEFAULT_255_2_778
10
4.3917959
20
224.8218739
11
4.7169959
21
225.6664739
0
LINE
8
DEFAULT_255_2_778
10
4.7169959
20
225.6664739
11
5.0437959
21
224.8218739
0
LINE
8
DEFAULT_255_2_778
10
4.8436959
20
225.8857739
11
4.5883959
21
225.8857739
0
LINE
8
DEFAULT_255_2_778
10
4.5883959
20
225.8857739
11
3.8906959
21
224.1858739
0
LINE
8
DEFAULT_255_2_778
10
3.8906959
20
224.1858739
11
4.1483959
21
224.1858739
0
LINE
8
DEFAULT_255_2_778
10
4.1483959
20
224.1858739
11
4.3171959
21
224.6292739
0
LINE
8
DEFAULT_255_2_778
10
4.3171959
20
224.6292739
11
5.1172959
21
224.6292739
0
LINE
8
DEFAULT_255_2_778
10
5.1172959
20
224.6292739
11
5.2884959
21
224.1858739
0
LINE
8
DEFAULT_255_2_778
10
5.2884959
20
224.1858739
11
5.5414959
21
224.1858739
0
LINE
8
DEFAULT_255_2_778
10
5.5414959
20
224.1858739
11
4.8436959
21
225.8857739
0
LINE
8
DEFAULT_255_2_778
10
5.8713698
20
230.4350531
11
6.1100698
21
230.4350531
0
LINE
8
DEFAULT_255_2_778
10
6.1100698
20
230.4350531
11
6.1089698
21
230.4818531
0
LINE
8
DEFAULT_255_2_778
10
6.1089698
20
230.4818531
11
6.1063698
21
230.5051531
0
LINE
8
DEFAULT_255_2_778
10
6.1063698
20
230.5051531
11
6.1023698
21
230.5284531
0
LINE
8
DEFAULT_255_2_778
10
6.1023698
20
230.5284531
11
6.0973698
21
230.5514531
0
LINE
8
DEFAULT_255_2_778
10
6.0973698
20
230.5514531
11
6.0832698
21
230.5964531
0
LINE
8
DEFAULT_255_2_778
10
6.0832698
20
230.5964531
11
6.0645698
21
230.6395531
0
LINE
8
DEFAULT_255_2_778
10
6.0645698
20
230.6395531
11
6.0274698
21
230.6993531
0
LINE
8
DEFAULT_255_2_778
10
6.0274698
20
230.6993531
11
5.9803698
21
230.7514531
0
LINE
8
DEFAULT_255_2_778
10
5.9803698
20
230.7514531
11
5.8853698
21
230.8208531
0
LINE
8
DEFAULT_255_2_778
10
5.8853698
20
230.8208531
11
5.7343698
21
230.8840531
0
LINE
8
DEFAULT_255_2_778
10
5.7343698
20
230.8840531
11
5.5030698
21
230.9184531
0
LINE
8
DEFAULT_255_2_778
10
5.5030698
20
230.9184531
11
5.2924698
21
230.9046531
0
LINE
8
DEFAULT_255_2_778
10
5.2924698
20
230.9046531
11
5.1350698
21
230.8581531
0
LINE
8
DEFAULT_255_2_778
10
5.1350698
20
230.8581531
11
5.0125698
21
230.7885531
0
LINE
8
DEFAULT_255_2_778
10
5.0125698
20
230.7885531
11
4.9246698
21
230.7104531
0
LINE
8
DEFAULT_255_2_778
10
4.9246698
20
230.7104531
11
4.8516698
21
230.6184531
0
LINE
8
DEFAULT_255_2_778
10
4.8516698
20
230.6184531
11
4.8045698
21
230.5371531
0
LINE
8
DEFAULT_255_2_778
10
4.8045698
20
230.5371531
11
4.7672698
21
230.4511531
0
LINE
8
DEFAULT_255_2_778
10
4.7672698
20
230.4511531
11
4.7452698
21
230.3842531
0
LINE
8
DEFAULT_255_2_778
10
4.7452698
20
230.3842531
11
4.7283698
21
230.3159531
0
LINE
8
DEFAULT_255_2_778
10
4.7283698
20
230.3159531
11
4.7156698
21
230.2466531
0
LINE
8
DEFAULT_255_2_778
10
4.7156698
20
230.2466531
11
4.7095698
21
230.2001531
0
LINE
8
DEFAULT_255_2_778
10
4.7095698
20
230.2001531
11
4.7050698
21
230.1535531
0
LINE
8
DEFAULT_255_2_778
10
4.7050698
20
230.1535531
11
4.7037698
21
229.9191531
0
LINE
8
DEFAULT_255_2_778
10
4.7037698
20
229.9191531
11
4.7077698
21
229.8722531
0
LINE
8
DEFAULT_255_2_778
10
4.7077698
20
229.8722531
11
4.7132698
21
229.8257531
0
LINE
8
DEFAULT_255_2_778
10
4.7132698
20
229.8257531
11
4.7206698
21
229.7794531
0
LINE
8
DEFAULT_255_2_778
10
4.7206698
20
229.7794531
11
4.7354698
21
229.7106531
0
LINE
8
DEFAULT_255_2_778
10
4.7354698
20
229.7106531
11
4.7548698
21
229.6428531
0
LINE
8
DEFAULT_255_2_778
10
4.7548698
20
229.6428531
11
4.7794698
21
229.5770531
0
LINE
8
DEFAULT_255_2_778
10
4.7794698
20
229.5770531
11
4.8206698
21
229.4926531
0
LINE
8
DEFAULT_255_2_778
10
4.8206698
20
229.4926531
11
4.8720698
21
229.4140531
0
LINE
8
DEFAULT_255_2_778
10
4.8720698
20
229.4140531
11
4.9508698
21
229.3267531
0
LINE
8
DEFAULT_255_2_778
10
4.9508698
20
229.3267531
11
5.0442698
21
229.2555531
0
LINE
8
DEFAULT_255_2_778
10
5.0442698
20
229.2555531
11
5.1715698
21
229.1954531
0
LINE
8
DEFAULT_255_2_778
10
5.1715698
20
229.1954531
11
5.3781698
21
229.1539531
0
LINE
8
DEFAULT_255_2_778
10
5.3781698
20
229.1539531
11
5.6120698
21
229.1616531
0
LINE
8
DEFAULT_255_2_778
10
5.6120698
20
229.1616531
11
5.7708698
21
229.2018531
0
LINE
8
DEFAULT_255_2_778
10
5.7708698
20
229.2018531
11
5.8967698
21
229.2642531
0
LINE
8
DEFAULT_255_2_778
10
5.8967698
20
229.2642531
11
5.9713698
21
229.3214531
0
LINE
8
DEFAULT_255_2_778
10
5.9713698
20
229.3214531
11
6.0192698
21
229.3730531
0
LINE
8
DEFAULT_255_2_778
10
6.0192698
20
229.3730531
11
6.0578698
21
229.4320531
0
LINE
8
DEFAULT_255_2_778
10
6.0578698
20
229.4320531
11
6.0779698
21
229.4746531
0
LINE
8
DEFAULT_255_2_778
10
6.0779698
20
229.4746531
11
6.0933698
21
229.5190531
0
LINE
8
DEFAULT_255_2_778
10
6.0933698
20
229.5190531
11
6.0991698
21
229.5418531
0
LINE
8
DEFAULT_255_2_778
10
6.0991698
20
229.5418531
11
6.1036698
21
229.5648531
0
LINE
8
DEFAULT_255_2_778
10
6.1036698
20
229.5648531
11
6.1070698
21
229.5881531
0
LINE
8
DEFAULT_255_2_778
10
6.1070698
20
229.5881531
11
6.1092698
21
229.6116531
0
LINE
8
DEFAULT_255_2_778
10
6.1092698
20
229.6116531
11
6.1100698
21
229.6352531
0
LINE
8
DEFAULT_255_2_778
10
6.1100698
20
229.6352531
11
5.8713698
21
229.6352531
0
LINE
8
DEFAULT_255_2_778
10
5.8713698
20
229.6352531
11
5.8692698
21
229.6193531
0
LINE
8
DEFAULT_255_2_778
10
5.8692698
20
229.6193531
11
5.8626698
21
229.5878531
0
LINE
8
DEFAULT_255_2_778
10
5.8626698
20
229.5878531
11
5.8464698
21
229.5420531
0
LINE
8
DEFAULT_255_2_778
10
5.8464698
20
229.5420531
11
5.8234698
21
229.4994531
0
LINE
8
DEFAULT_255_2_778
10
5.8234698
20
229.4994531
11
5.7821698
21
229.4500531
0
LINE
8
DEFAULT_255_2_778
10
5.7821698
20
229.4500531
11
5.6885698
21
229.3875531
0
LINE
8
DEFAULT_255_2_778
10
5.6885698
20
229.3875531
11
5.5170698
21
229.3465531
0
LINE
8
DEFAULT_255_2_778
10
5.5170698
20
229.3465531
11
5.3247698
21
229.3632531
0
LINE
8
DEFAULT_255_2_778
10
5.3247698
20
229.3632531
11
5.1919698
21
229.4219531
0
LINE
8
DEFAULT_255_2_778
10
5.1919698
20
229.4219531
11
5.1067698
21
229.4960531
0
LINE
8
DEFAULT_255_2_778
10
5.1067698
20
229.4960531
11
5.0410698
21
229.5883531
0
LINE
8
DEFAULT_255_2_778
10
5.0410698
20
229.5883531
11
4.9998698
21
229.6759531
0
LINE
8
DEFAULT_255_2_778
10
4.9998698
20
229.6759531
11
4.9791698
21
229.7370531
0
LINE
8
DEFAULT_255_2_778
10
4.9791698
20
229.7370531
11
4.9635698
21
229.7995531
0
LINE
8
DEFAULT_255_2_778
10
4.9635698
20
229.7995531
11
4.9574698
21
229.8312531
0
LINE
8
DEFAULT_255_2_778
10
4.9574698
20
229.8312531
11
4.9521698
21
229.8630531
0
LINE
8
DEFAULT_255_2_778
10
4.9521698
20
229.8630531
11
4.9545698
21
230.2485531
0
LINE
8
DEFAULT_255_2_778
10
4.9545698
20
230.2485531
11
4.9606698
21
230.2802531
0
LINE
8
DEFAULT_255_2_778
10
4.9606698
20
230.2802531
11
4.9765698
21
230.3427531
0
LINE
8
DEFAULT_255_2_778
10
4.9765698
20
230.3427531
11
5.0040698
21
230.4186531
0
LINE
8
DEFAULT_255_2_778
10
5.0040698
20
230.4186531
11
5.0495698
21
230.5041531
0
LINE
8
DEFAULT_255_2_778
10
5.0495698
20
230.5041531
11
5.1212698
21
230.5916531
0
LINE
8
DEFAULT_255_2_778
10
5.1212698
20
230.5916531
11
5.2263698
21
230.6665531
0
LINE
8
DEFAULT_255_2_778
10
5.2263698
20
230.6665531
11
5.3958698
21
230.7173531
0
LINE
8
DEFAULT_255_2_778
10
5.3958698
20
230.7173531
11
5.6049698
21
230.7115531
0
LINE
8
DEFAULT_255_2_778
10
5.6049698
20
230.7115531
11
5.7260698
21
230.6686531
0
LINE
8
DEFAULT_255_2_778
10
5.7260698
20
230.6686531
11
5.7925698
21
230.6226531
0
LINE
8
DEFAULT_255_2_778
10
5.7925698
20
230.6226531
11
5.8340698
21
230.5734531
0
LINE
8
DEFAULT_255_2_778
10
5.8340698
20
230.5734531
11
5.8557698
21
230.5300531
0
LINE
8
DEFAULT_255_2_778
10
5.8557698
20
230.5300531
11
5.8652698
21
230.4990531
0
LINE
8
DEFAULT_255_2_778
10
5.8652698
20
230.4990531
11
5.8684698
21
230.4832531
0
LINE
8
DEFAULT_255_2_778
10
5.8684698
20
230.4832531
11
5.8705698
21
230.4670531
0
LINE
8
DEFAULT_255_2_778
10
5.8705698
20
230.4670531
11
5.8716698
21
230.4347531
0
LINE
8
DEFAULT_255_2_778
10
7.5171022
20
230.8856385
11
6.4810022
21
230.8856385
0
LINE
8
DEFAULT_255_2_778
10
6.4810022
20
230.8856385
11
6.4810022
21
229.1856385
0
LINE
8
DEFAULT_255_2_778
10
6.4810022
20
229.1856385
11
7.5388022
21
229.1856385
0
LINE
8
DEFAULT_255_2_778
10
7.5388022
20
229.1856385
11
7.5388022
21
229.3785385
0
LINE
8
DEFAULT_255_2_778
10
7.5388022
20
229.3785385
11
6.7136022
21
229.3785385
0
LINE
8
DEFAULT_255_2_778
10
6.7136022
20
229.3785385
11
6.7136022
21
229.9640385
0
LINE
8
DEFAULT_255_2_778
10
6.7136022
20
229.9640385
11
7.4859022
21
229.9640385
0
LINE
8
DEFAULT_255_2_778
10
7.4859022
20
229.9640385
11
7.4859022
21
230.1569385
0
LINE
8
DEFAULT_255_2_778
10
7.4859022
20
230.1569385
11
6.7136022
21
230.1569385
0
LINE
8
DEFAULT_255_2_778
10
6.7136022
20
230.1569385
11
6.7136022
21
230.6930385
0
LINE
8
DEFAULT_255_2_778
10
6.7136022
20
230.6930385
11
7.5171022
21
230.6930385
0
LINE
8
DEFAULT_255_2_778
10
7.5171022
20
230.6930385
11
7.5171022
21
230.8858385
0
LINE
8
DEFAULT_255_2_778
10
2.8364022
20
230.8856385
11
1.7894022
21
230.8856385
0
LINE
8
DEFAULT_255_2_778
10
1.7894022
20
230.8856385
11
1.7894022
21
229.1856385
0
LINE
8
DEFAULT_255_2_778
10
1.7894022
20
229.1856385
11
2.0220022
21
229.1856385
0
LINE
8
DEFAULT_255_2_778
10
2.0220022
20
229.1856385
11
2.0220022
21
229.9640385
0
LINE
8
DEFAULT_255_2_778
10
2.0220022
20
229.9640385
11
2.7943022
21
229.9640385
0
LINE
8
DEFAULT_255_2_778
10
2.7943022
20
229.9640385
11
2.7943022
21
230.1569385
0
LINE
8
DEFAULT_255_2_778
10
2.7943022
20
230.1569385
11
2.0220022
21
230.1569385
0
LINE
8
DEFAULT_255_2_778
10
2.0220022
20
230.1569385
11
2.0220022
21
230.6930385
0
LINE
8
DEFAULT_255_2_778
10
2.0220022
20
230.6930385
11
2.8364022
21
230.6930385
0
LINE
8
DEFAULT_255_2_778
10
2.8364022
20
230.6930385
11
2.8364022
21
230.8858385
0
LINE
8
DEFAULT_255_2_778
10
4.0484022
20
230.0363385
11
4.1654022
21
230.0079385
0
LINE
8
DEFAULT_255_2_778
10
4.1654022
20
230.0079385
11
4.2418022
21
229.9458385
0
LINE
8
DEFAULT_255_2_778
10
4.2418022
20
229.9458385
11
4.2823022
21
229.8804385
0
LINE
8
DEFAULT_255_2_778
10
4.2823022
20
229.8804385
11
4.3029022
21
229.8182385
0
LINE
8
DEFAULT_255_2_778
10
4.3029022
20
229.8182385
11
4.3141022
21
229.7640385
0
LINE
8
DEFAULT_255_2_778
10
4.3141022
20
229.7640385
11
4.3313022
21
229.6555385
0
LINE
8
DEFAULT_255_2_778
10
4.3313022
20
229.6555385
11
4.3609022
21
229.4613385
0
LINE
8
DEFAULT_255_2_778
10
4.3609022
20
229.4613385
11
4.3776022
21
229.3756385
0
LINE
8
DEFAULT_255_2_778
10
4.3776022
20
229.3756385
11
4.4053022
21
229.2700385
0
LINE
8
DEFAULT_255_2_778
10
4.4053022
20
229.2700385
11
4.4329022
21
229.1869385
0
LINE
8
DEFAULT_255_2_778
10
4.4329022
20
229.1869385
11
4.1860022
21
229.1869385
0
LINE
8
DEFAULT_255_2_778
10
4.1860022
20
229.1869385
11
4.1527022
21
229.3073385
0
LINE
8
DEFAULT_255_2_778
10
4.1527022
20
229.3073385
11
4.1315022
21
229.4047385
0
LINE
8
DEFAULT_255_2_778
10
4.1315022
20
229.4047385
11
4.1233022
21
229.4542385
0
LINE
8
DEFAULT_255_2_778
10
4.1233022
20
229.4542385
11
4.1169022
21
229.5042385
0
LINE
8
DEFAULT_255_2_778
10
4.1169022
20
229.5042385
11
4.1077022
21
229.6058385
0
LINE
8
DEFAULT_255_2_778
10
4.1077022
20
229.6058385
11
4.1016022
21
229.6563385
0
LINE
8
DEFAULT_255_2_778
10
4.1016022
20
229.6563385
11
4.0926022
21
229.7058385
0
LINE
8
DEFAULT_255_2_778
10
4.0926022
20
229.7058385
11
4.0749022
21
229.7651385
0
LINE
8
DEFAULT_255_2_778
10
4.0749022
20
229.7651385
11
4.0468022
21
229.8206385
0
LINE
8
DEFAULT_255_2_778
10
4.0468022
20
229.8206385
11
3.9884022
21
229.8878385
0
LINE
8
DEFAULT_255_2_778
10
3.9884022
20
229.8878385
11
3.9124022
21
229.9312385
0
LINE
8
DEFAULT_255_2_778
10
3.9124022
20
229.9312385
11
3.7883022
21
229.9474385
0
LINE
8
DEFAULT_255_2_778
10
3.7883022
20
229.9474385
11
3.3885022
21
229.9476385
0
LINE
8
DEFAULT_255_2_778
10
3.3885022
20
229.9476385
11
3.3885022
21
229.1862385
0
LINE
8
DEFAULT_255_2_778
10
3.3885022
20
229.1862385
11
3.1560022
21
229.1862385
0
LINE
8
DEFAULT_255_2_778
10
3.1560022
20
229.1862385
11
3.1560022
21
230.8861385
0
LINE
8
DEFAULT_255_2_778
10
3.1560022
20
230.8861385
11
3.9410022
21
230.8800385
0
LINE
8
DEFAULT_255_2_778
10
3.9410022
20
230.8800385
11
4.1550022
21
230.8229385
0
LINE
8
DEFAULT_255_2_778
10
4.1550022
20
230.8229385
11
4.2646022
21
230.7493385
0
LINE
8
DEFAULT_255_2_778
10
4.2646022
20
230.7493385
11
4.3201022
21
230.6821385
0
LINE
8
DEFAULT_255_2_778
10
4.3201022
20
230.6821385
11
4.3537022
21
230.6168385
0
LINE
8
DEFAULT_255_2_778
10
4.3537022
20
230.6168385
11
4.3723022
21
230.5607385
0
LINE
8
DEFAULT_255_2_778
10
4.3723022
20
230.5607385
11
4.3813022
21
230.5173385
0
LINE
8
DEFAULT_255_2_778
10
4.3813022
20
230.5173385
11
4.3794022
21
230.3715385
0
LINE
8
DEFAULT_255_2_778
10
4.3794022
20
230.3715385
11
4.3694022
21
230.3286385
0
LINE
8
DEFAULT_255_2_778
10
4.3694022
20
230.3286385
11
4.3487022
21
230.2736385
0
LINE
8
DEFAULT_255_2_778
10
4.3487022
20
230.2736385
11
4.3122022
21
230.2098385
0
LINE
8
DEFAULT_255_2_778
10
4.3122022
20
230.2098385
11
4.2424022
21
230.1355385
0
LINE
8
DEFAULT_255_2_778
10
4.2424022
20
230.1355385
11
4.0907022
21
230.0503385
0
LINE
8
DEFAULT_255_2_778
10
4.0907022
20
230.0503385
11
4.0484022
21
230.0363385
0
LINE
8
DEFAULT_255_2_778
10
3.3883022
20
230.1400385
11
3.9714022
21
230.1617385
0
LINE
8
DEFAULT_255_2_778
10
3.9714022
20
230.1617385
11
4.0833022
21
230.2246385
0
LINE
8
DEFAULT_255_2_778
10
4.0833022
20
230.2246385
11
4.1233022
21
230.2744385
0
LINE
8
DEFAULT_255_2_778
10
4.1233022
20
230.2744385
11
4.1405022
21
230.3130385
0
LINE
8
DEFAULT_255_2_778
10
4.1405022
20
230.3130385
11
4.1484022
21
230.3442385
0
LINE
8
DEFAULT_255_2_778
10
4.1484022
20
230.3442385
11
4.1468022
21
230.4649385
0
LINE
8
DEFAULT_255_2_778
10
4.1468022
20
230.4649385
11
4.1355022
21
230.5077385
0
LINE
8
DEFAULT_255_2_778
10
4.1355022
20
230.5077385
11
4.1077022
21
230.5662385
0
LINE
8
DEFAULT_255_2_778
10
4.1077022
20
230.5662385
11
4.0585022
21
230.6205385
0
LINE
8
DEFAULT_255_2_778
10
4.0585022
20
230.6205385
11
3.8981022
21
230.6813385
0
LINE
8
DEFAULT_255_2_778
10
3.8981022
20
230.6813385
11
3.6436022
21
230.6935385
0
LINE
8
DEFAULT_255_2_778
10
3.6436022
20
230.6935385
11
3.3883022
21
230.6932385
0
LINE
8
DEFAULT_255_2_778
10
3.3883022
20
230.6932385
11
3.3883022
21
230.1400385
0
LINE
8
DEFAULT_255_2_778
10
6.8111625
20
240.8762114
11
6.6182625
21
240.8762114
0
LINE
8
DEFAULT_255_2_778
10
6.6182625
20
240.8762114
11
6.2110625
21
240.6148114
0
LINE
8
DEFAULT_255_2_778
10
6.2110625
20
240.6148114
11
6.2110625
21
240.4029114
0
LINE
8
DEFAULT_255_2_778
10
6.2110625
20
240.4029114
11
6.5245625
21
240.5675114
0
LINE
8
DEFAULT_255_2_778
10
6.5245625
20
240.5675114
11
6.5833625
21
240.6138114
0
LINE
8
DEFAULT_255_2_778
10
6.5833625
20
240.6138114
11
6.5833625
21
239.1861114
0
LINE
8
DEFAULT_255_2_778
10
6.5833625
20
239.1861114
11
6.8111625
21
239.1861114
0
LINE
8
DEFAULT_255_2_778
10
6.8111625
20
239.1861114
11
6.8111625
21
240.8765114
0
LINE
8
DEFAULT_255_2_778
10
8.6494418
20
240.8857759
11
7.6025418
21
240.8857759
0
LINE
8
DEFAULT_255_2_778
10
7.6025418
20
240.8857759
11
7.6025418
21
239.1857759
0
LINE
8
DEFAULT_255_2_778
10
7.6025418
20
239.1857759
11
7.8350418
21
239.1857759
0
LINE
8
DEFAULT_255_2_778
10
7.8350418
20
239.1857759
11
7.8350418
21
239.9642759
0
LINE
8
DEFAULT_255_2_778
10
7.8350418
20
239.9642759
11
8.6073418
21
239.9642759
0
LINE
8
DEFAULT_255_2_778
10
8.6073418
20
239.9642759
11
8.6073418
21
240.1570759
0
LINE
8
DEFAULT_255_2_778
10
8.6073418
20
240.1570759
11
7.8350418
21
240.1570759
0
LINE
8
DEFAULT_255_2_778
10
7.8350418
20
240.1570759
11
7.8350418
21
240.6931759
0
LINE
8
DEFAULT_255_2_778
10
7.8350418
20
240.6931759
11
8.6494418
21
240.6931759
0
LINE
8
DEFAULT_255_2_778
10
8.6494418
20
240.6931759
11
8.6494418
21
240.8860759
0
LINE
8
DEFAULT_255_2_778
10
4.1952418
20
240.8857759
11
3.8181418
21
240.8857759
0
LINE
8
DEFAULT_255_2_778
10
3.8181418
20
240.8857759
11
3.8181418
21
239.1857759
0
LINE
8
DEFAULT_255_2_778
10
3.8181418
20
239.1857759
11
4.0507418
21
239.1857759
0
LINE
8
DEFAULT_255_2_778
10
4.0507418
20
239.1857759
11
4.0507418
21
240.7074759
0
LINE
8
DEFAULT_255_2_778
10
4.0507418
20
240.7074759
11
4.6108418
21
239.1857759
0
LINE
8
DEFAULT_255_2_778
10
4.6108418
20
239.1857759
11
4.8444418
21
239.1857759
0
LINE
8
DEFAULT_255_2_778
10
4.8444418
20
239.1857759
11
5.3903418
21
240.7097759
0
LINE
8
DEFAULT_255_2_778
10
5.3903418
20
240.7097759
11
5.3903418
21
239.1857759
0
LINE
8
DEFAULT_255_2_778
10
5.3903418
20
239.1857759
11
5.6228418
21
239.1857759
0
LINE
8
DEFAULT_255_2_778
10
5.6228418
20
239.1857759
11
5.6228418
21
240.8857759
0
LINE
8
DEFAULT_255_2_778
10
5.6228418
20
240.8857759
11
5.2458418
21
240.8857759
0
LINE
8
DEFAULT_255_2_778
10
5.2458418
20
240.8857759
11
4.7288418
21
239.4628759
0
LINE
8
DEFAULT_255_2_778
10
4.7288418
20
239.4628759
11
4.1952418
21
240.8857759
0
LINE
8
DEFAULT_255_2_778
10
3.5086418
20
240.8857759
11
2.4616418
21
240.8857759
0
LINE
8
DEFAULT_255_2_778
10
2.4616418
20
240.8857759
11
2.4616418
21
239.1857759
0
LINE
8
DEFAULT_255_2_778
10
2.4616418
20
239.1857759
11
2.6942418
21
239.1857759
0
LINE
8
DEFAULT_255_2_778
10
2.6942418
20
239.1857759
11
2.6942418
21
239.9642759
0
LINE
8
DEFAULT_255_2_778
10
2.6942418
20
239.9642759
11
3.4665418
21
239.9642759
0
LINE
8
DEFAULT_255_2_778
10
3.4665418
20
239.9642759
11
3.4665418
21
240.1570759
0
LINE
8
DEFAULT_255_2_778
10
3.4665418
20
240.1570759
11
2.6942418
21
240.1570759
0
LINE
8
DEFAULT_255_2_778
10
2.6942418
20
240.1570759
11
2.6942418
21
240.6931759
0
LINE
8
DEFAULT_255_2_778
10
2.6942418
20
240.6931759
11
3.5086418
21
240.6931759
0
LINE
8
DEFAULT_255_2_778
10
3.5086418
20
240.6931759
11
3.5086418
21
240.8860759
0
LINE
8
DEFAULT_255_2_778
10
2.0219418
20
240.8857759
11
1.7893418
21
240.8857759
0
LINE
8
DEFAULT_255_2_778
10
1.7893418
20
240.8857759
11
1.7893418
21
239.1857759
0
LINE
8
DEFAULT_255_2_778
10
1.7893418
20
239.1857759
11
2.0219418
21
239.1857759
0
LINE
8
DEFAULT_255_2_778
10
2.0219418
20
239.1857759
11
2.0219418
21
240.8857759
0
LINE
8
DEFAULT_255_2_778
10
7.7522418
20
245.8802759
11
6.7680418
21
245.8802759
0
LINE
8
DEFAULT_255_2_778
10
6.7680418
20
245.8802759
11
6.7534418
21
244.8862759
0
LINE
8
DEFAULT_255_2_778
10
6.7534418
20
244.8862759
11
6.9812418
21
244.8862759
0
LINE
8
DEFAULT_255_2_778
10
6.9812418
20
244.8862759
11
6.9847418
21
244.9108759
0
LINE
8
DEFAULT_255_2_778
10
6.9847418
20
244.9108759
11
6.9937418
21
244.9471759
0
LINE
8
DEFAULT_255_2_778
10
6.9937418
20
244.9471759
11
7.0132418
21
244.9928759
0
LINE
8
DEFAULT_255_2_778
10
7.0132418
20
244.9928759
11
7.0585418
21
245.0518759
0
LINE
8
DEFAULT_255_2_778
10
7.0585418
20
245.0518759
11
7.1519418
21
245.1122759
0
LINE
8
DEFAULT_255_2_778
10
7.1519418
20
245.1122759
11
7.3233418
21
245.1320759
0
LINE
8
DEFAULT_255_2_778
10
7.3233418
20
245.1320759
11
7.4413418
21
245.0944759
0
LINE
8
DEFAULT_255_2_778
10
7.4413418
20
245.0944759
11
7.5170418
21
245.0301759
0
LINE
8
DEFAULT_255_2_778
10
7.5170418
20
245.0301759
11
7.5644418
21
244.9574759
0
LINE
8
DEFAULT_255_2_778
10
7.5644418
20
244.9574759
11
7.5871418
21
244.8997759
0
LINE
8
DEFAULT_255_2_778
10
7.5871418
20
244.8997759
11
7.5990418
21
244.8513759
0
LINE
8
DEFAULT_255_2_778
10
7.5990418
20
244.8513759
11
7.6046418
21
244.8145759
0
LINE
8
DEFAULT_255_2_778
10
7.6046418
20
244.8145759
11
7.6025418
21
244.6534759
0
LINE
8
DEFAULT_255_2_778
10
7.6025418
20
244.6534759
11
7.5929418
21
244.6047759
0
LINE
8
DEFAULT_255_2_778
10
7.5929418
20
244.6047759
11
7.5736418
21
244.5457759
0
LINE
8
DEFAULT_255_2_778
10
7.5736418
20
244.5457759
11
7.5318418
21
244.4695759
0
LINE
8
DEFAULT_255_2_778
10
7.5318418
20
244.4695759
11
7.4723418
21
244.4060759
0
LINE
8
DEFAULT_255_2_778
10
7.4723418
20
244.4060759
11
7.3725418
21
244.3562759
0
LINE
8
DEFAULT_255_2_778
10
7.3725418
20
244.3562759
11
7.1863418
21
244.3531759
0
LINE
8
DEFAULT_255_2_778
10
7.1863418
20
244.3531759
11
7.0839418
21
244.3965759
0
LINE
8
DEFAULT_255_2_778
10
7.0839418
20
244.3965759
11
7.0122418
21
244.4663759
0
LINE
8
DEFAULT_255_2_778
10
7.0122418
20
244.4663759
11
6.9735418
21
244.5317759
0
LINE
8
DEFAULT_255_2_778
10
6.9735418
20
244.5317759
11
6.9563418
21
244.5788759
0
LINE
8
DEFAULT_255_2_778
10
6.9563418
20
244.5788759
11
6.9484418
21
244.6150759
0
LINE
8
DEFAULT_255_2_778
10
6.9484418
20
244.6150759
11
6.9468418
21
244.6272759
0
LINE
8
DEFAULT_255_2_778
10
6.9468418
20
244.6272759
11
6.7143418
21
244.6272759
0
LINE
8
DEFAULT_255_2_778
10
6.7143418
20
244.6272759
11
6.7182418
21
244.5957759
0
LINE
8
DEFAULT_255_2_778
10
6.7182418
20
244.5957759
11
6.7275418
21
244.5489759
0
LINE
8
DEFAULT_255_2_778
10
6.7275418
20
244.5489759
11
6.7460418
21
244.4877759
0
LINE
8
DEFAULT_255_2_778
10
6.7460418
20
244.4877759
11
6.7791418
21
244.4152759
0
LINE
8
DEFAULT_255_2_778
10
6.7791418
20
244.4152759
11
6.8338418
21
244.3372759
0
LINE
8
DEFAULT_255_2_778
10
6.8338418
20
244.3372759
11
6.9418418
21
244.2433759
0
LINE
8
DEFAULT_255_2_778
10
6.9418418
20
244.2433759
11
7.1013418
21
244.1729759
0
LINE
8
DEFAULT_255_2_778
10
7.1013418
20
244.1729759
11
7.2270418
21
244.1530759
0
LINE
8
DEFAULT_255_2_778
10
7.2270418
20
244.1530759
11
7.4485418
21
244.1713759
0
LINE
8
DEFAULT_255_2_778
10
7.4485418
20
244.1713759
11
7.5951418
21
244.2324759
0
LINE
8
DEFAULT_255_2_778
10
7.5951418
20
244.2324759
11
7.6935418
21
244.3131759
0
LINE
8
DEFAULT_255_2_778
10
7.6935418
20
244.3131759
11
7.7599418
21
244.4025759
0
LINE
8
DEFAULT_255_2_778
10
7.7599418
20
244.4025759
11
7.7948418
21
244.4742759
0
LINE
8
DEFAULT_255_2_778
10
7.7948418
20
244.4742759
11
7.8152418
21
244.5346759
0
LINE
8
DEFAULT_255_2_778
10
7.8152418
20
244.5346759
11
7.8292418
21
244.5967759
0
LINE
8
DEFAULT_255_2_778
10
7.8292418
20
244.5967759
11
7.8340418
21
244.6282759
0
LINE
8
DEFAULT_255_2_778
10
7.8340418
20
244.6282759
11
7.8374418
21
244.6600759
0
LINE
8
DEFAULT_255_2_778
10
7.8374418
20
244.6600759
11
7.8379418
21
244.8190759
0
LINE
8
DEFAULT_255_2_778
10
7.8379418
20
244.8190759
11
7.8348418
21
244.8507759
0
LINE
8
DEFAULT_255_2_778
10
7.8348418
20
244.8507759
11
7.8276418
21
244.8978759
0
LINE
8
DEFAULT_255_2_778
10
7.8276418
20
244.8978759
11
7.8133418
21
244.9600759
0
LINE
8
DEFAULT_255_2_778
10
7.8133418
20
244.9600759
11
7.7869418
21
245.0352759
0
LINE
8
DEFAULT_255_2_778
10
7.7869418
20
245.0352759
11
7.7416418
21
245.1193759
0
LINE
8
DEFAULT_255_2_778
10
7.7416418
20
245.1193759
11
7.6691418
21
245.2040759
0
LINE
8
DEFAULT_255_2_778
10
7.6691418
20
245.2040759
11
7.5630418
21
245.2741759
0
LINE
8
DEFAULT_255_2_778
10
7.5630418
20
245.2741759
11
7.3937418
21
245.3161759
0
LINE
8
DEFAULT_255_2_778
10
7.3937418
20
245.3161759
11
7.2040418
21
245.3016759
0
LINE
8
DEFAULT_255_2_778
10
7.2040418
20
245.3016759
11
7.0871418
21
245.2524759
0
LINE
8
DEFAULT_255_2_778
10
7.0871418
20
245.2524759
11
7.0122418
21
245.1934759
0
LINE
8
DEFAULT_255_2_778
10
7.0122418
20
245.1934759
11
6.9675418
21
245.1481759
0
LINE
8
DEFAULT_255_2_778
10
6.9675418
20
245.1481759
11
6.9807418
21
245.6950759
0
LINE
8
DEFAULT_255_2_778
10
6.9807418
20
245.6950759
11
7.7517418
21
245.6950759
0
LINE
8
DEFAULT_255_2_778
10
7.7517418
20
245.6950759
11
7.7517418
21
245.8805759
0
LINE
8
DEFAULT_255_2_778
10
3.5652479
20
245.8856333
11
3.3326479
21
245.8856333
0
LINE
8
DEFAULT_255_2_778
10
3.3326479
20
245.8856333
11
3.3342479
21
244.7961333
0
LINE
8
DEFAULT_255_2_778
10
3.3342479
20
244.7961333
11
3.3368479
21
244.7466333
0
LINE
8
DEFAULT_255_2_778
10
3.3368479
20
244.7466333
11
3.3387479
21
244.7220333
0
LINE
8
DEFAULT_255_2_778
10
3.3387479
20
244.7220333
11
3.3413479
21
244.6974333
0
LINE
8
DEFAULT_255_2_778
10
3.3413479
20
244.6974333
11
3.3485479
21
244.6484333
0
LINE
8
DEFAULT_255_2_778
10
3.3485479
20
244.6484333
11
3.3591479
21
244.5997333
0
LINE
8
DEFAULT_255_2_778
10
3.3591479
20
244.5997333
11
3.3733479
21
244.5516333
0
LINE
8
DEFAULT_255_2_778
10
3.3733479
20
244.5516333
11
3.3913479
21
244.5045333
0
LINE
8
DEFAULT_255_2_778
10
3.3913479
20
244.5045333
11
3.4252479
21
244.4373333
0
LINE
8
DEFAULT_255_2_778
10
3.4252479
20
244.4373333
11
3.4675479
21
244.3754333
0
LINE
8
DEFAULT_255_2_778
10
3.4675479
20
244.3754333
11
3.5181479
21
244.3206333
0
LINE
8
DEFAULT_255_2_778
10
3.5181479
20
244.3206333
11
3.5972479
21
244.2600333
0
LINE
8
DEFAULT_255_2_778
10
3.5972479
20
244.2600333
11
3.7332479
21
244.1947333
0
LINE
8
DEFAULT_255_2_778
10
3.7332479
20
244.1947333
11
3.9041479
21
244.1542333
0
LINE
8
DEFAULT_255_2_778
10
3.9041479
20
244.1542333
11
4.0777479
21
244.1507333
0
LINE
8
DEFAULT_255_2_778
10
4.0777479
20
244.1507333
11
4.2510479
21
244.1846333
0
LINE
8
DEFAULT_255_2_778
10
4.2510479
20
244.1846333
11
4.3915479
21
244.2441333
0
LINE
8
DEFAULT_255_2_778
10
4.3915479
20
244.2441333
11
4.4740479
21
244.3000333
0
LINE
8
DEFAULT_255_2_778
10
4.4740479
20
244.3000333
11
4.5269479
21
244.3508333
0
LINE
8
DEFAULT_255_2_778
10
4.5269479
20
244.3508333
11
4.5708479
21
244.4092333
0
LINE
8
DEFAULT_255_2_778
10
4.5708479
20
244.4092333
11
4.6060479
21
244.4741333
0
LINE
8
DEFAULT_255_2_778
10
4.6060479
20
244.4741333
11
4.6333479
21
244.5439333
0
LINE
8
DEFAULT_255_2_778
10
4.6333479
20
244.5439333
11
4.6476479
21
244.5926333
0
LINE
8
DEFAULT_255_2_778
10
4.6476479
20
244.5926333
11
4.6592479
21
244.6426333
0
LINE
8
DEFAULT_255_2_778
10
4.6592479
20
244.6426333
11
4.6685479
21
244.6934333
0
LINE
8
DEFAULT_255_2_778
10
4.6685479
20
244.6934333
11
4.6754479
21
244.7447333
0
LINE
8
DEFAULT_255_2_778
10
4.6754479
20
244.7447333
11
4.6804479
21
244.7961333
0
LINE
8
DEFAULT_255_2_778
10
4.6804479
20
244.7961333
11
4.6825479
21
245.8864333
0
LINE
8
DEFAULT_255_2_778
10
4.6825479
20
245.8864333
11
4.4513479
21
245.8864333
0
LINE
8
DEFAULT_255_2_778
10
4.4513479
20
245.8864333
11
4.4491479
21
244.8275333
0
LINE
8
DEFAULT_255_2_778
10
4.4491479
20
244.8275333
11
4.4473479
21
244.7984333
0
LINE
8
DEFAULT_255_2_778
10
4.4473479
20
244.7984333
11
4.4446479
21
244.7693333
0
LINE
8
DEFAULT_255_2_778
10
4.4446479
20
244.7693333
11
4.4412479
21
244.7405333
0
LINE
8
DEFAULT_255_2_778
10
4.4412479
20
244.7405333
11
4.4367479
21
244.7119333
0
LINE
8
DEFAULT_255_2_778
10
4.4367479
20
244.7119333
11
4.4243479
21
244.6561333
0
LINE
8
DEFAULT_255_2_778
10
4.4243479
20
244.6561333
11
4.4060479
21
244.6024333
0
LINE
8
DEFAULT_255_2_778
10
4.4060479
20
244.6024333
11
4.3729479
21
244.5391333
0
LINE
8
DEFAULT_255_2_778
10
4.3729479
20
244.5391333
11
4.2973479
21
244.4508333
0
LINE
8
DEFAULT_255_2_778
10
4.2973479
20
244.4508333
11
4.1856479
21
244.3783333
0
LINE
8
DEFAULT_255_2_778
10
4.1856479
20
244.3783333
11
4.0401479
21
244.3423333
0
LINE
8
DEFAULT_255_2_778
10
4.0401479
20
244.3423333
11
3.8747479
21
244.3605333
0
LINE
8
DEFAULT_255_2_778
10
3.8747479
20
244.3605333
11
3.7435479
21
244.4248333
0
LINE
8
DEFAULT_255_2_778
10
3.7435479
20
244.4248333
11
3.6742479
21
244.4942333
0
LINE
8
DEFAULT_255_2_778
10
3.6742479
20
244.4942333
11
3.6313479
21
244.5667333
0
LINE
8
DEFAULT_255_2_778
10
3.6313479
20
244.5667333
11
3.6101479
21
244.6204333
0
LINE
8
DEFAULT_255_2_778
10
3.6101479
20
244.6204333
11
3.5940479
21
244.6770333
0
LINE
8
DEFAULT_255_2_778
10
3.5940479
20
244.6770333
11
3.5821479
21
244.7357333
0
LINE
8
DEFAULT_255_2_778
10
3.5821479
20
244.7357333
11
3.5773479
21
244.7656333
0
LINE
8
DEFAULT_255_2_778
10
3.5773479
20
244.7656333
11
3.5734479
21
244.7958333
0
LINE
8
DEFAULT_255_2_778
10
3.5734479
20
244.7958333
11
3.5702479
21
244.8260333
0
LINE
8
DEFAULT_255_2_778
10
3.5702479
20
244.8260333
11
3.5675479
21
244.8561333
0
LINE
8
DEFAULT_255_2_778
10
3.5675479
20
244.8561333
11
3.5660479
21
245.8864333
0
LINE
8
DEFAULT_255_2_778
10
5.7589656
20
244.9423864
11
5.8832656
21
244.9193864
0
LINE
8
DEFAULT_255_2_778
10
5.8832656
20
244.9193864
11
5.9899656
21
244.8653864
0
LINE
8
DEFAULT_255_2_778
10
5.9899656
20
244.8653864
11
6.0401656
21
244.8095864
0
LINE
8
DEFAULT_255_2_778
10
6.0401656
20
244.8095864
11
6.0719656
21
244.7513864
0
LINE
8
DEFAULT_255_2_778
10
6.0719656
20
244.7513864
11
6.0896656
21
244.7002864
0
LINE
8
DEFAULT_255_2_778
10
6.0896656
20
244.7002864
11
6.0981656
21
244.6605864
0
LINE
8
DEFAULT_255_2_778
10
6.0981656
20
244.6605864
11
6.0962656
21
244.5446864
0
LINE
8
DEFAULT_255_2_778
10
6.0962656
20
244.5446864
11
6.0854656
21
244.5102864
0
LINE
8
DEFAULT_255_2_778
10
6.0854656
20
244.5102864
11
6.0626656
21
244.4698864
0
LINE
8
DEFAULT_255_2_778
10
6.0626656
20
244.4698864
11
6.0020656
21
244.4147864
0
LINE
8
DEFAULT_255_2_778
10
6.0020656
20
244.4147864
11
5.9219656
21
244.3774864
0
LINE
8
DEFAULT_255_2_778
10
5.9219656
20
244.3774864
11
5.7615656
21
244.3457864
0
LINE
8
DEFAULT_255_2_778
10
5.7615656
20
244.3457864
11
5.6031656
21
244.3467864
0
LINE
8
DEFAULT_255_2_778
10
5.6031656
20
244.3467864
11
5.4575656
21
244.3933864
0
LINE
8
DEFAULT_255_2_778
10
5.4575656
20
244.3933864
11
5.3821656
21
244.4602864
0
LINE
8
DEFAULT_255_2_778
10
5.3821656
20
244.4602864
11
5.3385656
21
244.5322864
0
LINE
8
DEFAULT_255_2_778
10
5.3385656
20
244.5322864
11
5.3147656
21
244.5938864
0
LINE
8
DEFAULT_255_2_778
10
5.3147656
20
244.5938864
11
5.2996656
21
244.6489864
0
LINE
8
DEFAULT_255_2_778
10
5.2996656
20
244.6489864
11
5.2932656
21
244.6782864
0
LINE
8
DEFAULT_255_2_778
10
5.2932656
20
244.6782864
11
5.0596656
21
244.6782864
0
LINE
8
DEFAULT_255_2_778
10
5.0596656
20
244.6782864
11
5.0612656
21
244.6378864
0
LINE
8
DEFAULT_255_2_778
10
5.0612656
20
244.6378864
11
5.0630656
21
244.6179864
0
LINE
8
DEFAULT_255_2_778
10
5.0630656
20
244.6179864
11
5.0686656
21
244.5793864
0
LINE
8
DEFAULT_255_2_778
10
5.0686656
20
244.5793864
11
5.0771656
21
244.5420864
0
LINE
8
DEFAULT_255_2_778
10
5.0771656
20
244.5420864
11
5.0953656
21
244.4880864
0
LINE
8
DEFAULT_255_2_778
10
5.0953656
20
244.4880864
11
5.1300656
21
244.4192864
0
LINE
8
DEFAULT_255_2_778
10
5.1300656
20
244.4192864
11
5.1887656
21
244.3409864
0
LINE
8
DEFAULT_255_2_778
10
5.1887656
20
244.3409864
11
5.2768656
21
244.2639864
0
LINE
8
DEFAULT_255_2_778
10
5.2768656
20
244.2639864
11
5.4160656
21
244.1951864
0
LINE
8
DEFAULT_255_2_778
10
5.4160656
20
244.1951864
11
5.5488656
21
244.1615864
0
LINE
8
DEFAULT_255_2_778
10
5.5488656
20
244.1615864
11
5.8004656
21
244.1517864
0
LINE
8
DEFAULT_255_2_778
10
5.8004656
20
244.1517864
11
6.0288656
21
244.2062864
0
LINE
8
DEFAULT_255_2_778
10
6.0288656
20
244.2062864
11
6.1664656
21
244.2811864
0
LINE
8
DEFAULT_255_2_778
10
6.1664656
20
244.2811864
11
6.2373656
21
244.3459864
0
LINE
8
DEFAULT_255_2_778
10
6.2373656
20
244.3459864
11
6.2822656
21
244.4084864
0
LINE
8
DEFAULT_255_2_778
10
6.2822656
20
244.4084864
11
6.3087656
21
244.4602864
0
LINE
8
DEFAULT_255_2_778
10
6.3087656
20
244.4602864
11
6.3291656
21
244.5155864
0
LINE
8
DEFAULT_255_2_778
10
6.3291656
20
244.5155864
11
6.3391656
21
244.5539864
0
LINE
8
DEFAULT_255_2_778
10
6.3391656
20
244.5539864
11
6.3463656
21
244.5933864
0
LINE
8
DEFAULT_255_2_778
10
6.3463656
20
244.5933864
11
6.3457656
21
244.7547864
0
LINE
8
DEFAULT_255_2_778
10
6.3457656
20
244.7547864
11
6.3381656
21
244.7941864
0
LINE
8
DEFAULT_255_2_778
10
6.3381656
20
244.7941864
11
6.3272656
21
244.8325864
0
LINE
8
DEFAULT_255_2_778
10
6.3272656
20
244.8325864
11
6.3050656
21
244.8867864
0
LINE
8
DEFAULT_255_2_778
10
6.3050656
20
244.8867864
11
6.2751656
21
244.9360864
0
LINE
8
DEFAULT_255_2_778
10
6.2751656
20
244.9360864
11
6.2235656
21
244.9918864
0
LINE
8
DEFAULT_255_2_778
10
6.2235656
20
244.9918864
11
6.0902656
21
245.0719864
0
LINE
8
DEFAULT_255_2_778
10
6.0902656
20
245.0719864
11
5.9065656
21
245.1370864
0
LINE
8
DEFAULT_255_2_778
10
5.9065656
20
245.1370864
11
5.5224656
21
245.2127864
0
LINE
8
DEFAULT_255_2_778
10
5.5224656
20
245.2127864
11
5.4528656
21
245.2447864
0
LINE
8
DEFAULT_255_2_778
10
5.4528656
20
245.2447864
11
5.4067656
21
245.2812864
0
LINE
8
DEFAULT_255_2_778
10
5.4067656
20
245.2812864
11
5.3681656
21
245.3291864
0
LINE
8
DEFAULT_255_2_778
10
5.3681656
20
245.3291864
11
5.3477656
21
245.3656864
0
LINE
8
DEFAULT_255_2_778
10
5.3477656
20
245.3656864
11
5.3324656
21
245.4043864
0
LINE
8
DEFAULT_255_2_778
10
5.3324656
20
245.4043864
11
5.3268656
21
245.4238864
0
LINE
8
DEFAULT_255_2_778
10
5.3268656
20
245.4238864
11
5.3215656
21
245.4535864
0
LINE
8
DEFAULT_255_2_778
10
5.3215656
20
245.4535864
11
5.3226656
21
245.5106864
0
LINE
8
DEFAULT_255_2_778
10
5.3226656
20
245.5106864
11
5.3295656
21
245.5371864
0
LINE
8
DEFAULT_255_2_778
10
5.3295656
20
245.5371864
11
5.3559656
21
245.5850864
0
LINE
8
DEFAULT_255_2_778
10
5.3559656
20
245.5850864
11
5.3964656
21
245.6260864
0
LINE
8
DEFAULT_255_2_778
10
5.3964656
20
245.6260864
11
5.4861656
21
245.6789864
0
LINE
8
DEFAULT_255_2_778
10
5.4861656
20
245.6789864
11
5.6337656
21
245.7210864
0
LINE
8
DEFAULT_255_2_778
10
5.6337656
20
245.7210864
11
5.7809656
21
245.7247864
0
LINE
8
DEFAULT_255_2_778
10
5.7809656
20
245.7247864
11
5.8933656
21
245.6953864
0
LINE
8
DEFAULT_255_2_778
10
5.8933656
20
245.6953864
11
5.9560656
21
245.6583864
0
LINE
8
DEFAULT_255_2_778
10
5.9560656
20
245.6583864
11
6.0060656
21
245.6064864
0
LINE
8
DEFAULT_255_2_778
10
6.0060656
20
245.6064864
11
6.0354656
21
245.5580864
0
LINE
8
DEFAULT_255_2_778
10
6.0354656
20
245.5580864
11
6.0589656
21
245.5016864
0
LINE
8
DEFAULT_255_2_778
10
6.0589656
20
245.5016864
11
6.0716656
21
245.4596864
0
LINE
8
DEFAULT_255_2_778
10
6.0716656
20
245.4596864
11
6.3079656
21
245.4596864
0
LINE
8
DEFAULT_255_2_778
10
6.3079656
20
245.4596864
11
6.3042656
21
245.4881864
0
LINE
8
DEFAULT_255_2_778
10
6.3042656
20
245.4881864
11
6.2944656
21
245.5426864
0
LINE
8
DEFAULT_255_2_778
10
6.2944656
20
245.5426864
11
6.2812656
21
245.5934864
0
LINE
8
DEFAULT_255_2_778
10
6.2812656
20
245.5934864
11
6.2645656
21
245.6405864
0
LINE
8
DEFAULT_255_2_778
10
6.2645656
20
245.6405864
11
6.2439656
21
245.6839864
0
LINE
8
DEFAULT_255_2_778
10
6.2439656
20
245.6839864
11
6.2052656
21
245.7416864
0
LINE
8
DEFAULT_255_2_778
10
6.2052656
20
245.7416864
11
6.1568656
21
245.7903864
0
LINE
8
DEFAULT_255_2_778
10
6.1568656
20
245.7903864
11
6.0772656
21
245.8414864
0
LINE
8
DEFAULT_255_2_778
10
6.0772656
20
245.8414864
11
5.9356656
21
245.8922864
0
LINE
8
DEFAULT_255_2_778
10
5.9356656
20
245.8922864
11
5.6819656
21
245.9247864
0
LINE
8
DEFAULT_255_2_778
10
5.6819656
20
245.9247864
11
5.5110656
21
245.9078864
0
LINE
8
DEFAULT_255_2_778
10
5.5110656
20
245.9078864
11
5.3946656
21
245.8673864
0
LINE
8
DEFAULT_255_2_778
10
5.3946656
20
245.8673864
11
5.2853656
21
245.7990864
0
LINE
8
DEFAULT_255_2_778
10
5.2853656
20
245.7990864
11
5.2080656
21
245.7273864
0
LINE
8
DEFAULT_255_2_778
10
5.2080656
20
245.7273864
11
5.1591656
21
245.6657864
0
LINE
8
DEFAULT_255_2_778
10
5.1591656
20
245.6657864
11
5.1202656
21
245.5990864
0
LINE
8
DEFAULT_255_2_778
10
5.1202656
20
245.5990864
11
5.1006656
21
245.5524864
0
LINE
8
DEFAULT_255_2_778
10
5.1006656
20
245.5524864
11
5.0871656
21
245.5045864
0
LINE
8
DEFAULT_255_2_778
10
5.0871656
20
245.5045864
11
5.0813656
21
245.4680864
0
LINE
8
DEFAULT_255_2_778
10
5.0813656
20
245.4680864
11
5.0829656
21
245.3820864
0
LINE
8
DEFAULT_255_2_778
10
5.0829656
20
245.3820864
11
5.0874656
21
245.3574864
0
LINE
8
DEFAULT_255_2_778
10
5.0874656
20
245.3574864
11
5.0935656
21
245.3331864
0
LINE
8
DEFAULT_255_2_778
10
5.0935656
20
245.3331864
11
5.1099656
21
245.2855864
0
LINE
8
DEFAULT_255_2_778
10
5.1099656
20
245.2855864
11
5.1318656
21
245.2394864
0
LINE
8
DEFAULT_255_2_778
10
5.1318656
20
245.2394864
11
5.1736656
21
245.1749864
0
LINE
8
DEFAULT_255_2_778
10
5.1736656
20
245.1749864
11
5.2242656
21
245.1180864
0
LINE
8
DEFAULT_255_2_778
10
5.2242656
20
245.1180864
11
5.3017656
21
245.0571864
0
LINE
8
DEFAULT_255_2_778
10
5.3017656
20
245.0571864
11
5.4107656
21
245.0047864
0
LINE
8
DEFAULT_255_2_778
10
5.4107656
20
245.0047864
11
5.6049656
21
244.9598864
0
LINE
8
DEFAULT_255_2_778
10
5.6049656
20
244.9598864
11
5.7594656
21
244.9420864
0
LINE
8
DEFAULT_255_2_778
10
9.2991219
20
245.8856062
11
8.2521219
21
245.8856062
0
LINE
8
DEFAULT_255_2_778
10
8.2521219
20
245.8856062
11
8.2521219
21
244.1857062
0
LINE
8
DEFAULT_255_2_778
10
8.2521219
20
244.1857062
11
8.4847219
21
244.1857062
0
LINE
8
DEFAULT_255_2_778
10
8.4847219
20
244.1857062
11
8.4847219
21
244.9641062
0
LINE
8
DEFAULT_255_2_778
10
8.4847219
20
244.9641062
11
9.2570219
21
244.9641062
0
LINE
8
DEFAULT_255_2_778
10
9.2570219
20
244.9641062
11
9.2570219
21
245.1570062
0
LINE
8
DEFAULT_255_2_778
10
9.2570219
20
245.1570062
11
8.4847219
21
245.1570062
0
LINE
8
DEFAULT_255_2_778
10
8.4847219
20
245.1570062
11
8.4847219
21
245.6930062
0
LINE
8
DEFAULT_255_2_778
10
8.4847219
20
245.6930062
11
9.2991219
21
245.6930062
0
LINE
8
DEFAULT_255_2_778
10
9.2991219
20
245.6930062
11
9.2991219
21
245.8859062
0
LINE
8
DEFAULT_255_2_778
10
2.0950084
20
244.1856354
11
2.6046084
21
244.1973354
0
LINE
8
DEFAULT_255_2_778
10
2.6046084
20
244.1973354
11
2.7292084
21
244.2256354
0
LINE
8
DEFAULT_255_2_778
10
2.7292084
20
244.2256354
11
2.8242084
21
244.2674354
0
LINE
8
DEFAULT_255_2_778
10
2.8242084
20
244.2674354
11
2.9247084
21
244.3465354
0
LINE
8
DEFAULT_255_2_778
10
2.9247084
20
244.3465354
11
2.9747084
21
244.4198354
0
LINE
8
DEFAULT_255_2_778
10
2.9747084
20
244.4198354
11
2.9906084
21
244.4550354
0
LINE
8
DEFAULT_255_2_778
10
2.9906084
20
244.4550354
11
3.0070084
21
244.5042354
0
LINE
8
DEFAULT_255_2_778
10
3.0070084
20
244.5042354
11
3.0133084
21
244.5296354
0
LINE
8
DEFAULT_255_2_778
10
3.0133084
20
244.5296354
11
3.0184084
21
244.5553354
0
LINE
8
DEFAULT_255_2_778
10
3.0184084
20
244.5553354
11
3.0197084
21
244.7346354
0
LINE
8
DEFAULT_255_2_778
10
3.0197084
20
244.7346354
11
3.0147084
21
244.7598354
0
LINE
8
DEFAULT_255_2_778
10
3.0147084
20
244.7598354
11
3.0083084
21
244.7846354
0
LINE
8
DEFAULT_255_2_778
10
3.0083084
20
244.7846354
11
2.9911084
21
244.8331354
0
LINE
8
DEFAULT_255_2_778
10
2.9911084
20
244.8331354
11
2.9475084
21
244.9114354
0
LINE
8
DEFAULT_255_2_778
10
2.9475084
20
244.9114354
11
2.8670084
21
244.9923354
0
LINE
8
DEFAULT_255_2_778
10
2.8670084
20
244.9923354
11
2.6678084
21
245.0892354
0
LINE
8
DEFAULT_255_2_778
10
2.6678084
20
245.0892354
11
2.7652084
21
245.1215354
0
LINE
8
DEFAULT_255_2_778
10
2.7652084
20
245.1215354
11
2.8877084
21
245.2284354
0
LINE
8
DEFAULT_255_2_778
10
2.8877084
20
245.2284354
11
2.9289084
21
245.2945354
0
LINE
8
DEFAULT_255_2_778
10
2.9289084
20
245.2945354
11
2.9472084
21
245.3429354
0
LINE
8
DEFAULT_255_2_778
10
2.9472084
20
245.3429354
11
2.9564084
21
245.3810354
0
LINE
8
DEFAULT_255_2_778
10
2.9564084
20
245.3810354
11
2.9604084
21
245.4069354
0
LINE
8
DEFAULT_255_2_778
10
2.9604084
20
245.4069354
11
2.9609084
21
245.5123354
0
LINE
8
DEFAULT_255_2_778
10
2.9609084
20
245.5123354
11
2.9575084
21
245.5384354
0
LINE
8
DEFAULT_255_2_778
10
2.9575084
20
245.5384354
11
2.9525084
21
245.5644354
0
LINE
8
DEFAULT_255_2_778
10
2.9525084
20
245.5644354
11
2.9461084
21
245.5898354
0
LINE
8
DEFAULT_255_2_778
10
2.9461084
20
245.5898354
11
2.9234084
21
245.6504354
0
LINE
8
DEFAULT_255_2_778
10
2.9234084
20
245.6504354
11
2.8832084
21
245.7149354
0
LINE
8
DEFAULT_255_2_778
10
2.8832084
20
245.7149354
11
2.8183084
21
245.7752354
0
LINE
8
DEFAULT_255_2_778
10
2.8183084
20
245.7752354
11
2.7276084
21
245.8250354
0
LINE
8
DEFAULT_255_2_778
10
2.7276084
20
245.8250354
11
2.5784084
21
245.8681354
0
LINE
8
DEFAULT_255_2_778
10
2.5784084
20
245.8681354
11
2.4011084
21
245.8853354
0
LINE
8
DEFAULT_255_2_778
10
2.4011084
20
245.8853354
11
1.7899084
21
245.8869354
0
LINE
8
DEFAULT_255_2_778
10
1.7899084
20
245.8869354
11
1.7899084
21
244.1870354
0
LINE
8
DEFAULT_255_2_778
10
1.7899084
20
244.1870354
11
2.0950084
21
244.1856354
0
LINE
8
DEFAULT_255_2_778
10
2.3685084
20
244.3782354
11
2.0219084
21
244.3782354
0
LINE
8
DEFAULT_255_2_778
10
2.0219084
20
244.3782354
11
2.0219084
21
244.9699354
0
LINE
8
DEFAULT_255_2_778
10
2.0219084
20
244.9699354
11
2.4982084
21
244.9622354
0
LINE
8
DEFAULT_255_2_778
10
2.4982084
20
244.9622354
11
2.6768084
21
244.9042354
0
LINE
8
DEFAULT_255_2_778
10
2.6768084
20
244.9042354
11
2.7398084
21
244.8463354
0
LINE
8
DEFAULT_255_2_778
10
2.7398084
20
244.8463354
11
2.7707084
21
244.7889354
0
LINE
8
DEFAULT_255_2_778
10
2.7707084
20
244.7889354
11
2.7863084
21
244.7357354
0
LINE
8
DEFAULT_255_2_778
10
2.7863084
20
244.7357354
11
2.7916084
21
244.7026354
0
LINE
8
DEFAULT_255_2_778
10
2.7916084
20
244.7026354
11
2.7906084
21
244.6150354
0
LINE
8
DEFAULT_255_2_778
10
2.7906084
20
244.6150354
11
2.7837084
21
244.5833354
0
LINE
8
DEFAULT_255_2_778
10
2.7837084
20
244.5833354
11
2.7630084
21
244.5328354
0
LINE
8
DEFAULT_255_2_778
10
2.7630084
20
244.5328354
11
2.7091084
21
244.4624354
0
LINE
8
DEFAULT_255_2_778
10
2.7091084
20
244.4624354
11
2.6064084
21
244.4005354
0
LINE
8
DEFAULT_255_2_778
10
2.6064084
20
244.4005354
11
2.4117084
21
244.3785354
0
LINE
8
DEFAULT_255_2_778
10
2.4117084
20
244.3785354
11
2.3685084
21
244.3782354
0
LINE
8
DEFAULT_255_2_778
10
2.2815084
20
245.1672354
11
2.0217084
21
245.1675354
0
LINE
8
DEFAULT_255_2_778
10
2.0217084
20
245.1675354
11
2.0217084
21
245.6927354
0
LINE
8
DEFAULT_255_2_778
10
2.0217084
20
245.6927354
11
2.5397084
21
245.6689354
0
LINE
8
DEFAULT_255_2_778
10
2.5397084
20
245.6689354
11
2.6453084
21
245.6144354
0
LINE
8
DEFAULT_255_2_778
10
2.6453084
20
245.6144354
11
2.6940084
21
245.5556354
0
LINE
8
DEFAULT_255_2_778
10
2.6940084
20
245.5556354
11
2.7170084
21
245.5051354
0
LINE
8
DEFAULT_255_2_778
10
2.7170084
20
245.5051354
11
2.7257084
21
245.4726354
0
LINE
8
DEFAULT_255_2_778
10
2.7257084
20
245.4726354
11
2.7241084
21
245.3609354
0
LINE
8
DEFAULT_255_2_778
10
2.7241084
20
245.3609354
11
2.7101084
21
245.3194354
0
LINE
8
DEFAULT_255_2_778
10
2.7101084
20
245.3194354
11
2.6815084
21
245.2739354
0
LINE
8
DEFAULT_255_2_778
10
2.6815084
20
245.2739354
11
2.5836084
21
245.2056354
0
LINE
8
DEFAULT_255_2_778
10
2.5836084
20
245.2056354
11
2.4320084
21
245.1709354
0
LINE
8
DEFAULT_255_2_778
10
2.4320084
20
245.1709354
11
2.2815084
21
245.1672354
0
LINE
8
DEFAULT_255_2_778
10
7.4604625
20
250.8761114
11
7.2675625
21
250.8761114
0
LINE
8
DEFAULT_255_2_778
10
7.2675625
20
250.8761114
11
6.8603625
21
250.6147114
0
LINE
8
DEFAULT_255_2_778
10
6.8603625
20
250.6147114
11
6.8603625
21
250.4028114
0
LINE
8
DEFAULT_255_2_778
10
6.8603625
20
250.4028114
11
7.1738625
21
250.5674114
0
LINE
8
DEFAULT_255_2_778
10
7.1738625
20
250.5674114
11
7.2326625
21
250.6137114
0
LINE
8
DEFAULT_255_2_778
10
7.2326625
20
250.6137114
11
7.2326625
21
249.1860114
0
LINE
8
DEFAULT_255_2_778
10
7.2326625
20
249.1860114
11
7.4604625
21
249.1860114
0
LINE
8
DEFAULT_255_2_778
10
7.4604625
20
249.1860114
11
7.4604625
21
250.8764114
0
LINE
8
DEFAULT_255_2_778
10
3.5652479
20
250.8857333
11
3.3326479
21
250.8857333
0
LINE
8
DEFAULT_255_2_778
10
3.3326479
20
250.8857333
11
3.3342479
21
249.7962333
0
LINE
8
DEFAULT_255_2_778
10
3.3342479
20
249.7962333
11
3.3368479
21
249.7467333
0
LINE
8
DEFAULT_255_2_778
10
3.3368479
20
249.7467333
11
3.3387479
21
249.7221333
0
LINE
8
DEFAULT_255_2_778
10
3.3387479
20
249.7221333
11
3.3413479
21
249.6975333
0
LINE
8
DEFAULT_255_2_778
10
3.3413479
20
249.6975333
11
3.3485479
21
249.6485333
0
LINE
8
DEFAULT_255_2_778
10
3.3485479
20
249.6485333
11
3.3591479
21
249.5998333
0
LINE
8
DEFAULT_255_2_778
10
3.3591479
20
249.5998333
11
3.3733479
21
249.5517333
0
LINE
8
DEFAULT_255_2_778
10
3.3733479
20
249.5517333
11
3.3913479
21
249.5046333
0
LINE
8
DEFAULT_255_2_778
10
3.3913479
20
249.5046333
11
3.4252479
21
249.4374333
0
LINE
8
DEFAULT_255_2_778
10
3.4252479
20
249.4374333
11
3.4675479
21
249.3755333
0
LINE
8
DEFAULT_255_2_778
10
3.4675479
20
249.3755333
11
3.5181479
21
249.3207333
0
LINE
8
DEFAULT_255_2_778
10
3.5181479
20
249.3207333
11
3.5972479
21
249.2601333
0
LINE
8
DEFAULT_255_2_778
10
3.5972479
20
249.2601333
11
3.7332479
21
249.1948333
0
LINE
8
DEFAULT_255_2_778
10
3.7332479
20
249.1948333
11
3.9041479
21
249.1543333
0
LINE
8
DEFAULT_255_2_778
10
3.9041479
20
249.1543333
11
4.0777479
21
249.1508333
0
LINE
8
DEFAULT_255_2_778
10
4.0777479
20
249.1508333
11
4.2510479
21
249.1847333
0
LINE
8
DEFAULT_255_2_778
10
4.2510479
20
249.1847333
11
4.3915479
21
249.2442333
0
LINE
8
DEFAULT_255_2_778
10
4.3915479
20
249.2442333
11
4.4740479
21
249.3001333
0
LINE
8
DEFAULT_255_2_778
10
4.4740479
20
249.3001333
11
4.5269479
21
249.3509333
0
LINE
8
DEFAULT_255_2_778
10
4.5269479
20
249.3509333
11
4.5708479
21
249.4093333
0
LINE
8
DEFAULT_255_2_778
10
4.5708479
20
249.4093333
11
4.6060479
21
249.4742333
0
LINE
8
DEFAULT_255_2_778
10
4.6060479
20
249.4742333
11
4.6333479
21
249.5440333
0
LINE
8
DEFAULT_255_2_778
10
4.6333479
20
249.5440333
11
4.6476479
21
249.5927333
0
LINE
8
DEFAULT_255_2_778
10
4.6476479
20
249.5927333
11
4.6592479
21
249.6427333
0
LINE
8
DEFAULT_255_2_778
10
4.6592479
20
249.6427333
11
4.6685479
21
249.6935333
0
LINE
8
DEFAULT_255_2_778
10
4.6685479
20
249.6935333
11
4.6754479
21
249.7448333
0
LINE
8
DEFAULT_255_2_778
10
4.6754479
20
249.7448333
11
4.6804479
21
249.7962333
0
LINE
8
DEFAULT_255_2_778
10
4.6804479
20
249.7962333
11
4.6825479
21
250.8865333
0
LINE
8
DEFAULT_255_2_778
10
4.6825479
20
250.8865333
11
4.4513479
21
250.8865333
0
LINE
8
DEFAULT_255_2_778
10
4.4513479
20
250.8865333
11
4.4491479
21
249.8276333
0
LINE
8
DEFAULT_255_2_778
10
4.4491479
20
249.8276333
11
4.4473479
21
249.7985333
0
LINE
8
DEFAULT_255_2_778
10
4.4473479
20
249.7985333
11
4.4446479
21
249.7694333
0
LINE
8
DEFAULT_255_2_778
10
4.4446479
20
249.7694333
11
4.4412479
21
249.7406333
0
LINE
8
DEFAULT_255_2_778
10
4.4412479
20
249.7406333
11
4.4367479
21
249.7120333
0
LINE
8
DEFAULT_255_2_778
10
4.4367479
20
249.7120333
11
4.4243479
21
249.6562333
0
LINE
8
DEFAULT_255_2_778
10
4.4243479
20
249.6562333
11
4.4060479
21
249.6025333
0
LINE
8
DEFAULT_255_2_778
10
4.4060479
20
249.6025333
11
4.3729479
21
249.5392333
0
LINE
8
DEFAULT_255_2_778
10
4.3729479
20
249.5392333
11
4.2973479
21
249.4509333
0
LINE
8
DEFAULT_255_2_778
10
4.2973479
20
249.4509333
11
4.1856479
21
249.3784333
0
LINE
8
DEFAULT_255_2_778
10
4.1856479
20
249.3784333
11
4.0401479
21
249.3424333
0
LINE
8
DEFAULT_255_2_778
10
4.0401479
20
249.3424333
11
3.8747479
21
249.3606333
0
LINE
8
DEFAULT_255_2_778
10
3.8747479
20
249.3606333
11
3.7435479
21
249.4249333
0
LINE
8
DEFAULT_255_2_778
10
3.7435479
20
249.4249333
11
3.6742479
21
249.4943333
0
LINE
8
DEFAULT_255_2_778
10
3.6742479
20
249.4943333
11
3.6313479
21
249.5668333
0
LINE
8
DEFAULT_255_2_778
10
3.6313479
20
249.5668333
11
3.6101479
21
249.6205333
0
LINE
8
DEFAULT_255_2_778
10
3.6101479
20
249.6205333
11
3.5940479
21
249.6771333
0
LINE
8
DEFAULT_255_2_778
10
3.5940479
20
249.6771333
11
3.5821479
21
249.7358333
0
LINE
8
DEFAULT_255_2_778
10
3.5821479
20
249.7358333
11
3.5773479
21
249.7657333
0
LINE
8
DEFAULT_255_2_778
10
3.5773479
20
249.7657333
11
3.5734479
21
249.7959333
0
LINE
8
DEFAULT_255_2_778
10
3.5734479
20
249.7959333
11
3.5702479
21
249.8261333
0
LINE
8
DEFAULT_255_2_778
10
3.5702479
20
249.8261333
11
3.5675479
21
249.8562333
0
LINE
8
DEFAULT_255_2_778
10
3.5675479
20
249.8562333
11
3.5660479
21
250.8865333
0
LINE
8
DEFAULT_255_2_778
10
5.7589656
20
249.9424864
11
5.8832656
21
249.9194864
0
LINE
8
DEFAULT_255_2_778
10
5.8832656
20
249.9194864
11
5.9899656
21
249.8654864
0
LINE
8
DEFAULT_255_2_778
10
5.9899656
20
249.8654864
11
6.0401656
21
249.8096864
0
LINE
8
DEFAULT_255_2_778
10
6.0401656
20
249.8096864
11
6.0719656
21
249.7514864
0
LINE
8
DEFAULT_255_2_778
10
6.0719656
20
249.7514864
11
6.0896656
21
249.7003864
0
LINE
8
DEFAULT_255_2_778
10
6.0896656
20
249.7003864
11
6.0981656
21
249.6606864
0
LINE
8
DEFAULT_255_2_778
10
6.0981656
20
249.6606864
11
6.0962656
21
249.5447864
0
LINE
8
DEFAULT_255_2_778
10
6.0962656
20
249.5447864
11
6.0854656
21
249.5103864
0
LINE
8
DEFAULT_255_2_778
10
6.0854656
20
249.5103864
11
6.0626656
21
249.4699864
0
LINE
8
DEFAULT_255_2_778
10
6.0626656
20
249.4699864
11
6.0020656
21
249.4148864
0
LINE
8
DEFAULT_255_2_778
10
6.0020656
20
249.4148864
11
5.9219656
21
249.3775864
0
LINE
8
DEFAULT_255_2_778
10
5.9219656
20
249.3775864
11
5.7615656
21
249.3458864
0
LINE
8
DEFAULT_255_2_778
10
5.7615656
20
249.3458864
11
5.6031656
21
249.3468864
0
LINE
8
DEFAULT_255_2_778
10
5.6031656
20
249.3468864
11
5.4575656
21
249.3934864
0
LINE
8
DEFAULT_255_2_778
10
5.4575656
20
249.3934864
11
5.3821656
21
249.4603864
0
LINE
8
DEFAULT_255_2_778
10
5.3821656
20
249.4603864
11
5.3385656
21
249.5323864
0
LINE
8
DEFAULT_255_2_778
10
5.3385656
20
249.5323864
11
5.3147656
21
249.5939864
0
LINE
8
DEFAULT_255_2_778
10
5.3147656
20
249.5939864
11
5.2996656
21
249.6490864
0
LINE
8
DEFAULT_255_2_778
10
5.2996656
20
249.6490864
11
5.2932656
21
249.6783864
0
LINE
8
DEFAULT_255_2_778
10
5.2932656
20
249.6783864
11
5.0596656
21
249.6783864
0
LINE
8
DEFAULT_255_2_778
10
5.0596656
20
249.6783864
11
5.0612656
21
249.6379864
0
LINE
8
DEFAULT_255_2_778
10
5.0612656
20
249.6379864
11
5.0630656
21
249.6180864
0
LINE
8
DEFAULT_255_2_778
10
5.0630656
20
249.6180864
11
5.0686656
21
249.5794864
0
LINE
8
DEFAULT_255_2_778
10
5.0686656
20
249.5794864
11
5.0771656
21
249.5421864
0
LINE
8
DEFAULT_255_2_778
10
5.0771656
20
249.5421864
11
5.0953656
21
249.4881864
0
LINE
8
DEFAULT_255_2_778
10
5.0953656
20
249.4881864
11
5.1300656
21
249.4193864
0
LINE
8
DEFAULT_255_2_778
10
5.1300656
20
249.4193864
11
5.1887656
21
249.3410864
0
LINE
8
DEFAULT_255_2_778
10
5.1887656
20
249.3410864
11
5.2768656
21
249.2640864
0
LINE
8
DEFAULT_255_2_778
10
5.2768656
20
249.2640864
11
5.4160656
21
249.1952864
0
LINE
8
DEFAULT_255_2_778
10
5.4160656
20
249.1952864
11
5.5488656
21
249.1616864
0
LINE
8
DEFAULT_255_2_778
10
5.5488656
20
249.1616864
11
5.8004656
21
249.1518864
0
LINE
8
DEFAULT_255_2_778
10
5.8004656
20
249.1518864
11
6.0288656
21
249.2063864
0
LINE
8
DEFAULT_255_2_778
10
6.0288656
20
249.2063864
11
6.1664656
21
249.2812864
0
LINE
8
DEFAULT_255_2_778
10
6.1664656
20
249.2812864
11
6.2373656
21
249.3460864
0
LINE
8
DEFAULT_255_2_778
10
6.2373656
20
249.3460864
11
6.2822656
21
249.4085864
0
LINE
8
DEFAULT_255_2_778
10
6.2822656
20
249.4085864
11
6.3087656
21
249.4603864
0
LINE
8
DEFAULT_255_2_778
10
6.3087656
20
249.4603864
11
6.3291656
21
249.5156864
0
LINE
8
DEFAULT_255_2_778
10
6.3291656
20
249.5156864
11
6.3391656
21
249.5540864
0
LINE
8
DEFAULT_255_2_778
10
6.3391656
20
249.5540864
11
6.3463656
21
249.5934864
0
LINE
8
DEFAULT_255_2_778
10
6.3463656
20
249.5934864
11
6.3457656
21
249.7548864
0
LINE
8
DEFAULT_255_2_778
10
6.3457656
20
249.7548864
11
6.3381656
21
249.7942864
0
LINE
8
DEFAULT_255_2_778
10
6.3381656
20
249.7942864
11
6.3272656
21
249.8326864
0
LINE
8
DEFAULT_255_2_778
10
6.3272656
20
249.8326864
11
6.3050656
21
249.8868864
0
LINE
8
DEFAULT_255_2_778
10
6.3050656
20
249.8868864
11
6.2751656
21
249.9361864
0
LINE
8
DEFAULT_255_2_778
10
6.2751656
20
249.9361864
11
6.2235656
21
249.9919864
0
LINE
8
DEFAULT_255_2_778
10
6.2235656
20
249.9919864
11
6.0902656
21
250.0720864
0
LINE
8
DEFAULT_255_2_778
10
6.0902656
20
250.0720864
11
5.9065656
21
250.1371864
0
LINE
8
DEFAULT_255_2_778
10
5.9065656
20
250.1371864
11
5.5224656
21
250.2128864
0
LINE
8
DEFAULT_255_2_778
10
5.5224656
20
250.2128864
11
5.4528656
21
250.2448864
0
LINE
8
DEFAULT_255_2_778
10
5.4528656
20
250.2448864
11
5.4067656
21
250.2813864
0
LINE
8
DEFAULT_255_2_778
10
5.4067656
20
250.2813864
11
5.3681656
21
250.3292864
0
LINE
8
DEFAULT_255_2_778
10
5.3681656
20
250.3292864
11
5.3477656
21
250.3657864
0
LINE
8
DEFAULT_255_2_778
10
5.3477656
20
250.3657864
11
5.3324656
21
250.4044864
0
LINE
8
DEFAULT_255_2_778
10
5.3324656
20
250.4044864
11
5.3268656
21
250.4239864
0
LINE
8
DEFAULT_255_2_778
10
5.3268656
20
250.4239864
11
5.3215656
21
250.4536864
0
LINE
8
DEFAULT_255_2_778
10
5.3215656
20
250.4536864
11
5.3226656
21
250.5107864
0
LINE
8
DEFAULT_255_2_778
10
5.3226656
20
250.5107864
11
5.3295656
21
250.5372864
0
LINE
8
DEFAULT_255_2_778
10
5.3295656
20
250.5372864
11
5.3559656
21
250.5851864
0
LINE
8
DEFAULT_255_2_778
10
5.3559656
20
250.5851864
11
5.3964656
21
250.6261864
0
LINE
8
DEFAULT_255_2_778
10
5.3964656
20
250.6261864
11
5.4861656
21
250.6790864
0
LINE
8
DEFAULT_255_2_778
10
5.4861656
20
250.6790864
11
5.6337656
21
250.7211864
0
LINE
8
DEFAULT_255_2_778
10
5.6337656
20
250.7211864
11
5.7809656
21
250.7248864
0
LINE
8
DEFAULT_255_2_778
10
5.7809656
20
250.7248864
11
5.8933656
21
250.6954864
0
LINE
8
DEFAULT_255_2_778
10
5.8933656
20
250.6954864
11
5.9560656
21
250.6584864
0
LINE
8
DEFAULT_255_2_778
10
5.9560656
20
250.6584864
11
6.0060656
21
250.6065864
0
LINE
8
DEFAULT_255_2_778
10
6.0060656
20
250.6065864
11
6.0354656
21
250.5581864
0
LINE
8
DEFAULT_255_2_778
10
6.0354656
20
250.5581864
11
6.0589656
21
250.5017864
0
LINE
8
DEFAULT_255_2_778
10
6.0589656
20
250.5017864
11
6.0716656
21
250.4597864
0
LINE
8
DEFAULT_255_2_778
10
6.0716656
20
250.4597864
11
6.3079656
21
250.4597864
0
LINE
8
DEFAULT_255_2_778
10
6.3079656
20
250.4597864
11
6.3042656
21
250.4882864
0
LINE
8
DEFAULT_255_2_778
10
6.3042656
20
250.4882864
11
6.2944656
21
250.5427864
0
LINE
8
DEFAULT_255_2_778
10
6.2944656
20
250.5427864
11
6.2812656
21
250.5935864
0
LINE
8
DEFAULT_255_2_778
10
6.2812656
20
250.5935864
11
6.2645656
21
250.6406864
0
LINE
8
DEFAULT_255_2_778
10
6.2645656
20
250.6406864
11
6.2439656
21
250.6840864
0
LINE
8
DEFAULT_255_2_778
10
6.2439656
20
250.6840864
11
6.2052656
21
250.7417864
0
LINE
8
DEFAULT_255_2_778
10
6.2052656
20
250.7417864
11
6.1568656
21
250.7904864
0
LINE
8
DEFAULT_255_2_778
10
6.1568656
20
250.7904864
11
6.0772656
21
250.8415864
0
LINE
8
DEFAULT_255_2_778
10
6.0772656
20
250.8415864
11
5.9356656
21
250.8923864
0
LINE
8
DEFAULT_255_2_778
10
5.9356656
20
250.8923864
11
5.6819656
21
250.9248864
0
LINE
8
DEFAULT_255_2_778
10
5.6819656
20
250.9248864
11
5.5348656
21
250.9129864
0
LINE
8
DEFAULT_255_2_778
10
5.5348656
20
250.9129864
11
5.4173656
21
250.8777864
0
LINE
8
DEFAULT_255_2_778
10
5.4173656
20
250.8777864
11
5.3062656
21
250.8150864
0
LINE
8
DEFAULT_255_2_778
10
5.3062656
20
250.8150864
11
5.2260656
21
250.7467864
0
LINE
8
DEFAULT_255_2_778
10
5.2260656
20
250.7467864
11
5.1742656
21
250.6872864
0
LINE
8
DEFAULT_255_2_778
10
5.1742656
20
250.6872864
11
5.1316656
21
250.6221864
0
LINE
8
DEFAULT_255_2_778
10
5.1316656
20
250.6221864
11
5.1093656
21
250.5761864
0
LINE
8
DEFAULT_255_2_778
10
5.1093656
20
250.5761864
11
5.0895656
21
250.5168864
0
LINE
8
DEFAULT_255_2_778
10
5.0895656
20
250.5168864
11
5.0824656
21
250.4803864
0
LINE
8
DEFAULT_255_2_778
10
5.0824656
20
250.4803864
11
5.0842656
21
250.3697864
0
LINE
8
DEFAULT_255_2_778
10
5.0842656
20
250.3697864
11
5.0927656
21
250.3332864
0
LINE
8
DEFAULT_255_2_778
10
5.0927656
20
250.3332864
11
5.1091656
21
250.2856864
0
LINE
8
DEFAULT_255_2_778
10
5.1091656
20
250.2856864
11
5.1310656
21
250.2395864
0
LINE
8
DEFAULT_255_2_778
10
5.1310656
20
250.2395864
11
5.1728656
21
250.1750864
0
LINE
8
DEFAULT_255_2_778
10
5.1728656
20
250.1750864
11
5.2234656
21
250.1181864
0
LINE
8
DEFAULT_255_2_778
10
5.2234656
20
250.1181864
11
5.3009656
21
250.0572864
0
LINE
8
DEFAULT_255_2_778
10
5.3009656
20
250.0572864
11
5.4099656
21
250.0048864
0
LINE
8
DEFAULT_255_2_778
10
5.4099656
20
250.0048864
11
5.6041656
21
249.9599864
0
LINE
8
DEFAULT_255_2_778
10
5.6041656
20
249.9599864
11
5.7586656
21
249.9421864
0
LINE
8
DEFAULT_255_2_778
10
9.2991219
20
250.8857062
11
8.2521219
21
250.8857062
0
LINE
8
DEFAULT_255_2_778
10
8.2521219
20
250.8857062
11
8.2521219
21
249.1858062
0
LINE
8
DEFAULT_255_2_778
10
8.2521219
20
249.1858062
11
8.4847219
21
249.1858062
0
LINE
8
DEFAULT_255_2_778
10
8.4847219
20
249.1858062
11
8.4847219
21
249.9642062
0
LINE
8
DEFAULT_255_2_778
10
8.4847219
20
249.9642062
11
9.2570219
21
249.9642062
0
LINE
8
DEFAULT_255_2_778
10
9.2570219
20
249.9642062
11
9.2570219
21
250.1571062
0
LINE
8
DEFAULT_255_2_778
10
9.2570219
20
250.1571062
11
8.4847219
21
250.1571062
0
LINE
8
DEFAULT_255_2_778
10
8.4847219
20
250.1571062
11
8.4847219
21
250.6931062
0
LINE
8
DEFAULT_255_2_778
10
8.4847219
20
250.6931062
11
9.2991219
21
250.6931062
0
LINE
8
DEFAULT_255_2_778
10
9.2991219
20
250.6931062
11
9.2991219
21
250.8860062
0
LINE
8
DEFAULT_255_2_778
10
2.0950084
20
249.1857354
11
2.6046084
21
249.1974354
0
LINE
8
DEFAULT_255_2_778
10
2.6046084
20
249.1974354
11
2.7292084
21
249.2257354
0
LINE
8
DEFAULT_255_2_778
10
2.7292084
20
249.2257354
11
2.8242084
21
249.2675354
0
LINE
8
DEFAULT_255_2_778
10
2.8242084
20
249.2675354
11
2.9247084
21
249.3466354
0
LINE
8
DEFAULT_255_2_778
10
2.9247084
20
249.3466354
11
2.9747084
21
249.4199354
0
LINE
8
DEFAULT_255_2_778
10
2.9747084
20
249.4199354
11
2.9906084
21
249.4551354
0
LINE
8
DEFAULT_255_2_778
10
2.9906084
20
249.4551354
11
3.0070084
21
249.5043354
0
LINE
8
DEFAULT_255_2_778
10
3.0070084
20
249.5043354
11
3.0133084
21
249.5297354
0
LINE
8
DEFAULT_255_2_778
10
3.0133084
20
249.5297354
11
3.0184084
21
249.5554354
0
LINE
8
DEFAULT_255_2_778
10
3.0184084
20
249.5554354
11
3.0197084
21
249.7347354
0
LINE
8
DEFAULT_255_2_778
10
3.0197084
20
249.7347354
11
3.0147084
21
249.7599354
0
LINE
8
DEFAULT_255_2_778
10
3.0147084
20
249.7599354
11
3.0083084
21
249.7847354
0
LINE
8
DEFAULT_255_2_778
10
3.0083084
20
249.7847354
11
2.9911084
21
249.8332354
0
LINE
8
DEFAULT_255_2_778
10
2.9911084
20
249.8332354
11
2.9475084
21
249.9115354
0
LINE
8
DEFAULT_255_2_778
10
2.9475084
20
249.9115354
11
2.8670084
21
249.9924354
0
LINE
8
DEFAULT_255_2_778
10
2.8670084
20
249.9924354
11
2.6678084
21
250.0893354
0
LINE
8
DEFAULT_255_2_778
10
2.6678084
20
250.0893354
11
2.7652084
21
250.1216354
0
LINE
8
DEFAULT_255_2_778
10
2.7652084
20
250.1216354
11
2.8877084
21
250.2285354
0
LINE
8
DEFAULT_255_2_778
10
2.8877084
20
250.2285354
11
2.9289084
21
250.2946354
0
LINE
8
DEFAULT_255_2_778
10
2.9289084
20
250.2946354
11
2.9472084
21
250.3430354
0
LINE
8
DEFAULT_255_2_778
10
2.9472084
20
250.3430354
11
2.9564084
21
250.3811354
0
LINE
8
DEFAULT_255_2_778
10
2.9564084
20
250.3811354
11
2.9604084
21
250.4070354
0
LINE
8
DEFAULT_255_2_778
10
2.9604084
20
250.4070354
11
2.9609084
21
250.5124354
0
LINE
8
DEFAULT_255_2_778
10
2.9609084
20
250.5124354
11
2.9575084
21
250.5385354
0
LINE
8
DEFAULT_255_2_778
10
2.9575084
20
250.5385354
11
2.9525084
21
250.5645354
0
LINE
8
DEFAULT_255_2_778
10
2.9525084
20
250.5645354
11
2.9461084
21
250.5899354
0
LINE
8
DEFAULT_255_2_778
10
2.9461084
20
250.5899354
11
2.9234084
21
250.6505354
0
LINE
8
DEFAULT_255_2_778
10
2.9234084
20
250.6505354
11
2.8832084
21
250.7150354
0
LINE
8
DEFAULT_255_2_778
10
2.8832084
20
250.7150354
11
2.8183084
21
250.7753354
0
LINE
8
DEFAULT_255_2_778
10
2.8183084
20
250.7753354
11
2.7276084
21
250.8251354
0
LINE
8
DEFAULT_255_2_778
10
2.7276084
20
250.8251354
11
2.5784084
21
250.8682354
0
LINE
8
DEFAULT_255_2_778
10
2.5784084
20
250.8682354
11
2.4011084
21
250.8854354
0
LINE
8
DEFAULT_255_2_778
10
2.4011084
20
250.8854354
11
1.7899084
21
250.8870354
0
LINE
8
DEFAULT_255_2_778
10
1.7899084
20
250.8870354
11
1.7899084
21
249.1871354
0
LINE
8
DEFAULT_255_2_778
10
1.7899084
20
249.1871354
11
2.0950084
21
249.1857354
0
LINE
8
DEFAULT_255_2_778
10
2.3685084
20
249.3783354
11
2.0219084
21
249.3783354
0
LINE
8
DEFAULT_255_2_778
10
2.0219084
20
249.3783354
11
2.0219084
21
249.9700354
0
LINE
8
DEFAULT_255_2_778
10
2.0219084
20
249.9700354
11
2.4982084
21
249.9623354
0
LINE
8
DEFAULT_255_2_778
10
2.4982084
20
249.9623354
11
2.6768084
21
249.9043354
0
LINE
8
DEFAULT_255_2_778
10
2.6768084
20
249.9043354
11
2.7398084
21
249.8464354
0
LINE
8
DEFAULT_255_2_778
10
2.7398084
20
249.8464354
11
2.7707084
21
249.7890354
0
LINE
8
DEFAULT_255_2_778
10
2.7707084
20
249.7890354
11
2.7863084
21
249.7358354
0
LINE
8
DEFAULT_255_2_778
10
2.7863084
20
249.7358354
11
2.7916084
21
249.7027354
0
LINE
8
DEFAULT_255_2_778
10
2.7916084
20
249.7027354
11
2.7906084
21
249.6151354
0
LINE
8
DEFAULT_255_2_778
10
2.7906084
20
249.6151354
11
2.7837084
21
249.5834354
0
LINE
8
DEFAULT_255_2_778
10
2.7837084
20
249.5834354
11
2.7630084
21
249.5329354
0
LINE
8
DEFAULT_255_2_778
10
2.7630084
20
249.5329354
11
2.7091084
21
249.4625354
0
LINE
8
DEFAULT_255_2_778
10
2.7091084
20
249.4625354
11
2.6064084
21
249.4006354
0
LINE
8
DEFAULT_255_2_778
10
2.6064084
20
249.4006354
11
2.4117084
21
249.3786354
0
LINE
8
DEFAULT_255_2_778
10
2.4117084
20
249.3786354
11
2.3685084
21
249.3783354
0
LINE
8
DEFAULT_255_2_778
10
2.2815084
20
250.1673354
11
2.0217084
21
250.1676354
0
LINE
8
DEFAULT_255_2_778
10
2.0217084
20
250.1676354
11
2.0217084
21
250.6928354
0
LINE
8
DEFAULT_255_2_778
10
2.0217084
20
250.6928354
11
2.5397084
21
250.6690354
0
LINE
8
DEFAULT_255_2_778
10
2.5397084
20
250.6690354
11
2.6453084
21
250.6145354
0
LINE
8
DEFAULT_255_2_778
10
2.6453084
20
250.6145354
11
2.6940084
21
250.5557354
0
LINE
8
DEFAULT_255_2_778
10
2.6940084
20
250.5557354
11
2.7170084
21
250.5052354
0
LINE
8
DEFAULT_255_2_778
10
2.7170084
20
250.5052354
11
2.7257084
21
250.4727354
0
LINE
8
DEFAULT_255_2_778
10
2.7257084
20
250.4727354
11
2.7241084
21
250.3610354
0
LINE
8
DEFAULT_255_2_778
10
2.7241084
20
250.3610354
11
2.7101084
21
250.3195354
0
LINE
8
DEFAULT_255_2_778
10
2.7101084
20
250.3195354
11
2.6815084
21
250.2740354
0
LINE
8
DEFAULT_255_2_778
10
2.6815084
20
250.2740354
11
2.5836084
21
250.2057354
0
LINE
8
DEFAULT_255_2_778
10
2.5836084
20
250.2057354
11
2.4320084
21
250.1710354
0
LINE
8
DEFAULT_255_2_778
10
2.4320084
20
250.1710354
11
2.2815084
21
250.1673354
0
LINE
8
DEFAULT_255_2_778
10
7.5642219
20
255.8855062
11
6.5172219
21
255.8855062
0
LINE
8
DEFAULT_255_2_778
10
6.5172219
20
255.8855062
11
6.5172219
21
254.1856062
0
LINE
8
DEFAULT_255_2_778
10
6.5172219
20
254.1856062
11
6.7498219
21
254.1856062
0
LINE
8
DEFAULT_255_2_778
10
6.7498219
20
254.1856062
11
6.7498219
21
254.9640062
0
LINE
8
DEFAULT_255_2_778
10
6.7498219
20
254.9640062
11
7.5221219
21
254.9640062
0
LINE
8
DEFAULT_255_2_778
10
7.5221219
20
254.9640062
11
7.5221219
21
255.1569062
0
LINE
8
DEFAULT_255_2_778
10
7.5221219
20
255.1569062
11
6.7498219
21
255.1569062
0
LINE
8
DEFAULT_255_2_778
10
6.7498219
20
255.1569062
11
6.7498219
21
255.6929062
0
LINE
8
DEFAULT_255_2_778
10
6.7498219
20
255.6929062
11
7.5642219
21
255.6929062
0
LINE
8
DEFAULT_255_2_778
10
7.5642219
20
255.6929062
11
7.5642219
21
255.8858062
0
LINE
8
DEFAULT_255_2_778
10
6.2123803
20
255.8855385
11
4.8399803
21
255.8855385
0
LINE
8
DEFAULT_255_2_778
10
4.8399803
20
255.8855385
11
4.8399803
21
255.6927385
0
LINE
8
DEFAULT_255_2_778
10
4.8399803
20
255.6927385
11
5.4099803
21
255.6927385
0
LINE
8
DEFAULT_255_2_778
10
5.4099803
20
255.6927385
11
5.4099803
21
254.1853385
0
LINE
8
DEFAULT_255_2_778
10
5.4099803
20
254.1853385
11
5.6424803
21
254.1853385
0
LINE
8
DEFAULT_255_2_778
10
5.6424803
20
254.1853385
11
5.6424803
21
255.6927385
0
LINE
8
DEFAULT_255_2_778
10
5.6424803
20
255.6927385
11
6.2123803
21
255.6927385
0
LINE
8
DEFAULT_255_2_778
10
6.2123803
20
255.6927385
11
6.2123803
21
255.8855385
0
LINE
8
DEFAULT_255_2_778
10
2.8254803
20
255.8855385
11
1.7893803
21
255.8855385
0
LINE
8
DEFAULT_255_2_778
10
1.7893803
20
255.8855385
11
1.7893803
21
254.1856385
0
LINE
8
DEFAULT_255_2_778
10
1.7893803
20
254.1856385
11
2.8471803
21
254.1856385
0
LINE
8
DEFAULT_255_2_778
10
2.8471803
20
254.1856385
11
2.8471803
21
254.3785385
0
LINE
8
DEFAULT_255_2_778
10
2.8471803
20
254.3785385
11
2.0219803
21
254.3785385
0
LINE
8
DEFAULT_255_2_778
10
2.0219803
20
254.3785385
11
2.0219803
21
254.9640385
0
LINE
8
DEFAULT_255_2_778
10
2.0219803
20
254.9640385
11
2.7942803
21
254.9640385
0
LINE
8
DEFAULT_255_2_778
10
2.7942803
20
254.9640385
11
2.7942803
21
255.1569385
0
LINE
8
DEFAULT_255_2_778
10
2.7942803
20
255.1569385
11
2.0219803
21
255.1569385
0
LINE
8
DEFAULT_255_2_778
10
2.0219803
20
255.1569385
11
2.0219803
21
255.6929385
0
LINE
8
DEFAULT_255_2_778
10
2.0219803
20
255.6929385
11
2.8254803
21
255.6929385
0
LINE
8
DEFAULT_255_2_778
10
2.8254803
20
255.6929385
11
2.8254803
21
255.8858385
0
LINE
8
DEFAULT_255_2_778
10
3.4242803
20
255.8855385
11
3.1339803
21
255.8855385
0
LINE
8
DEFAULT_255_2_778
10
3.1339803
20
255.8855385
11
3.7194803
21
255.0759385
0
LINE
8
DEFAULT_255_2_778
10
3.7194803
20
255.0759385
11
3.0773803
21
254.1856385
0
LINE
8
DEFAULT_255_2_778
10
3.0773803
20
254.1856385
11
3.3617803
21
254.1856385
0
LINE
8
DEFAULT_255_2_778
10
3.3617803
20
254.1856385
11
3.8570803
21
254.9098385
0
LINE
8
DEFAULT_255_2_778
10
3.8570803
20
254.9098385
11
4.3642803
21
254.1856385
0
LINE
8
DEFAULT_255_2_778
10
4.3642803
20
254.1856385
11
4.6619803
21
254.1856385
0
LINE
8
DEFAULT_255_2_778
10
4.6619803
20
254.1856385
11
4.0099803
21
255.0711385
0
LINE
8
DEFAULT_255_2_778
10
4.0099803
20
255.0711385
11
4.6026803
21
255.8855385
0
LINE
8
DEFAULT_255_2_778
10
4.6026803
20
255.8855385
11
4.3256803
21
255.8855385
0
LINE
8
DEFAULT_255_2_778
10
4.3256803
20
255.8855385
11
3.8761803
21
255.2254385
0
LINE
8
DEFAULT_255_2_778
10
3.8761803
20
255.2254385
11
3.4242803
21
255.8855385
0
LINE
8
DEFAULT_255_2_778
10
6.8302219
20
260.8856062
11
5.7832219
21
260.8856062
0
LINE
8
DEFAULT_255_2_778
10
5.7832219
20
260.8856062
11
5.7832219
21
259.1857062
0
LINE
8
DEFAULT_255_2_778
10
5.7832219
20
259.1857062
11
6.0158219
21
259.1857062
0
LINE
8
DEFAULT_255_2_778
10
6.0158219
20
259.1857062
11
6.0158219
21
259.9641062
0
LINE
8
DEFAULT_255_2_778
10
6.0158219
20
259.9641062
11
6.7881219
21
259.9641062
0
LINE
8
DEFAULT_255_2_778
10
6.7881219
20
259.9641062
11
6.7881219
21
260.1570062
0
LINE
8
DEFAULT_255_2_778
10
6.7881219
20
260.1570062
11
6.0158219
21
260.1570062
0
LINE
8
DEFAULT_255_2_778
10
6.0158219
20
260.1570062
11
6.0158219
21
260.6930062
0
LINE
8
DEFAULT_255_2_778
10
6.0158219
20
260.6930062
11
6.8302219
21
260.6930062
0
LINE
8
DEFAULT_255_2_778
10
6.8302219
20
260.6930062
11
6.8302219
21
260.8859062
0
LINE
8
DEFAULT_255_2_778
10
5.4787147
20
260.885642
11
4.1064147
21
260.885642
0
LINE
8
DEFAULT_255_2_778
10
4.1064147
20
260.885642
11
4.1064147
21
260.692742
0
LINE
8
DEFAULT_255_2_778
10
4.1064147
20
260.692742
11
4.6763147
21
260.692742
0
LINE
8
DEFAULT_255_2_778
10
4.6763147
20
260.692742
11
4.6763147
21
259.185442
0
LINE
8
DEFAULT_255_2_778
10
4.6763147
20
259.185442
11
4.9088147
21
259.185442
0
LINE
8
DEFAULT_255_2_778
10
4.9088147
20
259.185442
11
4.9088147
21
260.692742
0
LINE
8
DEFAULT_255_2_778
10
4.9088147
20
260.692742
11
5.4787147
21
260.692742
0
LINE
8
DEFAULT_255_2_778
10
5.4787147
20
260.692742
11
5.4787147
21
260.885642
0
LINE
8
DEFAULT_255_2_778
10
2.7509147
20
260.885642
11
2.4485147
21
260.885642
0
LINE
8
DEFAULT_255_2_778
10
2.4485147
20
260.885642
11
2.4485147
21
259.185742
0
LINE
8
DEFAULT_255_2_778
10
2.4485147
20
259.185742
11
2.6797147
21
259.185742
0
LINE
8
DEFAULT_255_2_778
10
2.6797147
20
259.185742
11
2.6797147
21
260.595442
0
LINE
8
DEFAULT_255_2_778
10
2.6797147
20
260.595442
11
3.5002147
21
259.185742
0
LINE
8
DEFAULT_255_2_778
10
3.5002147
20
259.185742
11
3.8121147
21
259.185742
0
LINE
8
DEFAULT_255_2_778
10
3.8121147
20
259.185742
11
3.8121147
21
260.885642
0
LINE
8
DEFAULT_255_2_778
10
3.8121147
20
260.885642
11
3.5809147
21
260.885642
0
LINE
8
DEFAULT_255_2_778
10
3.5809147
20
260.885642
11
3.5809147
21
259.460342
0
LINE
8
DEFAULT_255_2_778
10
3.5809147
20
259.460342
11
2.7509147
21
260.885642
0
LINE
8
DEFAULT_255_2_778
10
2.0220147
20
260.885642
11
1.7894147
21
260.885642
0
LINE
8
DEFAULT_255_2_778
10
1.7894147
20
260.885642
11
1.7894147
21
259.185742
0
LINE
8
DEFAULT_255_2_778
10
1.7894147
20
259.185742
11
2.0220147
21
259.185742
0
LINE
8
DEFAULT_255_2_778
10
2.0220147
20
259.185742
11
2.0220147
21
260.885642
0
LINE
8
DEFAULT_255_2_778
10
9.4030147
20
262.163842
11
13.0030147
21
262.163842
0
LINE
8
DEFAULT_255_2_778
10
13.0030147
20
213.563842
11
9.4030147
21
213.563842
0
LINE
8
DEFAULT_255_2_778
10
9.4030147
20
212.163942
11
13.0030147
21
212.163942
0
LINE
8
DEFAULT_255_2_778
10
13.0030147
20
208.563742
11
9.4030147
21
208.563742
0
LINE
8
DEFAULT_255_2_778
10
13.0030147
20
223.563742
11
9.4030147
21
223.563742
0
LINE
8
DEFAULT_255_2_778
10
9.4030147
20
222.163842
11
13.0030147
21
222.163842
0
LINE
8
DEFAULT_255_2_778
10
13.0030147
20
218.563942
11
9.4030147
21
218.563942
0
LINE
8
DEFAULT_255_2_778
10
9.4030147
20
217.163742
11
13.0030147
21
217.163742
0
LINE
8
DEFAULT_255_2_778
10
13.0030147
20
228.563842
11
9.4030147
21
228.563842
0
LINE
8
DEFAULT_255_2_778
10
9.4030147
20
227.163942
11
13.0030147
21
227.163942
0
LINE
8
DEFAULT_255_2_778
10
13.0030147
20
238.563842
11
9.4030147
21
238.563842
0
LINE
8
DEFAULT_255_2_778
10
9.4030147
20
237.163942
11
13.0030147
21
237.163942
0
LINE
8
DEFAULT_255_2_778
10
13.0030147
20
233.563942
11
9.4030147
21
233.563942
0
LINE
8
DEFAULT_255_2_778
10
9.4030147
20
232.163842
11
13.0030147
21
232.163842
0
LINE
8
DEFAULT_255_2_778
10
9.4030396
20
262.3638607
11
13.0029396
21
262.3638607
0
LINE
8
DEFAULT_255_2_778
10
13.0029396
20
262.3638607
11
13.0029396
21
208.4637607
0
LINE
8
DEFAULT_255_2_778
10
13.0029396
20
208.4637607
11
9.4030396
21
208.4637607
0
LINE
8
DEFAULT_255_2_778
10
9.4030396
20
208.4637607
11
9.4030396
21
262.3638607
0
LINE
8
DEFAULT_255_2_778
10
13.002965
20
248.564042
11
9.403065
21
248.564042
0
LINE
8
DEFAULT_255_2_778
10
9.403065
20
247.163842
11
13.002965
21
247.163842
0
LINE
8
DEFAULT_255_2_778
10
13.002965
20
243.563942
11
9.403065
21
243.563942
0
LINE
8
DEFAULT_255_2_778
10
9.403065
20
242.163942
11
13.002965
21
242.163942
0
LINE
8
DEFAULT_255_2_778
10
13.002965
20
258.563942
11
9.403065
21
258.563942
0
LINE
8
DEFAULT_255_2_778
10
9.403065
20
257.163742
11
13.002965
21
257.163742
0
LINE
8
DEFAULT_255_2_778
10
13.002965
20
253.563842
11
9.403065
21
253.563842
0
LINE
8
DEFAULT_255_2_778
10
9.403065
20
252.163942
11
13.002965
21
252.163942
0
LINE
8
DEFAULT_255_2_778
10
34.402965
20
262.163842
11
38.002965
21
262.163842
0
LINE
8
DEFAULT_255_2_778
10
38.002965
20
213.563842
11
34.402965
21
213.563842
0
LINE
8
DEFAULT_255_2_778
10
34.402965
20
212.163942
11
38.002965
21
212.163942
0
LINE
8
DEFAULT_255_2_778
10
38.002965
20
208.563742
11
34.402965
21
208.563742
0
LINE
8
DEFAULT_255_2_778
10
38.002965
20
223.563742
11
34.402965
21
223.563742
0
LINE
8
DEFAULT_255_2_778
10
34.402965
20
222.163842
11
38.002965
21
222.163842
0
LINE
8
DEFAULT_255_2_778
10
38.002965
20
218.563942
11
34.402965
21
218.563942
0
LINE
8
DEFAULT_255_2_778
10
34.402965
20
217.163742
11
38.002965
21
217.163742
0
LINE
8
DEFAULT_255_2_778
10
38.002965
20
228.563842
11
34.402965
21
228.563842
0
LINE
8
DEFAULT_255_2_778
10
34.402965
20
227.163942
11
38.002965
21
227.163942
0
LINE
8
DEFAULT_255_2_778
10
38.002965
20
238.563842
11
34.402965
21
238.563842
0
LINE
8
DEFAULT_255_2_778
10
34.402965
20
237.163942
11
38.002965
21
237.163942
0
LINE
8
DEFAULT_255_2_778
10
38.002965
20
233.563942
11
34.402965
21
233.563942
0
LINE
8
DEFAULT_255_2_778
10
34.402965
20
232.163842
11
38.002965
21
232.163842
0
LINE
8
DEFAULT_255_2_778
10
34.4029396
20
262.3638607
11
38.0028396
21
262.3638607
0
LINE
8
DEFAULT_255_2_778
10
38.0028396
20
262.3638607
11
38.0028396
21
208.4637607
0
LINE
8
DEFAULT_255_2_778
10
38.0028396
20
208.4637607
11
34.4029396
21
208.4637607
0
LINE
8
DEFAULT_255_2_778
10
34.4029396
20
208.4637607
11
34.4029396
21
262.3638607
0
LINE
8
DEFAULT_255_2_778
10
38.0029701
20
248.5640197
11
34.4029701
21
248.5640197
0
LINE
8
DEFAULT_255_2_778
10
34.4029701
20
247.1638197
11
38.0029701
21
247.1638197
0
LINE
8
DEFAULT_255_2_778
10
38.0029701
20
243.5639197
11
34.4029701
21
243.5639197
0
LINE
8
DEFAULT_255_2_778
10
34.4029701
20
242.1640197
11
38.0029701
21
242.1640197
0
LINE
8
DEFAULT_255_2_778
10
38.0029701
20
258.5639197
11
34.4029701
21
258.5639197
0
LINE
8
DEFAULT_255_2_778
10
34.4029701
20
257.1637197
11
38.0029701
21
257.1637197
0
LINE
8
DEFAULT_255_2_778
10
38.0029701
20
253.5638197
11
34.4029701
21
253.5638197
0
LINE
8
DEFAULT_255_2_778
10
34.4029701
20
252.1639197
11
38.0029701
21
252.1639197
0
LINE
8
DEFAULT_255_2_778
10
16.8296701
20
179.1857197
11
16.5560701
21
179.1857197
0
LINE
8
DEFAULT_255_2_778
10
16.5560701
20
179.1857197
11
16.5576701
21
177.9044197
0
LINE
8
DEFAULT_255_2_778
10
16.5576701
20
177.9044197
11
16.5618701
21
177.8401197
0
LINE
8
DEFAULT_255_2_778
10
16.5618701
20
177.8401197
11
16.5647701
21
177.8080197
0
LINE
8
DEFAULT_255_2_778
10
16.5647701
20
177.8080197
11
16.5684701
21
177.7760197
0
LINE
8
DEFAULT_255_2_778
10
16.5684701
20
177.7760197
11
16.5729701
21
177.7443197
0
LINE
8
DEFAULT_255_2_778
10
16.5729701
20
177.7443197
11
16.5785701
21
177.7128197
0
LINE
8
DEFAULT_255_2_778
10
16.5785701
20
177.7128197
11
16.5851701
21
177.6816197
0
LINE
8
DEFAULT_255_2_778
10
16.5851701
20
177.6816197
11
16.5930701
21
177.6506197
0
LINE
8
DEFAULT_255_2_778
10
16.5930701
20
177.6506197
11
16.6134701
21
177.5898197
0
LINE
8
DEFAULT_255_2_778
10
16.6134701
20
177.5898197
11
16.6399701
21
177.5305197
0
LINE
8
DEFAULT_255_2_778
10
16.6399701
20
177.5305197
11
16.6719701
21
177.4739197
0
LINE
8
DEFAULT_255_2_778
10
16.6719701
20
177.4739197
11
16.7296701
21
177.3948197
0
LINE
8
DEFAULT_255_2_778
10
16.7296701
20
177.3948197
11
16.7973701
21
177.3246197
0
LINE
8
DEFAULT_255_2_778
10
16.7973701
20
177.3246197
11
16.8738701
21
177.2656197
0
LINE
8
DEFAULT_255_2_778
10
16.8738701
20
177.2656197
11
16.9867701
21
177.2059197
0
LINE
8
DEFAULT_255_2_778
10
16.9867701
20
177.2059197
11
17.1095701
21
177.1670197
0
LINE
8
DEFAULT_255_2_778
10
17.1095701
20
177.1670197
11
17.2725701
21
177.1453197
0
LINE
8
DEFAULT_255_2_778
10
17.2725701
20
177.1453197
11
17.4749701
21
177.1551197
0
LINE
8
DEFAULT_255_2_778
10
17.4749701
20
177.1551197
11
17.6408701
21
177.1916197
0
LINE
8
DEFAULT_255_2_778
10
17.6408701
20
177.1916197
11
17.7649701
21
177.2400197
0
LINE
8
DEFAULT_255_2_778
10
17.7649701
20
177.2400197
11
17.8760701
21
177.3061197
0
LINE
8
DEFAULT_255_2_778
10
17.8760701
20
177.3061197
11
17.9477701
21
177.3678197
0
LINE
8
DEFAULT_255_2_778
10
17.9477701
20
177.3678197
11
17.9887701
21
177.4146197
0
LINE
8
DEFAULT_255_2_778
10
17.9887701
20
177.4146197
11
18.0239701
21
177.4662197
0
LINE
8
DEFAULT_255_2_778
10
18.0239701
20
177.4662197
11
18.0535701
21
177.5218197
0
LINE
8
DEFAULT_255_2_778
10
18.0535701
20
177.5218197
11
18.0781701
21
177.5808197
0
LINE
8
DEFAULT_255_2_778
10
18.0781701
20
177.5808197
11
18.0980701
21
177.6427197
0
LINE
8
DEFAULT_255_2_778
10
18.0980701
20
177.6427197
11
18.1139701
21
177.7064197
0
LINE
8
DEFAULT_255_2_778
10
18.1139701
20
177.7064197
11
18.1260701
21
177.7718197
0
LINE
8
DEFAULT_255_2_778
10
18.1260701
20
177.7718197
11
18.1308701
21
177.8049197
0
LINE
8
DEFAULT_255_2_778
10
18.1308701
20
177.8049197
11
18.1348701
21
177.8379197
0
LINE
8
DEFAULT_255_2_778
10
18.1348701
20
177.8379197
11
18.1382701
21
177.8710197
0
LINE
8
DEFAULT_255_2_778
10
18.1382701
20
177.8710197
11
18.1409701
21
177.9041197
0
LINE
8
DEFAULT_255_2_778
10
18.1409701
20
177.9041197
11
18.1432701
21
179.1863197
0
LINE
8
DEFAULT_255_2_778
10
18.1432701
20
179.1863197
11
17.8710701
21
179.1863197
0
LINE
8
DEFAULT_255_2_778
10
17.8710701
20
179.1863197
11
17.8697701
21
177.9565197
0
LINE
8
DEFAULT_255_2_778
10
17.8697701
20
177.9565197
11
17.8675701
21
177.9157197
0
LINE
8
DEFAULT_255_2_778
10
17.8675701
20
177.9157197
11
17.8641701
21
177.8750197
0
LINE
8
DEFAULT_255_2_778
10
17.8641701
20
177.8750197
11
17.8591701
21
177.8340197
0
LINE
8
DEFAULT_255_2_778
10
17.8591701
20
177.8340197
11
17.8519701
21
177.7930197
0
LINE
8
DEFAULT_255_2_778
10
17.8519701
20
177.7930197
11
17.8374701
21
177.7318197
0
LINE
8
DEFAULT_255_2_778
10
17.8374701
20
177.7318197
11
17.8173701
21
177.6726197
0
LINE
8
DEFAULT_255_2_778
10
17.8173701
20
177.6726197
11
17.7911701
21
177.6162197
0
LINE
8
DEFAULT_255_2_778
10
17.7911701
20
177.6162197
11
17.7580701
21
177.5641197
0
LINE
8
DEFAULT_255_2_778
10
17.7580701
20
177.5641197
11
17.7027701
21
177.5032197
0
LINE
8
DEFAULT_255_2_778
10
17.7027701
20
177.5032197
11
17.6175701
21
177.4427197
0
LINE
8
DEFAULT_255_2_778
10
17.6175701
20
177.4427197
11
17.4987701
21
177.3942197
0
LINE
8
DEFAULT_255_2_778
10
17.4987701
20
177.3942197
11
17.3487701
21
177.3728197
0
LINE
8
DEFAULT_255_2_778
10
17.3487701
20
177.3728197
11
17.1997701
21
177.3919197
0
LINE
8
DEFAULT_255_2_778
10
17.1997701
20
177.3919197
11
17.0833701
21
177.4403197
0
LINE
8
DEFAULT_255_2_778
10
17.0833701
20
177.4403197
11
17.0000701
21
177.5011197
0
LINE
8
DEFAULT_255_2_778
10
17.0000701
20
177.5011197
11
16.9455701
21
177.5620197
0
LINE
8
DEFAULT_255_2_778
10
16.9455701
20
177.5620197
11
16.9029701
21
177.6324197
0
LINE
8
DEFAULT_255_2_778
10
16.9029701
20
177.6324197
11
16.8780701
21
177.6898197
0
LINE
8
DEFAULT_255_2_778
10
16.8780701
20
177.6898197
11
16.8589701
21
177.7498197
0
LINE
8
DEFAULT_255_2_778
10
16.8589701
20
177.7498197
11
16.8452701
21
177.8115197
0
LINE
8
DEFAULT_255_2_778
10
16.8452701
20
177.8115197
11
16.8386701
21
177.8530197
0
LINE
8
DEFAULT_255_2_778
10
16.8386701
20
177.8530197
11
16.8341701
21
177.8946197
0
LINE
8
DEFAULT_255_2_778
10
16.8341701
20
177.8946197
11
16.8325701
21
177.9152197
0
LINE
8
DEFAULT_255_2_778
10
16.8325701
20
177.9152197
11
16.8304701
21
177.9562197
0
LINE
8
DEFAULT_255_2_778
10
16.8304701
20
177.9562197
11
16.8293701
21
179.1860197
0
LINE
8
DEFAULT_255_2_778
10
18.9899701
20
179.1857197
11
18.6340701
21
179.1857197
0
LINE
8
DEFAULT_255_2_778
10
18.6340701
20
179.1857197
11
18.6340701
21
177.1857197
0
LINE
8
DEFAULT_255_2_778
10
18.6340701
20
177.1857197
11
18.9063701
21
177.1857197
0
LINE
8
DEFAULT_255_2_778
10
18.9063701
20
177.1857197
11
18.9063701
21
178.8442197
0
LINE
8
DEFAULT_255_2_778
10
18.9063701
20
178.8442197
11
19.8715701
21
177.1857197
0
LINE
8
DEFAULT_255_2_778
10
19.8715701
20
177.1857197
11
20.2387701
21
177.1857197
0
LINE
8
DEFAULT_255_2_778
10
20.2387701
20
177.1857197
11
20.2387701
21
179.1857197
0
LINE
8
DEFAULT_255_2_778
10
20.2387701
20
179.1857197
11
19.9665701
21
179.1857197
0
LINE
8
DEFAULT_255_2_778
10
19.9665701
20
179.1857197
11
19.9665701
21
177.5088197
0
LINE
8
DEFAULT_255_2_778
10
19.9665701
20
177.5088197
11
18.9899701
21
179.1857197
0
LINE
8
DEFAULT_255_2_778
10
14.9630156
20
178.9590927
11
15.5130156
21
178.9515927
0
LINE
8
DEFAULT_255_2_778
10
15.5130156
20
178.9515927
11
15.6901156
21
178.9100927
0
LINE
8
DEFAULT_255_2_778
10
15.6901156
20
178.9100927
11
15.7686156
21
178.8571927
0
LINE
8
DEFAULT_255_2_778
10
15.7686156
20
178.8571927
11
15.8115156
21
178.8031927
0
LINE
8
DEFAULT_255_2_778
10
15.8115156
20
178.8031927
11
15.8369156
21
178.7526927
0
LINE
8
DEFAULT_255_2_778
10
15.8369156
20
178.7526927
11
15.8507156
21
178.7118927
0
LINE
8
DEFAULT_255_2_778
10
15.8507156
20
178.7118927
11
15.8599156
21
178.6695927
0
LINE
8
DEFAULT_255_2_778
10
15.8599156
20
178.6695927
11
15.8597156
21
178.5557927
0
LINE
8
DEFAULT_255_2_778
10
15.8597156
20
178.5557927
11
15.8536156
21
178.5285927
0
LINE
8
DEFAULT_255_2_778
10
15.8536156
20
178.5285927
11
15.8395156
21
178.4896927
0
LINE
8
DEFAULT_255_2_778
10
15.8395156
20
178.4896927
11
15.8115156
21
178.4428927
0
LINE
8
DEFAULT_255_2_778
10
15.8115156
20
178.4428927
11
15.7395156
21
178.3774927
0
LINE
8
DEFAULT_255_2_778
10
15.7395156
20
178.3774927
11
15.5956156
21
178.3205927
0
LINE
8
DEFAULT_255_2_778
10
15.5956156
20
178.3205927
11
15.4585156
21
178.3089927
0
LINE
8
DEFAULT_255_2_778
10
15.4585156
20
178.3089927
11
14.9632156
21
178.3086927
0
LINE
8
DEFAULT_255_2_778
10
14.9632156
20
178.3086927
11
14.9630156
21
178.9590927
0
LINE
8
DEFAULT_255_2_778
10
15.0140156
20
179.1849927
11
14.6894156
21
179.1857927
0
LINE
8
DEFAULT_255_2_778
10
14.6894156
20
179.1857927
11
14.6894156
21
177.1857927
0
LINE
8
DEFAULT_255_2_778
10
14.6894156
20
177.1857927
11
14.9630156
21
177.1857927
0
LINE
8
DEFAULT_255_2_778
10
14.9630156
20
177.1857927
11
14.9630156
21
178.0816927
0
LINE
8
DEFAULT_255_2_778
10
14.9630156
20
178.0816927
11
15.5654156
21
178.0655927
0
LINE
8
DEFAULT_255_2_778
10
15.5654156
20
178.0655927
11
15.6604156
21
178.0250927
0
LINE
8
DEFAULT_255_2_778
10
15.6604156
20
178.0250927
11
15.7147156
21
177.9713927
0
LINE
8
DEFAULT_255_2_778
10
15.7147156
20
177.9713927
11
15.7522156
21
177.9025927
0
LINE
8
DEFAULT_255_2_778
10
15.7522156
20
177.9025927
11
15.7763156
21
177.8284927
0
LINE
8
DEFAULT_255_2_778
10
15.7763156
20
177.8284927
11
15.7848156
21
177.7908927
0
LINE
8
DEFAULT_255_2_778
10
15.7848156
20
177.7908927
11
15.7932156
21
177.7403927
0
LINE
8
DEFAULT_255_2_778
10
15.7932156
20
177.7403927
11
15.8131156
21
177.5876927
0
LINE
8
DEFAULT_255_2_778
10
15.8131156
20
177.5876927
11
15.8208156
21
177.5368927
0
LINE
8
DEFAULT_255_2_778
10
15.8208156
20
177.5368927
11
15.8295156
21
177.4863927
0
LINE
8
DEFAULT_255_2_778
10
15.8295156
20
177.4863927
11
15.8496156
21
177.3857927
0
LINE
8
DEFAULT_255_2_778
10
15.8496156
20
177.3857927
11
15.8737156
21
177.2860927
0
LINE
8
DEFAULT_255_2_778
10
15.8737156
20
177.2860927
11
15.9015156
21
177.1870927
0
LINE
8
DEFAULT_255_2_778
10
15.9015156
20
177.1870927
11
16.1920156
21
177.1870927
0
LINE
8
DEFAULT_255_2_778
10
16.1920156
20
177.1870927
11
16.1525156
21
177.3109927
0
LINE
8
DEFAULT_255_2_778
10
16.1525156
20
177.3109927
11
16.1277156
21
177.4048927
0
LINE
8
DEFAULT_255_2_778
10
16.1277156
20
177.4048927
11
16.1076156
21
177.4995927
0
LINE
8
DEFAULT_255_2_778
10
16.1076156
20
177.4995927
11
16.0965156
21
177.5630927
0
LINE
8
DEFAULT_255_2_778
10
16.0965156
20
177.5630927
11
16.0867156
21
177.6270927
0
LINE
8
DEFAULT_255_2_778
10
16.0867156
20
177.6270927
11
16.0549156
21
177.8535927
0
LINE
8
DEFAULT_255_2_778
10
16.0549156
20
177.8535927
11
16.0494156
21
177.8861927
0
LINE
8
DEFAULT_255_2_778
10
16.0494156
20
177.8861927
11
16.0427156
21
177.9181927
0
LINE
8
DEFAULT_255_2_778
10
16.0427156
20
177.9181927
11
16.0298156
21
177.9652927
0
LINE
8
DEFAULT_255_2_778
10
16.0298156
20
177.9652927
11
16.0121156
21
178.0104927
0
LINE
8
DEFAULT_255_2_778
10
16.0121156
20
178.0104927
11
15.9784156
21
178.0668927
0
LINE
8
DEFAULT_255_2_778
10
15.9784156
20
178.0668927
11
15.9216156
21
178.1260927
0
LINE
8
DEFAULT_255_2_778
10
15.9216156
20
178.1260927
11
15.8700156
21
178.1578927
0
LINE
8
DEFAULT_255_2_778
10
15.8700156
20
178.1578927
11
15.7422156
21
178.1901927
0
LINE
8
DEFAULT_255_2_778
10
15.7422156
20
178.1901927
11
15.8795156
21
178.2409927
0
LINE
8
DEFAULT_255_2_778
10
15.8795156
20
178.2409927
11
15.9766156
21
178.3147927
0
LINE
8
DEFAULT_255_2_778
10
15.9766156
20
178.3147927
11
16.0554156
21
178.4004927
0
LINE
8
DEFAULT_255_2_778
10
16.0554156
20
178.4004927
11
16.0986156
21
178.4719927
0
LINE
8
DEFAULT_255_2_778
10
16.0986156
20
178.4719927
11
16.1171156
21
178.5179927
0
LINE
8
DEFAULT_255_2_778
10
16.1171156
20
178.5179927
11
16.1303156
21
178.5658927
0
LINE
8
DEFAULT_255_2_778
10
16.1303156
20
178.5658927
11
16.1361156
21
178.5983927
0
LINE
8
DEFAULT_255_2_778
10
16.1361156
20
178.5983927
11
16.1356156
21
178.7311927
0
LINE
8
DEFAULT_255_2_778
10
16.1356156
20
178.7311927
11
16.1298156
21
178.7640927
0
LINE
8
DEFAULT_255_2_778
10
16.1298156
20
178.7640927
11
16.1166156
21
178.8124927
0
LINE
8
DEFAULT_255_2_778
10
16.1166156
20
178.8124927
11
16.0914156
21
178.8746927
0
LINE
8
DEFAULT_255_2_778
10
16.0914156
20
178.8746927
11
16.0396156
21
178.9605927
0
LINE
8
DEFAULT_255_2_778
10
16.0396156
20
178.9605927
11
15.9607156
21
179.0457927
0
LINE
8
DEFAULT_255_2_778
10
15.9607156
20
179.0457927
11
15.8372156
21
179.1238927
0
LINE
8
DEFAULT_255_2_778
10
15.8372156
20
179.1238927
11
15.7295156
21
179.1590927
0
LINE
8
DEFAULT_255_2_778
10
15.7295156
20
179.1590927
11
15.5332156
21
179.1836927
0
LINE
8
DEFAULT_255_2_778
10
15.5332156
20
179.1836927
11
15.0140156
21
179.1849927
0
LINE
8
DEFAULT_255_2_778
10
15.5288959
20
175.1128343
11
15.6754959
21
175.0845343
0
LINE
8
DEFAULT_255_2_778
10
15.6754959
20
175.0845343
11
15.8013959
21
175.0183343
0
LINE
8
DEFAULT_255_2_778
10
15.8013959
20
175.0183343
11
15.8606959
21
174.9503343
0
LINE
8
DEFAULT_255_2_778
10
15.8606959
20
174.9503343
11
15.8979959
21
174.8791343
0
LINE
8
DEFAULT_255_2_778
10
15.8979959
20
174.8791343
11
15.9191959
21
174.8167343
0
LINE
8
DEFAULT_255_2_778
10
15.9191959
20
174.8167343
11
15.9291959
21
174.7683343
0
LINE
8
DEFAULT_255_2_778
10
15.9291959
20
174.7683343
11
15.9268959
21
174.6270343
0
LINE
8
DEFAULT_255_2_778
10
15.9268959
20
174.6270343
11
15.9141959
21
174.5849343
0
LINE
8
DEFAULT_255_2_778
10
15.9141959
20
174.5849343
11
15.8871959
21
174.5357343
0
LINE
8
DEFAULT_255_2_778
10
15.8871959
20
174.5357343
11
15.8154959
21
174.4685343
0
LINE
8
DEFAULT_255_2_778
10
15.8154959
20
174.4685343
11
15.7206959
21
174.4227343
0
LINE
8
DEFAULT_255_2_778
10
15.7206959
20
174.4227343
11
15.5315959
21
174.3841343
0
LINE
8
DEFAULT_255_2_778
10
15.5315959
20
174.3841343
11
15.3447959
21
174.3854343
0
LINE
8
DEFAULT_255_2_778
10
15.3447959
20
174.3854343
11
15.1730959
21
174.4423343
0
LINE
8
DEFAULT_255_2_778
10
15.1730959
20
174.4423343
11
15.0841959
21
174.5241343
0
LINE
8
DEFAULT_255_2_778
10
15.0841959
20
174.5241343
11
15.0325959
21
174.6119343
0
LINE
8
DEFAULT_255_2_778
10
15.0325959
20
174.6119343
11
15.0042959
21
174.6870343
0
LINE
8
DEFAULT_255_2_778
10
15.0042959
20
174.6870343
11
14.9864959
21
174.7545343
0
LINE
8
DEFAULT_255_2_778
10
14.9864959
20
174.7545343
11
14.9790959
21
174.7905343
0
LINE
8
DEFAULT_255_2_778
10
14.9790959
20
174.7905343
11
14.7036959
21
174.7905343
0
LINE
8
DEFAULT_255_2_778
10
14.7036959
20
174.7905343
11
14.7054959
21
174.7410343
0
LINE
8
DEFAULT_255_2_778
10
14.7054959
20
174.7410343
11
14.7076959
21
174.7169343
0
LINE
8
DEFAULT_255_2_778
10
14.7076959
20
174.7169343
11
14.7142959
21
174.6698343
0
LINE
8
DEFAULT_255_2_778
10
14.7142959
20
174.6698343
11
14.7242959
21
174.6243343
0
LINE
8
DEFAULT_255_2_778
10
14.7242959
20
174.6243343
11
14.7457959
21
174.5582343
0
LINE
8
DEFAULT_255_2_778
10
14.7457959
20
174.5582343
11
14.7867959
21
174.4743343
0
LINE
8
DEFAULT_255_2_778
10
14.7867959
20
174.4743343
11
14.8557959
21
174.3788343
0
LINE
8
DEFAULT_255_2_778
10
14.8557959
20
174.3788343
11
14.9597959
21
174.2849343
0
LINE
8
DEFAULT_255_2_778
10
14.9597959
20
174.2849343
11
15.1237959
21
174.2007343
0
LINE
8
DEFAULT_255_2_778
10
15.1237959
20
174.2007343
11
15.2806959
21
174.1597343
0
LINE
8
DEFAULT_255_2_778
10
15.2806959
20
174.1597343
11
15.5775959
21
174.1478343
0
LINE
8
DEFAULT_255_2_778
10
15.5775959
20
174.1478343
11
15.8469959
21
174.2142343
0
LINE
8
DEFAULT_255_2_778
10
15.8469959
20
174.2142343
11
16.0093959
21
174.3058343
0
LINE
8
DEFAULT_255_2_778
10
16.0093959
20
174.3058343
11
16.0929959
21
174.3852343
0
LINE
8
DEFAULT_255_2_778
10
16.0929959
20
174.3852343
11
16.1461959
21
174.4614343
0
LINE
8
DEFAULT_255_2_778
10
16.1461959
20
174.4614343
11
16.1773959
21
174.5249343
0
LINE
8
DEFAULT_255_2_778
10
16.1773959
20
174.5249343
11
16.2011959
21
174.5926343
0
LINE
8
DEFAULT_255_2_778
10
16.2011959
20
174.5926343
11
16.2130959
21
174.6397343
0
LINE
8
DEFAULT_255_2_778
10
16.2130959
20
174.6397343
11
16.2215959
21
174.6878343
0
LINE
8
DEFAULT_255_2_778
10
16.2215959
20
174.6878343
11
16.2210959
21
174.8852343
0
LINE
8
DEFAULT_255_2_778
10
16.2210959
20
174.8852343
11
16.2120959
21
174.9334343
0
LINE
8
DEFAULT_255_2_778
10
16.2120959
20
174.9334343
11
16.1993959
21
174.9802343
0
LINE
8
DEFAULT_255_2_778
10
16.1993959
20
174.9802343
11
16.1728959
21
175.0466343
0
LINE
8
DEFAULT_255_2_778
10
16.1728959
20
175.0466343
11
16.1376959
21
175.1067343
0
LINE
8
DEFAULT_255_2_778
10
16.1376959
20
175.1067343
11
16.0768959
21
175.1747343
0
LINE
8
DEFAULT_255_2_778
10
16.0768959
20
175.1747343
11
15.9193959
21
175.2728343
0
LINE
8
DEFAULT_255_2_778
10
15.9193959
20
175.2728343
11
15.7027959
21
175.3522343
0
LINE
8
DEFAULT_255_2_778
10
15.7027959
20
175.3522343
11
15.2494959
21
175.4445343
0
LINE
8
DEFAULT_255_2_778
10
15.2494959
20
175.4445343
11
15.1674959
21
175.4837343
0
LINE
8
DEFAULT_255_2_778
10
15.1674959
20
175.4837343
11
15.1132959
21
175.5282343
0
LINE
8
DEFAULT_255_2_778
10
15.1132959
20
175.5282343
11
15.0677959
21
175.5866343
0
LINE
8
DEFAULT_255_2_778
10
15.0677959
20
175.5866343
11
15.0436959
21
175.6311343
0
LINE
8
DEFAULT_255_2_778
10
15.0436959
20
175.6311343
11
15.0256959
21
175.6782343
0
LINE
8
DEFAULT_255_2_778
10
15.0256959
20
175.6782343
11
15.0190959
21
175.7023343
0
LINE
8
DEFAULT_255_2_778
10
15.0190959
20
175.7023343
11
15.0126959
21
175.7382343
0
LINE
8
DEFAULT_255_2_778
10
15.0126959
20
175.7382343
11
15.0139959
21
175.8081343
0
LINE
8
DEFAULT_255_2_778
10
15.0139959
20
175.8081343
11
15.0221959
21
175.8406343
0
LINE
8
DEFAULT_255_2_778
10
15.0221959
20
175.8406343
11
15.0534959
21
175.8991343
0
LINE
8
DEFAULT_255_2_778
10
15.0534959
20
175.8991343
11
15.1010959
21
175.9491343
0
LINE
8
DEFAULT_255_2_778
10
15.1010959
20
175.9491343
11
15.2068959
21
176.0137343
0
LINE
8
DEFAULT_255_2_778
10
15.2068959
20
176.0137343
11
15.3809959
21
176.0650343
0
LINE
8
DEFAULT_255_2_778
10
15.3809959
20
176.0650343
11
15.5542959
21
176.0698343
0
LINE
8
DEFAULT_255_2_778
10
15.5542959
20
176.0698343
11
15.6870959
21
176.0340343
0
LINE
8
DEFAULT_255_2_778
10
15.6870959
20
176.0340343
11
15.7611959
21
175.9888343
0
LINE
8
DEFAULT_255_2_778
10
15.7611959
20
175.9888343
11
15.8201959
21
175.9256343
0
LINE
8
DEFAULT_255_2_778
10
15.8201959
20
175.9256343
11
15.8548959
21
175.8666343
0
LINE
8
DEFAULT_255_2_778
10
15.8548959
20
175.8666343
11
15.8826959
21
175.7978343
0
LINE
8
DEFAULT_255_2_778
10
15.8826959
20
175.7978343
11
15.8977959
21
175.7464343
0
LINE
8
DEFAULT_255_2_778
10
15.8977959
20
175.7464343
11
16.1763959
21
175.7464343
0
LINE
8
DEFAULT_255_2_778
10
16.1763959
20
175.7464343
11
16.1718959
21
175.7814343
0
LINE
8
DEFAULT_255_2_778
10
16.1718959
20
175.7814343
11
16.1601959
21
175.8478343
0
LINE
8
DEFAULT_255_2_778
10
16.1601959
20
175.8478343
11
16.1445959
21
175.9100343
0
LINE
8
DEFAULT_255_2_778
10
16.1445959
20
175.9100343
11
16.1247959
21
175.9676343
0
LINE
8
DEFAULT_255_2_778
10
16.1247959
20
175.9676343
11
16.1003959
21
176.0205343
0
LINE
8
DEFAULT_255_2_778
10
16.1003959
20
176.0205343
11
16.0548959
21
176.0912343
0
LINE
8
DEFAULT_255_2_778
10
16.0548959
20
176.0912343
11
15.9977959
21
176.1507343
0
LINE
8
DEFAULT_255_2_778
10
15.9977959
20
176.1507343
11
15.9037959
21
176.2129343
0
LINE
8
DEFAULT_255_2_778
10
15.9037959
20
176.2129343
11
15.7368959
21
176.2748343
0
LINE
8
DEFAULT_255_2_778
10
15.7368959
20
176.2748343
11
15.4373959
21
176.3145343
0
LINE
8
DEFAULT_255_2_778
10
15.4373959
20
176.3145343
11
15.2637959
21
176.2999343
0
LINE
8
DEFAULT_255_2_778
10
15.2637959
20
176.2999343
11
15.1251959
21
176.2568343
0
LINE
8
DEFAULT_255_2_778
10
15.1251959
20
176.2568343
11
14.9938959
21
176.1801343
0
LINE
8
DEFAULT_255_2_778
10
14.9938959
20
176.1801343
11
14.8994959
21
176.0967343
0
LINE
8
DEFAULT_255_2_778
10
14.8994959
20
176.0967343
11
14.8383959
21
176.0240343
0
LINE
8
DEFAULT_255_2_778
10
14.8383959
20
176.0240343
11
14.7880959
21
175.9443343
0
LINE
8
DEFAULT_255_2_778
10
14.7880959
20
175.9443343
11
14.7618959
21
175.8883343
0
LINE
8
DEFAULT_255_2_778
10
14.7618959
20
175.8883343
11
14.7385959
21
175.8158343
0
LINE
8
DEFAULT_255_2_778
10
14.7385959
20
175.8158343
11
14.7300959
21
175.7713343
0
LINE
8
DEFAULT_255_2_778
10
14.7300959
20
175.7713343
11
14.7324959
21
175.6364343
0
LINE
8
DEFAULT_255_2_778
10
14.7324959
20
175.6364343
11
14.7422959
21
175.5917343
0
LINE
8
DEFAULT_255_2_778
10
14.7422959
20
175.5917343
11
14.7615959
21
175.5334343
0
LINE
8
DEFAULT_255_2_778
10
14.7615959
20
175.5334343
11
14.7875959
21
175.4771343
0
LINE
8
DEFAULT_255_2_778
10
14.7875959
20
175.4771343
11
14.8369959
21
175.3982343
0
LINE
8
DEFAULT_255_2_778
10
14.8369959
20
175.3982343
11
14.8967959
21
175.3287343
0
LINE
8
DEFAULT_255_2_778
10
14.8967959
20
175.3287343
11
14.9883959
21
175.2543343
0
LINE
8
DEFAULT_255_2_778
10
14.9883959
20
175.2543343
11
15.1169959
21
175.1903343
0
LINE
8
DEFAULT_255_2_778
10
15.1169959
20
175.1903343
11
15.3460959
21
175.1353343
0
LINE
8
DEFAULT_255_2_778
10
15.3460959
20
175.1353343
11
15.5283959
21
175.1136343
0
LINE
8
DEFAULT_255_2_778
10
18.0672959
20
176.3074343
11
16.4617959
21
176.3074343
0
LINE
8
DEFAULT_255_2_778
10
16.4617959
20
176.3074343
11
16.4617959
21
176.1094343
0
LINE
8
DEFAULT_255_2_778
10
16.4617959
20
176.1094343
11
17.1285959
21
176.1094343
0
LINE
8
DEFAULT_255_2_778
10
17.1285959
20
176.1094343
11
17.1285959
21
174.2306343
0
LINE
8
DEFAULT_255_2_778
10
17.1285959
20
174.2306343
11
17.3931959
21
174.2306343
0
LINE
8
DEFAULT_255_2_778
10
17.3931959
20
174.2306343
11
17.3931959
21
176.1094343
0
LINE
8
DEFAULT_255_2_778
10
17.3931959
20
176.1094343
11
18.0675959
21
176.1094343
0
LINE
8
DEFAULT_255_2_778
10
18.0675959
20
176.1094343
11
18.0675959
21
176.3074343
0
LINE
8
DEFAULT_255_2_778
10
19.7174959
20
175.9221343
11
19.7844959
21
175.8351343
0
LINE
8
DEFAULT_255_2_778
10
19.7844959
20
175.8351343
11
19.8386959
21
175.7366343
0
LINE
8
DEFAULT_255_2_778
10
19.8386959
20
175.7366343
11
19.8709959
21
175.6557343
0
LINE
8
DEFAULT_255_2_778
10
19.8709959
20
175.6557343
11
19.8884959
21
175.5983343
0
LINE
8
DEFAULT_255_2_778
10
19.8884959
20
175.5983343
11
19.9026959
21
175.5379343
0
LINE
8
DEFAULT_255_2_778
10
19.9026959
20
175.5379343
11
19.9138959
21
175.4750343
0
LINE
8
DEFAULT_255_2_778
10
19.9138959
20
175.4750343
11
19.9183959
21
175.4424343
0
LINE
8
DEFAULT_255_2_778
10
19.9183959
20
175.4424343
11
19.9180959
21
175.0958343
0
LINE
8
DEFAULT_255_2_778
10
19.9180959
20
175.0958343
11
19.9082959
21
175.0313343
0
LINE
8
DEFAULT_255_2_778
10
19.9082959
20
175.0313343
11
19.8952959
21
174.9696343
0
LINE
8
DEFAULT_255_2_778
10
19.8952959
20
174.9696343
11
19.8791959
21
174.9106343
0
LINE
8
DEFAULT_255_2_778
10
19.8791959
20
174.9106343
11
19.8487959
21
174.8275343
0
LINE
8
DEFAULT_255_2_778
10
19.8487959
20
174.8275343
11
19.8108959
21
174.7505343
0
LINE
8
DEFAULT_255_2_778
10
19.8108959
20
174.7505343
11
19.7217959
21
174.6238343
0
LINE
8
DEFAULT_255_2_778
10
19.7217959
20
174.6238343
11
19.5978959
21
174.5127343
0
LINE
8
DEFAULT_255_2_778
10
19.5978959
20
174.5127343
11
19.4317959
21
174.4328343
0
LINE
8
DEFAULT_255_2_778
10
19.4317959
20
174.4328343
11
19.1901959
21
174.4000343
0
LINE
8
DEFAULT_255_2_778
10
19.1901959
20
174.4000343
11
18.9515959
21
174.4378343
0
LINE
8
DEFAULT_255_2_778
10
18.9515959
20
174.4378343
11
18.7869959
21
174.5217343
0
LINE
8
DEFAULT_255_2_778
10
18.7869959
20
174.5217343
11
18.6644959
21
174.6365343
0
LINE
8
DEFAULT_255_2_778
10
18.6644959
20
174.6365343
11
18.5908959
21
174.7434343
0
LINE
8
DEFAULT_255_2_778
10
18.5908959
20
174.7434343
11
18.5430959
21
174.8439343
0
LINE
8
DEFAULT_255_2_778
10
18.5430959
20
174.8439343
11
18.5133959
21
174.9318343
0
LINE
8
DEFAULT_255_2_778
10
18.5133959
20
174.9318343
11
18.4964959
21
175.0022343
0
LINE
8
DEFAULT_255_2_778
10
18.4964959
20
175.0022343
11
18.4874959
21
175.0511343
0
LINE
8
DEFAULT_255_2_778
10
18.4874959
20
175.0511343
11
18.4805959
21
175.1016343
0
LINE
8
DEFAULT_255_2_778
10
18.4805959
20
175.1016343
11
18.4755959
21
175.1540343
0
LINE
8
DEFAULT_255_2_778
10
18.4755959
20
175.1540343
11
18.4768959
21
175.4004343
0
LINE
8
DEFAULT_255_2_778
10
18.4768959
20
175.4004343
11
18.4824959
21
175.4522343
0
LINE
8
DEFAULT_255_2_778
10
18.4824959
20
175.4522343
11
18.4900959
21
175.5025343
0
LINE
8
DEFAULT_255_2_778
10
18.4900959
20
175.5025343
11
18.5051959
21
175.5747343
0
LINE
8
DEFAULT_255_2_778
10
18.5051959
20
175.5747343
11
18.5321959
21
175.6652343
0
LINE
8
DEFAULT_255_2_778
10
18.5321959
20
175.6652343
11
18.5768959
21
175.7689343
0
LINE
8
DEFAULT_255_2_778
10
18.5768959
20
175.7689343
11
18.6467959
21
175.8798343
0
LINE
8
DEFAULT_255_2_778
10
18.6467959
20
175.8798343
11
18.7623959
21
175.9994343
0
LINE
8
DEFAULT_255_2_778
10
18.7623959
20
175.9994343
11
18.9171959
21
176.0904343
0
LINE
8
DEFAULT_255_2_778
10
18.9171959
20
176.0904343
11
19.1417959
21
176.1388343
0
LINE
8
DEFAULT_255_2_778
10
19.1417959
20
176.1388343
11
19.4002959
21
176.1150343
0
LINE
8
DEFAULT_255_2_778
10
19.4002959
20
176.1150343
11
19.5817959
21
176.0375343
0
LINE
8
DEFAULT_255_2_778
10
19.5817959
20
176.0375343
11
19.7174959
21
175.9221343
0
LINE
8
DEFAULT_255_2_778
10
20.0894959
20
174.7381343
11
20.1371959
21
174.8500343
0
LINE
8
DEFAULT_255_2_778
10
20.1371959
20
174.8500343
11
20.1649959
21
174.9371343
0
LINE
8
DEFAULT_255_2_778
10
20.1649959
20
174.9371343
11
20.1797959
21
174.9966343
0
LINE
8
DEFAULT_255_2_778
10
20.1797959
20
174.9966343
11
20.1913959
21
175.0575343
0
LINE
8
DEFAULT_255_2_778
10
20.1913959
20
175.0575343
11
20.2000959
21
175.1196343
0
LINE
8
DEFAULT_255_2_778
10
20.2000959
20
175.1196343
11
20.1979959
21
175.4398343
0
LINE
8
DEFAULT_255_2_778
10
20.1979959
20
175.4398343
11
20.1887959
21
175.5009343
0
LINE
8
DEFAULT_255_2_778
10
20.1887959
20
175.5009343
11
20.1765959
21
175.5607343
0
LINE
8
DEFAULT_255_2_778
10
20.1765959
20
175.5607343
11
20.1527959
21
175.6477343
0
LINE
8
DEFAULT_255_2_778
10
20.1527959
20
175.6477343
11
20.1223959
21
175.7316343
0
LINE
8
DEFAULT_255_2_778
10
20.1223959
20
175.7316343
11
20.0715959
21
175.8385343
0
LINE
8
DEFAULT_255_2_778
10
20.0715959
20
175.8385343
11
19.9913959
21
175.9645343
0
LINE
8
DEFAULT_255_2_778
10
19.9913959
20
175.9645343
11
19.8934959
21
176.0795343
0
LINE
8
DEFAULT_255_2_778
10
19.8934959
20
176.0795343
11
19.7809959
21
176.1743343
0
LINE
8
DEFAULT_255_2_778
10
19.7809959
20
176.1743343
11
19.6272959
21
176.2592343
0
LINE
8
DEFAULT_255_2_778
10
19.6272959
20
176.2592343
11
19.4222959
21
176.3190343
0
LINE
8
DEFAULT_255_2_778
10
19.4222959
20
176.3190343
11
19.1552959
21
176.3354343
0
LINE
8
DEFAULT_255_2_778
10
19.1552959
20
176.3354343
11
18.9015959
21
176.2992343
0
LINE
8
DEFAULT_255_2_778
10
18.9015959
20
176.2992343
11
18.7088959
21
176.2256343
0
LINE
8
DEFAULT_255_2_778
10
18.7088959
20
176.2256343
11
18.5657959
21
176.1314343
0
LINE
8
DEFAULT_255_2_778
10
18.5657959
20
176.1314343
11
18.4617959
21
176.0309343
0
LINE
8
DEFAULT_255_2_778
10
18.4617959
20
176.0309343
11
18.3718959
21
175.9105343
0
LINE
8
DEFAULT_255_2_778
10
18.3718959
20
175.9105343
11
18.3099959
21
175.7999343
0
LINE
8
DEFAULT_255_2_778
10
18.3099959
20
175.7999343
11
18.2622959
21
175.6874343
0
LINE
8
DEFAULT_255_2_778
10
18.2622959
20
175.6874343
11
18.2345959
21
175.6001343
0
LINE
8
DEFAULT_255_2_778
10
18.2345959
20
175.6001343
11
18.2196959
21
175.5406343
0
LINE
8
DEFAULT_255_2_778
10
18.2196959
20
175.5406343
11
18.2080959
21
175.4797343
0
LINE
8
DEFAULT_255_2_778
10
18.2080959
20
175.4797343
11
18.1993959
21
175.4178343
0
LINE
8
DEFAULT_255_2_778
10
18.1993959
20
175.4178343
11
18.2011959
21
175.1001343
0
LINE
8
DEFAULT_255_2_778
10
18.2011959
20
175.1001343
11
18.2101959
21
175.0392343
0
LINE
8
DEFAULT_255_2_778
10
18.2101959
20
175.0392343
11
18.2220959
21
174.9799343
0
LINE
8
DEFAULT_255_2_778
10
18.2220959
20
174.9799343
11
18.2450959
21
174.8937343
0
LINE
8
DEFAULT_255_2_778
10
18.2450959
20
174.8937343
11
18.2747959
21
174.8106343
0
LINE
8
DEFAULT_255_2_778
10
18.2747959
20
174.8106343
11
18.3241959
21
174.7048343
0
LINE
8
DEFAULT_255_2_778
10
18.3241959
20
174.7048343
11
18.4019959
21
174.5804343
0
LINE
8
DEFAULT_255_2_778
10
18.4019959
20
174.5804343
11
18.4974959
21
174.4664343
0
LINE
8
DEFAULT_255_2_778
10
18.4974959
20
174.4664343
11
18.6075959
21
174.3717343
0
LINE
8
DEFAULT_255_2_778
10
18.6075959
20
174.3717343
11
18.7586959
21
174.2854343
0
LINE
8
DEFAULT_255_2_778
10
18.7586959
20
174.2854343
11
18.9607959
21
174.2227343
0
LINE
8
DEFAULT_255_2_778
10
18.9607959
20
174.2227343
11
19.2258959
21
174.2010343
0
LINE
8
DEFAULT_255_2_778
10
19.2258959
20
174.2010343
11
19.4846959
21
174.2328343
0
LINE
8
DEFAULT_255_2_778
10
19.4846959
20
174.2328343
11
19.6812959
21
174.3047343
0
LINE
8
DEFAULT_255_2_778
10
19.6812959
20
174.3047343
11
19.8275959
21
174.3992343
0
LINE
8
DEFAULT_255_2_778
10
19.8275959
20
174.3992343
11
19.9339959
21
174.5010343
0
LINE
8
DEFAULT_255_2_778
10
19.9339959
20
174.5010343
11
20.0259959
21
174.6238343
0
LINE
8
DEFAULT_255_2_778
10
20.0259959
20
174.6238343
11
20.0894959
21
174.7381343
0
LINE
8
DEFAULT_255_2_778
10
21.0184959
20
175.1075343
11
21.5002959
21
175.1416343
0
LINE
8
DEFAULT_255_2_778
10
21.5002959
20
175.1416343
11
21.7060959
21
175.2138343
0
LINE
8
DEFAULT_255_2_778
10
21.7060959
20
175.2138343
11
21.8317959
21
175.3041343
0
LINE
8
DEFAULT_255_2_778
10
21.8317959
20
175.3041343
11
21.9180959
21
175.4170343
0
LINE
8
DEFAULT_255_2_778
10
21.9180959
20
175.4170343
11
21.9545959
21
175.4993343
0
LINE
8
DEFAULT_255_2_778
10
21.9545959
20
175.4993343
11
21.9712959
21
175.5586343
0
LINE
8
DEFAULT_255_2_778
10
21.9712959
20
175.5586343
11
21.9796959
21
175.6054343
0
LINE
8
DEFAULT_255_2_778
10
21.9796959
20
175.6054343
11
21.9775959
21
175.8195343
0
LINE
8
DEFAULT_255_2_778
10
21.9775959
20
175.8195343
11
21.9651959
21
175.8798343
0
LINE
8
DEFAULT_255_2_778
10
21.9651959
20
175.8798343
11
21.9360959
21
175.9629343
0
LINE
8
DEFAULT_255_2_778
10
21.9360959
20
175.9629343
11
21.8696959
21
176.0716343
0
LINE
8
DEFAULT_255_2_778
10
21.8696959
20
176.0716343
11
21.7256959
21
176.1952343
0
LINE
8
DEFAULT_255_2_778
10
21.7256959
20
176.1952343
11
21.4838959
21
176.2790343
0
LINE
8
DEFAULT_255_2_778
10
21.4838959
20
176.2790343
11
21.1277959
21
176.3071343
0
LINE
8
DEFAULT_255_2_778
10
21.1277959
20
176.3071343
11
20.6840959
21
176.3071343
0
LINE
8
DEFAULT_255_2_778
10
20.6840959
20
176.3071343
11
20.6840959
21
174.2306343
0
LINE
8
DEFAULT_255_2_778
10
20.6840959
20
174.2306343
11
20.9478959
21
174.2306343
0
LINE
8
DEFAULT_255_2_778
10
20.9478959
20
174.2306343
11
20.9478959
21
175.1072343
0
LINE
8
DEFAULT_255_2_778
10
20.9478959
20
175.1072343
11
21.0184959
21
175.1075343
0
LINE
8
DEFAULT_255_2_778
10
20.9478959
20
176.1094343
11
21.4949959
21
176.0568343
0
LINE
8
DEFAULT_255_2_778
10
21.4949959
20
176.0568343
11
21.6256959
21
175.9552343
0
LINE
8
DEFAULT_255_2_778
10
21.6256959
20
175.9552343
11
21.6844959
21
175.8425343
0
LINE
8
DEFAULT_255_2_778
10
21.6844959
20
175.8425343
11
21.7005959
21
175.7753343
0
LINE
8
DEFAULT_255_2_778
10
21.7005959
20
175.7753343
11
21.6978959
21
175.6041343
0
LINE
8
DEFAULT_255_2_778
10
21.6978959
20
175.6041343
11
21.6727959
21
175.5197343
0
LINE
8
DEFAULT_255_2_778
10
21.6727959
20
175.5197343
11
21.5843959
21
175.4051343
0
LINE
8
DEFAULT_255_2_778
10
21.5843959
20
175.4051343
11
21.2269959
21
175.3099343
0
LINE
8
DEFAULT_255_2_778
10
21.2269959
20
175.3099343
11
20.9478959
21
175.3048343
0
LINE
8
DEFAULT_255_2_778
10
20.9478959
20
175.3048343
11
20.9478959
21
176.1094343
0
LINE
8
DEFAULT_255_2_778
10
15.1330959
20
173.1858343
11
14.6893959
21
173.1858343
0
LINE
8
DEFAULT_255_2_778
10
14.6893959
20
173.1858343
11
14.6893959
21
171.1858343
0
LINE
8
DEFAULT_255_2_778
10
14.6893959
20
171.1858343
11
14.9629959
21
171.1858343
0
LINE
8
DEFAULT_255_2_778
10
14.9629959
20
171.1858343
11
14.9629959
21
172.9760343
0
LINE
8
DEFAULT_255_2_778
10
14.9629959
20
172.9760343
11
15.6220959
21
171.1858343
0
LINE
8
DEFAULT_255_2_778
10
15.6220959
20
171.1858343
11
15.8969959
21
171.1858343
0
LINE
8
DEFAULT_255_2_778
10
15.8969959
20
171.1858343
11
16.5390959
21
172.9789343
0
LINE
8
DEFAULT_255_2_778
10
16.5390959
20
172.9789343
11
16.5390959
21
171.1858343
0
LINE
8
DEFAULT_255_2_778
10
16.5390959
20
171.1858343
11
16.8126959
21
171.1858343
0
LINE
8
DEFAULT_255_2_778
10
16.8126959
20
171.1858343
11
16.8126959
21
173.1858343
0
LINE
8
DEFAULT_255_2_778
10
16.8126959
20
173.1858343
11
16.3689959
21
173.1858343
0
LINE
8
DEFAULT_255_2_778
10
16.3689959
20
173.1858343
11
15.7609959
21
171.5118343
0
LINE
8
DEFAULT_255_2_778
10
15.7609959
20
171.5118343
11
15.1330959
21
173.1858343
0
LINE
8
DEFAULT_255_2_778
10
21.9833959
20
172.6855343
11
22.2611959
21
172.6855343
0
LINE
8
DEFAULT_255_2_778
10
22.2611959
20
172.6855343
11
22.2516959
21
172.7424343
0
LINE
8
DEFAULT_255_2_778
10
22.2516959
20
172.7424343
11
22.2397959
21
172.7963343
0
LINE
8
DEFAULT_255_2_778
10
22.2397959
20
172.7963343
11
22.2252959
21
172.8471343
0
LINE
8
DEFAULT_255_2_778
10
22.2252959
20
172.8471343
11
22.2080959
21
172.8948343
0
LINE
8
DEFAULT_255_2_778
10
22.2080959
20
172.8948343
11
22.1765959
21
172.9601343
0
LINE
8
DEFAULT_255_2_778
10
22.1765959
20
172.9601343
11
22.1378959
21
173.0181343
0
LINE
8
DEFAULT_255_2_778
10
22.1378959
20
173.0181343
11
22.0915959
21
173.0683343
0
LINE
8
DEFAULT_255_2_778
10
22.0915959
20
173.0683343
11
22.0177959
21
173.1231343
0
LINE
8
DEFAULT_255_2_778
10
22.0177959
20
173.1231343
11
21.8852959
21
173.1813343
0
LINE
8
DEFAULT_255_2_778
10
21.8852959
20
173.1813343
11
21.6550959
21
173.2220343
0
LINE
8
DEFAULT_255_2_778
10
21.6550959
20
173.2220343
11
21.3862959
21
173.2146343
0
LINE
8
DEFAULT_255_2_778
10
21.3862959
20
173.2146343
11
21.2084959
21
173.1760343
0
LINE
8
DEFAULT_255_2_778
10
21.2084959
20
173.1760343
11
21.0721959
21
173.1152343
0
LINE
8
DEFAULT_255_2_778
10
21.0721959
20
173.1152343
11
20.9933959
21
173.0583343
0
LINE
8
DEFAULT_255_2_778
10
20.9933959
20
173.0583343
11
20.9419959
21
173.0061343
0
LINE
8
DEFAULT_255_2_778
10
20.9419959
20
173.0061343
11
20.8980959
21
172.9453343
0
LINE
8
DEFAULT_255_2_778
10
20.8980959
20
172.9453343
11
20.8623959
21
172.8773343
0
LINE
8
DEFAULT_255_2_778
10
20.8623959
20
172.8773343
11
20.8435959
21
172.8289343
0
LINE
8
DEFAULT_255_2_778
10
20.8435959
20
172.8289343
11
20.8290959
21
172.7789343
0
LINE
8
DEFAULT_255_2_778
10
20.8290959
20
172.7789343
11
20.8234959
21
172.7535343
0
LINE
8
DEFAULT_255_2_778
10
20.8234959
20
172.7535343
11
20.8215959
21
172.5482343
0
LINE
8
DEFAULT_255_2_778
10
20.8215959
20
172.5482343
11
20.8271959
21
172.5235343
0
LINE
8
DEFAULT_255_2_778
10
20.8271959
20
172.5235343
11
20.8424959
21
172.4757343
0
LINE
8
DEFAULT_255_2_778
10
20.8424959
20
172.4757343
11
20.8634959
21
172.4302343
0
LINE
8
DEFAULT_255_2_778
10
20.8634959
20
172.4302343
11
20.9038959
21
172.3669343
0
LINE
8
DEFAULT_255_2_778
10
20.9038959
20
172.3669343
11
20.9713959
21
172.2928343
0
LINE
8
DEFAULT_255_2_778
10
20.9713959
20
172.2928343
11
21.0708959
21
172.2193343
0
LINE
8
DEFAULT_255_2_778
10
21.0708959
20
172.2193343
11
21.2274959
21
172.1500343
0
LINE
8
DEFAULT_255_2_778
10
21.2274959
20
172.1500343
11
21.4470959
21
172.0984343
0
LINE
8
DEFAULT_255_2_778
10
21.4470959
20
172.0984343
11
21.7672959
21
172.0359343
0
LINE
8
DEFAULT_255_2_778
10
21.7672959
20
172.0359343
11
21.8791959
21
171.9862343
0
LINE
8
DEFAULT_255_2_778
10
21.8791959
20
171.9862343
11
21.9399959
21
171.9423343
0
LINE
8
DEFAULT_255_2_778
10
21.9399959
20
171.9423343
11
22.0058959
21
171.8666343
0
LINE
8
DEFAULT_255_2_778
10
22.0058959
20
171.8666343
11
22.0283959
21
171.8221343
0
LINE
8
DEFAULT_255_2_778
10
22.0283959
20
171.8221343
11
22.0392959
21
171.7864343
0
LINE
8
DEFAULT_255_2_778
10
22.0392959
20
171.7864343
11
22.0434959
21
171.7615343
0
LINE
8
DEFAULT_255_2_778
10
22.0434959
20
171.7615343
11
22.0426959
21
171.6851343
0
LINE
8
DEFAULT_255_2_778
10
22.0426959
20
171.6851343
11
22.0352959
21
171.6470343
0
LINE
8
DEFAULT_255_2_778
10
22.0352959
20
171.6470343
11
22.0185959
21
171.5980343
0
LINE
8
DEFAULT_255_2_778
10
22.0185959
20
171.5980343
11
21.9802959
21
171.5324343
0
LINE
8
DEFAULT_255_2_778
10
21.9802959
20
171.5324343
11
21.9468959
21
171.4959343
0
LINE
8
DEFAULT_255_2_778
10
21.9468959
20
171.4959343
11
21.8873959
21
171.4515343
0
LINE
8
DEFAULT_255_2_778
10
21.8873959
20
171.4515343
11
21.7709959
21
171.4012343
0
LINE
8
DEFAULT_255_2_778
10
21.7709959
20
171.4012343
11
21.5703959
21
171.3668343
0
LINE
8
DEFAULT_255_2_778
10
21.5703959
20
171.3668343
11
21.4229959
21
171.3766343
0
LINE
8
DEFAULT_255_2_778
10
21.4229959
20
171.3766343
11
21.3026959
21
171.4152343
0
LINE
8
DEFAULT_255_2_778
10
21.3026959
20
171.4152343
11
21.2131959
21
171.4668343
0
LINE
8
DEFAULT_255_2_778
10
21.2131959
20
171.4668343
11
21.1560959
21
171.5163343
0
LINE
8
DEFAULT_255_2_778
10
21.1560959
20
171.5163343
11
21.1054959
21
171.5845343
0
LINE
8
DEFAULT_255_2_778
10
21.1054959
20
171.5845343
11
21.0830959
21
171.6393343
0
LINE
8
DEFAULT_255_2_778
10
21.0830959
20
171.6393343
11
21.0771959
21
171.6626343
0
LINE
8
DEFAULT_255_2_778
10
21.0771959
20
171.6626343
11
21.0729959
21
171.6869343
0
LINE
8
DEFAULT_255_2_778
10
21.0729959
20
171.6869343
11
21.0703959
21
171.7121343
0
LINE
8
DEFAULT_255_2_778
10
21.0703959
20
171.7121343
11
21.0689959
21
171.7653343
0
LINE
8
DEFAULT_255_2_778
10
21.0689959
20
171.7653343
11
20.7940959
21
171.7653343
0
LINE
8
DEFAULT_255_2_778
10
20.7940959
20
171.7653343
11
20.7975959
21
171.7367343
0
LINE
8
DEFAULT_255_2_778
10
20.7975959
20
171.7367343
11
20.8062959
21
171.6816343
0
LINE
8
DEFAULT_255_2_778
10
20.8062959
20
171.6816343
11
20.8173959
21
171.6293343
0
LINE
8
DEFAULT_255_2_778
10
20.8173959
20
171.6293343
11
20.8311959
21
171.5795343
0
LINE
8
DEFAULT_255_2_778
10
20.8311959
20
171.5795343
11
20.8570959
21
171.5097343
0
LINE
8
DEFAULT_255_2_778
10
20.8570959
20
171.5097343
11
20.8898959
21
171.4462343
0
LINE
8
DEFAULT_255_2_778
10
20.8898959
20
171.4462343
11
20.9295959
21
171.3888343
0
LINE
8
DEFAULT_255_2_778
10
20.9295959
20
171.3888343
11
20.9943959
21
171.3221343
0
LINE
8
DEFAULT_255_2_778
10
20.9943959
20
171.3221343
11
21.0930959
21
171.2543343
0
LINE
8
DEFAULT_255_2_778
10
21.0930959
20
171.2543343
11
21.2790959
21
171.1792343
0
LINE
8
DEFAULT_255_2_778
10
21.2790959
20
171.1792343
11
21.5293959
21
171.1371343
0
LINE
8
DEFAULT_255_2_778
10
21.5293959
20
171.1371343
11
21.7272959
21
171.1469343
0
LINE
8
DEFAULT_255_2_778
10
21.7272959
20
171.1469343
11
21.8931959
21
171.1922343
0
LINE
8
DEFAULT_255_2_778
10
21.8931959
20
171.1922343
11
22.0262959
21
171.2607343
0
LINE
8
DEFAULT_255_2_778
10
22.0262959
20
171.2607343
11
22.1257959
21
171.3380343
0
LINE
8
DEFAULT_255_2_778
10
22.1257959
20
171.3380343
11
22.1945959
21
171.4115343
0
LINE
8
DEFAULT_255_2_778
10
22.1945959
20
171.4115343
11
22.2379959
21
171.4729343
0
LINE
8
DEFAULT_255_2_778
10
22.2379959
20
171.4729343
11
22.2733959
21
171.5393343
0
LINE
8
DEFAULT_255_2_778
10
22.2733959
20
171.5393343
11
22.2921959
21
171.5859343
0
LINE
8
DEFAULT_255_2_778
10
22.2921959
20
171.5859343
11
22.3067959
21
171.6343343
0
LINE
8
DEFAULT_255_2_778
10
22.3067959
20
171.6343343
11
22.3122959
21
171.6589343
0
LINE
8
DEFAULT_255_2_778
10
22.3122959
20
171.6589343
11
22.3167959
21
171.6838343
0
LINE
8
DEFAULT_255_2_778
10
22.3167959
20
171.6838343
11
22.3149959
21
171.8589343
0
LINE
8
DEFAULT_255_2_778
10
22.3149959
20
171.8589343
11
22.3098959
21
171.8833343
0
LINE
8
DEFAULT_255_2_778
10
22.3098959
20
171.8833343
11
22.2955959
21
171.9306343
0
LINE
8
DEFAULT_255_2_778
10
22.2955959
20
171.9306343
11
22.2762959
21
171.9759343
0
LINE
8
DEFAULT_255_2_778
10
22.2762959
20
171.9759343
11
22.2379959
21
172.0391343
0
LINE
8
DEFAULT_255_2_778
10
22.2379959
20
172.0391343
11
22.1728959
21
172.1145343
0
LINE
8
DEFAULT_255_2_778
10
22.1728959
20
172.1145343
11
22.0746959
21
172.1928343
0
LINE
8
DEFAULT_255_2_778
10
22.0746959
20
172.1928343
11
21.9206959
21
172.2711343
0
LINE
8
DEFAULT_255_2_778
10
21.9206959
20
172.2711343
11
21.7799959
21
172.3140343
0
LINE
8
DEFAULT_255_2_778
10
21.7799959
20
172.3140343
11
21.3669959
21
172.3915343
0
LINE
8
DEFAULT_255_2_778
10
21.3669959
20
172.3915343
11
21.2758959
21
172.4283343
0
LINE
8
DEFAULT_255_2_778
10
21.2758959
20
172.4283343
11
21.2121959
21
172.4696343
0
LINE
8
DEFAULT_255_2_778
10
21.2121959
20
172.4696343
11
21.1401959
21
172.5431343
0
LINE
8
DEFAULT_255_2_778
10
21.1401959
20
172.5431343
11
21.1094959
21
172.5974343
0
LINE
8
DEFAULT_255_2_778
10
21.1094959
20
172.5974343
11
21.0983959
21
172.6320343
0
LINE
8
DEFAULT_255_2_778
10
21.0983959
20
172.6320343
11
21.1007959
21
172.7281343
0
LINE
8
DEFAULT_255_2_778
10
21.1007959
20
172.7281343
11
21.1174959
21
172.7757343
0
LINE
8
DEFAULT_255_2_778
10
21.1174959
20
172.7757343
11
21.1422959
21
172.8215343
0
LINE
8
DEFAULT_255_2_778
10
21.1422959
20
172.8215343
11
21.1737959
21
172.8638343
0
LINE
8
DEFAULT_255_2_778
10
21.1737959
20
172.8638343
11
21.2301959
21
172.9180343
0
LINE
8
DEFAULT_255_2_778
10
21.2301959
20
172.9180343
11
21.2936959
21
172.9583343
0
LINE
8
DEFAULT_255_2_778
10
21.2936959
20
172.9583343
11
21.3864959
21
172.9916343
0
LINE
8
DEFAULT_255_2_778
10
21.3864959
20
172.9916343
11
21.5116959
21
173.0046343
0
LINE
8
DEFAULT_255_2_778
10
21.5116959
20
173.0046343
11
21.6923959
21
172.9802343
0
LINE
8
DEFAULT_255_2_778
10
21.6923959
20
172.9802343
11
21.8137959
21
172.9366343
0
LINE
8
DEFAULT_255_2_778
10
21.8137959
20
172.9366343
11
21.9103959
21
172.8659343
0
LINE
8
DEFAULT_255_2_778
10
21.9103959
20
172.8659343
11
21.9495959
21
172.8082343
0
LINE
8
DEFAULT_255_2_778
10
21.9495959
20
172.8082343
11
21.9675959
21
172.7633343
0
LINE
8
DEFAULT_255_2_778
10
21.9675959
20
172.7633343
11
21.9743959
21
172.7389343
0
LINE
8
DEFAULT_255_2_778
10
21.9743959
20
172.7389343
11
21.9799959
21
172.7133343
0
LINE
8
DEFAULT_255_2_778
10
21.9799959
20
172.7133343
11
21.9841959
21
172.6865343
0
LINE
8
DEFAULT_255_2_778
10
20.4199959
20
173.1858343
11
19.2010959
21
173.1858343
0
LINE
8
DEFAULT_255_2_778
10
19.2010959
20
173.1858343
11
19.2010959
21
171.1858343
0
LINE
8
DEFAULT_255_2_778
10
19.2010959
20
171.1858343
11
20.4456959
21
171.1858343
0
LINE
8
DEFAULT_255_2_778
10
20.4456959
20
171.1858343
11
20.4456959
21
171.4126343
0
LINE
8
DEFAULT_255_2_778
10
20.4456959
20
171.4126343
11
19.4746959
21
171.4126343
0
LINE
8
DEFAULT_255_2_778
10
19.4746959
20
171.4126343
11
19.4746959
21
172.1015343
0
LINE
8
DEFAULT_255_2_778
10
19.4746959
20
172.1015343
11
20.3831959
21
172.1015343
0
LINE
8
DEFAULT_255_2_778
10
20.3831959
20
172.1015343
11
20.3831959
21
172.3283343
0
LINE
8
DEFAULT_255_2_778
10
20.3831959
20
172.3283343
11
19.4746959
21
172.3283343
0
LINE
8
DEFAULT_255_2_778
10
19.4746959
20
172.3283343
11
19.4746959
21
172.9591343
0
LINE
8
DEFAULT_255_2_778
10
19.4746959
20
172.9591343
11
20.4199959
21
172.9591343
0
LINE
8
DEFAULT_255_2_778
10
20.4199959
20
172.9591343
11
20.4199959
21
173.1858343
0
LINE
8
DEFAULT_255_2_778
10
17.5966156
20
172.9590927
11
18.1466156
21
172.9515927
0
LINE
8
DEFAULT_255_2_778
10
18.1466156
20
172.9515927
11
18.3237156
21
172.9100927
0
LINE
8
DEFAULT_255_2_778
10
18.3237156
20
172.9100927
11
18.4022156
21
172.8571927
0
LINE
8
DEFAULT_255_2_778
10
18.4022156
20
172.8571927
11
18.4451156
21
172.8031927
0
LINE
8
DEFAULT_255_2_778
10
18.4451156
20
172.8031927
11
18.4705156
21
172.7526927
0
LINE
8
DEFAULT_255_2_778
10
18.4705156
20
172.7526927
11
18.4843156
21
172.7118927
0
LINE
8
DEFAULT_255_2_778
10
18.4843156
20
172.7118927
11
18.4935156
21
172.6695927
0
LINE
8
DEFAULT_255_2_778
10
18.4935156
20
172.6695927
11
18.4933156
21
172.5557927
0
LINE
8
DEFAULT_255_2_778
10
18.4933156
20
172.5557927
11
18.4872156
21
172.5285927
0
LINE
8
DEFAULT_255_2_778
10
18.4872156
20
172.5285927
11
18.4731156
21
172.4896927
0
LINE
8
DEFAULT_255_2_778
10
18.4731156
20
172.4896927
11
18.4451156
21
172.4428927
0
LINE
8
DEFAULT_255_2_778
10
18.4451156
20
172.4428927
11
18.3731156
21
172.3774927
0
LINE
8
DEFAULT_255_2_778
10
18.3731156
20
172.3774927
11
18.2292156
21
172.3205927
0
LINE
8
DEFAULT_255_2_778
10
18.2292156
20
172.3205927
11
18.0921156
21
172.3089927
0
LINE
8
DEFAULT_255_2_778
10
18.0921156
20
172.3089927
11
17.5968156
21
172.3086927
0
LINE
8
DEFAULT_255_2_778
10
17.5968156
20
172.3086927
11
17.5966156
21
172.9590927
0
LINE
8
DEFAULT_255_2_778
10
17.6476156
20
173.1849927
11
17.3230156
21
173.1857927
0
LINE
8
DEFAULT_255_2_778
10
17.3230156
20
173.1857927
11
17.3230156
21
171.1857927
0
LINE
8
DEFAULT_255_2_778
10
17.3230156
20
171.1857927
11
17.5966156
21
171.1857927
0
LINE
8
DEFAULT_255_2_778
10
17.5966156
20
171.1857927
11
17.5966156
21
172.0816927
0
LINE
8
DEFAULT_255_2_778
10
17.5966156
20
172.0816927
11
18.1990156
21
172.0655927
0
LINE
8
DEFAULT_255_2_778
10
18.1990156
20
172.0655927
11
18.2940156
21
172.0250927
0
LINE
8
DEFAULT_255_2_778
10
18.2940156
20
172.0250927
11
18.3483156
21
171.9713927
0
LINE
8
DEFAULT_255_2_778
10
18.3483156
20
171.9713927
11
18.3858156
21
171.9025927
0
LINE
8
DEFAULT_255_2_778
10
18.3858156
20
171.9025927
11
18.4099156
21
171.8284927
0
LINE
8
DEFAULT_255_2_778
10
18.4099156
20
171.8284927
11
18.4184156
21
171.7908927
0
LINE
8
DEFAULT_255_2_778
10
18.4184156
20
171.7908927
11
18.4268156
21
171.7403927
0
LINE
8
DEFAULT_255_2_778
10
18.4268156
20
171.7403927
11
18.4467156
21
171.5876927
0
LINE
8
DEFAULT_255_2_778
10
18.4467156
20
171.5876927
11
18.4544156
21
171.5368927
0
LINE
8
DEFAULT_255_2_778
10
18.4544156
20
171.5368927
11
18.4631156
21
171.4863927
0
LINE
8
DEFAULT_255_2_778
10
18.4631156
20
171.4863927
11
18.4832156
21
171.3857927
0
LINE
8
DEFAULT_255_2_778
10
18.4832156
20
171.3857927
11
18.5073156
21
171.2860927
0
LINE
8
DEFAULT_255_2_778
10
18.5073156
20
171.2860927
11
18.5351156
21
171.1870927
0
LINE
8
DEFAULT_255_2_778
10
18.5351156
20
171.1870927
11
18.8256156
21
171.1870927
0
LINE
8
DEFAULT_255_2_778
10
18.8256156
20
171.1870927
11
18.7861156
21
171.3109927
0
LINE
8
DEFAULT_255_2_778
10
18.7861156
20
171.3109927
11
18.7613156
21
171.4048927
0
LINE
8
DEFAULT_255_2_778
10
18.7613156
20
171.4048927
11
18.7412156
21
171.4995927
0
LINE
8
DEFAULT_255_2_778
10
18.7412156
20
171.4995927
11
18.7301156
21
171.5630927
0
LINE
8
DEFAULT_255_2_778
10
18.7301156
20
171.5630927
11
18.7203156
21
171.6270927
0
LINE
8
DEFAULT_255_2_778
10
18.7203156
20
171.6270927
11
18.6885156
21
171.8535927
0
LINE
8
DEFAULT_255_2_778
10
18.6885156
20
171.8535927
11
18.6830156
21
171.8861927
0
LINE
8
DEFAULT_255_2_778
10
18.6830156
20
171.8861927
11
18.6763156
21
171.9181927
0
LINE
8
DEFAULT_255_2_778
10
18.6763156
20
171.9181927
11
18.6634156
21
171.9652927
0
LINE
8
DEFAULT_255_2_778
10
18.6634156
20
171.9652927
11
18.6457156
21
172.0104927
0
LINE
8
DEFAULT_255_2_778
10
18.6457156
20
172.0104927
11
18.6120156
21
172.0668927
0
LINE
8
DEFAULT_255_2_778
10
18.6120156
20
172.0668927
11
18.5552156
21
172.1260927
0
LINE
8
DEFAULT_255_2_778
10
18.5552156
20
172.1260927
11
18.5036156
21
172.1578927
0
LINE
8
DEFAULT_255_2_778
10
18.5036156
20
172.1578927
11
18.3758156
21
172.1901927
0
LINE
8
DEFAULT_255_2_778
10
18.3758156
20
172.1901927
11
18.5131156
21
172.2409927
0
LINE
8
DEFAULT_255_2_778
10
18.5131156
20
172.2409927
11
18.6102156
21
172.3147927
0
LINE
8
DEFAULT_255_2_778
10
18.6102156
20
172.3147927
11
18.6890156
21
172.4004927
0
LINE
8
DEFAULT_255_2_778
10
18.6890156
20
172.4004927
11
18.7322156
21
172.4719927
0
LINE
8
DEFAULT_255_2_778
10
18.7322156
20
172.4719927
11
18.7507156
21
172.5179927
0
LINE
8
DEFAULT_255_2_778
10
18.7507156
20
172.5179927
11
18.7639156
21
172.5658927
0
LINE
8
DEFAULT_255_2_778
10
18.7639156
20
172.5658927
11
18.7697156
21
172.5983927
0
LINE
8
DEFAULT_255_2_778
10
18.7697156
20
172.5983927
11
18.7692156
21
172.7311927
0
LINE
8
DEFAULT_255_2_778
10
18.7692156
20
172.7311927
11
18.7634156
21
172.7640927
0
LINE
8
DEFAULT_255_2_778
10
18.7634156
20
172.7640927
11
18.7502156
21
172.8124927
0
LINE
8
DEFAULT_255_2_778
10
18.7502156
20
172.8124927
11
18.7250156
21
172.8746927
0
LINE
8
DEFAULT_255_2_778
10
18.7250156
20
172.8746927
11
18.6732156
21
172.9605927
0
LINE
8
DEFAULT_255_2_778
10
18.6732156
20
172.9605927
11
18.5943156
21
173.0457927
0
LINE
8
DEFAULT_255_2_778
10
18.5943156
20
173.0457927
11
18.4708156
21
173.1238927
0
LINE
8
DEFAULT_255_2_778
10
18.4708156
20
173.1238927
11
18.3631156
21
173.1590927
0
LINE
8
DEFAULT_255_2_778
10
18.3631156
20
173.1590927
11
18.1668156
21
173.1836927
0
LINE
8
DEFAULT_255_2_778
10
18.1668156
20
173.1836927
11
17.6476156
21
173.1849927
0
LINE
8
DEFAULT_255_2_778
10
8.5531709
20
171.1337645
11
13.2532709
21
171.1337645
0
LINE
8
DEFAULT_255_2_778
10
13.2532709
20
171.1337645
11
13.2532709
21
179.0336645
0
LINE
8
DEFAULT_255_2_778
10
13.2532709
20
179.0336645
11
8.5531709
21
179.0336645
0
LINE
8
DEFAULT_255_2_778
10
8.5531522
20
176.3835509
11
8.5531522
21
180.2136509
0
LINE
8
DEFAULT_255_2_778
10
8.5531522
20
180.2136509
11
13.5532522
21
180.2136509
0
LINE
8
DEFAULT_255_2_778
10
13.5532522
20
180.2136509
11
13.5532522
21
170.4137509
0
LINE
8
DEFAULT_255_2_778
10
13.5532522
20
170.4137509
11
8.5531522
21
170.4137509
0
LINE
8
DEFAULT_255_2_778
10
8.5531522
20
170.4137509
11
8.5531522
21
173.7837509
0
LINE
8
DEFAULT_255_2_778
10
8.4531709
20
176.3835302
11
13.1532709
21
176.3835302
0
LINE
8
DEFAULT_255_2_778
10
13.1532709
20
176.3835302
11
13.1532709
21
173.7834302
0
LINE
8
DEFAULT_255_2_778
10
13.1532709
20
173.7834302
11
8.4531709
21
173.7834302
0
LINE
8
DEFAULT_255_2_778
10
8.4531709
20
173.7834302
11
8.4531709
21
176.3835302
0
LINE
8
DEFAULT_255_2_778
10
12.6560605
20
173.7838301
11
12.6560605
21
171.8338301
0
LINE
8
DEFAULT_255_2_778
10
12.6560605
20
171.8338301
11
9.1500605
21
171.8338301
0
LINE
8
DEFAULT_255_2_778
10
9.1500605
20
171.8338301
11
9.1500605
21
173.7838301
0
LINE
8
DEFAULT_255_2_778
10
9.1500605
20
176.3835301
11
9.1500605
21
178.3335301
0
LINE
8
DEFAULT_255_2_778
10
9.1500605
20
178.3335301
11
12.6560605
21
178.3335301
0
LINE
8
DEFAULT_255_2_778
10
12.6560605
20
178.3335301
11
12.6560605
21
176.3835301
0
LINE
8
DEFAULT_255_2_778
10
8.4531605
20
175.8946301
11
13.1532605
21
175.8946301
0
LINE
8
DEFAULT_255_2_778
10
8.4531605
20
174.2740301
11
13.1532605
21
174.2740301
0
LINE
8
DEFAULT_255_2_778
10
4.2063605
20
180.5637301
11
4.2888605
21
180.2750301
0
LINE
8
DEFAULT_255_2_778
10
4.2888605
20
180.2750301
11
4.3198605
21
180.1822301
0
LINE
8
DEFAULT_255_2_778
10
4.3198605
20
180.1822301
11
4.3717605
21
180.0523301
0
LINE
8
DEFAULT_255_2_778
10
4.3717605
20
180.0523301
11
4.3923605
21
179.9901301
0
LINE
8
DEFAULT_255_2_778
10
4.3923605
20
179.9901301
11
4.4129605
21
179.9110301
0
LINE
8
DEFAULT_255_2_778
10
4.4129605
20
179.9110301
11
4.4233605
21
179.8628301
0
LINE
8
DEFAULT_255_2_778
10
4.4233605
20
179.8628301
11
4.4386605
21
179.7771301
0
LINE
8
DEFAULT_255_2_778
10
4.4386605
20
179.7771301
11
4.4487605
21
179.7070301
0
LINE
8
DEFAULT_255_2_778
10
4.4487605
20
179.7070301
11
4.4534605
21
179.6644301
0
LINE
8
DEFAULT_255_2_778
10
4.4534605
20
179.6644301
11
4.4579605
21
179.6146301
0
LINE
8
DEFAULT_255_2_778
10
4.4579605
20
179.6146301
11
4.4619605
21
179.5564301
0
LINE
8
DEFAULT_255_2_778
10
4.4619605
20
179.5564301
11
4.4656605
21
179.4906301
0
LINE
8
DEFAULT_255_2_778
10
4.4656605
20
179.4906301
11
4.4688605
21
179.4175301
0
LINE
8
DEFAULT_255_2_778
10
4.4688605
20
179.4175301
11
4.4717605
21
179.3382301
0
LINE
8
DEFAULT_255_2_778
10
4.4717605
20
179.3382301
11
4.4743605
21
179.2532301
0
LINE
8
DEFAULT_255_2_778
10
4.4743605
20
179.2532301
11
4.4767605
21
179.1633301
0
LINE
8
DEFAULT_255_2_778
10
4.4767605
20
179.1633301
11
4.4788605
21
179.0693301
0
LINE
8
DEFAULT_255_2_778
10
4.4788605
20
179.0693301
11
4.4809605
21
178.9720301
0
LINE
8
DEFAULT_255_2_778
10
4.4809605
20
178.9720301
11
4.4828605
21
178.8720301
0
LINE
8
DEFAULT_255_2_778
10
4.4828605
20
178.8720301
11
4.4862605
21
178.6672301
0
LINE
8
DEFAULT_255_2_778
10
4.4862605
20
178.6672301
11
4.4926605
21
178.2571301
0
LINE
8
DEFAULT_255_2_778
10
4.4926605
20
178.2571301
11
4.4984605
21
177.8586301
0
LINE
8
DEFAULT_255_2_778
10
4.4984605
20
177.8586301
11
4.5039605
21
177.4686301
0
LINE
8
DEFAULT_255_2_778
10
4.5039605
20
177.4686301
11
4.5087605
21
177.0834301
0
LINE
8
DEFAULT_255_2_778
10
4.5087605
20
177.0834301
11
4.5129605
21
176.6992301
0
LINE
8
DEFAULT_255_2_778
10
4.5129605
20
176.6992301
11
4.5161605
21
176.3126301
0
LINE
8
DEFAULT_255_2_778
10
4.5161605
20
176.3126301
11
4.5161605
21
174.3142301
0
LINE
8
DEFAULT_255_2_778
10
4.5161605
20
174.3142301
11
4.5129605
21
173.9187301
0
LINE
8
DEFAULT_255_2_778
10
4.5129605
20
173.9187301
11
4.5090605
21
173.5263301
0
LINE
8
DEFAULT_255_2_778
10
4.5090605
20
173.5263301
11
4.5045605
21
173.1350301
0
LINE
8
DEFAULT_255_2_778
10
4.5045605
20
173.1350301
11
4.4995605
21
172.7429301
0
LINE
8
DEFAULT_255_2_778
10
4.4995605
20
172.7429301
11
4.4942605
21
172.3497301
0
LINE
8
DEFAULT_255_2_778
10
4.4942605
20
172.3497301
11
4.4912605
21
172.1552301
0
LINE
8
DEFAULT_255_2_778
10
4.4912605
20
172.1552301
11
4.4878605
21
171.9639301
0
LINE
8
DEFAULT_255_2_778
10
4.4878605
20
171.9639301
11
4.4838605
21
171.7774301
0
LINE
8
DEFAULT_255_2_778
10
4.4838605
20
171.7774301
11
4.4793605
21
171.5970301
0
LINE
8
DEFAULT_255_2_778
10
4.4793605
20
171.5970301
11
4.4767605
21
171.5097301
0
LINE
8
DEFAULT_255_2_778
10
4.4767605
20
171.5097301
11
4.4738605
21
171.4242301
0
LINE
8
DEFAULT_255_2_778
10
4.4738605
20
171.4242301
11
4.4706605
21
171.3411301
0
LINE
8
DEFAULT_255_2_778
10
4.4706605
20
171.3411301
11
4.4672605
21
171.2607301
0
LINE
8
DEFAULT_255_2_778
10
4.4672605
20
171.2607301
11
4.4635605
21
171.1834301
0
LINE
8
DEFAULT_255_2_778
10
4.4635605
20
171.1834301
11
4.4598605
21
171.1107301
0
LINE
8
DEFAULT_255_2_778
10
4.4598605
20
171.1107301
11
4.4558605
21
171.0432301
0
LINE
8
DEFAULT_255_2_778
10
4.4558605
20
171.0432301
11
4.4516605
21
170.9823301
0
LINE
8
DEFAULT_255_2_778
10
4.4516605
20
170.9823301
11
4.4471605
21
170.9292301
0
LINE
8
DEFAULT_255_2_778
10
4.4471605
20
170.9292301
11
4.4423605
21
170.8847301
0
LINE
8
DEFAULT_255_2_778
10
4.4423605
20
170.8847301
11
4.4375605
21
170.8501301
0
LINE
8
DEFAULT_255_2_778
10
4.4375605
20
170.8501301
11
4.4325605
21
170.8257301
0
LINE
8
DEFAULT_255_2_778
10
4.4325605
20
170.8257301
11
4.4013605
21
170.7405301
0
LINE
8
DEFAULT_255_2_778
10
4.4013605
20
170.7405301
11
4.3703605
21
170.6387301
0
LINE
8
DEFAULT_255_2_778
10
4.3703605
20
170.6387301
11
4.3087605
21
170.4114301
0
LINE
8
DEFAULT_255_2_778
10
4.3087605
20
170.4114301
11
4.2674605
21
170.2698301
0
LINE
8
DEFAULT_255_2_778
10
4.2674605
20
170.2698301
11
4.2055605
21
170.0642301
0
LINE
8
DEFAULT_255_2_778
10
5.4258292
20
180.5636946
11
6.2061292
21
180.5565946
0
LINE
8
DEFAULT_255_2_778
10
6.2061292
20
180.5565946
11
6.2884292
21
180.2694946
0
LINE
8
DEFAULT_255_2_778
10
6.2884292
20
180.2694946
11
6.3090292
21
180.2061946
0
LINE
8
DEFAULT_255_2_778
10
6.3090292
20
180.2061946
11
6.3709292
21
180.0482946
0
LINE
8
DEFAULT_255_2_778
10
6.3709292
20
180.0482946
11
6.3915292
21
179.9855946
0
LINE
8
DEFAULT_255_2_778
10
6.3915292
20
179.9855946
11
6.4019292
21
179.9482946
0
LINE
8
DEFAULT_255_2_778
10
6.4019292
20
179.9482946
11
6.4122292
21
179.9056946
0
LINE
8
DEFAULT_255_2_778
10
6.4122292
20
179.9056946
11
6.4225292
21
179.8569946
0
LINE
8
DEFAULT_255_2_778
10
6.4225292
20
179.8569946
11
6.4378292
21
179.7704946
0
LINE
8
DEFAULT_255_2_778
10
6.4378292
20
179.7704946
11
6.4476292
21
179.6989946
0
LINE
8
DEFAULT_255_2_778
10
6.4476292
20
179.6989946
11
6.4524292
21
179.6553946
0
LINE
8
DEFAULT_255_2_778
10
6.4524292
20
179.6553946
11
6.4566292
21
179.6042946
0
LINE
8
DEFAULT_255_2_778
10
6.4566292
20
179.6042946
11
6.4606292
21
179.5450946
0
LINE
8
DEFAULT_255_2_778
10
6.4606292
20
179.5450946
11
6.4640292
21
179.4780946
0
LINE
8
DEFAULT_255_2_778
10
6.4640292
20
179.4780946
11
6.4672292
21
179.4042946
0
LINE
8
DEFAULT_255_2_778
10
6.4672292
20
179.4042946
11
6.4701292
21
179.3243946
0
LINE
8
DEFAULT_255_2_778
10
6.4701292
20
179.3243946
11
6.4728292
21
179.2388946
0
LINE
8
DEFAULT_255_2_778
10
6.4728292
20
179.2388946
11
6.4752292
21
179.1486946
0
LINE
8
DEFAULT_255_2_778
10
6.4752292
20
179.1486946
11
6.4773292
21
179.0544946
0
LINE
8
DEFAULT_255_2_778
10
6.4773292
20
179.0544946
11
6.4794292
21
178.9571946
0
LINE
8
DEFAULT_255_2_778
10
6.4794292
20
178.9571946
11
6.4812292
21
178.8573946
0
LINE
8
DEFAULT_255_2_778
10
6.4812292
20
178.8573946
11
6.4847292
21
178.6530946
0
LINE
8
DEFAULT_255_2_778
10
6.4847292
20
178.6530946
11
6.4910292
21
178.2453946
0
LINE
8
DEFAULT_255_2_778
10
6.4910292
20
178.2453946
11
6.4968292
21
177.8490946
0
LINE
8
DEFAULT_255_2_778
10
6.4968292
20
177.8490946
11
6.5024292
21
177.4611946
0
LINE
8
DEFAULT_255_2_778
10
6.5024292
20
177.4611946
11
6.5072292
21
177.0777946
0
LINE
8
DEFAULT_255_2_778
10
6.5072292
20
177.0777946
11
6.5114292
21
176.6954946
0
LINE
8
DEFAULT_255_2_778
10
6.5114292
20
176.6954946
11
6.5146292
21
176.3104946
0
LINE
8
DEFAULT_255_2_778
10
6.5146292
20
176.3104946
11
6.5148292
21
174.3216946
0
LINE
8
DEFAULT_255_2_778
10
6.5148292
20
174.3216946
11
6.5117292
21
173.9279946
0
LINE
8
DEFAULT_255_2_778
10
6.5117292
20
173.9279946
11
6.5077292
21
173.5373946
0
LINE
8
DEFAULT_255_2_778
10
6.5077292
20
173.5373946
11
6.5032292
21
173.1479946
0
LINE
8
DEFAULT_255_2_778
10
6.5032292
20
173.1479946
11
6.4984292
21
172.7579946
0
LINE
8
DEFAULT_255_2_778
10
6.4984292
20
172.7579946
11
6.4934292
21
172.3665946
0
LINE
8
DEFAULT_255_2_778
10
6.4934292
20
172.3665946
11
6.4905292
21
172.1726946
0
LINE
8
DEFAULT_255_2_778
10
6.4905292
20
172.1726946
11
6.4873292
21
171.9818946
0
LINE
8
DEFAULT_255_2_778
10
6.4873292
20
171.9818946
11
6.4836292
21
171.7956946
0
LINE
8
DEFAULT_255_2_778
10
6.4836292
20
171.7956946
11
6.4791292
21
171.6154946
0
LINE
8
DEFAULT_255_2_778
10
6.4791292
20
171.6154946
11
6.4738292
21
171.4426946
0
LINE
8
DEFAULT_255_2_778
10
6.4738292
20
171.4426946
11
6.4709292
21
171.3595946
0
LINE
8
DEFAULT_255_2_778
10
6.4709292
20
171.3595946
11
6.4677292
21
171.2788946
0
LINE
8
DEFAULT_255_2_778
10
6.4677292
20
171.2788946
11
6.4643292
21
171.2011946
0
LINE
8
DEFAULT_255_2_778
10
6.4643292
20
171.2011946
11
6.4606292
21
171.1275946
0
LINE
8
DEFAULT_255_2_778
10
6.4606292
20
171.1275946
11
6.4566292
21
171.0590946
0
LINE
8
DEFAULT_255_2_778
10
6.4566292
20
171.0590946
11
6.4524292
21
170.9968946
0
LINE
8
DEFAULT_255_2_778
10
6.4524292
20
170.9968946
11
6.4458292
21
170.9174946
0
LINE
8
DEFAULT_255_2_778
10
6.4458292
20
170.9174946
11
6.4410292
21
170.8754946
0
LINE
8
DEFAULT_255_2_778
10
6.4410292
20
170.8754946
11
6.4360292
21
170.8431946
0
LINE
8
DEFAULT_255_2_778
10
6.4360292
20
170.8431946
11
6.4283292
21
170.8124946
0
LINE
8
DEFAULT_255_2_778
10
6.4283292
20
170.8124946
11
6.4024292
21
170.7444946
0
LINE
8
DEFAULT_255_2_778
10
6.4024292
20
170.7444946
11
6.3714292
21
170.6441946
0
LINE
8
DEFAULT_255_2_778
10
6.3714292
20
170.6441946
11
6.3101292
21
170.4179946
0
LINE
8
DEFAULT_255_2_778
10
6.3101292
20
170.4179946
11
6.2071292
21
170.0721946
0
LINE
8
DEFAULT_255_2_778
10
6.2071292
20
170.0721946
11
5.2919292
21
170.0636946
0
LINE
8
DEFAULT_255_2_778
10
5.2919292
20
170.0636946
11
4.2045292
21
170.0636946
0
LINE
8
DEFAULT_255_2_778
10
4.2045292
20
170.0636946
11
4.2045292
21
180.5636946
0
LINE
8
DEFAULT_255_2_778
10
4.2045292
20
180.5636946
11
5.4271292
21
180.5636946
0
ENDSEC
0
EOF