0
SECTION
2
HEADER
9
$MEASUREMENT
70
1
0
ENDSEC
0
SECTION
2
TABLES
0
TABLE
2
LTYPE
0
LTYPE
72
65
70
64
2
CONTINUOUS
3
______
73
0
40
0
0
ENDTAB
0
TABLE
2
LAYER
0
LAYER
2
DEFAULT_255_2_778
70
0
62
255
6
CONTINUOUS
0
ENDTAB
0
ENDSEC
0
SECTION
2
ENTITIES
0
LINE
8
DEFAULT_255_2_778
10
140.8129502
20
13.6638165
11
140.8129502
21
-0.2561835
0
LINE
8
DEFAULT_255_2_778
10
140.8129502
20
-0.2561835
11
153.2129502
21
-0.2561835
0
LINE
8
DEFAULT_255_2_778
10
153.2129502
20
-0.2561835
11
153.2129502
21
161.7402165
0
LINE
8
DEFAULT_255_2_778
10
139.7128502
20
0.7436165
11
140.8127502
21
0.7436165
0
LINE
8
DEFAULT_255_2_778
10
153.2129354
20
13.3938844
11
153.2134354
21
13.3938844
0
LINE
8
DEFAULT_255_2_778
10
153.2134354
20
69.4270844
11
153.2129354
21
69.4270844
0
LINE
8
DEFAULT_255_2_778
10
153.2134354
20
89.4536844
11
153.2129354
21
89.4536844
0
LINE
8
DEFAULT_255_2_778
10
209.3024373
20
162.7590717
11
153.2134373
21
161.7800717
0
LINE
8
DEFAULT_255_2_778
10
153.2134373
20
161.7800717
11
153.2134373
21
-0.2562283
0
LINE
8
DEFAULT_255_2_778
10
153.2134373
20
-0.2562283
11
210.7113373
21
-0.2562283
0
LINE
8
DEFAULT_255_2_778
10
210.7113373
20
-0.2562283
11
210.7113373
21
161.7435717
0
LINE
8
DEFAULT_255_2_778
10
210.7113373
20
161.7435717
11
209.3019373
21
161.7435717
0
LINE
8
DEFAULT_255_2_778
10
209.3019373
20
161.7435717
11
209.3024373
21
162.7513717
0
LINE
8
DEFAULT_255_2_778
10
153.2134259
20
136.3070309
11
153.2129259
21
136.3070309
0
LINE
8
DEFAULT_255_2_778
10
153.2134259
20
156.3336309
11
153.2129259
21
156.3336309
0
LINE
8
DEFAULT_255_2_778
10
210.7114259
20
159.2583309
11
211.8006259
21
159.2578309
0
LINE
8
DEFAULT_255_2_778
10
211.8006259
20
159.2578309
11
211.7996259
21
157.2578309
0
LINE
8
DEFAULT_255_2_778
10
211.7996259
20
157.2578309
11
215.9639259
21
157.2694309
0
LINE
8
DEFAULT_255_2_778
10
215.9639259
20
157.2694309
11
216.2602259
21
157.3681309
0
LINE
8
DEFAULT_255_2_778
10
216.2602259
20
157.3681309
11
216.4767259
21
157.5184309
0
LINE
8
DEFAULT_255_2_778
10
216.4767259
20
157.5184309
11
216.6174259
21
157.6790309
0
LINE
8
DEFAULT_255_2_778
10
216.6174259
20
157.6790309
11
216.7010259
21
157.8222309
0
LINE
8
DEFAULT_255_2_778
10
216.7010259
20
157.8222309
11
216.7502259
21
157.9444309
0
LINE
8
DEFAULT_255_2_778
10
216.7502259
20
157.9444309
11
216.7767259
21
158.0404309
0
LINE
8
DEFAULT_255_2_778
10
216.7767259
20
158.0404309
11
216.7891259
21
158.1058309
0
LINE
8
DEFAULT_255_2_778
10
216.7891259
20
158.1058309
11
216.7954259
21
158.1553309
0
LINE
8
DEFAULT_255_2_778
10
216.7954259
20
158.1553309
11
216.7939259
21
160.8823309
0
LINE
8
DEFAULT_255_2_778
10
216.7939259
20
160.8823309
11
216.7814259
21
160.9575309
0
LINE
8
DEFAULT_255_2_778
10
216.7814259
20
160.9575309
11
216.7518259
21
161.0683309
0
LINE
8
DEFAULT_255_2_778
10
216.7518259
20
161.0683309
11
216.6870259
21
161.2210309
0
LINE
8
DEFAULT_255_2_778
10
216.6870259
20
161.2210309
11
216.5494259
21
161.4197309
0
LINE
8
DEFAULT_255_2_778
10
216.5494259
20
161.4197309
11
216.2933259
21
161.6266309
0
LINE
8
DEFAULT_255_2_778
10
216.2933259
20
161.6266309
11
215.9089259
21
161.7499309
0
LINE
8
DEFAULT_255_2_778
10
215.9089259
20
161.7499309
11
215.4950259
21
161.7073309
0
LINE
8
DEFAULT_255_2_778
10
215.4950259
20
161.7073309
11
215.1728259
21
161.5329309
0
LINE
8
DEFAULT_255_2_778
10
215.1728259
20
161.5329309
11
214.9751259
21
161.3181309
0
LINE
8
DEFAULT_255_2_778
10
214.9751259
20
161.3181309
11
214.8783259
21
161.1387309
0
LINE
8
DEFAULT_255_2_778
10
214.8783259
20
161.1387309
11
214.8338259
21
161.0062309
0
LINE
8
DEFAULT_255_2_778
10
214.8338259
20
161.0062309
11
214.8153259
21
160.9191309
0
LINE
8
DEFAULT_255_2_778
10
214.8153259
20
160.9191309
11
214.8068259
21
160.8556309
0
LINE
8
DEFAULT_255_2_778
10
214.8068259
20
160.8556309
11
214.8037259
21
160.8172309
0
LINE
8
DEFAULT_255_2_778
10
214.8037259
20
160.8172309
11
214.8018259
21
160.7530309
0
LINE
8
DEFAULT_255_2_778
10
214.802353
20
160.749597
11
210.711353
21
160.751997
0
LINE
8
DEFAULT_255_2_778
10
210.712953
20
180.563797
11
210.776753
21
180.563797
0
LINE
8
DEFAULT_255_2_778
10
210.776753
20
180.563797
11
212.352853
21
180.275097
0
LINE
8
DEFAULT_255_2_778
10
212.352853
20
180.275097
11
212.747653
21
180.211097
0
LINE
8
DEFAULT_255_2_778
10
212.747653
20
180.211097
11
214.132453
21
180.022697
0
LINE
8
DEFAULT_255_2_778
10
214.132453
20
180.022697
11
214.526653
21
179.952797
0
LINE
8
DEFAULT_255_2_778
10
214.526653
20
179.952797
11
214.722953
21
179.910797
0
LINE
8
DEFAULT_255_2_778
10
214.722953
20
179.910797
11
214.918753
21
179.862597
0
LINE
8
DEFAULT_255_2_778
10
214.918753
20
179.862597
11
215.211453
21
179.776897
0
LINE
8
DEFAULT_255_2_778
10
215.211453
20
179.776897
11
215.402453
21
179.706797
0
LINE
8
DEFAULT_255_2_778
10
215.402453
20
179.706797
11
215.535253
21
179.640097
0
LINE
8
DEFAULT_255_2_778
10
215.535253
20
179.640097
11
215.615653
21
179.586097
0
LINE
8
DEFAULT_255_2_778
10
215.615653
20
179.586097
11
215.688753
21
179.523897
0
LINE
8
DEFAULT_255_2_778
10
215.688753
20
179.523897
11
215.722553
21
179.490097
0
LINE
8
DEFAULT_255_2_778
10
215.722553
20
179.490097
11
215.785553
21
179.417097
0
LINE
8
DEFAULT_255_2_778
10
215.785553
20
179.417097
11
215.842753
21
179.337697
0
LINE
8
DEFAULT_255_2_778
10
215.842753
20
179.337697
11
215.894553
21
179.252697
0
LINE
8
DEFAULT_255_2_778
10
215.894553
20
179.252697
11
215.941653
21
179.162797
0
LINE
8
DEFAULT_255_2_778
10
215.941653
20
179.162797
11
215.984553
21
179.068897
0
LINE
8
DEFAULT_255_2_778
10
215.984553
20
179.068897
11
216.023653
21
178.971497
0
LINE
8
DEFAULT_255_2_778
10
216.023653
20
178.971497
11
216.059953
21
178.871497
0
LINE
8
DEFAULT_255_2_778
10
216.059953
20
178.871497
11
216.125553
21
178.666697
0
LINE
8
DEFAULT_255_2_778
10
216.125553
20
178.666697
11
216.302553
21
178.055997
0
LINE
8
DEFAULT_255_2_778
10
216.302553
20
178.055997
11
216.358153
21
177.858097
0
LINE
8
DEFAULT_255_2_778
10
216.358153
20
177.858097
11
216.411553
21
177.662297
0
LINE
8
DEFAULT_255_2_778
10
216.411553
20
177.662297
11
216.462653
21
177.468097
0
LINE
8
DEFAULT_255_2_778
10
216.462653
20
177.468097
11
216.510753
21
177.275197
0
LINE
8
DEFAULT_255_2_778
10
216.510753
20
177.275197
11
216.555753
21
177.083197
0
LINE
8
DEFAULT_255_2_778
10
216.555753
20
177.083197
11
216.597053
21
176.891297
0
LINE
8
DEFAULT_255_2_778
10
216.597053
20
176.891297
11
216.634653
21
176.699297
0
LINE
8
DEFAULT_255_2_778
10
216.634653
20
176.699297
11
216.667953
21
176.506397
0
LINE
8
DEFAULT_255_2_778
10
216.667953
20
176.506397
11
216.696753
21
176.312397
0
LINE
8
DEFAULT_255_2_778
10
216.696753
20
176.312397
11
216.720553
21
176.116897
0
LINE
8
DEFAULT_255_2_778
10
216.720553
20
176.116897
11
216.739153
21
175.919497
0
LINE
8
DEFAULT_255_2_778
10
216.739153
20
175.919497
11
216.752653
21
175.720297
0
LINE
8
DEFAULT_255_2_778
10
216.752653
20
175.720297
11
216.760853
21
175.519997
0
LINE
8
DEFAULT_255_2_778
10
216.760853
20
175.519997
11
216.761353
21
175.116997
0
LINE
8
DEFAULT_255_2_778
10
216.761353
20
175.116997
11
216.753653
21
174.915397
0
LINE
8
DEFAULT_255_2_778
10
216.753653
20
174.915397
11
216.740753
21
174.714097
0
LINE
8
DEFAULT_255_2_778
10
216.740753
20
174.714097
11
216.722753
21
174.513497
0
LINE
8
DEFAULT_255_2_778
10
216.722753
20
174.513497
11
216.699453
21
174.313997
0
LINE
8
DEFAULT_255_2_778
10
216.699453
20
174.313997
11
216.671153
21
174.115897
0
LINE
8
DEFAULT_255_2_778
10
216.671153
20
174.115897
11
216.638553
21
173.918697
0
LINE
8
DEFAULT_255_2_778
10
216.638553
20
173.918697
11
216.602053
21
173.722197
0
LINE
8
DEFAULT_255_2_778
10
216.602053
20
173.722197
11
216.562353
21
173.526097
0
LINE
8
DEFAULT_255_2_778
10
216.562353
20
173.526097
11
216.475053
21
173.134797
0
LINE
8
DEFAULT_255_2_778
10
216.475053
20
173.134797
11
216.381153
21
172.742697
0
LINE
8
DEFAULT_255_2_778
10
216.381153
20
172.742697
11
216.332753
21
172.545797
0
LINE
8
DEFAULT_255_2_778
10
216.332753
20
172.545797
11
216.281953
21
172.349497
0
LINE
8
DEFAULT_255_2_778
10
216.281953
20
172.349497
11
216.225853
21
172.154997
0
LINE
8
DEFAULT_255_2_778
10
216.225853
20
172.154997
11
216.195153
21
172.058997
0
LINE
8
DEFAULT_255_2_778
10
216.195153
20
172.058997
11
216.162053
21
171.963697
0
LINE
8
DEFAULT_255_2_778
10
216.162053
20
171.963697
11
216.126353
21
171.869797
0
LINE
8
DEFAULT_255_2_778
10
216.126353
20
171.869797
11
216.087753
21
171.777197
0
LINE
8
DEFAULT_255_2_778
10
216.087753
20
171.777197
11
216.045653
21
171.686197
0
LINE
8
DEFAULT_255_2_778
10
216.045653
20
171.686197
11
216.000153
21
171.596797
0
LINE
8
DEFAULT_255_2_778
10
216.000153
20
171.596797
11
215.950353
21
171.509397
0
LINE
8
DEFAULT_255_2_778
10
215.950353
20
171.509397
11
215.896453
21
171.423997
0
LINE
8
DEFAULT_255_2_778
10
215.896453
20
171.423997
11
215.837653
21
171.340897
0
LINE
8
DEFAULT_255_2_778
10
215.837653
20
171.340897
11
215.774153
21
171.260497
0
LINE
8
DEFAULT_255_2_778
10
215.774153
20
171.260497
11
215.705653
21
171.183197
0
LINE
8
DEFAULT_255_2_778
10
215.705653
20
171.183197
11
215.632353
21
171.110497
0
LINE
8
DEFAULT_255_2_778
10
215.632353
20
171.110497
11
215.554853
21
171.042997
0
LINE
8
DEFAULT_255_2_778
10
215.554853
20
171.042997
11
215.473053
21
170.982097
0
LINE
8
DEFAULT_255_2_778
10
215.473053
20
170.982097
11
215.387053
21
170.928997
0
LINE
8
DEFAULT_255_2_778
10
215.387053
20
170.928997
11
215.297453
21
170.884497
0
LINE
8
DEFAULT_255_2_778
10
215.297453
20
170.884497
11
215.204253
21
170.849797
0
LINE
8
DEFAULT_255_2_778
10
215.204253
20
170.849797
11
215.107953
21
170.825497
0
LINE
8
DEFAULT_255_2_778
10
215.107953
20
170.825497
11
214.511053
21
170.740297
0
LINE
8
DEFAULT_255_2_778
10
214.511053
20
170.740297
11
213.918953
21
170.638397
0
LINE
8
DEFAULT_255_2_778
10
213.918953
20
170.638397
11
212.741553
21
170.411197
0
LINE
8
DEFAULT_255_2_778
10
212.741553
20
170.411197
11
210.770153
21
170.063997
0
LINE
8
DEFAULT_255_2_778
10
210.770153
20
170.063997
11
210.713253
21
170.063997
0
LINE
8
DEFAULT_255_2_778
10
139.712853
20
267.663797
11
139.712853
21
-0.256203
0
LINE
8
DEFAULT_255_2_778
10
139.712853
20
-0.256203
11
0.162853
21
-0.256203
0
LINE
8
DEFAULT_255_2_778
10
0.162853
20
-0.256203
11
0.162853
21
289.743797
0
LINE
8
DEFAULT_255_2_778
10
0.162853
20
289.743797
11
139.712853
21
289.743797
0
LINE
8
DEFAULT_255_2_778
10
139.712853
20
289.743797
11
139.712853
21
275.763697
0
LINE
8
DEFAULT_255_2_778
10
140.812953
20
21.763797
11
140.812953
21
267.663797
0
LINE
8
DEFAULT_255_2_778
10
140.812953
20
275.763697
11
140.812953
21
289.743797
0
LINE
8
DEFAULT_255_2_778
10
140.812953
20
289.743797
11
210.712953
21
289.743797
0
LINE
8
DEFAULT_255_2_778
10
210.712953
20
289.743797
11
210.712953
21
162.743797
0
LINE
8
DEFAULT_255_2_778
10
210.712953
20
162.743797
11
209.302453
21
162.719197
0
LINE
8
DEFAULT_255_2_778
10
153.213453
20
4.375897
11
153.212953
21
4.352297
0
LINE
8
DEFAULT_255_2_778
10
210.7129573
20
208.4637483
11
210.8130573
21
208.4637483
0
LINE
8
DEFAULT_255_2_778
10
210.8130573
20
208.4637483
11
210.8130573
21
208.5637483
0
LINE
8
DEFAULT_255_2_778
10
210.8130573
20
208.5637483
11
210.9130573
21
208.5637483
0
LINE
8
DEFAULT_255_2_778
10
210.9130573
20
208.5637483
11
210.9130573
21
212.1637483
0
LINE
8
DEFAULT_255_2_778
10
210.9130573
20
212.1637483
11
210.8130573
21
212.1637483
0
LINE
8
DEFAULT_255_2_778
10
210.8130573
20
212.1637483
11
210.8130573
21
213.5636483
0
LINE
8
DEFAULT_255_2_778
10
210.8130573
20
213.5636483
11
210.9130573
21
213.5636483
0
LINE
8
DEFAULT_255_2_778
10
210.9130573
20
213.5636483
11
210.9130573
21
217.1635483
0
LINE
8
DEFAULT_255_2_778
10
210.9130573
20
217.1635483
11
210.8130573
21
217.1635483
0
LINE
8
DEFAULT_255_2_778
10
210.8130573
20
217.1635483
11
210.8130573
21
218.5634483
0
LINE
8
DEFAULT_255_2_778
10
210.8130573
20
218.5634483
11
210.9130573
21
218.5634483
0
LINE
8
DEFAULT_255_2_778
10
210.9130573
20
218.5634483
11
210.9130573
21
222.1639483
0
LINE
8
DEFAULT_255_2_778
10
210.9130573
20
222.1639483
11
210.8130573
21
222.1639483
0
LINE
8
DEFAULT_255_2_778
10
210.8130573
20
222.1639483
11
210.8130573
21
223.5638483
0
LINE
8
DEFAULT_255_2_778
10
210.8130573
20
223.5638483
11
210.9130573
21
223.5638483
0
LINE
8
DEFAULT_255_2_778
10
210.9130573
20
223.5638483
11
210.9130573
21
227.1637483
0
LINE
8
DEFAULT_255_2_778
10
210.9130573
20
227.1637483
11
210.8130573
21
227.1637483
0
LINE
8
DEFAULT_255_2_778
10
210.8130573
20
227.1637483
11
210.8130573
21
228.5636483
0
LINE
8
DEFAULT_255_2_778
10
210.8130573
20
228.5636483
11
210.9130573
21
228.5636483
0
LINE
8
DEFAULT_255_2_778
10
210.9130573
20
228.5636483
11
210.9130573
21
232.1635483
0
LINE
8
DEFAULT_255_2_778
10
210.9130573
20
232.1635483
11
210.8130573
21
232.1635483
0
LINE
8
DEFAULT_255_2_778
10
210.8130573
20
232.1635483
11
210.8130573
21
233.5634483
0
LINE
8
DEFAULT_255_2_778
10
210.8130573
20
233.5634483
11
210.9130573
21
233.5634483
0
LINE
8
DEFAULT_255_2_778
10
210.9130573
20
233.5634483
11
210.9130573
21
237.1633483
0
LINE
8
DEFAULT_255_2_778
10
210.9130573
20
237.1633483
11
210.8130573
21
237.1633483
0
LINE
8
DEFAULT_255_2_778
10
210.8130573
20
237.1633483
11
210.8130573
21
238.5633483
0
LINE
8
DEFAULT_255_2_778
10
210.8130573
20
238.5633483
11
210.9130573
21
238.5633483
0
LINE
8
DEFAULT_255_2_778
10
210.9130573
20
238.5633483
11
210.9130573
21
242.1632483
0
LINE
8
DEFAULT_255_2_778
10
210.9130573
20
242.1632483
11
210.8130573
21
242.1632483
0
LINE
8
DEFAULT_255_2_778
10
210.8130573
20
242.1632483
11
210.8130573
21
243.5631483
0
LINE
8
DEFAULT_255_2_778
10
210.8130573
20
243.5631483
11
210.9130573
21
243.5631483
0
LINE
8
DEFAULT_255_2_778
10
210.9130573
20
243.5631483
11
210.9130573
21
247.1630483
0
LINE
8
DEFAULT_255_2_778
10
210.9130573
20
247.1630483
11
210.8130573
21
247.1630483
0
LINE
8
DEFAULT_255_2_778
10
210.8130573
20
247.1630483
11
210.8130573
21
248.5629483
0
LINE
8
DEFAULT_255_2_778
10
210.8130573
20
248.5629483
11
210.9130573
21
248.5629483
0
LINE
8
DEFAULT_255_2_778
10
210.9130573
20
248.5629483
11
210.9130573
21
252.1628483
0
LINE
8
DEFAULT_255_2_778
10
210.9130573
20
252.1628483
11
210.8130573
21
252.1628483
0
LINE
8
DEFAULT_255_2_778
10
210.8130573
20
252.1628483
11
210.8130573
21
253.5627483
0
LINE
8
DEFAULT_255_2_778
10
210.8130573
20
253.5627483
11
210.9130573
21
253.5627483
0
LINE
8
DEFAULT_255_2_778
10
210.9130573
20
253.5627483
11
210.9130573
21
257.1627483
0
LINE
8
DEFAULT_255_2_778
10
210.9130573
20
257.1627483
11
210.8130573
21
257.1627483
0
LINE
8
DEFAULT_255_2_778
10
210.8130573
20
257.1627483
11
210.8130573
21
258.5626483
0
LINE
8
DEFAULT_255_2_778
10
210.8130573
20
258.5626483
11
210.9130573
21
258.5626483
0
LINE
8
DEFAULT_255_2_778
10
210.9130573
20
258.5626483
11
210.9130573
21
262.1625483
0
LINE
8
DEFAULT_255_2_778
10
210.9130573
20
262.1625483
11
210.8130573
21
262.1625483
0
LINE
8
DEFAULT_255_2_778
10
210.8130573
20
262.1625483
11
210.8130573
21
262.3625483
0
LINE
8
DEFAULT_255_2_778
10
210.8130573
20
262.3625483
11
210.7129573
21
262.3625483
0
LINE
8
DEFAULT_255_2_778
10
139.7128573
20
288.7436483
11
140.8127573
21
288.7436483
0
LINE
8
DEFAULT_255_2_778
10
211.7107573
20
159.2578483
11
211.7107573
21
160.7514483
0
LINE
8
DEFAULT_255_2_778
10
153.2129573
20
23.0154483
11
153.2134573
21
23.0154483
0
LINE
8
DEFAULT_255_2_778
10
153.2129573
20
22.3836483
11
153.2134573
21
22.3836483
0
LINE
8
DEFAULT_255_2_778
10
153.2129573
20
22.2500483
11
153.2134573
21
22.2500483
0
LINE
8
DEFAULT_255_2_778
10
153.2129573
20
22.0613483
11
153.2134573
21
22.0613483
0
LINE
8
DEFAULT_255_2_778
10
153.2129573
20
20.9736483
11
153.2134573
21
20.9736483
0
LINE
8
DEFAULT_255_2_778
10
153.2129573
20
20.8337483
11
153.2134573
21
20.8337483
0
LINE
8
DEFAULT_255_2_778
10
153.2129573
20
19.4237483
11
153.2134573
21
19.4237483
0
LINE
8
DEFAULT_255_2_778
10
153.2134573
20
38.3927483
11
153.2129573
21
38.3927483
0
LINE
8
DEFAULT_255_2_778
10
153.2129573
20
38.3417483
11
153.2134573
21
38.3417483
0
LINE
8
DEFAULT_255_2_778
10
153.2129573
20
37.1722483
11
153.2134573
21
37.1722483
0
LINE
8
DEFAULT_255_2_778
10
153.2129573
20
36.8674483
11
153.2134573
21
36.8674483
0
LINE
8
DEFAULT_255_2_778
10
153.2129573
20
36.6904483
11
153.2134573
21
36.6904483
0
LINE
8
DEFAULT_255_2_778
10
153.2129573
20
36.3531483
11
153.2134573
21
36.3531483
0
LINE
8
DEFAULT_255_2_778
10
153.2129573
20
36.3134483
11
153.2134573
21
36.3134483
0
LINE
8
DEFAULT_255_2_778
10
153.2129573
20
36.3076483
11
153.2134573
21
36.3076483
0
LINE
8
DEFAULT_255_2_778
10
153.2134573
20
35.7697483
11
153.2129573
21
35.7697483
0
LINE
8
DEFAULT_255_2_778
10
153.2129573
20
35.7220483
11
153.2134573
21
35.7220483
0
LINE
8
DEFAULT_255_2_778
10
153.2129573
20
33.5220483
11
153.2134573
21
33.5220483
0
LINE
8
DEFAULT_255_2_778
10
153.2134573
20
54.4347483
11
153.2129573
21
54.4347483
0
LINE
8
DEFAULT_255_2_778
10
153.2129573
20
54.3937483
11
153.2134573
21
54.3937483
0
LINE
8
DEFAULT_255_2_778
10
153.2129573
20
53.3459483
11
153.2134573
21
53.3459483
0
LINE
8
DEFAULT_255_2_778
10
153.2129573
20
52.1937483
11
153.2134573
21
52.1937483
0
LINE
8
DEFAULT_255_2_778
10
153.2129573
20
48.7686483
11
153.2134573
21
48.7686483
0
LINE
8
DEFAULT_255_2_778
10
153.2134573
20
66.9651483
11
153.2129573
21
66.9651483
0
LINE
8
DEFAULT_255_2_778
10
153.2134573
20
66.4537483
11
153.2129573
21
66.4537483
0
LINE
8
DEFAULT_255_2_778
10
153.2129573
20
66.4158483
11
153.2134573
21
66.4158483
0
LINE
8
DEFAULT_255_2_778
10
153.2134573
20
64.4537483
11
153.2129573
21
64.4537483
0
LINE
8
DEFAULT_255_2_778
10
153.2134573
20
61.9536483
11
153.2129573
21
61.9536483
0
LINE
8
DEFAULT_255_2_778
10
153.2134573
20
59.4538483
11
153.2129573
21
59.4538483
0
LINE
8
DEFAULT_255_2_778
10
153.2134573
20
86.9538483
11
153.2129573
21
86.9538483
0
LINE
8
DEFAULT_255_2_778
10
153.2134573
20
84.4538483
11
153.2129573
21
84.4538483
0
LINE
8
DEFAULT_255_2_778
10
153.2134573
20
82.4437483
11
153.2129573
21
82.4437483
0
LINE
8
DEFAULT_255_2_778
10
153.2134573
20
82.4056483
11
153.2129573
21
82.4056483
0
LINE
8
DEFAULT_255_2_778
10
153.2134573
20
81.8945483
11
153.2129573
21
81.8945483
0
LINE
8
DEFAULT_255_2_778
10
153.2134573
20
79.4323483
11
153.2129573
21
79.4323483
0
LINE
8
DEFAULT_255_2_778
10
153.2129573
20
117.6937483
11
153.2134573
21
117.6937483
0
LINE
8
DEFAULT_255_2_778
10
153.2129573
20
116.7412483
11
153.2134573
21
116.7412483
0
LINE
8
DEFAULT_255_2_778
10
153.2129573
20
115.6937483
11
153.2134573
21
115.6937483
0
LINE
8
DEFAULT_255_2_778
10
153.2129573
20
112.3938483
11
153.2134573
21
112.3938483
0
LINE
8
DEFAULT_255_2_778
10
153.2129573
20
112.2435483
11
153.2134573
21
112.2435483
0
LINE
8
DEFAULT_255_2_778
10
153.2134573
20
133.8451483
11
153.2129573
21
133.8451483
0
LINE
8
DEFAULT_255_2_778
10
153.2134573
20
133.3337483
11
153.2129573
21
133.3337483
0
LINE
8
DEFAULT_255_2_778
10
153.2129573
20
133.2959483
11
153.2134573
21
133.2959483
0
LINE
8
DEFAULT_255_2_778
10
153.2134573
20
131.3337483
11
153.2129573
21
131.3337483
0
LINE
8
DEFAULT_255_2_778
10
153.2134573
20
128.8337483
11
153.2129573
21
128.8337483
0
LINE
8
DEFAULT_255_2_778
10
153.2134573
20
126.3336483
11
153.2129573
21
126.3336483
0
LINE
8
DEFAULT_255_2_778
10
153.2134573
20
108.6388483
11
153.2129573
21
108.6388483
0
LINE
8
DEFAULT_255_2_778
10
153.2129573
20
104.8936483
11
153.2134573
21
104.8936483
0
LINE
8
DEFAULT_255_2_778
10
153.2129573
20
102.6936483
11
153.2134573
21
102.6936483
0
LINE
8
DEFAULT_255_2_778
10
153.2134573
20
153.8336483
11
153.2129573
21
153.8336483
0
LINE
8
DEFAULT_255_2_778
10
153.2134573
20
151.3338483
11
153.2129573
21
151.3338483
0
LINE
8
DEFAULT_255_2_778
10
153.2134573
20
149.3238483
11
153.2129573
21
149.3238483
0
LINE
8
DEFAULT_255_2_778
10
153.2134573
20
149.2857483
11
153.2129573
21
149.2857483
0
LINE
8
DEFAULT_255_2_778
10
153.2134573
20
148.7743483
11
153.2129573
21
148.7743483
0
LINE
8
DEFAULT_255_2_778
10
153.2134573
20
146.3123483
11
153.2129573
21
146.3123483
0
LINE
8
DEFAULT_255_2_778
10
210.7129938
20
215.8937947
11
210.8129938
21
215.8937947
0
LINE
8
DEFAULT_255_2_778
10
210.8129938
20
215.8937947
11
210.8129938
21
214.1938947
0
LINE
8
DEFAULT_255_2_778
10
210.8129938
20
214.1938947
11
210.7129938
21
214.1938947
0
LINE
8
DEFAULT_255_2_778
10
210.7129938
20
214.1557947
11
210.8129938
21
214.1557947
0
LINE
8
DEFAULT_255_2_778
10
210.8129938
20
214.1557947
11
210.8129938
21
214.1924947
0
LINE
8
DEFAULT_255_2_778
10
210.8129938
20
210.9359947
11
210.7129938
21
210.9365947
0
LINE
8
DEFAULT_255_2_778
10
210.7129938
20
209.6863947
11
210.8129938
21
209.6863947
0
LINE
8
DEFAULT_255_2_778
10
210.7129938
20
209.1555841
11
210.8129938
21
209.1555841
0
LINE
8
DEFAULT_255_2_778
10
210.8129938
20
209.1555841
11
210.8129938
21
210.9335841
0
LINE
8
DEFAULT_255_2_778
10
210.8129938
20
210.9335841
11
210.7129938
21
210.9335841
0
LINE
8
DEFAULT_255_2_778
10
210.8129938
20
230.8956841
11
210.8129938
21
230.9273841
0
LINE
8
DEFAULT_255_2_778
10
210.8129938
20
230.9273841
11
210.7129938
21
230.9273841
0
LINE
8
DEFAULT_255_2_778
10
210.7129938
20
229.1938739
11
210.8129938
21
229.1938739
0
LINE
8
DEFAULT_255_2_778
10
210.8129938
20
229.1938739
11
210.8129938
21
230.8937739
0
LINE
8
DEFAULT_255_2_778
10
210.8129938
20
230.8937739
11
210.7129938
21
230.8937739
0
LINE
8
DEFAULT_255_2_778
10
210.7129938
20
229.1600719
11
210.8129938
21
229.1600719
0
LINE
8
DEFAULT_255_2_778
10
210.8129938
20
229.1600719
11
210.8129938
21
229.1925719
0
LINE
8
DEFAULT_255_2_778
10
210.7129938
20
224.1937739
11
210.8129938
21
224.1937739
0
LINE
8
DEFAULT_255_2_778
10
210.8129938
20
224.1937739
11
210.8129938
21
225.8936739
0
LINE
8
DEFAULT_255_2_778
10
210.8129938
20
225.8936739
11
210.7129938
21
225.8936739
0
LINE
8
DEFAULT_255_2_778
10
210.7129938
20
239.1938739
11
210.8129938
21
239.1938739
0
LINE
8
DEFAULT_255_2_778
10
210.8129938
20
239.1938739
11
210.8129938
21
240.8937739
0
LINE
8
DEFAULT_255_2_778
10
210.8129938
20
240.8937739
11
210.7129938
21
240.8937739
0
LINE
8
DEFAULT_255_2_778
10
210.8129938
20
236.1513771
11
210.8129938
21
236.1624771
0
LINE
8
DEFAULT_255_2_778
10
210.8129938
20
236.1624771
11
210.7129938
21
236.1624771
0
LINE
8
DEFAULT_255_2_778
10
210.7129938
20
236.1494771
11
210.8129938
21
236.1494771
0
LINE
8
DEFAULT_255_2_778
10
210.8129938
20
236.1494771
11
210.8129938
21
234.4378771
0
LINE
8
DEFAULT_255_2_778
10
210.7129938
20
234.4495771
11
210.8129938
21
234.4495771
0
LINE
8
DEFAULT_255_2_778
10
210.7129938
20
234.4378771
11
210.8129938
21
234.4378771
0
LINE
8
DEFAULT_255_2_778
10
210.7129938
20
259.1939739
11
210.8129938
21
259.1939739
0
LINE
8
DEFAULT_255_2_778
10
210.8129938
20
259.1939739
11
210.8129938
21
260.8938739
0
LINE
8
DEFAULT_255_2_778
10
210.8129938
20
260.8938739
11
210.7129938
21
260.8938739
0
LINE
8
DEFAULT_255_2_778
10
210.7129938
20
254.1938739
11
210.8129938
21
254.1938739
0
LINE
8
DEFAULT_255_2_778
10
210.8129938
20
254.1938739
11
210.8129938
21
255.8937739
0
LINE
8
DEFAULT_255_2_778
10
210.8129938
20
255.8937739
11
210.7129938
21
255.8937739
0
LINE
8
DEFAULT_255_2_778
10
210.7129938
20
276.9937739
11
210.8129938
21
276.9937739
0
LINE
8
DEFAULT_255_2_778
10
210.7129938
20
275.9237739
11
210.8129938
21
275.9237739
0
LINE
8
DEFAULT_255_2_778
10
210.7129938
20
275.7189739
11
210.8129938
21
275.7189739
0
LINE
8
DEFAULT_255_2_778
10
210.7129938
20
275.2938739
11
210.8129938
21
275.2938739
0
LINE
8
DEFAULT_255_2_778
10
210.7129938
20
275.2496223
11
210.8129938
21
275.2496223
0
LINE
8
DEFAULT_255_2_778
10
210.8129938
20
275.2496223
11
210.8129938
21
277.0234223
0
LINE
8
DEFAULT_255_2_778
10
210.8129938
20
277.0234223
11
210.7129938
21
277.0234223
0
LINE
8
DEFAULT_255_2_778
10
210.7129938
20
286.4600223
11
210.8129938
21
286.4600223
0
LINE
8
DEFAULT_255_2_778
10
210.8129938
20
286.4600223
11
210.8129938
21
288.2274223
0
LINE
8
DEFAULT_255_2_778
10
210.8129938
20
288.2274223
11
210.7129938
21
288.2274223
0
LINE
8
DEFAULT_255_2_778
10
210.7129938
20
286.4528223
11
210.8129938
21
286.4528223
0
LINE
8
DEFAULT_255_2_778
10
210.8129938
20
286.4528223
11
210.8129938
21
286.4576223
0
LINE
8
DEFAULT_255_2_778
10
210.8129938
20
244.1909223
11
210.8129938
21
244.1558223
0
LINE
8
DEFAULT_255_2_778
10
210.8129938
20
245.8964223
11
210.8129938
21
245.9338223
0
LINE
8
DEFAULT_255_2_778
10
210.8129938
20
245.9338223
11
210.7129938
21
245.9338223
0
LINE
8
DEFAULT_255_2_778
10
210.8129938
20
249.1908
11
210.8129938
21
249.1556
0
LINE
8
DEFAULT_255_2_778
10
210.8129938
20
250.8963
11
210.8129938
21
250.9336
0
LINE
8
DEFAULT_255_2_778
10
210.8129938
20
250.9336
11
210.7129938
21
250.9336
0
LINE
8
DEFAULT_255_2_778
10
210.7129938
20
249.1937739
11
210.8129938
21
249.1937739
0
LINE
8
DEFAULT_255_2_778
10
210.8129938
20
249.1937739
11
210.8129938
21
250.8936739
0
LINE
8
DEFAULT_255_2_778
10
210.8129938
20
250.8936739
11
210.7129938
21
250.8936739
0
LINE
8
DEFAULT_255_2_778
10
210.7129938
20
249.1556
11
210.8129938
21
249.1556
0
LINE
8
DEFAULT_255_2_778
10
210.7129938
20
244.1939739
11
210.8129938
21
244.1939739
0
LINE
8
DEFAULT_255_2_778
10
210.8129938
20
244.1939739
11
210.8129938
21
245.8938739
0
LINE
8
DEFAULT_255_2_778
10
210.8129938
20
245.8938739
11
210.7129938
21
245.8938739
0
LINE
8
DEFAULT_255_2_778
10
210.7129938
20
244.1558
11
210.8129938
21
244.1558
0
ARC
8
DEFAULT_255_2_778
10
146.1607887
20
17.7168556
40
1.4651066
50
150.9733876
51
180.122839
0
ARC
8
DEFAULT_255_2_778
10
146.1590295
20
17.7172741
40
1.4633655
50
98.3466549
51
150.9542933
0
ARC
8
DEFAULT_255_2_778
10
146.162254
20
17.6896033
40
1.4912114
50
89.9795787
51
98.3149004
0
ARC
8
DEFAULT_255_2_778
10
146.1659266
20
17.7157113
40
1.4651066
50
60.9733876
51
90.122839
0
ARC
8
DEFAULT_255_2_778
10
146.166345
20
17.7174705
40
1.4633655
50
8.3466549
51
60.9542933
0
ARC
8
DEFAULT_255_2_778
10
146.1386742
20
17.714246
40
1.4912114
50
359.9795787
51
8.3149004
0
ARC
8
DEFAULT_255_2_778
10
146.1647822
20
17.7105734
40
1.4651066
50
330.9733876
51
0.122839
0
ARC
8
DEFAULT_255_2_778
10
146.1665414
20
17.710155
40
1.4633655
50
278.3466549
51
330.9542933
0
ARC
8
DEFAULT_255_2_778
10
146.163317
20
17.7378258
40
1.4912114
50
269.9795787
51
278.3149004
0
ARC
8
DEFAULT_255_2_778
10
146.1596444
20
17.7117178
40
1.4651066
50
240.9733876
51
270.122839
0
ARC
8
DEFAULT_255_2_778
10
146.1592259
20
17.7099586
40
1.4633655
50
188.3466549
51
240.9542933
0
ARC
8
DEFAULT_255_2_778
10
146.1868967
20
17.713183
40
1.4912114
50
179.9795787
51
188.3149004
0
LINE
8
DEFAULT_255_2_778
10
144.6956855
20
17.7137145
11
144.6956855
21
17.7137145
0
ARC
8
DEFAULT_255_2_778
10
145.3580679
20
19.6539884
40
1.0794132
50
270.0125253
51
329.6175512
0
ARC
8
DEFAULT_255_2_778
10
145.3583305
20
19.6509604
40
1.076385
50
262.0757407
51
269.9985846
0
ARC
8
DEFAULT_255_2_778
10
145.3594333
20
19.6585164
40
1.0840208
50
255.4305249
51
262.0730659
0
ARC
8
DEFAULT_255_2_778
10
144.0819635
20
17.9874517
40
1.0775374
50
6.4934303
51
29.6465866
0
ARC
8
DEFAULT_255_2_778
10
144.0801443
20
17.9873195
40
1.07936
50
2.0441637
51
6.4894807
0
ARC
8
DEFAULT_255_2_778
10
144.0787053
20
17.9872566
40
1.0808002
50
0.0002011
51
2.0447762
0
ARC
8
DEFAULT_255_2_778
10
144.0808024
20
17.9866921
40
1.0787032
50
318.3053214
51
0.0301833
0
ARC
8
DEFAULT_255_2_778
10
144.0744773
20
17.992549
40
1.087322
50
315.4348941
51
318.296564
0
ARC
8
DEFAULT_255_2_778
10
144.8846472
20
16.0465493
40
1.0795302
50
15.4346298
51
89.6074253
0
ARC
8
DEFAULT_255_2_778
10
146.9676354
20
15.7731991
40
1.0796247
50
90.0153092
51
149.610551
0
ARC
8
DEFAULT_255_2_778
10
146.9673182
20
15.7766155
40
1.0762083
50
82.0777156
51
89.9984695
0
ARC
8
DEFAULT_255_2_778
10
146.966241
20
15.7692404
40
1.0836615
50
75.4303289
51
82.0750528
0
ARC
8
DEFAULT_255_2_778
10
148.2436216
20
17.439955
40
1.0775345
50
186.485379
51
209.6465775
0
ARC
8
DEFAULT_255_2_778
10
148.2454237
20
17.440089
40
1.0793403
50
182.0346334
51
186.4816438
0
ARC
8
DEFAULT_255_2_778
10
148.247194
20
17.4401579
40
1.0811118
50
180.0001953
51
182.0349484
0
ARC
8
DEFAULT_255_2_778
10
148.2450759
20
17.4406947
40
1.0789939
50
138.3112026
51
180.0286998
0
ARC
8
DEFAULT_255_2_778
10
148.2515875
20
17.434713
40
1.0878349
50
135.4432939
51
138.3040327
0
ARC
8
DEFAULT_255_2_778
10
147.4407847
20
19.3805607
40
1.0792308
50
195.4280953
51
269.6155794
0
LINE
8
DEFAULT_255_2_778
10
145.0867438
20
18.6093541
11
145.0184438
21
18.5204541
0
LINE
8
DEFAULT_255_2_778
10
144.8491438
20
17.2295541
11
144.8920438
21
17.1260541
0
LINE
8
DEFAULT_255_2_778
10
145.9252438
20
16.3338541
11
146.0363438
21
16.3193541
0
LINE
8
DEFAULT_255_2_778
10
147.2388438
20
16.8180541
11
147.3071438
21
16.9069541
0
LINE
8
DEFAULT_255_2_778
10
147.4764438
20
18.1979541
11
147.4335438
21
18.3013541
0
LINE
8
DEFAULT_255_2_778
10
146.4004438
20
19.0934541
11
146.2892438
21
19.1080541
0
ARC
8
DEFAULT_255_2_778
10
146.1605919
20
17.717218
40
3.2476028
50
162.1301229
51
180.0566097
0
ARC
8
DEFAULT_255_2_778
10
146.1679831
20
17.708751
40
3.2572406
50
105.7688523
51
162.0282673
0
ARC
8
DEFAULT_255_2_778
10
146.160295
20
17.7114444
40
3.2525661
50
89.9525132
51
105.6514122
0
ARC
8
DEFAULT_255_2_778
10
146.1661994
20
17.7164081
40
3.2476028
50
72.1301229
51
90.0566097
0
ARC
8
DEFAULT_255_2_778
10
146.1577325
20
17.7090169
40
3.2572406
50
15.7688523
51
72.0282673
0
ARC
8
DEFAULT_255_2_778
10
146.1604259
20
17.716705
40
3.2525661
50
359.9525132
51
15.6514122
0
ARC
8
DEFAULT_255_2_778
10
146.1653895
20
17.7108006
40
3.2476028
50
342.1301229
51
0.0566097
0
ARC
8
DEFAULT_255_2_778
10
146.1579983
20
17.7192675
40
3.2572406
50
285.7688523
51
342.0282673
0
ARC
8
DEFAULT_255_2_778
10
146.1656864
20
17.7165741
40
3.2525661
50
269.9525132
51
285.6514122
0
ARC
8
DEFAULT_255_2_778
10
146.159782
20
17.7116105
40
3.2476028
50
252.1301229
51
270.0566097
0
ARC
8
DEFAULT_255_2_778
10
146.168249
20
17.7190017
40
3.2572406
50
195.7688523
51
252.0282673
0
ARC
8
DEFAULT_255_2_778
10
146.1655556
20
17.7113136
40
3.2525661
50
179.9525132
51
195.6514122
0
LINE
8
DEFAULT_255_2_778
10
142.9129907
20
17.7140093
11
142.9129907
21
17.7140093
0
ARC
8
DEFAULT_255_2_778
10
146.165443
20
17.7096574
40
4.0540204
50
74.3444758
51
90.0372774
0
ARC
8
DEFAULT_255_2_778
10
146.1633248
20
17.7195593
40
4.0450602
50
46.6025348
51
74.2777377
0
ARC
8
DEFAULT_255_2_778
10
146.1633547
20
17.7113563
40
4.0510039
50
16.8672531
51
46.6825547
0
ARC
8
DEFAULT_255_2_778
10
146.1647633
20
17.7171055
40
4.047991
50
0.7621287
51
16.7951632
0
ARC
8
DEFAULT_255_2_778
10
146.0821377
20
17.7127869
40
4.1306678
50
0.0123453
51
0.8067814
0
ARC
8
DEFAULT_255_2_778
10
146.1585865
20
17.7112264
40
4.0542196
50
344.3430354
51
0.034633
0
ARC
8
DEFAULT_255_2_778
10
146.1683549
20
17.7133744
40
4.045396
50
316.6035634
51
344.2764029
0
ARC
8
DEFAULT_255_2_778
10
146.160406
20
17.7130894
40
4.0509799
50
286.8683975
51
316.6837346
0
ARC
8
DEFAULT_255_2_778
10
146.1662345
20
17.7114804
40
4.0477521
50
270.7621646
51
286.7960537
0
ARC
8
DEFAULT_255_2_778
10
146.1619153
20
17.7943431
40
4.1306662
50
270.0123453
51
270.8067814
0
LINE
8
DEFAULT_255_2_778
10
139.7128054
20
21.763677
11
146.1628054
21
21.763677
0
LINE
8
DEFAULT_255_2_778
10
146.1628054
20
13.663677
11
139.7128054
21
13.663677
0
ARC
8
DEFAULT_255_2_778
10
146.1607887
20
271.7168556
40
1.4651066
50
150.9733876
51
180.122839
0
ARC
8
DEFAULT_255_2_778
10
146.1590295
20
271.7172741
40
1.4633655
50
98.3466549
51
150.9542933
0
ARC
8
DEFAULT_255_2_778
10
146.162254
20
271.6896033
40
1.4912114
50
89.9795787
51
98.3149004
0
ARC
8
DEFAULT_255_2_778
10
146.1659266
20
271.7157113
40
1.4651066
50
60.9733876
51
90.122839
0
ARC
8
DEFAULT_255_2_778
10
146.166345
20
271.7174705
40
1.4633655
50
8.3466549
51
60.9542933
0
ARC
8
DEFAULT_255_2_778
10
146.1386742
20
271.714246
40
1.4912114
50
359.9795787
51
8.3149004
0
ARC
8
DEFAULT_255_2_778
10
146.1647822
20
271.7105734
40
1.4651066
50
330.9733876
51
0.122839
0
ARC
8
DEFAULT_255_2_778
10
146.1665414
20
271.710155
40
1.4633655
50
278.3466549
51
330.9542933
0
ARC
8
DEFAULT_255_2_778
10
146.163317
20
271.7378258
40
1.4912114
50
269.9795787
51
278.3149004
0
ARC
8
DEFAULT_255_2_778
10
146.1596444
20
271.7117178
40
1.4651066
50
240.9733876
51
270.122839
0
ARC
8
DEFAULT_255_2_778
10
146.1592259
20
271.7099586
40
1.4633655
50
188.3466549
51
240.9542933
0
ARC
8
DEFAULT_255_2_778
10
146.1868967
20
271.713183
40
1.4912114
50
179.9795787
51
188.3149004
0
LINE
8
DEFAULT_255_2_778
10
144.6956855
20
271.7137145
11
144.6956855
21
271.7137145
0
ARC
8
DEFAULT_255_2_778
10
145.3580679
20
273.6539884
40
1.0794132
50
270.0125253
51
329.6175512
0
ARC
8
DEFAULT_255_2_778
10
145.3583305
20
273.6509604
40
1.076385
50
262.0757407
51
269.9985846
0
ARC
8
DEFAULT_255_2_778
10
145.3594333
20
273.6585164
40
1.0840208
50
255.4305249
51
262.0730659
0
ARC
8
DEFAULT_255_2_778
10
144.0819635
20
271.9874517
40
1.0775374
50
6.4934303
51
29.6465866
0
ARC
8
DEFAULT_255_2_778
10
144.0801443
20
271.9873195
40
1.07936
50
2.0441637
51
6.4894807
0
ARC
8
DEFAULT_255_2_778
10
144.0787053
20
271.9872566
40
1.0808002
50
0.0002011
51
2.0447762
0
ARC
8
DEFAULT_255_2_778
10
144.0808024
20
271.9866921
40
1.0787032
50
318.3053214
51
0.0301833
0
ARC
8
DEFAULT_255_2_778
10
144.0744773
20
271.992549
40
1.087322
50
315.4348941
51
318.296564
0
ARC
8
DEFAULT_255_2_778
10
144.8846472
20
270.0465493
40
1.0795302
50
15.4346298
51
89.6074253
0
ARC
8
DEFAULT_255_2_778
10
146.9676354
20
269.7731991
40
1.0796247
50
90.0153092
51
149.610551
0
ARC
8
DEFAULT_255_2_778
10
146.9673182
20
269.7766155
40
1.0762083
50
82.0777156
51
89.9984695
0
ARC
8
DEFAULT_255_2_778
10
146.966241
20
269.7692404
40
1.0836615
50
75.4303289
51
82.0750528
0
ARC
8
DEFAULT_255_2_778
10
148.2436216
20
271.439955
40
1.0775345
50
186.485379
51
209.6465775
0
ARC
8
DEFAULT_255_2_778
10
148.2454237
20
271.440089
40
1.0793403
50
182.0346334
51
186.4816438
0
ARC
8
DEFAULT_255_2_778
10
148.247194
20
271.4401579
40
1.0811118
50
180.0001953
51
182.0349484
0
ARC
8
DEFAULT_255_2_778
10
148.2450759
20
271.4406947
40
1.0789939
50
138.3112026
51
180.0286998
0
ARC
8
DEFAULT_255_2_778
10
148.2515875
20
271.434713
40
1.0878349
50
135.4432939
51
138.3040327
0
ARC
8
DEFAULT_255_2_778
10
147.4407847
20
273.3805607
40
1.0792308
50
195.4280953
51
269.6155794
0
LINE
8
DEFAULT_255_2_778
10
145.0867438
20
272.6093541
11
145.0184438
21
272.5204541
0
LINE
8
DEFAULT_255_2_778
10
144.8491438
20
271.2295541
11
144.8920438
21
271.1260541
0
LINE
8
DEFAULT_255_2_778
10
145.9252438
20
270.3338541
11
146.0363438
21
270.3193541
0
LINE
8
DEFAULT_255_2_778
10
147.2388438
20
270.8180541
11
147.3071438
21
270.9069541
0
LINE
8
DEFAULT_255_2_778
10
147.4764438
20
272.1979541
11
147.4335438
21
272.3013541
0
LINE
8
DEFAULT_255_2_778
10
146.4004438
20
273.0934541
11
146.2892438
21
273.1080541
0
ARC
8
DEFAULT_255_2_778
10
146.1605919
20
271.717218
40
3.2476028
50
162.1301229
51
180.0566097
0
ARC
8
DEFAULT_255_2_778
10
146.1679831
20
271.708751
40
3.2572406
50
105.7688523
51
162.0282673
0
ARC
8
DEFAULT_255_2_778
10
146.160295
20
271.7114444
40
3.2525661
50
89.9525132
51
105.6514122
0
ARC
8
DEFAULT_255_2_778
10
146.1661994
20
271.7164081
40
3.2476028
50
72.1301229
51
90.0566097
0
ARC
8
DEFAULT_255_2_778
10
146.1577325
20
271.7090169
40
3.2572406
50
15.7688523
51
72.0282673
0
ARC
8
DEFAULT_255_2_778
10
146.1604259
20
271.716705
40
3.2525661
50
359.9525132
51
15.6514122
0
ARC
8
DEFAULT_255_2_778
10
146.1653895
20
271.7108006
40
3.2476028
50
342.1301229
51
0.0566097
0
ARC
8
DEFAULT_255_2_778
10
146.1579983
20
271.7192675
40
3.2572406
50
285.7688523
51
342.0282673
0
ARC
8
DEFAULT_255_2_778
10
146.1656864
20
271.7165741
40
3.2525661
50
269.9525132
51
285.6514122
0
ARC
8
DEFAULT_255_2_778
10
146.159782
20
271.7116105
40
3.2476028
50
252.1301229
51
270.0566097
0
ARC
8
DEFAULT_255_2_778
10
146.168249
20
271.7190017
40
3.2572406
50
195.7688523
51
252.0282673
0
ARC
8
DEFAULT_255_2_778
10
146.1655556
20
271.7113136
40
3.2525661
50
179.9525132
51
195.6514122
0
LINE
8
DEFAULT_255_2_778
10
142.9129907
20
271.7140093
11
142.9129907
21
271.7140093
0
ARC
8
DEFAULT_255_2_778
10
146.1654398
20
271.7096574
40
4.0540204
50
74.3444758
51
90.0372774
0
ARC
8
DEFAULT_255_2_778
10
146.1633216
20
271.7195593
40
4.0450602
50
46.6025348
51
74.2777377
0
ARC
8
DEFAULT_255_2_778
10
146.1633515
20
271.7113563
40
4.0510039
50
16.8672531
51
46.6825547
0
ARC
8
DEFAULT_255_2_778
10
146.1647601
20
271.7171055
40
4.047991
50
0.7621287
51
16.7951632
0
ARC
8
DEFAULT_255_2_778
10
146.0821346
20
271.7127869
40
4.1306678
50
0.0123453
51
0.8067814
0
ARC
8
DEFAULT_255_2_778
10
146.1585834
20
271.7112264
40
4.0542196
50
344.3430354
51
0.034633
0
ARC
8
DEFAULT_255_2_778
10
146.1683518
20
271.7133744
40
4.045396
50
316.6035634
51
344.2764029
0
ARC
8
DEFAULT_255_2_778
10
146.1604029
20
271.7130894
40
4.0509799
50
286.8683975
51
316.6837346
0
ARC
8
DEFAULT_255_2_778
10
146.1662314
20
271.7114804
40
4.0477521
50
270.7621646
51
286.7960537
0
ARC
8
DEFAULT_255_2_778
10
146.1619122
20
271.7943431
40
4.1306662
50
270.0123453
51
270.8067814
0
LINE
8
DEFAULT_255_2_778
10
146.1628022
20
267.663677
11
139.6628022
21
267.663677
0
LINE
8
DEFAULT_255_2_778
10
139.6628022
20
267.663677
11
139.6628022
21
275.763677
0
LINE
8
DEFAULT_255_2_778
10
139.6628022
20
275.763677
11
146.1628022
21
275.763677
0
ENDSEC
0
EOF