0
SECTION
2
HEADER
9
$MEASUREMENT
70
1
0
ENDSEC
0
SECTION
2
TABLES
0
TABLE
2
LTYPE
0
LTYPE
72
65
70
64
2
CONTINUOUS
3
______
73
0
40
0
0
ENDTAB
0
TABLE
2
LAYER
0
LAYER
2
DEFAULT_255_2_778
70
0
62
255
6
CONTINUOUS
0
LAYER
2
DEFAULT_255_1_234
70
0
62
255
6
CONTINUOUS
0
ENDTAB
0
ENDSEC
0
SECTION
2
ENTITIES
0
ARC
8
DEFAULT_255_2_778
10
3.5695693
20
176.346835
40
0.7914215
50
129.1312896
51
180.1450914
0
ARC
8
DEFAULT_255_2_778
10
3.5698345
20
176.3473221
40
0.7912112
50
89.854026
51
129.1684493
0
ARC
8
DEFAULT_255_2_778
10
25.7988937
20
176.3470086
40
0.7915249
50
39.4792447
51
90.147911
0
ARC
8
DEFAULT_255_2_778
10
25.7994935
20
176.3468553
40
0.7911595
50
359.8533901
51
39.5154338
0
ARC
8
DEFAULT_255_2_778
10
25.7990996
20
-1.9863575
40
0.7915532
50
308.9618967
51
0.1439251
0
ARC
8
DEFAULT_255_2_778
10
25.7988681
20
-1.9868759
40
0.7912959
50
269.8538953
51
308.9985331
0
ARC
8
DEFAULT_255_2_778
10
3.5698815
20
-1.9867746
40
0.7913971
50
218.9526075
51
270.1425421
0
ARC
8
DEFAULT_255_2_778
10
3.5695217
20
-1.986367
40
0.7913738
50
179.8553541
51
218.9919299
0
LINE
8
DEFAULT_255_2_778
10
3.5718503
20
177.1385308
11
25.7968503
21
177.1385308
0
LINE
8
DEFAULT_255_2_778
10
26.5906503
20
176.3448308
11
26.5906503
21
-1.9843692
0
LINE
8
DEFAULT_255_2_778
10
25.7968503
20
-2.7781692
11
3.5718503
21
-2.7781692
0
LINE
8
DEFAULT_255_2_778
10
2.7781503
20
-1.9843692
11
2.7781503
21
176.3448308
0
LINE
8
DEFAULT_255_1_234
10
6.7584835
20
0.5189243
11
6.7849882
21
0.5189243
0
LINE
8
DEFAULT_255_1_234
10
6.7849882
20
0.5189243
11
6.7849882
21
0.392826
0
LINE
8
DEFAULT_255_1_234
10
6.7849882
20
0.392826
11
6.7576803
21
0.392826
0
LINE
8
DEFAULT_255_1_234
10
6.2107189
20
-0.2063417
11
6.2107189
21
-0.1493164
0
LINE
8
DEFAULT_255_1_234
10
6.3601093
20
-0.1685925
11
6.3601093
21
-0.2232083
0
ARC
8
DEFAULT_255_1_234
10
6.7629151
20
-0.1069545
40
0.4998079
50
90.6001036
51
104.514704
0
ARC
8
DEFAULT_255_1_234
10
6.7240667
20
0.0375131
40
0.3502176
50
104.2855254
51
133.862935
0
ARC
8
DEFAULT_255_1_234
10
6.7404424
20
0.026683
40
0.3693984
50
134.5302688
51
161.6210873
0
ARC
8
DEFAULT_255_1_234
10
6.9057613
20
-0.0316105
40
0.5446739
50
161.2849839
51
174.2076652
0
ARC
8
DEFAULT_255_1_234
10
7.046455
20
-0.0510213
40
0.6866274
50
173.7810589
51
174.9254635
0
ARC
8
DEFAULT_255_1_234
10
6.5914382
20
-0.1893161
40
0.3033419
50
95.8330959
51
138.9954921
0
ARC
8
DEFAULT_255_1_234
10
6.6137738
20
-0.3171625
40
0.4328947
50
89.8753725
51
97.0544009
0
ARC
8
DEFAULT_255_1_234
10
6.6185204
20
-0.2336252
40
0.3493769
50
71.6407809
51
90.6240094
0
ARC
8
DEFAULT_255_1_234
10
6.6335777
20
-0.1781918
40
0.2920396
50
39.6367836
51
71.019018
0
ARC
8
DEFAULT_255_1_234
10
6.569925
20
-0.2332002
40
0.3761538
50
10.658731
51
39.9043955
0
ARC
8
DEFAULT_255_1_234
10
6.4151333
20
-0.2668314
40
0.5345136
50
359.682601
51
11.132623
0
ARC
8
DEFAULT_255_1_234
10
6.4111464
20
-0.273899
40
0.5385081
50
347.2486944
51
0.4369317
0
ARC
8
DEFAULT_255_1_234
10
6.5778941
20
-0.3140193
40
0.3670249
50
318.1409698
51
347.6118597
0
ARC
8
DEFAULT_255_1_234
10
6.6103934
20
-0.3407298
40
0.3250007
50
275.6342139
51
317.8248465
0
ARC
8
DEFAULT_255_1_234
10
6.5883045
20
-0.2107781
40
0.4565864
50
269.8874292
51
276.7917694
0
ARC
8
DEFAULT_255_1_234
10
6.5828116
20
-0.3133257
40
0.3540676
50
246.9140195
51
270.7437342
0
ARC
8
DEFAULT_255_1_234
10
6.5834506
20
-0.3275616
40
0.3412781
50
218.1665114
51
245.878116
0
ARC
8
DEFAULT_255_1_234
10
6.6713967
20
-0.2539721
40
0.455911
50
191.4115814
51
218.6077802
0
ARC
8
DEFAULT_255_1_234
10
6.8652056
20
-0.2105167
40
0.6545001
50
179.6345085
51
191.7836486
0
ARC
8
DEFAULT_255_1_234
10
7.4234393
20
-0.1426303
40
1.2127388
50
171.4525249
51
180.3158839
0
ARC
8
DEFAULT_255_1_234
10
6.9839269
20
-0.0742392
40
0.7679464
50
157.9802646
51
171.6246686
0
ARC
8
DEFAULT_255_1_234
10
6.762529
20
0.0140421
40
0.5296008
50
141.4298019
51
157.854097
0
ARC
8
DEFAULT_255_1_234
10
6.698361
20
0.0594381
40
0.4511509
50
102.8715806
51
140.8564722
0
ARC
8
DEFAULT_255_1_234
10
6.7631226
20
-0.1845448
40
0.7034845
50
90.3778349
51
103.5869322
0
ARC
8
DEFAULT_255_1_234
10
6.5893002
20
-0.245027
40
0.2370698
50
89.8751008
51
126.2071704
0
ARC
8
DEFAULT_255_1_234
10
6.5938792
20
-0.2604697
40
0.2522934
50
124.9745049
51
144.895901
0
ARC
8
DEFAULT_255_1_234
10
6.5762982
20
-0.246144
40
0.2296779
50
145.2974905
51
160.2660252
0
ARC
8
DEFAULT_255_1_234
10
6.8835521
20
-0.2263929
40
0.5234525
50
179.6514266
51
190.2855912
0
ARC
8
DEFAULT_255_1_234
10
6.7141658
20
-0.2583214
40
0.3510893
50
190.0945431
51
207.5098196
0
ARC
8
DEFAULT_255_1_234
10
6.6575928
20
-0.2852377
40
0.288489
50
207.9583163
51
216.3251085
0
ARC
8
DEFAULT_255_1_234
10
6.6236036
20
-0.3131895
40
0.2445587
50
215.7661442
51
232.5456785
0
ARC
8
DEFAULT_255_1_234
10
6.5853019
20
-0.3618518
40
0.1826382
50
232.8005391
51
270.6605633
0
ARC
8
DEFAULT_255_1_234
10
6.589872
20
-0.3254388
40
0.2190529
50
269.35537
51
288.4744281
0
ARC
8
DEFAULT_255_1_234
10
6.5991617
20
-0.3603882
40
0.1829749
50
289.1833337
51
322.9683818
0
ARC
8
DEFAULT_255_1_234
10
6.5380139
20
-0.3121609
40
0.2608399
50
322.6007884
51
346.5182367
0
ARC
8
DEFAULT_255_1_234
10
6.4222735
20
-0.2826384
40
0.3802777
50
346.2582162
51
358.7741648
0
ARC
8
DEFAULT_255_1_234
10
6.3204404
20
-0.2771035
40
0.4822176
50
358.3755224
51
0.0098023
0
ARC
8
DEFAULT_255_1_234
10
6.3960591
20
-0.2743343
40
0.4066078
50
359.6214041
51
11.2839074
0
ARC
8
DEFAULT_255_1_234
10
6.5237738
20
-0.2476934
40
0.2761514
50
11.0482309
51
31.8146458
0
ARC
8
DEFAULT_255_1_234
10
6.5546781
20
-0.2309416
40
0.2410679
50
32.3035391
51
38.082671
0
ARC
8
DEFAULT_255_1_234
10
6.5967441
20
-0.1928338
40
0.1844966
50
36.825067
51
85.7415724
0
ARC
8
DEFAULT_255_1_234
10
6.5900274
20
-0.2428699
40
0.2349122
50
85.0140713
51
90.0513278
0
LINE
8
DEFAULT_255_1_234
10
7.8250983
20
0.0153343
11
7.8250983
21
-0.110764
0
LINE
8
DEFAULT_255_1_234
10
7.8250983
20
-0.110764
11
7.3182957
21
-0.110764
0
LINE
8
DEFAULT_255_1_234
10
7.3182957
20
-0.110764
11
7.3182957
21
-0.5252017
0
LINE
8
DEFAULT_255_1_234
10
7.3182957
20
-0.5252017
11
7.9070221
21
-0.5252017
0
LINE
8
DEFAULT_255_1_234
10
7.9070221
20
-0.5252017
11
7.9070221
21
-0.6513
0
LINE
8
DEFAULT_255_1_234
10
7.9070221
20
-0.6513
11
7.1640863
21
-0.6513
0
LINE
8
DEFAULT_255_1_234
10
7.1640863
20
-0.6513
11
7.1640863
21
0.5181211
0
LINE
8
DEFAULT_255_1_234
10
7.1640863
20
0.5181211
11
7.8989903
21
0.5181211
0
LINE
8
DEFAULT_255_1_234
10
7.8989903
20
0.5181211
11
7.8989903
21
0.3912196
0
LINE
8
DEFAULT_255_1_234
10
7.8989903
20
0.3912196
11
7.3182957
21
0.3912196
0
LINE
8
DEFAULT_255_1_234
10
7.3182957
20
0.3912196
11
7.3182957
21
0.0153343
0
LINE
8
DEFAULT_255_1_234
10
7.3182957
20
0.0153343
11
7.8250983
21
0.0153343
0
LINE
8
DEFAULT_255_1_234
10
8.8748465
20
0.1799849
11
8.719834
21
0.1799849
0
LINE
8
DEFAULT_255_1_234
10
8.0274981
20
-0.3123606
11
8.1825107
21
-0.3123606
0
ARC
8
DEFAULT_255_1_234
10
8.7857153
20
1.0746768
40
1.252368
50
248.9199003
51
254.1439814
0
ARC
8
DEFAULT_255_1_234
10
8.6176648
20
0.6420234
40
0.788226
50
241.633709
51
249.0064503
0
ARC
8
DEFAULT_255_1_234
10
8.4648042
20
0.3619317
40
0.4691427
50
230.498225
51
241.8087113
0
ARC
8
DEFAULT_255_1_234
10
8.3863616
20
0.2619906
40
0.3421437
50
227.4064532
51
229.9881192
0
ARC
8
DEFAULT_255_1_234
10
8.3376137
20
0.2144088
40
0.2741476
50
200.6781896
51
228.1763934
0
ARC
8
DEFAULT_255_1_234
10
8.3448447
20
0.2129077
40
0.2804109
50
179.5061581
51
199.8694617
0
ARC
8
DEFAULT_255_1_234
10
8.3439199
20
0.220321
40
0.2795204
50
132.4834203
51
181.0242172
0
ARC
8
DEFAULT_255_1_234
10
8.4034782
20
0.1640704
40
0.3612768
50
129.2532479
51
133.4242687
0
ARC
8
DEFAULT_255_1_234
10
8.4181231
20
0.1420965
40
0.3875675
50
101.98776
51
128.8742646
0
ARC
8
DEFAULT_255_1_234
10
8.4579842
20
-0.0300259
40
0.5642249
50
89.5906553
51
102.3169264
0
ARC
8
DEFAULT_255_1_234
10
8.4650334
20
0.0018148
40
0.5323783
50
77.2360837
51
90.3248275
0
ARC
8
DEFAULT_255_1_234
10
8.4857413
20
0.09854
40
0.4334697
50
63.837784
51
77.0809408
0
ARC
8
DEFAULT_255_1_234
10
8.5135175
20
0.1502911
40
0.3747796
50
45.9864267
51
64.1607727
0
ARC
8
DEFAULT_255_1_234
10
8.5396056
20
0.1800866
40
0.3352302
50
32.2747395
51
45.6547121
0
ARC
8
DEFAULT_255_1_234
10
8.5462497
20
0.181988
40
0.328603
50
359.6507365
51
32.6130309
0
ARC
8
DEFAULT_255_1_234
10
8.4519592
20
0.182466
40
0.2678863
50
359.469343
51
14.9832209
0
ARC
8
DEFAULT_255_1_234
10
8.5224654
20
0.2013539
40
0.1948938
50
14.9781179
51
48.2004265
0
ARC
8
DEFAULT_255_1_234
10
8.5060299
20
0.1806983
40
0.2212521
50
48.5927837
51
74.1241538
0
ARC
8
DEFAULT_255_1_234
10
8.4726788
20
0.0706248
40
0.3362561
50
73.7888341
51
86.6652678
0
ARC
8
DEFAULT_255_1_234
10
8.4624354
20
-0.0501119
40
0.4573953
50
86.2640471
51
90.0526343
0
ARC
8
DEFAULT_255_1_234
10
8.4596066
20
-0.0105808
40
0.4178709
50
89.6697524
51
99.2309573
0
ARC
8
DEFAULT_255_1_234
10
8.4353517
20
0.1338964
40
0.2713749
50
99.069534
51
113.7658566
0
ARC
8
DEFAULT_255_1_234
10
8.4079708
20
0.1984677
40
0.2012469
50
114.0401004
51
127.9850673
0
ARC
8
DEFAULT_255_1_234
10
8.3839272
20
0.228073
40
0.1631167
50
127.7287463
51
176.7105154
0
ARC
8
DEFAULT_255_1_234
10
8.451799
20
0.2179693
40
0.2315392
50
175.1779447
51
180.0581938
0
ARC
8
DEFAULT_255_1_234
10
8.3674836
20
0.2167428
40
0.1472271
50
179.6142195
51
228.1246017
0
ARC
8
DEFAULT_255_1_234
10
8.4116505
20
0.2576308
40
0.2072299
50
226.5779593
51
230.8800004
0
ARC
8
DEFAULT_255_1_234
10
8.4587584
20
0.3201636
40
0.2854818
50
231.4635071
51
241.9260842
0
ARC
8
DEFAULT_255_1_234
10
8.5784762
20
0.54048
40
0.53622
50
241.7178533
51
248.3259551
0
ARC
8
DEFAULT_255_1_234
10
8.7170134
20
0.8837064
40
0.9063478
50
248.2007737
51
252.4528373
0
ARC
8
DEFAULT_255_1_234
10
8.8373858
20
1.2558441
40
1.2974635
50
252.3391078
51
254.3469452
0
ARC
8
DEFAULT_255_1_234
10
8.0831561
20
-1.4418852
40
1.5037162
50
71.0197183
51
74.4087047
0
ARC
8
DEFAULT_255_1_234
10
8.2526246
20
-0.9526889
40
0.9859993
50
66.1847285
51
71.086374
0
ARC
8
DEFAULT_255_1_234
10
8.4082559
20
-0.60228
40
0.6025855
50
59.3536294
51
66.2691831
0
ARC
8
DEFAULT_255_1_234
10
8.4971211
20
-0.4519391
40
0.4279449
50
49.1020879
51
59.3293958
0
ARC
8
DEFAULT_255_1_234
10
8.5789951
20
-0.3586166
40
0.3038015
50
32.7919921
51
49.2505539
0
ARC
8
DEFAULT_255_1_234
10
8.6111041
20
-0.3357809
40
0.264448
50
31.1181161
51
32.4005348
0
ARC
8
DEFAULT_255_1_234
10
8.6022579
20
-0.3393221
40
0.2738556
50
8.1116974
51
30.7958831
0
ARC
8
DEFAULT_255_1_234
10
8.5212247
20
-0.3531247
40
0.3560327
50
359.8389159
51
8.4706516
0
ARC
8
DEFAULT_255_1_234
10
8.5838038
20
-0.3579863
40
0.2934776
50
337.4731098
51
0.7537279
0
ARC
8
DEFAULT_255_1_234
10
8.6016733
20
-0.3599613
40
0.2762607
50
307.5917067
51
336.4315538
0
ARC
8
DEFAULT_255_1_234
10
8.5556561
20
-0.3086898
40
0.3449979
50
307.6551545
51
308.4529766
0
ARC
8
DEFAULT_255_1_234
10
8.532628
20
-0.273175
40
0.3871988
50
284.3734338
51
307.1424381
0
ARC
8
DEFAULT_255_1_234
10
8.483111
20
-0.0910068
40
0.5759636
50
272.4382747
51
284.646547
0
ARC
8
DEFAULT_255_1_234
10
8.4704319
20
0.0889893
40
0.7563528
50
269.9708387
51
272.8178037
0
ARC
8
DEFAULT_255_1_234
10
8.4661358
20
-0.1148284
40
0.5525489
50
248.2707594
51
270.4055579
0
ARC
8
DEFAULT_255_1_234
10
8.46071
20
-0.1338808
40
0.5328452
50
246.1383403
51
248.0542782
0
ARC
8
DEFAULT_255_1_234
10
8.4188478
20
-0.2218157
40
0.4355005
50
233.1670131
51
246.4950969
0
ARC
8
DEFAULT_255_1_234
10
8.3634383
20
-0.2966188
40
0.3424126
50
215.3403242
51
233.0843104
0
ARC
8
DEFAULT_255_1_234
10
8.3361815
20
-0.3164451
40
0.3087104
50
179.2419209
51
215.2648451
0
ARC
8
DEFAULT_255_1_234
10
8.4129409
20
-0.3150334
40
0.2304457
50
179.335461
51
199.1045811
0
ARC
8
DEFAULT_255_1_234
10
8.3797085
20
-0.3237234
40
0.1962176
50
199.8828939
51
232.7063202
0
ARC
8
DEFAULT_255_1_234
10
8.4269353
20
-0.2643212
40
0.2720938
50
232.3738199
51
255.5136649
0
ARC
8
DEFAULT_255_1_234
10
8.461022
20
-0.1399165
40
0.4010747
50
255.2446292
51
267.5320849
0
ARC
8
DEFAULT_255_1_234
10
8.4697843
20
-0.0166298
40
0.5246356
50
267.1557994
51
270.0286766
0
ARC
8
DEFAULT_255_1_234
10
8.4725616
20
-0.061005
40
0.4802668
50
269.7000017
51
278.1660162
0
ARC
8
DEFAULT_255_1_234
10
8.498162
20
-0.2340485
40
0.3053425
50
278.0231263
51
290.625471
0
ARC
8
DEFAULT_255_1_234
10
8.5329308
20
-0.3267975
40
0.206291
50
290.6619762
51
307.0370976
0
ARC
8
DEFAULT_255_1_234
10
8.5629697
20
-0.3636496
40
0.1587906
50
306.3943566
51
355.3030547
0
ARC
8
DEFAULT_255_1_234
10
8.5117628
20
-0.3559887
40
0.2104809
50
354.3660432
51
0.0698737
0
ARC
8
DEFAULT_255_1_234
10
8.5259973
20
-0.3537383
40
0.1962563
50
359.417946
51
16.1971788
0
ARC
8
DEFAULT_255_1_234
10
8.5715284
20
-0.3412582
40
0.149053
50
16.4723299
51
52.6262157
0
ARC
8
DEFAULT_255_1_234
10
8.4894338
20
-0.4496567
40
0.2850296
50
52.7386432
51
62.4979148
0
ARC
8
DEFAULT_255_1_234
10
8.3509415
20
-0.7102717
40
0.5801521
50
62.2515216
51
68.1220564
0
ARC
8
DEFAULT_255_1_234
10
8.1789325
20
-1.1330128
40
1.0365451
50
68.0062803
51
71.8053402
0
ARC
8
DEFAULT_255_1_234
10
7.9993697
20
-1.6715242
40
1.6042013
50
71.7183119
51
73.9258742
0
LINE
8
DEFAULT_255_1_234
10
9.7912679
20
0.5181211
11
9.7912679
21
0.434591
0
LINE
8
DEFAULT_255_1_234
10
9.7912679
20
0.434591
11
9.3069541
21
-0.6513
0
LINE
8
DEFAULT_255_1_234
10
9.3069541
20
-0.6513
11
9.1511383
21
-0.6513
0
LINE
8
DEFAULT_255_1_234
10
9.1511383
20
-0.6513
11
9.6338458
21
0.3960387
0
LINE
8
DEFAULT_255_1_234
10
9.6338458
20
0.3960387
11
9.0009448
21
0.3960387
0
LINE
8
DEFAULT_255_1_234
10
9.0009448
20
0.3960387
11
9.0009448
21
0.5181211
0
LINE
8
DEFAULT_255_1_234
10
9.0009448
20
0.5181211
11
9.7912679
21
0.5181211
0
LINE
8
DEFAULT_255_1_234
10
10.5872131
20
0.5181211
11
10.5872131
21
-0.258548
0
LINE
8
DEFAULT_255_1_234
10
10.5872131
20
-0.258548
11
10.7494542
21
-0.258548
0
LINE
8
DEFAULT_255_1_234
10
10.7494542
20
-0.258548
11
10.7494542
21
-0.3798272
0
LINE
8
DEFAULT_255_1_234
10
10.7494542
20
-0.3798272
11
10.5872131
21
-0.3798272
0
LINE
8
DEFAULT_255_1_234
10
10.5872131
20
-0.3798272
11
10.5872131
21
-0.6513
0
LINE
8
DEFAULT_255_1_234
10
10.5872131
20
-0.6513
11
10.4378228
21
-0.6513
0
LINE
8
DEFAULT_255_1_234
10
10.4378228
20
-0.6513
11
10.4378228
21
-0.3798272
0
LINE
8
DEFAULT_255_1_234
10
10.4378228
20
-0.3798272
11
9.9053186
21
-0.3798272
0
LINE
8
DEFAULT_255_1_234
10
9.9053186
20
-0.3798272
11
9.9053186
21
-0.2922813
0
LINE
8
DEFAULT_255_1_234
10
9.9053186
20
-0.2922813
11
10.4289879
21
0.5181211
0
LINE
8
DEFAULT_255_1_234
10
10.4289879
20
0.5181211
11
10.5872131
21
0.5181211
0
LINE
8
DEFAULT_255_1_234
10
10.420153
20
0.2827912
11
10.0739851
21
-0.258548
0
LINE
8
DEFAULT_255_1_234
10
10.0739851
20
-0.258548
11
10.4378228
21
-0.258548
0
LINE
8
DEFAULT_255_1_234
10
10.4378228
20
-0.258548
11
10.4378228
21
0.3149181
0
LINE
8
DEFAULT_255_1_234
10
10.4378228
20
0.3149181
11
10.420153
21
0.2827912
0
LINE
8
DEFAULT_255_1_234
10
11.6498121
20
-0.5300208
11
11.6498121
21
-0.6513
0
LINE
8
DEFAULT_255_1_234
10
11.6498121
20
-0.6513
11
10.8835843
21
-0.6513
0
LINE
8
DEFAULT_255_1_234
10
10.8835843
20
-0.6513
11
10.8835843
21
-0.5444779
0
LINE
8
DEFAULT_255_1_234
10
10.8835843
20
-0.5444779
11
11.2883839
21
-0.0947005
0
LINE
8
DEFAULT_255_1_234
10
11.0096826
20
0.1735595
11
10.8610954
21
0.1735595
0
LINE
8
DEFAULT_255_1_234
10
11.3759298
20
-0.1902782
11
11.062692
21
-0.5300208
0
LINE
8
DEFAULT_255_1_234
10
11.062692
20
-0.5300208
11
11.6498121
21
-0.5300208
0
ARC
8
DEFAULT_255_1_234
10
9.9393672
20
1.0982527
40
1.8008286
50
318.5132453
51
320.7828378
0
ARC
8
DEFAULT_255_1_234
10
10.4680647
20
0.6679426
40
1.1191493
50
320.7372736
51
323.9737074
0
ARC
8
DEFAULT_255_1_234
10
10.8600503
20
0.3839361
40
0.6350923
50
323.8961724
51
328.6421089
0
ARC
8
DEFAULT_255_1_234
10
11.0647098
20
0.2577031
40
0.3946393
50
328.8299013
51
331.789948
0
ARC
8
DEFAULT_255_1_234
10
11.1644277
20
0.2062509
40
0.2824501
50
331.4255242
51
352.9364833
0
ARC
8
DEFAULT_255_1_234
10
11.1780778
20
0.2031976
40
0.2685315
50
353.2248685
51
0.0169286
0
ARC
8
DEFAULT_255_1_234
10
11.1990654
20
0.205495
40
0.2475536
50
359.4866256
51
15.9339782
0
ARC
8
DEFAULT_255_1_234
10
11.249764
20
0.2191286
40
0.1950618
50
16.1714718
51
43.5284424
0
ARC
8
DEFAULT_255_1_234
10
11.2574948
20
0.2268573
40
0.184134
50
43.4415429
51
83.1661404
0
ARC
8
DEFAULT_255_1_234
10
11.2440866
20
0.1531771
40
0.258926
50
82.160215
51
90.1505798
0
ARC
8
DEFAULT_255_1_234
10
11.2409294
20
0.0994865
40
0.3126255
50
89.5460705
51
102.5418777
0
ARC
8
DEFAULT_255_1_234
10
11.216638
20
0.2025665
40
0.2067346
50
102.1739365
51
129.2061916
0
ARC
8
DEFAULT_255_1_234
10
11.2087452
20
0.2150094
40
0.1921118
50
129.7279328
51
135.7542026
0
ARC
8
DEFAULT_255_1_234
10
11.2208979
20
0.2053045
40
0.2075944
50
136.175737
51
166.3674722
0
ARC
8
DEFAULT_255_1_234
10
11.3215899
20
0.1783182
40
0.3118201
50
165.9092917
51
178.8683903
0
ARC
8
DEFAULT_255_1_234
10
11.408076
20
0.1736179
40
0.3983935
50
178.438168
51
180.0083905
0
ARC
8
DEFAULT_255_1_234
10
11.2679362
20
0.1775231
40
0.4068601
50
163.2878735
51
180.5581814
0
ARC
8
DEFAULT_255_1_234
10
11.1877623
20
0.199584
40
0.3237344
50
133.454115
51
162.9470031
0
ARC
8
DEFAULT_255_1_234
10
11.2056165
20
0.1806
40
0.349795
50
100.7869394
51
133.4384016
0
ARC
8
DEFAULT_255_1_234
10
11.2403936
20
0.0257319
40
0.5084616
50
89.6605301
51
101.3704185
0
ARC
8
DEFAULT_255_1_234
10
11.2470275
20
0.0318496
40
0.502348
50
78.2171172
51
90.4130393
0
ARC
8
DEFAULT_255_1_234
10
11.2825353
20
0.1942637
40
0.3361092
50
55.9268222
51
78.4888551
0
ARC
8
DEFAULT_255_1_234
10
11.3021793
20
0.2281324
40
0.2970617
50
47.9292255
51
55.4054003
0
ARC
8
DEFAULT_255_1_234
10
11.3123354
20
0.2384502
40
0.2825983
50
4.3347696
51
48.0560701
0
ARC
8
DEFAULT_255_1_234
10
11.2027748
20
0.2214601
40
0.393225
50
359.925209
51
5.5967654
0
ARC
8
DEFAULT_255_1_234
10
11.2456639
20
0.2270816
40
0.3503892
50
337.8914096
51
358.9967724
0
ARC
8
DEFAULT_255_1_234
10
10.9743052
20
0.3317706
40
0.6412172
50
326.9135351
51
338.3505194
0
ARC
8
DEFAULT_255_1_234
10
10.5757355
20
0.5872284
40
1.1146189
50
319.6472867
51
327.095818
0
ARC
8
DEFAULT_255_1_234
10
10.1924358
20
0.9034
40
1.6114559
50
317.2586784
51
319.9046139
0
LINE
8
DEFAULT_255_1_234
10
12.2955639
20
0.5237433
11
12.2955639
21
-0.6513
0
LINE
8
DEFAULT_255_1_234
10
12.2955639
20
-0.6513
11
12.1461735
21
-0.6513
0
LINE
8
DEFAULT_255_1_234
10
12.1461735
20
-0.6513
11
12.1461735
21
0.3390133
0
LINE
8
DEFAULT_255_1_234
10
12.1461735
20
0.3390133
11
11.8465897
21
0.2289785
0
LINE
8
DEFAULT_255_1_234
10
11.8465897
20
0.2289785
11
11.8465897
21
0.3639117
0
LINE
8
DEFAULT_255_1_234
10
11.8465897
20
0.3639117
11
12.2722718
21
0.5237433
0
LINE
8
DEFAULT_255_1_234
10
12.2722718
20
0.5237433
11
12.2955639
21
0.5237433
0
LINE
8
DEFAULT_255_1_234
10
13.0553663
20
-0.0938974
11
13.0553663
21
-0.2151766
0
LINE
8
DEFAULT_255_1_234
10
13.0553663
20
-0.2151766
11
12.6634175
21
-0.2151766
0
LINE
8
DEFAULT_255_1_234
10
12.6634175
20
-0.2151766
11
12.6634175
21
-0.0938974
0
LINE
8
DEFAULT_255_1_234
10
12.6634175
20
-0.0938974
11
13.0553663
21
-0.0938974
0
LINE
8
DEFAULT_255_1_234
10
13.673007
20
0.5237433
11
13.673007
21
-0.6513
0
LINE
8
DEFAULT_255_1_234
10
13.673007
20
-0.6513
11
13.5236167
21
-0.6513
0
LINE
8
DEFAULT_255_1_234
10
13.5236167
20
-0.6513
11
13.5236167
21
0.3390133
0
LINE
8
DEFAULT_255_1_234
10
13.5236167
20
0.3390133
11
13.2240328
21
0.2289785
0
LINE
8
DEFAULT_255_1_234
10
13.2240328
20
0.2289785
11
13.2240328
21
0.3639117
0
LINE
8
DEFAULT_255_1_234
10
13.2240328
20
0.3639117
11
13.6497149
21
0.5237433
0
LINE
8
DEFAULT_255_1_234
10
13.6497149
20
0.5237433
11
13.673007
21
0.5237433
0
LINE
8
DEFAULT_255_1_234
10
14.5524823
20
-0.6513
11
14.1468795
21
-0.6513
0
LINE
8
DEFAULT_255_1_234
10
14.1468795
20
-0.6513
11
14.1468795
21
0.5181211
0
LINE
8
DEFAULT_255_1_234
10
14.1468795
20
0.5181211
11
14.5291903
21
0.5181211
0
LINE
8
DEFAULT_255_1_234
10
14.5581045
20
-0.1043386
11
14.3010889
21
-0.1043386
0
LINE
8
DEFAULT_255_1_234
10
14.3010889
20
-0.1043386
11
14.3010889
21
-0.5252017
0
LINE
8
DEFAULT_255_1_234
10
14.3010889
20
-0.5252017
11
14.555695
21
-0.5252017
0
LINE
8
DEFAULT_255_1_234
10
14.3010889
20
0.3912196
11
14.3010889
21
0.0193501
0
LINE
8
DEFAULT_255_1_234
10
14.3010889
20
0.0193501
11
14.5340093
21
0.0193501
0
LINE
8
DEFAULT_255_1_234
10
14.5291903
20
0.3912196
11
14.3010889
21
0.3912196
0
ARC
8
DEFAULT_255_1_234
10
14.5329612
20
-0.2186099
40
0.7367406
50
82.1257326
51
90.2932599
0
ARC
8
DEFAULT_255_1_234
10
14.5718566
20
0.0532013
40
0.4621653
50
69.9044149
51
82.2857423
0
ARC
8
DEFAULT_255_1_234
10
14.6289244
20
0.2074637
40
0.2976871
50
51.1838526
51
70.0181538
0
ARC
8
DEFAULT_255_1_234
10
14.654421
20
0.244524
40
0.2528517
50
12.1017251
51
50.4214761
0
ARC
8
DEFAULT_255_1_234
10
14.5160084
20
0.2097676
40
0.3955061
50
359.5251267
51
12.8211707
0
ARC
8
DEFAULT_255_1_234
10
14.6740011
20
0.2028344
40
0.2375281
50
323.4908128
51
0.8817314
0
ARC
8
DEFAULT_255_1_234
10
14.6321698
20
0.235155
40
0.2903817
50
298.6825083
51
323.2756573
0
ARC
8
DEFAULT_255_1_234
10
14.5960061
20
0.2952649
40
0.3604842
50
293.1999386
51
299.1396394
0
ARC
8
DEFAULT_255_1_234
10
14.6633033
20
-0.3132874
40
0.2871098
50
54.0011765
51
74.9167975
0
ARC
8
DEFAULT_255_1_234
10
14.6749393
20
-0.2935668
40
0.2643248
50
36.3580696
51
53.5291921
0
ARC
8
DEFAULT_255_1_234
10
14.6622635
20
-0.3026002
40
0.2798884
50
4.8189881
51
36.3089977
0
ARC
8
DEFAULT_255_1_234
10
14.584347
20
-0.313573
40
0.358478
50
359.9370252
51
5.5204067
0
ARC
8
DEFAULT_255_1_234
10
14.5518991
20
-0.3176333
40
0.3909429
50
344.7478609
51
0.5373281
0
ARC
8
DEFAULT_255_1_234
10
14.6509963
20
-0.3443456
40
0.2883093
50
311.1786488
51
344.6886812
0
ARC
8
DEFAULT_255_1_234
10
14.621801
20
-0.3080013
40
0.3348923
50
286.0418249
51
310.8441291
0
ARC
8
DEFAULT_255_1_234
10
14.5710842
20
-0.1433193
40
0.5071869
50
274.1042341
51
286.4071509
0
ARC
8
DEFAULT_255_1_234
10
14.5534098
20
0.0450229
40
0.6963234
50
269.9236873
51
274.445647
0
ARC
8
DEFAULT_255_1_234
10
14.5580098
20
-0.1889463
40
0.3362634
50
269.6055768
51
281.3740047
0
ARC
8
DEFAULT_255_1_234
10
14.5810736
20
-0.2982647
40
0.224546
50
281.1055983
51
302.5132223
0
ARC
8
DEFAULT_255_1_234
10
14.5957636
20
-0.3246177
40
0.1944357
50
303.0368945
51
311.8811219
0
ARC
8
DEFAULT_255_1_234
10
14.6029042
20
-0.333111
40
0.1833454
50
311.9916004
51
351.7143462
0
ARC
8
DEFAULT_255_1_234
10
14.5212272
20
-0.316607
40
0.2665871
50
350.7339597
51
0.2221581
0
ARC
8
DEFAULT_255_1_234
10
14.5104718
20
-0.3109533
40
0.2773789
50
359.0456241
51
17.2296242
0
ARC
8
DEFAULT_255_1_234
10
14.6143836
20
-0.2800837
40
0.1689915
50
17.6685481
51
78.9940892
0
ARC
8
DEFAULT_255_1_234
10
14.5626999
20
-0.4655776
40
0.3612658
50
76.5635957
51
90.6980921
0
LINE
8
DEFAULT_255_1_234
10
14.5582984
20
-0.1043387
11
14.5581045
21
-0.1043386
0
ARC
8
DEFAULT_255_1_234
10
14.536266
20
0.3479036
40
0.3285612
50
269.6064736
51
281.4533503
0
ARC
8
DEFAULT_255_1_234
10
14.5585479
20
0.2427688
40
0.2210975
50
281.2041486
51
302.5148063
0
ARC
8
DEFAULT_255_1_234
10
14.5722329
20
0.2181241
40
0.1929674
50
303.021671
51
309.8369575
0
ARC
8
DEFAULT_255_1_234
10
14.5905791
20
0.1975488
40
0.1654181
50
309.5228395
51
356.9509836
0
ARC
8
DEFAULT_255_1_234
10
14.5242373
20
0.2070932
40
0.2322512
50
355.4701227
51
0.0492546
0
ARC
8
DEFAULT_255_1_234
10
14.4963465
20
0.2093094
40
0.2601498
50
359.5558597
51
11.2096359
0
ARC
8
DEFAULT_255_1_234
10
14.5920754
20
0.229123
40
0.1623975
50
10.9182341
51
31.3230275
0
ARC
8
DEFAULT_255_1_234
10
14.6206488
20
0.2450214
40
0.1297302
50
31.8852677
51
52.1412565
0
ARC
8
DEFAULT_255_1_234
10
14.5932221
20
0.206275
40
0.1771663
50
52.8285564
51
71.9850297
0
ARC
8
DEFAULT_255_1_234
10
14.5556397
20
0.0956664
40
0.2939794
50
71.6863486
51
82.8455995
0
ARC
8
DEFAULT_255_1_234
10
14.5316933
20
-0.0852851
40
0.476506
50
82.6984714
51
90.1729175
0
ARC
8
DEFAULT_255_1_234
10
14.5294568
20
0.0370623
40
0.3541573
50
89.8708275
51
90.0431131
0
LINE
8
DEFAULT_255_1_234
10
15.3259387
20
0.5181211
11
15.3259387
21
-0.5252017
0
LINE
8
DEFAULT_255_1_234
10
15.3259387
20
-0.5252017
11
15.8801287
21
-0.5252017
0
LINE
8
DEFAULT_255_1_234
10
15.8801287
20
-0.5252017
11
15.8801287
21
-0.6513
0
LINE
8
DEFAULT_255_1_234
10
15.8801287
20
-0.6513
11
15.1709262
21
-0.6513
0
LINE
8
DEFAULT_255_1_234
10
15.1709262
20
-0.6513
11
15.1709262
21
0.5181211
0
LINE
8
DEFAULT_255_1_234
10
15.1709262
20
0.5181211
11
15.3259387
21
0.5181211
0
LINE
8
DEFAULT_255_1_234
10
16.7507691
20
0.0402327
11
16.7507691
21
-0.1525291
0
LINE
8
DEFAULT_255_1_234
10
16.0126523
20
-0.1726084
11
16.0126523
21
0.0257755
0
LINE
8
DEFAULT_255_1_234
10
16.6021819
20
-0.1926877
11
16.6021819
21
0.0506739
0
LINE
8
DEFAULT_255_1_234
10
16.1612395
20
0.0619184
11
16.1612395
21
-0.1758211
0
ARC
8
DEFAULT_255_1_234
10
15.526058
20
-0.1574195
40
1.2247208
50
353.8441951
51
0.2287902
0
ARC
8
DEFAULT_255_1_234
10
15.9900084
20
-0.2092194
40
0.7578929
50
344.4934747
51
353.9765454
0
ARC
8
DEFAULT_255_1_234
10
16.2892674
20
-0.2943019
40
0.4467846
50
329.2803592
51
344.7472793
0
ARC
8
DEFAULT_255_1_234
10
16.3885499
20
-0.3487982
40
0.3336173
50
324.9352394
51
328.6160465
0
ARC
8
DEFAULT_255_1_234
10
16.4262608
20
-0.3751573
40
0.2876076
50
280.580143
51
324.9173126
0
ARC
8
DEFAULT_255_1_234
10
16.3861401
20
-0.2080901
40
0.4592847
50
269.5977311
51
281.6734359
0
ARC
8
DEFAULT_255_1_234
10
16.3789306
20
-0.2200827
40
0.4472986
50
256.6228859
51
270.51044
0
ARC
8
DEFAULT_255_1_234
10
16.3387284
20
-0.3749123
40
0.2873874
50
215.8618325
51
257.2788573
0
ARC
8
DEFAULT_255_1_234
10
16.4408316
20
-0.3064023
40
0.4102928
50
197.9693508
51
215.2623606
0
ARC
8
DEFAULT_255_1_234
10
16.6893431
20
-0.2225291
40
0.6725652
50
187.8816417
51
198.2346507
0
ARC
8
DEFAULT_255_1_234
10
17.0851639
20
-0.1653921
40
1.0724845
50
180.8976217
51
188.0055519
0
ARC
8
DEFAULT_255_1_234
10
17.3651828
20
-0.1550223
40
1.3526448
50
180.7449369
51
181.1510016
0
ARC
8
DEFAULT_255_1_234
10
17.2074557
20
0.0306042
40
1.1948131
50
173.7675579
51
180.231553
0
ARC
8
DEFAULT_255_1_234
10
16.7556703
20
0.0816666
40
0.7401564
50
164.3058563
51
173.9002247
0
ARC
8
DEFAULT_255_1_234
10
16.4644772
20
0.1655656
40
0.4371288
50
148.7922025
51
164.568378
0
ARC
8
DEFAULT_255_1_234
10
16.3693224
20
0.2186929
40
0.3282386
50
144.5883898
51
148.1176286
0
ARC
8
DEFAULT_255_1_234
10
16.3350122
20
0.2426315
40
0.2864044
50
101.6440918
51
144.514236
0
ARC
8
DEFAULT_255_1_234
10
16.3775189
20
0.0737069
40
0.4604934
50
89.5284041
51
102.5819763
0
ARC
8
DEFAULT_255_1_234
10
16.3854277
20
0.0698018
40
0.464401
50
77.0437873
51
90.5081339
0
ARC
8
DEFAULT_255_1_234
10
16.4256278
20
0.2340615
40
0.2953195
50
48.2778575
51
77.4994676
0
ARC
8
DEFAULT_255_1_234
10
16.432891
20
0.2469746
40
0.2808655
50
36.3142134
51
47.6305865
0
ARC
8
DEFAULT_255_1_234
10
16.3460217
20
0.1884515
40
0.3855453
50
18.2931786
51
35.6769206
0
ARC
8
DEFAULT_255_1_234
10
16.0916975
20
0.1011593
40
0.654423
50
8.024666
51
18.5605216
0
ARC
8
DEFAULT_255_1_234
10
15.6753896
20
0.0396792
40
1.0752407
50
1.1274072
51
8.1718305
0
ARC
8
DEFAULT_255_1_234
10
15.3518086
20
0.0269885
40
1.3990231
50
0.5424119
51
1.3863029
0
ARC
8
DEFAULT_255_1_234
10
15.5339464
20
0.0542342
40
1.0682415
50
359.8090433
51
4.9407866
0
ARC
8
DEFAULT_255_1_234
10
15.9549478
20
0.0918113
40
0.6455691
50
4.8362157
51
12.2904523
0
ARC
8
DEFAULT_255_1_234
10
16.2304593
20
0.1531965
40
0.3633074
50
12.0805627
51
23.8173984
0
ARC
8
DEFAULT_255_1_234
10
16.3478298
20
0.2028919
40
0.2358723
50
24.2871213
51
31.3935614
0
ARC
8
DEFAULT_255_1_234
10
16.4002995
20
0.2372233
40
0.1732111
50
30.7407893
51
82.4657128
0
ARC
8
DEFAULT_255_1_234
10
16.382313
20
0.1488691
40
0.263235
50
81.1060089
51
90.2184952
0
ARC
8
DEFAULT_255_1_234
10
16.3787429
20
0.1746924
40
0.2374236
50
89.3806855
51
105.6762551
0
ARC
8
DEFAULT_255_1_234
10
16.3604059
20
0.2413567
40
0.1682847
50
105.7981136
51
149.7388061
0
ARC
8
DEFAULT_255_1_234
10
16.4668137
20
0.177395
40
0.2924306
50
149.4208916
51
163.6286378
0
ARC
8
DEFAULT_255_1_234
10
16.6759025
20
0.113625
40
0.5110213
50
163.3763315
51
172.1410975
0
ARC
8
DEFAULT_255_1_234
10
17.0059744
20
0.0663518
40
0.8444586
50
172.0259487
51
178.0703232
0
ARC
8
DEFAULT_255_1_234
10
17.3089834
20
0.0519906
40
1.1477868
50
177.8631668
51
179.5044149
0
ARC
8
DEFAULT_255_1_234
10
17.2017238
20
-0.1794611
40
1.0404907
50
179.7995573
51
185.2460446
0
ARC
8
DEFAULT_255_1_234
10
16.7974278
20
-0.2177487
40
0.6343885
50
185.1411642
51
193.0079639
0
ARC
8
DEFAULT_255_1_234
10
16.533075
20
-0.2802359
40
0.3627568
50
192.7897626
51
205.2507664
0
ARC
8
DEFAULT_255_1_234
10
16.4284297
20
-0.3269585
40
0.2481908
50
205.8005384
51
211.2537509
0
ARC
8
DEFAULT_255_1_234
10
16.3760738
20
-0.362042
40
0.1852521
50
210.3789793
51
238.4008143
0
ARC
8
DEFAULT_255_1_234
10
16.374126
20
-0.3573624
40
0.1882621
50
239.6520629
51
265.9793761
0
ARC
8
DEFAULT_255_1_234
10
16.382646
20
-0.2901573
40
0.2559272
50
265.1315437
51
270.060332
0
ARC
8
DEFAULT_255_1_234
10
16.3855239
20
-0.3225466
40
0.2235528
50
269.3314664
51
287.2178029
0
ARC
8
DEFAULT_255_1_234
10
16.3993091
20
-0.3728721
40
0.1714108
50
287.7958004
51
329.080874
0
ARC
8
DEFAULT_255_1_234
10
16.3035547
20
-0.313107
40
0.2842745
50
328.6634704
51
343.3325132
0
ARC
8
DEFAULT_255_1_234
10
16.0862567
20
-0.2454137
40
0.5118644
50
343.0499468
51
351.9393422
0
ARC
8
DEFAULT_255_1_234
10
15.7395867
20
-0.1943051
40
0.8622784
50
351.8069023
51
357.7959224
0
ARC
8
DEFAULT_255_1_234
10
15.4160423
20
-0.1775279
40
1.1862365
50
357.5871873
51
359.2677531
0
LINE
8
DEFAULT_255_1_234
10
17.429451
20
0.5237433
11
17.429451
21
-0.6513
0
LINE
8
DEFAULT_255_1_234
10
17.429451
20
-0.6513
11
17.2800606
21
-0.6513
0
LINE
8
DEFAULT_255_1_234
10
17.2800606
20
-0.6513
11
17.2800606
21
0.3390133
0
LINE
8
DEFAULT_255_1_234
10
17.2800606
20
0.3390133
11
16.9804768
21
0.2289785
0
LINE
8
DEFAULT_255_1_234
10
16.9804768
20
0.2289785
11
16.9804768
21
0.3639117
0
LINE
8
DEFAULT_255_1_234
10
16.9804768
20
0.3639117
11
17.4061589
21
0.5237433
0
LINE
8
DEFAULT_255_1_234
10
17.4061589
20
0.5237433
11
17.429451
21
0.5237433
0
LINE
8
DEFAULT_255_1_234
10
18.1892534
20
-0.0938974
11
18.1892534
21
-0.2151766
0
LINE
8
DEFAULT_255_1_234
10
18.1892534
20
-0.2151766
11
17.7973046
21
-0.2151766
0
LINE
8
DEFAULT_255_1_234
10
17.7973046
20
-0.2151766
11
17.7973046
21
-0.0938974
0
LINE
8
DEFAULT_255_1_234
10
17.7973046
20
-0.0938974
11
18.1892534
21
-0.0938974
0
LINE
8
DEFAULT_255_1_234
10
19.0518621
20
0.0402327
11
19.0518621
21
-0.1525291
0
LINE
8
DEFAULT_255_1_234
10
18.3137454
20
-0.1726084
11
18.3137454
21
0.0257755
0
LINE
8
DEFAULT_255_1_234
10
18.903275
20
-0.1926877
11
18.903275
21
0.0506739
0
LINE
8
DEFAULT_255_1_234
10
18.4623325
20
0.0619184
11
18.4623325
21
-0.1758211
0
ARC
8
DEFAULT_255_1_234
10
17.8271511
20
-0.1574195
40
1.2247208
50
353.8441951
51
0.2287902
0
ARC
8
DEFAULT_255_1_234
10
18.2911014
20
-0.2092194
40
0.7578929
50
344.4934747
51
353.9765454
0
ARC
8
DEFAULT_255_1_234
10
18.5903605
20
-0.2943019
40
0.4467846
50
329.2803592
51
344.7472793
0
ARC
8
DEFAULT_255_1_234
10
18.6896429
20
-0.3487982
40
0.3336173
50
324.9352394
51
328.6160465
0
ARC
8
DEFAULT_255_1_234
10
18.7273538
20
-0.3751573
40
0.2876076
50
280.580143
51
324.9173126
0
ARC
8
DEFAULT_255_1_234
10
18.6872331
20
-0.2080901
40
0.4592847
50
269.5977311
51
281.6734359
0
ARC
8
DEFAULT_255_1_234
10
18.6800236
20
-0.2200827
40
0.4472986
50
256.6228859
51
270.51044
0
ARC
8
DEFAULT_255_1_234
10
18.6398214
20
-0.3749123
40
0.2873874
50
215.8618325
51
257.2788573
0
ARC
8
DEFAULT_255_1_234
10
18.7419246
20
-0.3064023
40
0.4102928
50
197.9693508
51
215.2623606
0
ARC
8
DEFAULT_255_1_234
10
18.9904361
20
-0.2225291
40
0.6725652
50
187.8816417
51
198.2346507
0
ARC
8
DEFAULT_255_1_234
10
19.386257
20
-0.1653921
40
1.0724845
50
180.8976217
51
188.0055519
0
ARC
8
DEFAULT_255_1_234
10
19.6662758
20
-0.1550223
40
1.3526448
50
180.7449369
51
181.1510016
0
ARC
8
DEFAULT_255_1_234
10
19.5085487
20
0.0306042
40
1.1948131
50
173.7675579
51
180.231553
0
ARC
8
DEFAULT_255_1_234
10
19.0567633
20
0.0816666
40
0.7401564
50
164.3058563
51
173.9002247
0
ARC
8
DEFAULT_255_1_234
10
18.7655702
20
0.1655656
40
0.4371288
50
148.7922025
51
164.568378
0
ARC
8
DEFAULT_255_1_234
10
18.6704154
20
0.2186929
40
0.3282386
50
144.5883898
51
148.1176286
0
ARC
8
DEFAULT_255_1_234
10
18.6361052
20
0.2426315
40
0.2864044
50
101.6440918
51
144.514236
0
ARC
8
DEFAULT_255_1_234
10
18.6786119
20
0.0737069
40
0.4604934
50
89.5284041
51
102.5819763
0
ARC
8
DEFAULT_255_1_234
10
18.6865207
20
0.0698018
40
0.464401
50
77.0437873
51
90.5081339
0
ARC
8
DEFAULT_255_1_234
10
18.7267209
20
0.2340615
40
0.2953195
50
48.2778575
51
77.4994676
0
ARC
8
DEFAULT_255_1_234
10
18.733984
20
0.2469746
40
0.2808655
50
36.3142134
51
47.6305865
0
ARC
8
DEFAULT_255_1_234
10
18.6471147
20
0.1884515
40
0.3855453
50
18.2931786
51
35.6769206
0
ARC
8
DEFAULT_255_1_234
10
18.3927906
20
0.1011593
40
0.654423
50
8.024666
51
18.5605216
0
ARC
8
DEFAULT_255_1_234
10
17.9764826
20
0.0396792
40
1.0752407
50
1.1274072
51
8.1718305
0
ARC
8
DEFAULT_255_1_234
10
17.6529016
20
0.0269885
40
1.3990231
50
0.5424119
51
1.3863029
0
ARC
8
DEFAULT_255_1_234
10
17.8350394
20
0.0542342
40
1.0682415
50
359.8090433
51
4.9407866
0
ARC
8
DEFAULT_255_1_234
10
18.2560408
20
0.0918113
40
0.6455691
50
4.8362157
51
12.2904523
0
ARC
8
DEFAULT_255_1_234
10
18.5315523
20
0.1531965
40
0.3633074
50
12.0805627
51
23.8173984
0
ARC
8
DEFAULT_255_1_234
10
18.6489228
20
0.2028919
40
0.2358723
50
24.2871213
51
31.3935614
0
ARC
8
DEFAULT_255_1_234
10
18.7013925
20
0.2372233
40
0.1732111
50
30.7407893
51
82.4657128
0
ARC
8
DEFAULT_255_1_234
10
18.683406
20
0.1488691
40
0.263235
50
81.1060089
51
90.2184952
0
ARC
8
DEFAULT_255_1_234
10
18.6798359
20
0.1746924
40
0.2374236
50
89.3806855
51
105.6762551
0
ARC
8
DEFAULT_255_1_234
10
18.6614989
20
0.2413567
40
0.1682847
50
105.7981136
51
149.7388061
0
ARC
8
DEFAULT_255_1_234
10
18.7679068
20
0.177395
40
0.2924306
50
149.4208916
51
163.6286378
0
ARC
8
DEFAULT_255_1_234
10
18.9769956
20
0.113625
40
0.5110213
50
163.3763315
51
172.1410975
0
ARC
8
DEFAULT_255_1_234
10
19.3070675
20
0.0663518
40
0.8444586
50
172.0259487
51
178.0703232
0
ARC
8
DEFAULT_255_1_234
10
19.6100764
20
0.0519906
40
1.1477868
50
177.8631668
51
179.5044149
0
ARC
8
DEFAULT_255_1_234
10
19.5028169
20
-0.1794611
40
1.0404907
50
179.7995573
51
185.2460446
0
ARC
8
DEFAULT_255_1_234
10
19.0985208
20
-0.2177487
40
0.6343885
50
185.1411642
51
193.0079639
0
ARC
8
DEFAULT_255_1_234
10
18.834168
20
-0.2802359
40
0.3627568
50
192.7897626
51
205.2507664
0
ARC
8
DEFAULT_255_1_234
10
18.7295227
20
-0.3269585
40
0.2481908
50
205.8005384
51
211.2537509
0
ARC
8
DEFAULT_255_1_234
10
18.6771668
20
-0.362042
40
0.1852521
50
210.3789793
51
238.4008143
0
ARC
8
DEFAULT_255_1_234
10
18.675219
20
-0.3573624
40
0.1882621
50
239.6520629
51
265.9793761
0
ARC
8
DEFAULT_255_1_234
10
18.683739
20
-0.2901573
40
0.2559272
50
265.1315437
51
270.060332
0
ARC
8
DEFAULT_255_1_234
10
18.6866169
20
-0.3225466
40
0.2235528
50
269.3314664
51
287.2178029
0
ARC
8
DEFAULT_255_1_234
10
18.7004021
20
-0.3728721
40
0.1714108
50
287.7958004
51
329.080874
0
ARC
8
DEFAULT_255_1_234
10
18.6046477
20
-0.313107
40
0.2842745
50
328.6634704
51
343.3325132
0
ARC
8
DEFAULT_255_1_234
10
18.3873498
20
-0.2454137
40
0.5118644
50
343.0499468
51
351.9393422
0
ARC
8
DEFAULT_255_1_234
10
18.0406798
20
-0.1943051
40
0.8622784
50
351.8069023
51
357.7959224
0
ARC
8
DEFAULT_255_1_234
10
17.7171354
20
-0.1775279
40
1.1862365
50
357.5871873
51
359.2677531
0
LINE
8
DEFAULT_255_1_234
10
20.0381596
20
-0.6513
11
19.9265184
21
-0.3460939
0
LINE
8
DEFAULT_255_1_234
10
19.9265184
20
-0.3460939
11
19.4365824
21
-0.3460939
0
LINE
8
DEFAULT_255_1_234
10
19.4365824
20
-0.3460939
11
19.3265476
21
-0.6513
0
LINE
8
DEFAULT_255_1_234
10
19.3265476
20
-0.6513
11
19.1675191
21
-0.6513
0
LINE
8
DEFAULT_255_1_234
10
19.1675191
20
-0.6513
11
19.6140838
21
0.5181211
0
LINE
8
DEFAULT_255_1_234
10
19.6140838
20
0.5181211
11
19.749017
21
0.5181211
0
LINE
8
DEFAULT_255_1_234
10
19.749017
20
0.5181211
11
20.1963848
21
-0.6513
0
LINE
8
DEFAULT_255_1_234
10
20.1963848
20
-0.6513
11
20.0381596
21
-0.6513
0
LINE
8
DEFAULT_255_1_234
10
19.6815504
20
0.3277689
11
19.4831665
21
-0.2191925
0
LINE
8
DEFAULT_255_1_234
10
19.4831665
20
-0.2191925
11
19.8807375
21
-0.2191925
0
LINE
8
DEFAULT_255_1_234
10
19.8807375
20
-0.2191925
11
19.6815504
21
0.3277689
0
LINE
8
DEFAULT_255_1_234
10
21.1111998
20
-0.6513
11
20.9995586
21
-0.3460939
0
LINE
8
DEFAULT_255_1_234
10
20.9995586
20
-0.3460939
11
20.5096226
21
-0.3460939
0
LINE
8
DEFAULT_255_1_234
10
20.5096226
20
-0.3460939
11
20.3995878
21
-0.6513
0
LINE
8
DEFAULT_255_1_234
10
20.3995878
20
-0.6513
11
20.2405594
21
-0.6513
0
LINE
8
DEFAULT_255_1_234
10
20.2405594
20
-0.6513
11
20.687124
21
0.5181211
0
LINE
8
DEFAULT_255_1_234
10
20.687124
20
0.5181211
11
20.8220572
21
0.5181211
0
LINE
8
DEFAULT_255_1_234
10
20.8220572
20
0.5181211
11
21.269425
21
-0.6513
0
LINE
8
DEFAULT_255_1_234
10
21.269425
20
-0.6513
11
21.1111998
21
-0.6513
0
LINE
8
DEFAULT_255_1_234
10
20.7545906
20
0.3277689
11
20.5562067
21
-0.2191925
0
LINE
8
DEFAULT_255_1_234
10
20.5562067
20
-0.2191925
11
20.9537777
21
-0.2191925
0
LINE
8
DEFAULT_255_1_234
10
20.9537777
20
-0.2191925
11
20.7545906
21
0.3277689
0
LINE
8
DEFAULT_255_1_234
10
22.1215925
20
0.0402327
11
22.1215925
21
-0.1525291
0
LINE
8
DEFAULT_255_1_234
10
21.3834757
20
-0.1726084
11
21.3834757
21
0.0257755
0
LINE
8
DEFAULT_255_1_234
10
21.9730053
20
-0.1926877
11
21.9730053
21
0.0506739
0
LINE
8
DEFAULT_255_1_234
10
21.5320629
20
0.0619184
11
21.5320629
21
-0.1758211
0
ARC
8
DEFAULT_255_1_234
10
20.8968814
20
-0.1574195
40
1.2247208
50
353.8441951
51
0.2287902
0
ARC
8
DEFAULT_255_1_234
10
21.3608318
20
-0.2092194
40
0.7578929
50
344.4934747
51
353.9765454
0
ARC
8
DEFAULT_255_1_234
10
21.6600908
20
-0.2943019
40
0.4467846
50
329.2803592
51
344.7472793
0
ARC
8
DEFAULT_255_1_234
10
21.7593733
20
-0.3487982
40
0.3336173
50
324.9352394
51
328.6160465
0
ARC
8
DEFAULT_255_1_234
10
21.7970842
20
-0.3751573
40
0.2876076
50
280.580143
51
324.9173126
0
ARC
8
DEFAULT_255_1_234
10
21.7569634
20
-0.2080901
40
0.4592847
50
269.5977311
51
281.6734359
0
ARC
8
DEFAULT_255_1_234
10
21.749754
20
-0.2200827
40
0.4472986
50
256.6228859
51
270.51044
0
ARC
8
DEFAULT_255_1_234
10
21.7095518
20
-0.3749123
40
0.2873874
50
215.8618325
51
257.2788573
0
ARC
8
DEFAULT_255_1_234
10
21.8116549
20
-0.3064023
40
0.4102928
50
197.9693508
51
215.2623606
0
ARC
8
DEFAULT_255_1_234
10
22.0601665
20
-0.2225291
40
0.6725652
50
187.8816417
51
198.2346507
0
ARC
8
DEFAULT_255_1_234
10
22.4559873
20
-0.1653921
40
1.0724845
50
180.8976217
51
188.0055519
0
ARC
8
DEFAULT_255_1_234
10
22.7360061
20
-0.1550223
40
1.3526448
50
180.7449369
51
181.1510016
0
ARC
8
DEFAULT_255_1_234
10
22.5782791
20
0.0306042
40
1.1948131
50
173.7675579
51
180.231553
0
ARC
8
DEFAULT_255_1_234
10
22.1264937
20
0.0816666
40
0.7401564
50
164.3058563
51
173.9002247
0
ARC
8
DEFAULT_255_1_234
10
21.8353006
20
0.1655656
40
0.4371288
50
148.7922025
51
164.568378
0
ARC
8
DEFAULT_255_1_234
10
21.7401458
20
0.2186929
40
0.3282386
50
144.5883898
51
148.1176286
0
ARC
8
DEFAULT_255_1_234
10
21.7058356
20
0.2426315
40
0.2864044
50
101.6440918
51
144.514236
0
ARC
8
DEFAULT_255_1_234
10
21.7483423
20
0.0737069
40
0.4604934
50
89.5284041
51
102.5819763
0
ARC
8
DEFAULT_255_1_234
10
21.7562511
20
0.0698018
40
0.464401
50
77.0437873
51
90.5081339
0
ARC
8
DEFAULT_255_1_234
10
21.7964512
20
0.2340615
40
0.2953195
50
48.2778575
51
77.4994676
0
ARC
8
DEFAULT_255_1_234
10
21.8037144
20
0.2469746
40
0.2808655
50
36.3142134
51
47.6305865
0
ARC
8
DEFAULT_255_1_234
10
21.7168451
20
0.1884515
40
0.3855453
50
18.2931786
51
35.6769206
0
ARC
8
DEFAULT_255_1_234
10
21.4625209
20
0.1011593
40
0.654423
50
8.024666
51
18.5605216
0
ARC
8
DEFAULT_255_1_234
10
21.0462129
20
0.0396792
40
1.0752407
50
1.1274072
51
8.1718305
0
ARC
8
DEFAULT_255_1_234
10
20.722632
20
0.0269885
40
1.3990231
50
0.5424119
51
1.3863029
0
ARC
8
DEFAULT_255_1_234
10
20.9047698
20
0.0542342
40
1.0682415
50
359.8090433
51
4.9407866
0
ARC
8
DEFAULT_255_1_234
10
21.3257712
20
0.0918113
40
0.6455691
50
4.8362157
51
12.2904523
0
ARC
8
DEFAULT_255_1_234
10
21.6012827
20
0.1531965
40
0.3633074
50
12.0805627
51
23.8173984
0
ARC
8
DEFAULT_255_1_234
10
21.7186532
20
0.2028919
40
0.2358723
50
24.2871213
51
31.3935614
0
ARC
8
DEFAULT_255_1_234
10
21.7711229
20
0.2372233
40
0.1732111
50
30.7407893
51
82.4657128
0
ARC
8
DEFAULT_255_1_234
10
21.7531364
20
0.1488691
40
0.263235
50
81.1060089
51
90.2184952
0
ARC
8
DEFAULT_255_1_234
10
21.7495662
20
0.1746924
40
0.2374236
50
89.3806855
51
105.6762551
0
ARC
8
DEFAULT_255_1_234
10
21.7312293
20
0.2413567
40
0.1682847
50
105.7981136
51
149.7388061
0
ARC
8
DEFAULT_255_1_234
10
21.8376371
20
0.177395
40
0.2924306
50
149.4208916
51
163.6286378
0
ARC
8
DEFAULT_255_1_234
10
22.0467259
20
0.113625
40
0.5110213
50
163.3763315
51
172.1410975
0
ARC
8
DEFAULT_255_1_234
10
22.3767978
20
0.0663518
40
0.8444586
50
172.0259487
51
178.0703232
0
ARC
8
DEFAULT_255_1_234
10
22.6798068
20
0.0519906
40
1.1477868
50
177.8631668
51
179.5044149
0
ARC
8
DEFAULT_255_1_234
10
22.5725472
20
-0.1794611
40
1.0404907
50
179.7995573
51
185.2460446
0
ARC
8
DEFAULT_255_1_234
10
22.1682512
20
-0.2177487
40
0.6343885
50
185.1411642
51
193.0079639
0
ARC
8
DEFAULT_255_1_234
10
21.9038984
20
-0.2802359
40
0.3627568
50
192.7897626
51
205.2507664
0
ARC
8
DEFAULT_255_1_234
10
21.7992531
20
-0.3269585
40
0.2481908
50
205.8005384
51
211.2537509
0
ARC
8
DEFAULT_255_1_234
10
21.7468972
20
-0.362042
40
0.1852521
50
210.3789793
51
238.4008143
0
ARC
8
DEFAULT_255_1_234
10
21.7449494
20
-0.3573624
40
0.1882621
50
239.6520629
51
265.9793761
0
ARC
8
DEFAULT_255_1_234
10
21.7534694
20
-0.2901573
40
0.2559272
50
265.1315437
51
270.060332
0
ARC
8
DEFAULT_255_1_234
10
21.7563472
20
-0.3225466
40
0.2235528
50
269.3314664
51
287.2178029
0
ARC
8
DEFAULT_255_1_234
10
21.7701324
20
-0.3728721
40
0.1714108
50
287.7958004
51
329.080874
0
ARC
8
DEFAULT_255_1_234
10
21.6743781
20
-0.313107
40
0.2842745
50
328.6634704
51
343.3325132
0
ARC
8
DEFAULT_255_1_234
10
21.4570801
20
-0.2454137
40
0.5118644
50
343.0499468
51
351.9393422
0
ARC
8
DEFAULT_255_1_234
10
21.1104101
20
-0.1943051
40
0.8622784
50
351.8069023
51
357.7959224
0
ARC
8
DEFAULT_255_1_234
10
20.7868657
20
-0.1775279
40
1.1862365
50
357.5871873
51
359.2677531
0
ARC
8
DEFAULT_255_2_778
10
7.7537338
20
176.6929992
40
3.0484709
50
251.6854144
51
258.6071955
0
ARC
8
DEFAULT_255_2_778
10
7.539521
20
175.6113738
40
1.9458471
50
258.4992492
51
268.3986479
0
ARC
8
DEFAULT_255_2_778
10
7.5172314
20
175.1811206
40
1.5151737
50
268.7865272
51
269.9950384
0
ARC
8
DEFAULT_255_2_778
10
7.5277432
20
174.7299355
40
1.0640417
50
269.426895
51
279.6711067
0
ARC
8
DEFAULT_255_2_778
10
7.6417753
20
174.1003746
40
0.4243233
50
278.7731084
51
300.3324923
0
ARC
8
DEFAULT_255_2_778
10
7.760746
20
173.8977552
40
0.1893587
50
300.2240287
51
1.9041213
0
ARC
8
DEFAULT_255_2_778
10
7.7452705
20
173.9069089
40
0.2047497
50
359.1991369
51
359.99965
0
ARC
8
DEFAULT_255_2_778
10
7.7523233
20
173.9077378
40
0.1976988
50
359.7594145
51
47.1793976
0
ARC
8
DEFAULT_255_2_778
10
7.6187277
20
173.759131
40
0.3975169
50
47.6144502
51
60.8366176
0
ARC
8
DEFAULT_255_2_778
10
7.0190958
20
172.7431865
40
1.5771337
50
59.799464
51
64.8885807
0
ARC
8
DEFAULT_255_2_778
10
6.0948833
20
170.8141682
40
3.7160912
50
64.6076081
51
66.8386974
0
ARC
8
DEFAULT_255_2_778
10
9.6419609
20
179.1772052
40
5.368109
50
244.3032309
51
247.1393781
0
ARC
8
DEFAULT_255_2_778
10
8.5507088
20
176.917218
40
2.8584574
50
240.2323579
51
244.3709759
0
ARC
8
DEFAULT_255_2_778
10
7.7800475
20
175.5803591
40
1.315392
50
233.2209971
51
240.4606284
0
ARC
8
DEFAULT_255_2_778
10
7.3561477
20
175.0092187
40
0.6041399
50
225.6990744
51
232.9899679
0
ARC
8
DEFAULT_255_2_778
10
7.3965073
20
175.0336214
40
0.6499005
50
178.2783416
51
224.6550883
0
ARC
8
DEFAULT_255_2_778
10
7.5059624
20
175.0669974
40
0.7591885
50
157.033673
51
181.0453383
0
ARC
8
DEFAULT_255_2_778
10
7.378439
20
175.1078396
40
0.6259551
50
124.9113017
51
155.9211516
0
ARC
8
DEFAULT_255_2_778
10
7.5960466
20
174.7992681
40
1.0035357
50
100.4079723
51
125.0168617
0
ARC
8
DEFAULT_255_2_778
10
7.6991199
20
174.3052046
40
1.5081396
50
89.6483922
51
100.8684975
0
ARC
8
DEFAULT_255_2_778
10
7.7083242
20
173.9529988
40
1.8603169
50
89.5079487
51
89.9984402
0
ARC
8
DEFAULT_255_2_778
10
7.7099573
20
173.8877694
40
1.9255311
50
83.9170631
51
89.5732113
0
ARC
8
DEFAULT_255_2_778
10
7.5071517
20
171.8801957
40
3.9433074
50
80.7325723
51
84.0779772
0
ARC
8
DEFAULT_255_2_778
10
7.0208457
20
168.857282
40
7.0050837
50
78.5086351
51
80.7886813
0
ARC
8
DEFAULT_255_2_778
10
7.6620177
20
173.4567544
40
1.9415426
50
67.135818
51
78.0934208
0
ARC
8
DEFAULT_255_2_778
10
7.7851814
20
174.0271809
40
1.3579807
50
78.2126325
51
89.7333975
0
ARC
8
DEFAULT_255_2_778
10
7.7793853
20
174.4423211
40
0.9429038
50
89.2638155
51
100.5666868
0
ARC
8
DEFAULT_255_2_778
10
7.6660949
20
175.0121419
40
0.362036
50
99.4784875
51
124.329414
0
ARC
8
DEFAULT_255_2_778
10
7.5705593
20
175.160251
40
0.1859067
50
125.7571195
51
182.2824883
0
ARC
8
DEFAULT_255_2_778
10
7.5493239
20
175.1535629
40
0.1645253
50
180.2492993
51
239.8144161
0
ARC
8
DEFAULT_255_2_778
10
7.932718
20
175.7536128
40
0.876484
50
237.8725734
51
242.8068846
0
ARC
8
DEFAULT_255_2_778
10
9.4175857
20
178.5701958
40
4.0604642
50
242.3328458
51
244.031083
0
ARC
8
DEFAULT_255_2_778
10
12.3804066
20
184.6186314
40
10.7955807
50
243.950624
51
244.8024316
0
ARC
8
DEFAULT_255_2_778
10
15.4009918
20
191.0026175
40
17.8580926
50
244.7535425
51
244.9563234
0
ARC
8
DEFAULT_255_2_778
10
5.8652927
20
170.5010264
40
4.7527588
50
62.2505456
51
65.4301556
0
ARC
8
DEFAULT_255_2_778
10
6.9275435
20
172.5091172
40
2.4810291
50
57.2951304
51
62.3684211
0
ARC
8
DEFAULT_255_2_778
10
7.6807233
20
173.6724235
40
1.0952081
50
48.7345704
51
57.5685367
0
ARC
8
DEFAULT_255_2_778
10
8.0117486
20
174.0599722
40
0.5856147
50
44.3236031
51
48.0704418
0
ARC
8
DEFAULT_255_2_778
10
7.9783002
20
174.0399468
40
0.6236013
50
1.3523843
51
43.4925744
0
ARC
8
DEFAULT_255_2_778
10
7.7103531
20
174.0070151
40
0.8926473
50
359.9763756
51
3.0599076
0
ARC
8
DEFAULT_255_2_778
10
7.8645343
20
173.9919407
40
0.7386124
50
333.0361889
51
1.1408766
0
ARC
8
DEFAULT_255_2_778
10
7.8947908
20
173.9988919
40
0.7150741
50
300.8430083
51
331.4403095
0
ARC
8
DEFAULT_255_2_778
10
7.694568
20
174.3124162
40
1.0869673
50
281.4258583
51
301.4316118
0
ARC
8
DEFAULT_255_2_778
10
7.5632666
20
174.9206414
40
1.7091691
50
270.2273513
51
281.7010805
0
ARC
8
DEFAULT_255_2_778
10
7.5453797
20
175.3973043
40
2.1859577
50
269.9983113
51
270.6466065
0
LINE
8
DEFAULT_255_2_778
10
7.5453153
20
173.2113465
11
7.5438002
21
173.211347
0
ARC
8
DEFAULT_255_2_778
10
7.5509161
20
176.3942969
40
3.1829579
50
256.2431122
51
269.871909
0
ARC
8
DEFAULT_255_2_778
10
21.7538511
20
176.6188629
40
2.9720345
50
251.5709223
51
258.7508181
0
ARC
8
DEFAULT_255_2_778
10
21.5538128
20
175.5956385
40
1.9294488
50
258.6495077
51
268.8281511
0
ARC
8
DEFAULT_255_2_778
10
21.5355488
20
175.2008193
40
1.5343723
50
269.2085037
51
269.9981866
0
ARC
8
DEFAULT_255_2_778
10
21.5473849
20
174.7324184
40
1.0660376
50
269.3612297
51
279.5899087
0
ARC
8
DEFAULT_255_2_778
10
21.6608439
20
174.1009324
40
0.424527
50
278.6895227
51
300.2363944
0
ARC
8
DEFAULT_255_2_778
10
21.7799083
20
173.8974793
40
0.188796
50
300.1108484
51
1.9024905
0
ARC
8
DEFAULT_255_2_778
10
21.7439577
20
173.9081221
40
0.2246851
50
358.8842611
51
0.0019649
0
ARC
8
DEFAULT_255_2_778
10
21.7769791
20
173.9120385
40
0.1917038
50
358.831716
51
47.0900458
0
ARC
8
DEFAULT_255_2_778
10
21.6364654
20
173.752684
40
0.4041259
50
47.8812665
51
61.174665
0
ARC
8
DEFAULT_255_2_778
10
21.0418848
20
172.7327117
40
1.5846568
50
60.1210877
51
65.1917015
0
ARC
8
DEFAULT_255_2_778
10
20.1415278
20
170.8271122
40
3.6922188
50
64.9168629
51
67.1565628
0
ARC
8
DEFAULT_255_2_778
10
23.6275467
20
179.0986888
40
5.2839333
50
244.2656926
51
247.1407051
0
ARC
8
DEFAULT_255_2_778
10
22.5594997
20
176.890465
40
2.8309849
50
240.1545061
51
244.3326325
0
ARC
8
DEFAULT_255_2_778
10
21.7856548
20
175.5544346
40
1.2870531
50
232.697515
51
240.4357497
0
ARC
8
DEFAULT_255_2_778
10
21.3705506
20
175.0034218
40
0.5972006
50
225.5850892
51
232.3393736
0
ARC
8
DEFAULT_255_2_778
10
21.4133941
20
175.0329933
40
0.6483829
50
178.7795739
51
224.7095916
0
ARC
8
DEFAULT_255_2_778
10
21.6669319
20
175.0570135
40
0.9018316
50
179.997867
51
180.6487041
0
ARC
8
DEFAULT_255_2_778
10
21.5167738
20
175.0708249
40
0.7517998
50
156.9195758
51
181.050088
0
ARC
8
DEFAULT_255_2_778
10
21.3928482
20
175.1102712
40
0.6224513
50
124.7111133
51
155.7879672
0
ARC
8
DEFAULT_255_2_778
10
21.6055459
20
174.8183942
40
0.9835402
50
101.7934503
51
125.2143527
0
ARC
8
DEFAULT_255_2_778
10
21.729848
20
174.2658326
40
1.5498677
50
89.5248728
51
102.1166783
0
ARC
8
DEFAULT_255_2_778
10
21.7283109
20
173.7122834
40
2.1034129
50
83.2889725
51
89.6080411
0
ARC
8
DEFAULT_255_2_778
10
21.529975
20
171.9444668
40
3.8823067
50
79.4764054
51
83.4308492
0
ARC
8
DEFAULT_255_2_778
10
21.2186357
20
170.1912673
40
5.6628977
50
78.2224868
51
79.6190915
0
ARC
8
DEFAULT_255_2_778
10
21.6838473
20
173.4687715
40
1.9311543
50
67.1323814
51
78.3148813
0
ARC
8
DEFAULT_255_2_778
10
21.801359
20
174.0202614
40
1.3672981
50
78.4565774
51
89.7552271
0
ARC
8
DEFAULT_255_2_778
10
21.7951366
20
174.451147
40
0.9364778
50
89.2619009
51
100.5950934
0
ARC
8
DEFAULT_255_2_778
10
21.6824182
20
175.0166169
40
0.3599879
50
99.5087086
51
124.406715
0
ARC
8
DEFAULT_255_2_778
10
21.5878565
20
175.163043
40
0.1858061
50
125.8630185
51
182.2986975
0
ARC
8
DEFAULT_255_2_778
10
21.5497296
20
175.1555047
40
0.1475296
50
179.9666559
51
180.100057
0
ARC
8
DEFAULT_255_2_778
10
21.566185
20
175.155493
40
0.163985
50
180.0859454
51
239.8819968
0
ARC
8
DEFAULT_255_2_778
10
21.9379018
20
175.7422619
40
0.8584853
50
238.072871
51
243.0442008
0
ARC
8
DEFAULT_255_2_778
10
23.4872034
20
178.7072845
40
4.2038426
50
242.5409111
51
244.1884903
0
ARC
8
DEFAULT_255_2_778
10
26.6463384
20
185.201896
40
11.4260319
50
244.1076525
51
244.9219574
0
ARC
8
DEFAULT_255_2_778
10
29.9038827
20
192.125555
40
19.0777309
50
244.8743531
51
245.066969
0
ARC
8
DEFAULT_255_2_778
10
19.8865272
20
170.5333274
40
4.7250654
50
62.0340028
51
65.293009
0
ARC
8
DEFAULT_255_2_778
10
20.9507744
20
172.5282758
40
2.464003
50
57.1127289
51
62.13736
0
ARC
8
DEFAULT_255_2_778
10
21.7037139
20
173.6819906
40
1.0863604
50
48.3695509
51
57.4197129
0
ARC
8
DEFAULT_255_2_778
10
22.0286268
20
174.0587419
40
0.5889589
50
44.472493
51
47.6467012
0
ARC
8
DEFAULT_255_2_778
10
21.9979457
20
174.0416032
40
0.6229283
50
1.2061613
51
43.6203607
0
ARC
8
DEFAULT_255_2_778
10
21.7312413
20
174.0091903
40
0.890659
50
359.9779196
51
2.9299178
0
ARC
8
DEFAULT_255_2_778
10
21.8802547
20
173.9940837
40
0.7417924
50
333.172934
51
1.140392
0
ARC
8
DEFAULT_255_2_778
10
21.9146167
20
173.9987736
40
0.7135172
50
300.9808035
51
331.5913995
0
ARC
8
DEFAULT_255_2_778
10
21.7182603
20
174.3086862
40
1.0803281
50
281.9040909
51
301.4483918
0
ARC
8
DEFAULT_255_2_778
10
21.5848425
20
174.9072518
40
1.6935565
50
270.5796874
51
282.1436175
0
ARC
8
DEFAULT_255_2_778
10
21.5636722
20
175.4021735
40
2.1887267
50
269.9959074
51
271.0027751
0
LINE
8
DEFAULT_255_2_778
10
21.5635158
20
173.2134468
11
21.5625002
21
173.213447
0
ARC
8
DEFAULT_255_2_778
10
21.5700221
20
176.4022174
40
3.1887792
50
256.2556596
51
269.8648469
0
LINE
8
DEFAULT_255_2_778
10
6.7958002
20
173.304247
11
6.7958002
21
173.798947
0
LINE
8
DEFAULT_255_2_778
10
8.4164002
20
175.721947
11
8.4164002
21
175.245747
0
LINE
8
DEFAULT_255_2_778
10
6.7940002
20
173.302647
11
6.7958002
21
173.304247
0
LINE
8
DEFAULT_255_2_778
10
8.9866002
20
175.771447
11
9.6629002
21
175.771447
0
LINE
8
DEFAULT_255_2_778
10
9.6629002
20
175.771447
11
9.6629002
21
173.264047
0
LINE
8
DEFAULT_255_2_778
10
9.6629002
20
173.264047
11
8.9866002
21
173.264047
0
LINE
8
DEFAULT_255_2_778
10
8.9866002
20
173.264047
11
8.9866002
21
175.771447
0
LINE
8
DEFAULT_255_2_778
10
10.2809002
20
173.264047
11
10.2809002
21
175.771447
0
LINE
8
DEFAULT_255_2_778
10
10.2809002
20
175.771447
11
12.0132002
21
175.771447
0
LINE
8
DEFAULT_255_2_778
10
12.0132002
20
175.771447
11
12.0132002
21
175.317747
0
LINE
8
DEFAULT_255_2_778
10
12.0132002
20
175.317747
11
10.9321002
21
175.317747
0
LINE
8
DEFAULT_255_2_778
10
10.9321002
20
175.317747
11
10.9321002
21
174.751447
0
LINE
8
DEFAULT_255_2_778
10
10.9321002
20
174.751447
11
11.8735002
21
174.751447
0
LINE
8
DEFAULT_255_2_778
10
11.8735002
20
174.751447
11
11.8735002
21
174.337947
0
LINE
8
DEFAULT_255_2_778
10
11.8735002
20
174.337947
11
10.9321002
21
174.337947
0
LINE
8
DEFAULT_255_2_778
10
10.9321002
20
174.337947
11
10.9321002
21
173.742647
0
LINE
8
DEFAULT_255_2_778
10
10.9321002
20
173.742647
11
12.0412002
21
173.742647
0
LINE
8
DEFAULT_255_2_778
10
12.0412002
20
173.742647
11
12.0412002
21
173.262447
0
LINE
8
DEFAULT_255_2_778
10
12.0412002
20
173.262447
11
10.2809002
21
173.264047
0
LINE
8
DEFAULT_255_2_778
10
12.4817002
20
173.264047
11
12.4817002
21
175.771447
0
LINE
8
DEFAULT_255_2_778
10
12.4817002
20
175.771447
11
13.3575002
21
175.771447
0
LINE
8
DEFAULT_255_2_778
10
13.3575002
20
175.771447
11
13.9671002
21
174.169147
0
LINE
8
DEFAULT_255_2_778
10
13.9671002
20
174.169147
11
14.5897002
21
175.771447
0
LINE
8
DEFAULT_255_2_778
10
14.5897002
20
175.771447
11
15.4215002
21
175.771447
0
LINE
8
DEFAULT_255_2_778
10
15.4215002
20
175.771447
11
15.4215002
21
173.264047
0
LINE
8
DEFAULT_255_2_778
10
15.4215002
20
173.264047
11
14.7812002
21
173.264047
0
LINE
8
DEFAULT_255_2_778
10
14.7812002
20
173.264047
11
14.7812002
21
175.039847
0
LINE
8
DEFAULT_255_2_778
10
14.7812002
20
175.039847
11
14.0724002
21
173.239647
0
LINE
8
DEFAULT_255_2_778
10
14.0724002
20
173.239647
11
13.6515002
21
173.239647
0
LINE
8
DEFAULT_255_2_778
10
13.6515002
20
173.239647
11
12.9559002
21
175.039847
0
LINE
8
DEFAULT_255_2_778
10
12.9559002
20
175.039847
11
12.9559002
21
173.263747
0
LINE
8
DEFAULT_255_2_778
10
12.9559002
20
173.263747
11
12.4817002
21
173.264047
0
LINE
8
DEFAULT_255_2_778
10
16.0409002
20
173.264047
11
16.0409002
21
175.771447
0
LINE
8
DEFAULT_255_2_778
10
16.0409002
20
175.771447
11
17.7731002
21
175.771447
0
LINE
8
DEFAULT_255_2_778
10
17.7731002
20
175.771447
11
17.7731002
21
175.317747
0
LINE
8
DEFAULT_255_2_778
10
17.7731002
20
175.317747
11
16.6921002
21
175.317747
0
LINE
8
DEFAULT_255_2_778
10
16.6921002
20
175.317747
11
16.6921002
21
174.751447
0
LINE
8
DEFAULT_255_2_778
10
16.6921002
20
174.751447
11
17.6334002
21
174.751447
0
LINE
8
DEFAULT_255_2_778
10
17.6334002
20
174.751447
11
17.6334002
21
174.337947
0
LINE
8
DEFAULT_255_2_778
10
17.6334002
20
174.337947
11
16.6921002
21
174.337947
0
LINE
8
DEFAULT_255_2_778
10
16.6921002
20
174.337947
11
16.6921002
21
173.742647
0
LINE
8
DEFAULT_255_2_778
10
16.6921002
20
173.742647
11
17.8030002
21
173.742647
0
LINE
8
DEFAULT_255_2_778
10
17.8030002
20
173.742647
11
17.8030002
21
173.262447
0
LINE
8
DEFAULT_255_2_778
10
17.8030002
20
173.262447
11
16.0409002
21
173.264047
0
LINE
8
DEFAULT_255_2_778
10
18.2454002
20
173.264047
11
18.2454002
21
175.771447
0
LINE
8
DEFAULT_255_2_778
10
18.2454002
20
175.771447
11
19.0283002
21
175.771447
0
LINE
8
DEFAULT_255_2_778
10
19.0283002
20
175.771447
11
19.8586002
21
174.092647
0
LINE
8
DEFAULT_255_2_778
10
19.8586002
20
174.092647
11
19.8586002
21
175.771447
0
LINE
8
DEFAULT_255_2_778
10
19.8586002
20
175.771447
11
20.3343002
21
175.771447
0
LINE
8
DEFAULT_255_2_778
10
20.3343002
20
175.771447
11
20.3343002
21
173.264047
0
LINE
8
DEFAULT_255_2_778
10
20.3343002
20
173.264047
11
19.5739002
21
173.264047
0
LINE
8
DEFAULT_255_2_778
10
19.5739002
20
173.264047
11
18.7214002
21
174.965247
0
LINE
8
DEFAULT_255_2_778
10
18.7214002
20
174.965247
11
18.7214002
21
173.264047
0
LINE
8
DEFAULT_255_2_778
10
18.7214002
20
173.264047
11
18.2454002
21
173.264047
0
LINE
8
DEFAULT_255_2_778
10
20.8143002
20
173.304447
11
20.8143002
21
173.799247
0
LINE
8
DEFAULT_255_2_778
10
22.3745002
20
175.734947
11
22.4343002
21
175.724347
0
LINE
8
DEFAULT_255_2_778
10
22.4343002
20
175.724347
11
22.4343002
21
175.248147
0
LINE
8
DEFAULT_255_2_778
10
20.8124002
20
173.304747
11
20.8143002
21
173.304447
0
LINE
8
DEFAULT_255_1_234
10
9.1330023
20
171.4976849
11
8.9779897
21
171.4976849
0
LINE
8
DEFAULT_255_1_234
10
8.2856539
20
171.0053394
11
8.4406665
21
171.0053394
0
ARC
8
DEFAULT_255_1_234
10
9.043871
20
172.3923768
40
1.252368
50
248.9199003
51
254.1439814
0
ARC
8
DEFAULT_255_1_234
10
8.8758205
20
171.9597234
40
0.788226
50
241.633709
51
249.0064503
0
ARC
8
DEFAULT_255_1_234
10
8.72296
20
171.6796317
40
0.4691427
50
230.498225
51
241.8087113
0
ARC
8
DEFAULT_255_1_234
10
8.6445174
20
171.5796906
40
0.3421437
50
227.4064532
51
229.9881192
0
ARC
8
DEFAULT_255_1_234
10
8.5957694
20
171.5321088
40
0.2741476
50
200.6781896
51
228.1763934
0
ARC
8
DEFAULT_255_1_234
10
8.6030005
20
171.5306077
40
0.2804109
50
179.5061581
51
199.8694617
0
ARC
8
DEFAULT_255_1_234
10
8.6020757
20
171.538021
40
0.2795204
50
132.4834203
51
181.0242172
0
ARC
8
DEFAULT_255_1_234
10
8.6616339
20
171.4817704
40
0.3612768
50
129.2532479
51
133.4242687
0
ARC
8
DEFAULT_255_1_234
10
8.6762789
20
171.4597965
40
0.3875675
50
101.98776
51
128.8742646
0
ARC
8
DEFAULT_255_1_234
10
8.7161399
20
171.2876741
40
0.5642249
50
89.5906553
51
102.3169264
0
ARC
8
DEFAULT_255_1_234
10
8.7231891
20
171.3195148
40
0.5323783
50
77.2360837
51
90.3248275
0
ARC
8
DEFAULT_255_1_234
10
8.7438971
20
171.41624
40
0.4334697
50
63.837784
51
77.0809408
0
ARC
8
DEFAULT_255_1_234
10
8.7716732
20
171.4679911
40
0.3747796
50
45.9864267
51
64.1607727
0
ARC
8
DEFAULT_255_1_234
10
8.7977614
20
171.4977866
40
0.3352302
50
32.2747395
51
45.6547121
0
ARC
8
DEFAULT_255_1_234
10
8.8044054
20
171.499688
40
0.328603
50
359.6507365
51
32.6130309
0
ARC
8
DEFAULT_255_1_234
10
8.710115
20
171.500166
40
0.2678863
50
359.469343
51
14.9832209
0
ARC
8
DEFAULT_255_1_234
10
8.7806212
20
171.5190539
40
0.1948938
50
14.9781179
51
48.2004265
0
ARC
8
DEFAULT_255_1_234
10
8.7641856
20
171.4983983
40
0.2212521
50
48.5927837
51
74.1241538
0
ARC
8
DEFAULT_255_1_234
10
8.7308346
20
171.3883248
40
0.3362561
50
73.7888341
51
86.6652678
0
ARC
8
DEFAULT_255_1_234
10
8.7205911
20
171.2675881
40
0.4573953
50
86.2640471
51
90.0526343
0
ARC
8
DEFAULT_255_1_234
10
8.7177624
20
171.3071192
40
0.4178709
50
89.6697524
51
99.2309573
0
ARC
8
DEFAULT_255_1_234
10
8.6935075
20
171.4515964
40
0.2713749
50
99.069534
51
113.7658566
0
ARC
8
DEFAULT_255_1_234
10
8.6661266
20
171.5161677
40
0.2012469
50
114.0401004
51
127.9850673
0
ARC
8
DEFAULT_255_1_234
10
8.642083
20
171.545773
40
0.1631167
50
127.7287463
51
176.7105154
0
ARC
8
DEFAULT_255_1_234
10
8.7099547
20
171.5356693
40
0.2315392
50
175.1779447
51
180.0581938
0
ARC
8
DEFAULT_255_1_234
10
8.6256394
20
171.5344428
40
0.1472271
50
179.6142195
51
228.1246017
0
ARC
8
DEFAULT_255_1_234
10
8.6698063
20
171.5753308
40
0.2072299
50
226.5779593
51
230.8800004
0
ARC
8
DEFAULT_255_1_234
10
8.7169141
20
171.6378636
40
0.2854818
50
231.4635071
51
241.9260842
0
ARC
8
DEFAULT_255_1_234
10
8.8366319
20
171.85818
40
0.53622
50
241.7178533
51
248.3259551
0
ARC
8
DEFAULT_255_1_234
10
8.9751691
20
172.2014064
40
0.9063478
50
248.2007737
51
252.4528373
0
ARC
8
DEFAULT_255_1_234
10
9.0955416
20
172.5735441
40
1.2974635
50
252.3391078
51
254.3469452
0
ARC
8
DEFAULT_255_1_234
10
8.3413119
20
169.8758148
40
1.5037162
50
71.0197183
51
74.4087047
0
ARC
8
DEFAULT_255_1_234
10
8.5107804
20
170.3650111
40
0.9859993
50
66.1847285
51
71.086374
0
ARC
8
DEFAULT_255_1_234
10
8.6664116
20
170.71542
40
0.6025855
50
59.3536294
51
66.2691831
0
ARC
8
DEFAULT_255_1_234
10
8.7552769
20
170.8657609
40
0.4279449
50
49.1020879
51
59.3293958
0
ARC
8
DEFAULT_255_1_234
10
8.8371509
20
170.9590834
40
0.3038015
50
32.7919921
51
49.2505539
0
ARC
8
DEFAULT_255_1_234
10
8.8692599
20
170.9819191
40
0.264448
50
31.1181161
51
32.4005348
0
ARC
8
DEFAULT_255_1_234
10
8.8604136
20
170.9783779
40
0.2738556
50
8.1116974
51
30.7958831
0
ARC
8
DEFAULT_255_1_234
10
8.7793804
20
170.9645753
40
0.3560327
50
359.8389159
51
8.4706516
0
ARC
8
DEFAULT_255_1_234
10
8.8419596
20
170.9597137
40
0.2934776
50
337.4731098
51
0.7537279
0
ARC
8
DEFAULT_255_1_234
10
8.8598291
20
170.9577387
40
0.2762607
50
307.5917067
51
336.4315538
0
ARC
8
DEFAULT_255_1_234
10
8.8138119
20
171.0090102
40
0.3449979
50
307.6551545
51
308.4529766
0
ARC
8
DEFAULT_255_1_234
10
8.7907838
20
171.044525
40
0.3871988
50
284.3734338
51
307.1424381
0
ARC
8
DEFAULT_255_1_234
10
8.7412668
20
171.2266932
40
0.5759636
50
272.4382747
51
284.646547
0
ARC
8
DEFAULT_255_1_234
10
8.7285876
20
171.4066893
40
0.7563528
50
269.9708387
51
272.8178037
0
ARC
8
DEFAULT_255_1_234
10
8.7242916
20
171.2028716
40
0.5525489
50
248.2707594
51
270.4055579
0
ARC
8
DEFAULT_255_1_234
10
8.7188657
20
171.1838192
40
0.5328452
50
246.1383403
51
248.0542782
0
ARC
8
DEFAULT_255_1_234
10
8.6770036
20
171.0958843
40
0.4355005
50
233.1670131
51
246.4950969
0
ARC
8
DEFAULT_255_1_234
10
8.6215941
20
171.0210812
40
0.3424126
50
215.3403242
51
233.0843104
0
ARC
8
DEFAULT_255_1_234
10
8.5943372
20
171.0012549
40
0.3087104
50
179.2419209
51
215.2648451
0
ARC
8
DEFAULT_255_1_234
10
8.6710966
20
171.0026666
40
0.2304457
50
179.335461
51
199.1045811
0
ARC
8
DEFAULT_255_1_234
10
8.6378643
20
170.9939766
40
0.1962176
50
199.8828939
51
232.7063202
0
ARC
8
DEFAULT_255_1_234
10
8.6850911
20
171.0533788
40
0.2720938
50
232.3738199
51
255.5136649
0
ARC
8
DEFAULT_255_1_234
10
8.7191778
20
171.1777835
40
0.4010747
50
255.2446292
51
267.5320849
0
ARC
8
DEFAULT_255_1_234
10
8.7279401
20
171.3010702
40
0.5246356
50
267.1557994
51
270.0286766
0
ARC
8
DEFAULT_255_1_234
10
8.7307173
20
171.256695
40
0.4802668
50
269.7000017
51
278.1660162
0
ARC
8
DEFAULT_255_1_234
10
8.7563178
20
171.0836515
40
0.3053425
50
278.0231263
51
290.625471
0
ARC
8
DEFAULT_255_1_234
10
8.7910865
20
170.9909025
40
0.206291
50
290.6619762
51
307.0370976
0
ARC
8
DEFAULT_255_1_234
10
8.8211254
20
170.9540504
40
0.1587906
50
306.3943566
51
355.3030547
0
ARC
8
DEFAULT_255_1_234
10
8.7699186
20
170.9617113
40
0.2104809
50
354.3660432
51
0.0698737
0
ARC
8
DEFAULT_255_1_234
10
8.7841531
20
170.9639617
40
0.1962563
50
359.417946
51
16.1971788
0
ARC
8
DEFAULT_255_1_234
10
8.8296841
20
170.9764418
40
0.149053
50
16.4723299
51
52.6262157
0
ARC
8
DEFAULT_255_1_234
10
8.7475895
20
170.8680433
40
0.2850296
50
52.7386432
51
62.4979148
0
ARC
8
DEFAULT_255_1_234
10
8.6090972
20
170.6074283
40
0.5801521
50
62.2515216
51
68.1220564
0
ARC
8
DEFAULT_255_1_234
10
8.4370883
20
170.1846872
40
1.0365451
50
68.0062803
51
71.8053402
0
ARC
8
DEFAULT_255_1_234
10
8.2575255
20
169.6461758
40
1.6042013
50
71.7183119
51
73.9258742
0
LINE
8
DEFAULT_255_1_234
10
9.4984464
20
171.8358211
11
9.4984464
21
170.6664
0
LINE
8
DEFAULT_255_1_234
10
9.4984464
20
170.6664
11
9.344237
21
170.6664
0
LINE
8
DEFAULT_255_1_234
10
9.344237
20
170.6664
11
9.344237
21
171.8358211
0
LINE
8
DEFAULT_255_1_234
10
9.344237
20
171.8358211
11
9.4984464
21
171.8358211
0
LINE
8
DEFAULT_255_1_234
10
9.7803604
20
171.8358211
11
9.9795475
21
171.8358211
0
LINE
8
DEFAULT_255_1_234
10
9.9795475
20
171.8358211
11
10.3618583
21
170.8816506
0
LINE
8
DEFAULT_255_1_234
10
10.3618583
20
170.8816506
11
10.744169
21
171.8358211
0
LINE
8
DEFAULT_255_1_234
10
10.744169
20
171.8358211
11
10.9441593
21
171.8358211
0
LINE
8
DEFAULT_255_1_234
10
10.9441593
20
171.8358211
11
10.9441593
21
170.6664
0
LINE
8
DEFAULT_255_1_234
10
10.9441593
20
170.6664
11
10.7899499
21
170.6664
0
LINE
8
DEFAULT_255_1_234
10
10.7899499
20
170.6664
11
10.7899499
21
171.1217996
0
LINE
8
DEFAULT_255_1_234
10
10.7899499
20
171.1217996
11
10.804407
21
171.6133419
0
LINE
8
DEFAULT_255_1_234
10
10.804407
20
171.6133419
11
10.4204899
21
170.6664
0
LINE
8
DEFAULT_255_1_234
10
10.4204899
20
170.6664
11
10.3024234
21
170.6664
0
LINE
8
DEFAULT_255_1_234
10
10.3024234
20
170.6664
11
9.9193095
21
171.6109324
0
LINE
8
DEFAULT_255_1_234
10
9.9193095
20
171.6109324
11
9.9345698
21
171.1217996
0
LINE
8
DEFAULT_255_1_234
10
9.9345698
20
171.1217996
11
9.9345698
21
170.6664
0
LINE
8
DEFAULT_255_1_234
10
9.9345698
20
170.6664
11
9.7803604
21
170.6664
0
LINE
8
DEFAULT_255_1_234
10
9.7803604
20
170.6664
11
9.7803604
21
171.8358211
0
LINE
8
DEFAULT_255_1_234
10
11.9882853
20
170.6664
11
11.8766441
21
170.9716061
0
LINE
8
DEFAULT_255_1_234
10
11.8766441
20
170.9716061
11
11.3867081
21
170.9716061
0
LINE
8
DEFAULT_255_1_234
10
11.3867081
20
170.9716061
11
11.2766732
21
170.6664
0
LINE
8
DEFAULT_255_1_234
10
11.2766732
20
170.6664
11
11.1176448
21
170.6664
0
LINE
8
DEFAULT_255_1_234
10
11.1176448
20
170.6664
11
11.5642095
21
171.8358211
0
LINE
8
DEFAULT_255_1_234
10
11.5642095
20
171.8358211
11
11.6991427
21
171.8358211
0
LINE
8
DEFAULT_255_1_234
10
11.6991427
20
171.8358211
11
12.1465105
21
170.6664
0
LINE
8
DEFAULT_255_1_234
10
12.1465105
20
170.6664
11
11.9882853
21
170.6664
0
LINE
8
DEFAULT_255_1_234
10
11.6316761
20
171.6454689
11
11.4332921
21
171.0985075
0
LINE
8
DEFAULT_255_1_234
10
11.4332921
20
171.0985075
11
11.8308632
21
171.0985075
0
LINE
8
DEFAULT_255_1_234
10
11.8308632
20
171.0985075
11
11.6316761
21
171.6454689
0
LINE
8
DEFAULT_255_1_234
10
13.008316
20
171.8358211
11
13.008316
21
171.7089196
0
LINE
8
DEFAULT_255_1_234
10
13.008316
20
171.7089196
11
12.6324307
21
171.7089196
0
LINE
8
DEFAULT_255_1_234
10
12.6324307
20
171.7089196
11
12.6324307
21
170.6664
0
LINE
8
DEFAULT_255_1_234
10
12.6324307
20
170.6664
11
12.4790245
21
170.6664
0
LINE
8
DEFAULT_255_1_234
10
12.4790245
20
170.6664
11
12.4790245
21
171.7089196
0
LINE
8
DEFAULT_255_1_234
10
12.4790245
20
171.7089196
11
12.1039423
21
171.7089196
0
LINE
8
DEFAULT_255_1_234
10
12.1039423
20
171.7089196
11
12.1039423
21
171.8358211
0
LINE
8
DEFAULT_255_1_234
10
12.1039423
20
171.8358211
11
13.008316
21
171.8358211
0
LINE
8
DEFAULT_255_1_234
10
13.3472554
20
171.8358211
11
13.3472554
21
170.6664
0
LINE
8
DEFAULT_255_1_234
10
13.3472554
20
170.6664
11
13.193046
21
170.6664
0
LINE
8
DEFAULT_255_1_234
10
13.193046
20
170.6664
11
13.193046
21
171.8358211
0
LINE
8
DEFAULT_255_1_234
10
13.193046
20
171.8358211
11
13.3472554
21
171.8358211
0
LINE
8
DEFAULT_255_1_234
10
14.334356
20
171.0374663
11
14.4893686
21
171.0374663
0
LINE
8
DEFAULT_255_1_234
10
13.5890107
20
171.1964947
11
13.5890107
21
171.3089391
0
LINE
8
DEFAULT_255_1_234
10
14.4893686
20
171.4599357
11
14.334356
21
171.4599357
0
LINE
8
DEFAULT_255_1_234
10
13.7440232
20
171.3049232
11
13.7440232
21
171.1916757
0
ARC
8
DEFAULT_255_1_234
10
13.9413072
20
171.0971846
40
0.5513052
50
340.1774281
51
353.7814284
0
ARC
8
DEFAULT_255_1_234
10
14.0984425
20
171.0386582
40
0.3836379
50
311.4558989
51
340.4421614
0
ARC
8
DEFAULT_255_1_234
10
14.0951093
20
171.0497528
40
0.3941894
50
282.4333181
51
310.7513653
0
ARC
8
DEFAULT_255_1_234
10
14.0511832
20
171.2312679
40
0.5809175
50
269.9358511
51
282.809604
0
ARC
8
DEFAULT_255_1_234
10
14.0459899
20
171.3770212
40
0.7266847
50
270.0021091
51
270.3581957
0
ARC
8
DEFAULT_255_1_234
10
14.0407315
20
171.1169585
40
0.4666519
50
250.7884749
51
270.6489167
0
ARC
8
DEFAULT_255_1_234
10
14.023915
20
171.0532319
40
0.4009729
50
219.3627325
51
250.0611886
0
ARC
8
DEFAULT_255_1_234
10
14.1068361
20
171.1237042
40
0.5097822
50
193.5479632
51
219.5756669
0
ARC
8
DEFAULT_255_1_234
10
14.3439982
20
171.1852919
40
0.7547848
50
181.1218675
51
193.87563
0
ARC
8
DEFAULT_255_1_234
10
14.5510163
20
171.196358
40
0.9620055
50
179.9918545
51
181.5394234
0
ARC
8
DEFAULT_255_1_234
10
14.3659265
20
171.3126788
40
0.7769248
50
169.5837241
51
180.2757934
0
ARC
8
DEFAULT_255_1_234
10
14.1822203
20
171.3466229
40
0.590109
50
155.0365899
51
169.6003176
0
ARC
8
DEFAULT_255_1_234
10
14.0686667
20
171.4013677
40
0.4640625
50
136.783148
51
155.2472683
0
ARC
8
DEFAULT_255_1_234
10
14.0297144
20
171.4344562
40
0.4130255
50
121.7633186
51
136.428115
0
ARC
8
DEFAULT_255_1_234
10
14.0432106
20
171.4095227
40
0.4413323
50
95.6459699
51
121.5490577
0
ARC
8
DEFAULT_255_1_234
10
14.0589388
20
171.2986949
40
0.55319
50
89.924208
51
96.1377933
0
ARC
8
DEFAULT_255_1_234
10
14.0639821
20
171.3105542
40
0.5413475
50
76.6779277
51
90.4563316
0
ARC
8
DEFAULT_255_1_234
10
14.1033444
20
171.4696114
40
0.3775041
50
47.485847
51
76.9287264
0
ARC
8
DEFAULT_255_1_234
10
14.0886417
20
171.4596159
40
0.3948286
50
16.5424086
51
46.8933463
0
ARC
8
DEFAULT_255_1_234
10
13.9278574
20
171.4067861
40
0.564021
50
5.4072051
51
17.0365086
0
ARC
8
DEFAULT_255_1_234
10
13.7839591
20
171.3836679
40
0.5556559
50
7.8891745
51
15.9239216
0
ARC
8
DEFAULT_255_1_234
10
13.9826605
20
171.4413631
40
0.3487515
50
15.7653144
51
27.9410532
0
ARC
8
DEFAULT_255_1_234
10
14.0930822
20
171.500479
40
0.2235026
50
27.8166557
51
46.4008329
0
ARC
8
DEFAULT_255_1_234
10
14.0980465
20
171.4999082
40
0.2205286
50
47.4371857
51
75.0698205
0
ARC
8
DEFAULT_255_1_234
10
14.067186
20
171.3924765
40
0.3322915
50
74.7008593
51
87.8124495
0
ARC
8
DEFAULT_255_1_234
10
14.0598547
20
171.2868844
40
0.4380987
50
87.3814673
51
90.0240855
0
ARC
8
DEFAULT_255_1_234
10
14.0560091
20
171.4046291
40
0.3203749
50
89.3451631
51
108.5745436
0
ARC
8
DEFAULT_255_1_234
10
14.0423196
20
171.4559908
40
0.2673494
50
109.2998449
51
143.3037509
0
ARC
8
DEFAULT_255_1_234
10
14.1185268
20
171.3973881
40
0.3634757
50
143.0753173
51
163.1916937
0
ARC
8
DEFAULT_255_1_234
10
14.3136996
20
171.3357967
40
0.5681262
50
162.9373603
51
174.6208611
0
ARC
8
DEFAULT_255_1_234
10
14.5763038
20
171.307001
40
0.8322832
50
174.3419979
51
180.1430411
0
ARC
8
DEFAULT_255_1_234
10
14.4832194
20
171.1875698
40
0.7392076
50
179.6817502
51
189.150529
0
ARC
8
DEFAULT_255_1_234
10
14.2331443
20
171.145919
40
0.4856932
50
188.9910863
51
203.5773039
0
ARC
8
DEFAULT_255_1_234
10
14.1251775
20
171.1011211
40
0.3688271
50
203.9077269
51
215.1312379
0
ARC
8
DEFAULT_255_1_234
10
14.0328869
20
171.0295941
40
0.2522457
50
213.9071664
51
263.8849284
0
ARC
8
DEFAULT_255_1_234
10
14.0454198
20
171.1080518
40
0.3316174
50
263.1758525
51
270.1031083
0
ARC
8
DEFAULT_255_1_234
10
14.048629
20
171.2327365
40
0.4563091
50
269.6719807
51
279.0609165
0
ARC
8
DEFAULT_255_1_234
10
14.0753058
20
171.0714907
40
0.2928759
50
278.8750225
51
293.6346586
0
ARC
8
DEFAULT_255_1_234
10
14.1073266
20
170.99629
40
0.2111472
50
293.8553404
51
310.0518804
0
ARC
8
DEFAULT_255_1_234
10
14.107812
20
170.9900516
40
0.2060917
50
311.0646779
51
332.0108348
0
ARC
8
DEFAULT_255_1_234
10
13.9885847
20
171.0557978
40
0.3422352
50
331.6588543
51
343.2878891
0
ARC
8
DEFAULT_255_1_234
10
13.7823362
20
171.1191798
40
0.5580003
50
343.1446044
51
351.010618
0
ARC
8
DEFAULT_255_1_234
10
13.6282008
20
171.1472871
40
0.7146438
50
350.7157277
51
351.1602153
0
LINE
8
DEFAULT_255_1_234
10
15.8828751
20
171.4976849
11
15.7278626
21
171.4976849
0
LINE
8
DEFAULT_255_1_234
10
15.0355268
20
171.0053394
11
15.1905393
21
171.0053394
0
ARC
8
DEFAULT_255_1_234
10
15.7937439
20
172.3923768
40
1.252368
50
248.9199003
51
254.1439814
0
ARC
8
DEFAULT_255_1_234
10
15.6256934
20
171.9597234
40
0.788226
50
241.633709
51
249.0064503
0
ARC
8
DEFAULT_255_1_234
10
15.4728328
20
171.6796317
40
0.4691427
50
230.498225
51
241.8087113
0
ARC
8
DEFAULT_255_1_234
10
15.3943902
20
171.5796906
40
0.3421437
50
227.4064532
51
229.9881192
0
ARC
8
DEFAULT_255_1_234
10
15.3456423
20
171.5321088
40
0.2741476
50
200.6781896
51
228.1763934
0
ARC
8
DEFAULT_255_1_234
10
15.3528734
20
171.5306077
40
0.2804109
50
179.5061581
51
199.8694617
0
ARC
8
DEFAULT_255_1_234
10
15.3519485
20
171.538021
40
0.2795204
50
132.4834203
51
181.0242172
0
ARC
8
DEFAULT_255_1_234
10
15.4115068
20
171.4817704
40
0.3612768
50
129.2532479
51
133.4242687
0
ARC
8
DEFAULT_255_1_234
10
15.4261517
20
171.4597965
40
0.3875675
50
101.98776
51
128.8742646
0
ARC
8
DEFAULT_255_1_234
10
15.4660128
20
171.2876741
40
0.5642249
50
89.5906553
51
102.3169264
0
ARC
8
DEFAULT_255_1_234
10
15.473062
20
171.3195148
40
0.5323783
50
77.2360837
51
90.3248275
0
ARC
8
DEFAULT_255_1_234
10
15.4937699
20
171.41624
40
0.4334697
50
63.837784
51
77.0809408
0
ARC
8
DEFAULT_255_1_234
10
15.5215461
20
171.4679911
40
0.3747796
50
45.9864267
51
64.1607727
0
ARC
8
DEFAULT_255_1_234
10
15.5476342
20
171.4977866
40
0.3352302
50
32.2747395
51
45.6547121
0
ARC
8
DEFAULT_255_1_234
10
15.5542783
20
171.499688
40
0.328603
50
359.6507365
51
32.6130309
0
ARC
8
DEFAULT_255_1_234
10
15.4599878
20
171.500166
40
0.2678863
50
359.469343
51
14.9832209
0
ARC
8
DEFAULT_255_1_234
10
15.5304941
20
171.5190539
40
0.1948938
50
14.9781179
51
48.2004265
0
ARC
8
DEFAULT_255_1_234
10
15.5140585
20
171.4983983
40
0.2212521
50
48.5927837
51
74.1241538
0
ARC
8
DEFAULT_255_1_234
10
15.4807074
20
171.3883248
40
0.3362561
50
73.7888341
51
86.6652678
0
ARC
8
DEFAULT_255_1_234
10
15.470464
20
171.2675881
40
0.4573953
50
86.2640471
51
90.0526343
0
ARC
8
DEFAULT_255_1_234
10
15.4676352
20
171.3071192
40
0.4178709
50
89.6697524
51
99.2309573
0
ARC
8
DEFAULT_255_1_234
10
15.4433803
20
171.4515964
40
0.2713749
50
99.069534
51
113.7658566
0
ARC
8
DEFAULT_255_1_234
10
15.4159994
20
171.5161677
40
0.2012469
50
114.0401004
51
127.9850673
0
ARC
8
DEFAULT_255_1_234
10
15.3919558
20
171.545773
40
0.1631167
50
127.7287463
51
176.7105154
0
ARC
8
DEFAULT_255_1_234
10
15.4598276
20
171.5356693
40
0.2315392
50
175.1779447
51
180.0581938
0
ARC
8
DEFAULT_255_1_234
10
15.3755123
20
171.5344428
40
0.1472271
50
179.6142195
51
228.1246017
0
ARC
8
DEFAULT_255_1_234
10
15.4196791
20
171.5753308
40
0.2072299
50
226.5779593
51
230.8800004
0
ARC
8
DEFAULT_255_1_234
10
15.466787
20
171.6378636
40
0.2854818
50
231.4635071
51
241.9260842
0
ARC
8
DEFAULT_255_1_234
10
15.5865048
20
171.85818
40
0.53622
50
241.7178533
51
248.3259551
0
ARC
8
DEFAULT_255_1_234
10
15.725042
20
172.2014064
40
0.9063478
50
248.2007737
51
252.4528373
0
ARC
8
DEFAULT_255_1_234
10
15.8454145
20
172.5735441
40
1.2974635
50
252.3391078
51
254.3469452
0
ARC
8
DEFAULT_255_1_234
10
15.0911847
20
169.8758148
40
1.5037162
50
71.0197183
51
74.4087047
0
ARC
8
DEFAULT_255_1_234
10
15.2606532
20
170.3650111
40
0.9859993
50
66.1847285
51
71.086374
0
ARC
8
DEFAULT_255_1_234
10
15.4162845
20
170.71542
40
0.6025855
50
59.3536294
51
66.2691831
0
ARC
8
DEFAULT_255_1_234
10
15.5051497
20
170.8657609
40
0.4279449
50
49.1020879
51
59.3293958
0
ARC
8
DEFAULT_255_1_234
10
15.5870237
20
170.9590834
40
0.3038015
50
32.7919921
51
49.2505539
0
ARC
8
DEFAULT_255_1_234
10
15.6191327
20
170.9819191
40
0.264448
50
31.1181161
51
32.4005348
0
ARC
8
DEFAULT_255_1_234
10
15.6102865
20
170.9783779
40
0.2738556
50
8.1116974
51
30.7958831
0
ARC
8
DEFAULT_255_1_234
10
15.5292533
20
170.9645753
40
0.3560327
50
359.8389159
51
8.4706516
0
ARC
8
DEFAULT_255_1_234
10
15.5918324
20
170.9597137
40
0.2934776
50
337.4731098
51
0.7537279
0
ARC
8
DEFAULT_255_1_234
10
15.6097019
20
170.9577387
40
0.2762607
50
307.5917067
51
336.4315538
0
ARC
8
DEFAULT_255_1_234
10
15.5636847
20
171.0090102
40
0.3449979
50
307.6551545
51
308.4529766
0
ARC
8
DEFAULT_255_1_234
10
15.5406566
20
171.044525
40
0.3871988
50
284.3734338
51
307.1424381
0
ARC
8
DEFAULT_255_1_234
10
15.4911396
20
171.2266932
40
0.5759636
50
272.4382747
51
284.646547
0
ARC
8
DEFAULT_255_1_234
10
15.4784605
20
171.4066893
40
0.7563528
50
269.9708387
51
272.8178037
0
ARC
8
DEFAULT_255_1_234
10
15.4741645
20
171.2028716
40
0.5525489
50
248.2707594
51
270.4055579
0
ARC
8
DEFAULT_255_1_234
10
15.4687386
20
171.1838192
40
0.5328452
50
246.1383403
51
248.0542782
0
ARC
8
DEFAULT_255_1_234
10
15.4268765
20
171.0958843
40
0.4355005
50
233.1670131
51
246.4950969
0
ARC
8
DEFAULT_255_1_234
10
15.371467
20
171.0210812
40
0.3424126
50
215.3403242
51
233.0843104
0
ARC
8
DEFAULT_255_1_234
10
15.3442101
20
171.0012549
40
0.3087104
50
179.2419209
51
215.2648451
0
ARC
8
DEFAULT_255_1_234
10
15.4209695
20
171.0026666
40
0.2304457
50
179.335461
51
199.1045811
0
ARC
8
DEFAULT_255_1_234
10
15.3877371
20
170.9939766
40
0.1962176
50
199.8828939
51
232.7063202
0
ARC
8
DEFAULT_255_1_234
10
15.434964
20
171.0533788
40
0.2720938
50
232.3738199
51
255.5136649
0
ARC
8
DEFAULT_255_1_234
10
15.4690506
20
171.1777835
40
0.4010747
50
255.2446292
51
267.5320849
0
ARC
8
DEFAULT_255_1_234
10
15.477813
20
171.3010702
40
0.5246356
50
267.1557994
51
270.0286766
0
ARC
8
DEFAULT_255_1_234
10
15.4805902
20
171.256695
40
0.4802668
50
269.7000017
51
278.1660162
0
ARC
8
DEFAULT_255_1_234
10
15.5061907
20
171.0836515
40
0.3053425
50
278.0231263
51
290.625471
0
ARC
8
DEFAULT_255_1_234
10
15.5409594
20
170.9909025
40
0.206291
50
290.6619762
51
307.0370976
0
ARC
8
DEFAULT_255_1_234
10
15.5709983
20
170.9540504
40
0.1587906
50
306.3943566
51
355.3030547
0
ARC
8
DEFAULT_255_1_234
10
15.5197914
20
170.9617113
40
0.2104809
50
354.3660432
51
0.0698737
0
ARC
8
DEFAULT_255_1_234
10
15.534026
20
170.9639617
40
0.1962563
50
359.417946
51
16.1971788
0
ARC
8
DEFAULT_255_1_234
10
15.579557
20
170.9764418
40
0.149053
50
16.4723299
51
52.6262157
0
ARC
8
DEFAULT_255_1_234
10
15.4974624
20
170.8680433
40
0.2850296
50
52.7386432
51
62.4979148
0
ARC
8
DEFAULT_255_1_234
10
15.3589701
20
170.6074283
40
0.5801521
50
62.2515216
51
68.1220564
0
ARC
8
DEFAULT_255_1_234
10
15.1869612
20
170.1846872
40
1.0365451
50
68.0062803
51
71.8053402
0
ARC
8
DEFAULT_255_1_234
10
15.0073983
20
169.6461758
40
1.6042013
50
71.7183119
51
73.9258742
0
LINE
8
DEFAULT_255_1_234
10
16.7992965
20
171.8358211
11
16.7992965
21
171.752291
0
LINE
8
DEFAULT_255_1_234
10
16.7992965
20
171.752291
11
16.3149827
21
170.6664
0
LINE
8
DEFAULT_255_1_234
10
16.3149827
20
170.6664
11
16.1591669
21
170.6664
0
LINE
8
DEFAULT_255_1_234
10
16.1591669
20
170.6664
11
16.6418744
21
171.7137387
0
LINE
8
DEFAULT_255_1_234
10
16.6418744
20
171.7137387
11
16.0089734
21
171.7137387
0
LINE
8
DEFAULT_255_1_234
10
16.0089734
20
171.7137387
11
16.0089734
21
171.8358211
0
LINE
8
DEFAULT_255_1_234
10
16.0089734
20
171.8358211
11
16.7992965
21
171.8358211
0
LINE
8
DEFAULT_255_1_234
10
17.2924452
20
171.2238026
11
17.2924452
21
171.1025234
0
LINE
8
DEFAULT_255_1_234
10
17.2924452
20
171.1025234
11
16.9004964
21
171.1025234
0
LINE
8
DEFAULT_255_1_234
10
16.9004964
20
171.1025234
11
16.9004964
21
171.2238026
0
LINE
8
DEFAULT_255_1_234
10
16.9004964
20
171.2238026
11
17.2924452
21
171.2238026
0
LINE
8
DEFAULT_255_1_234
10
18.049035
20
171.8358211
11
18.049035
21
171.059152
0
LINE
8
DEFAULT_255_1_234
10
18.049035
20
171.059152
11
18.2112761
21
171.059152
0
LINE
8
DEFAULT_255_1_234
10
18.2112761
20
171.059152
11
18.2112761
21
170.9378728
0
LINE
8
DEFAULT_255_1_234
10
18.2112761
20
170.9378728
11
18.049035
21
170.9378728
0
LINE
8
DEFAULT_255_1_234
10
18.049035
20
170.9378728
11
18.049035
21
170.6664
0
LINE
8
DEFAULT_255_1_234
10
18.049035
20
170.6664
11
17.8996446
21
170.6664
0
LINE
8
DEFAULT_255_1_234
10
17.8996446
20
170.6664
11
17.8996446
21
170.9378728
0
LINE
8
DEFAULT_255_1_234
10
17.8996446
20
170.9378728
11
17.3671404
21
170.9378728
0
LINE
8
DEFAULT_255_1_234
10
17.3671404
20
170.9378728
11
17.3671404
21
171.0254187
0
LINE
8
DEFAULT_255_1_234
10
17.3671404
20
171.0254187
11
17.8908097
21
171.8358211
0
LINE
8
DEFAULT_255_1_234
10
17.8908097
20
171.8358211
11
18.049035
21
171.8358211
0
LINE
8
DEFAULT_255_1_234
10
17.8819748
20
171.6004912
11
17.5358069
21
171.059152
0
LINE
8
DEFAULT_255_1_234
10
17.5358069
20
171.059152
11
17.8996446
21
171.059152
0
LINE
8
DEFAULT_255_1_234
10
17.8996446
20
171.059152
11
17.8996446
21
171.6326181
0
LINE
8
DEFAULT_255_1_234
10
17.8996446
20
171.6326181
11
17.8819748
21
171.6004912
0
LINE
8
DEFAULT_255_1_234
10
19.0787038
20
171.3579327
11
19.0787038
21
171.1651709
0
LINE
8
DEFAULT_255_1_234
10
18.3405871
20
171.1450916
11
18.3405871
21
171.3434755
0
LINE
8
DEFAULT_255_1_234
10
18.9301167
20
171.1250123
11
18.9301167
21
171.3683739
0
LINE
8
DEFAULT_255_1_234
10
18.4891742
20
171.3796184
11
18.4891742
21
171.1418789
0
ARC
8
DEFAULT_255_1_234
10
17.8539928
20
171.1602805
40
1.2247208
50
353.8441951
51
0.2287902
0
ARC
8
DEFAULT_255_1_234
10
18.3179431
20
171.1084806
40
0.7578929
50
344.4934747
51
353.9765454
0
ARC
8
DEFAULT_255_1_234
10
18.6172022
20
171.0233981
40
0.4467846
50
329.2803592
51
344.7472793
0
ARC
8
DEFAULT_255_1_234
10
18.7164846
20
170.9689018
40
0.3336173
50
324.9352394
51
328.6160465
0
ARC
8
DEFAULT_255_1_234
10
18.7541955
20
170.9425427
40
0.2876076
50
280.580143
51
324.9173126
0
ARC
8
DEFAULT_255_1_234
10
18.7140748
20
171.1096099
40
0.4592847
50
269.5977311
51
281.6734359
0
ARC
8
DEFAULT_255_1_234
10
18.7068653
20
171.0976173
40
0.4472986
50
256.6228859
51
270.51044
0
ARC
8
DEFAULT_255_1_234
10
18.6666631
20
170.9427877
40
0.2873874
50
215.8618325
51
257.2788573
0
ARC
8
DEFAULT_255_1_234
10
18.7687663
20
171.0112977
40
0.4102928
50
197.9693508
51
215.2623606
0
ARC
8
DEFAULT_255_1_234
10
19.0172778
20
171.0951709
40
0.6725652
50
187.8816417
51
198.2346507
0
ARC
8
DEFAULT_255_1_234
10
19.4130987
20
171.1523079
40
1.0724845
50
180.8976217
51
188.0055519
0
ARC
8
DEFAULT_255_1_234
10
19.6931175
20
171.1626777
40
1.3526448
50
180.7449369
51
181.1510016
0
ARC
8
DEFAULT_255_1_234
10
19.5353904
20
171.3483042
40
1.1948131
50
173.7675579
51
180.231553
0
ARC
8
DEFAULT_255_1_234
10
19.083605
20
171.3993666
40
0.7401564
50
164.3058563
51
173.9002247
0
ARC
8
DEFAULT_255_1_234
10
18.7924119
20
171.4832656
40
0.4371288
50
148.7922025
51
164.568378
0
ARC
8
DEFAULT_255_1_234
10
18.6972571
20
171.5363929
40
0.3282386
50
144.5883898
51
148.1176286
0
ARC
8
DEFAULT_255_1_234
10
18.6629469
20
171.5603315
40
0.2864044
50
101.6440918
51
144.514236
0
ARC
8
DEFAULT_255_1_234
10
18.7054536
20
171.3914069
40
0.4604934
50
89.5284041
51
102.5819763
0
ARC
8
DEFAULT_255_1_234
10
18.7133624
20
171.3875018
40
0.464401
50
77.0437873
51
90.5081339
0
ARC
8
DEFAULT_255_1_234
10
18.7535626
20
171.5517615
40
0.2953195
50
48.2778575
51
77.4994676
0
ARC
8
DEFAULT_255_1_234
10
18.7608257
20
171.5646746
40
0.2808655
50
36.3142134
51
47.6305865
0
ARC
8
DEFAULT_255_1_234
10
18.6739564
20
171.5061515
40
0.3855453
50
18.2931786
51
35.6769206
0
ARC
8
DEFAULT_255_1_234
10
18.4196323
20
171.4188593
40
0.654423
50
8.024666
51
18.5605216
0
ARC
8
DEFAULT_255_1_234
10
18.0033243
20
171.3573792
40
1.0752407
50
1.1274072
51
8.1718305
0
ARC
8
DEFAULT_255_1_234
10
17.6797433
20
171.3446885
40
1.3990231
50
0.5424119
51
1.3863029
0
ARC
8
DEFAULT_255_1_234
10
17.8618811
20
171.3719342
40
1.0682415
50
359.8090433
51
4.9407866
0
ARC
8
DEFAULT_255_1_234
10
18.2828825
20
171.4095113
40
0.6455691
50
4.8362157
51
12.2904523
0
ARC
8
DEFAULT_255_1_234
10
18.558394
20
171.4708965
40
0.3633074
50
12.0805627
51
23.8173984
0
ARC
8
DEFAULT_255_1_234
10
18.6757645
20
171.5205919
40
0.2358723
50
24.2871213
51
31.3935614
0
ARC
8
DEFAULT_255_1_234
10
18.7282342
20
171.5549233
40
0.1732111
50
30.7407893
51
82.4657128
0
ARC
8
DEFAULT_255_1_234
10
18.7102477
20
171.4665691
40
0.263235
50
81.1060089
51
90.2184952
0
ARC
8
DEFAULT_255_1_234
10
18.7066776
20
171.4923924
40
0.2374236
50
89.3806855
51
105.6762551
0
ARC
8
DEFAULT_255_1_234
10
18.6883406
20
171.5590567
40
0.1682847
50
105.7981136
51
149.7388061
0
ARC
8
DEFAULT_255_1_234
10
18.7947485
20
171.495095
40
0.2924306
50
149.4208916
51
163.6286378
0
ARC
8
DEFAULT_255_1_234
10
19.0038373
20
171.431325
40
0.5110213
50
163.3763315
51
172.1410975
0
ARC
8
DEFAULT_255_1_234
10
19.3339092
20
171.3840518
40
0.8444586
50
172.0259487
51
178.0703232
0
ARC
8
DEFAULT_255_1_234
10
19.6369181
20
171.3696906
40
1.1477868
50
177.8631668
51
179.5044149
0
ARC
8
DEFAULT_255_1_234
10
19.5296586
20
171.1382389
40
1.0404907
50
179.7995573
51
185.2460446
0
ARC
8
DEFAULT_255_1_234
10
19.1253625
20
171.0999513
40
0.6343885
50
185.1411642
51
193.0079639
0
ARC
8
DEFAULT_255_1_234
10
18.8610097
20
171.0374641
40
0.3627568
50
192.7897626
51
205.2507664
0
ARC
8
DEFAULT_255_1_234
10
18.7563644
20
170.9907415
40
0.2481908
50
205.8005384
51
211.2537509
0
ARC
8
DEFAULT_255_1_234
10
18.7040085
20
170.955658
40
0.1852521
50
210.3789793
51
238.4008143
0
ARC
8
DEFAULT_255_1_234
10
18.7020607
20
170.9603376
40
0.1882621
50
239.6520629
51
265.9793761
0
ARC
8
DEFAULT_255_1_234
10
18.7105807
20
171.0275427
40
0.2559272
50
265.1315437
51
270.060332
0
ARC
8
DEFAULT_255_1_234
10
18.7134586
20
170.9951534
40
0.2235528
50
269.3314664
51
287.2178029
0
ARC
8
DEFAULT_255_1_234
10
18.7272438
20
170.9448279
40
0.1714108
50
287.7958004
51
329.080874
0
ARC
8
DEFAULT_255_1_234
10
18.6314894
20
171.004593
40
0.2842745
50
328.6634704
51
343.3325132
0
ARC
8
DEFAULT_255_1_234
10
18.4141915
20
171.0722863
40
0.5118644
50
343.0499468
51
351.9393422
0
ARC
8
DEFAULT_255_1_234
10
18.0675215
20
171.1233949
40
0.8622784
50
351.8069023
51
357.7959224
0
ARC
8
DEFAULT_255_1_234
10
17.7439771
20
171.1401721
40
1.1862365
50
357.5871873
51
359.2677531
0
LINE
8
DEFAULT_255_1_234
10
20.0023537
20
171.3579327
11
20.0023537
21
171.1651709
0
LINE
8
DEFAULT_255_1_234
10
19.264237
20
171.1450916
11
19.264237
21
171.3434755
0
LINE
8
DEFAULT_255_1_234
10
19.8537666
20
171.1250123
11
19.8537666
21
171.3683739
0
LINE
8
DEFAULT_255_1_234
10
19.4128241
20
171.3796184
11
19.4128241
21
171.1418789
0
ARC
8
DEFAULT_255_1_234
10
18.7776427
20
171.1602805
40
1.2247208
50
353.8441951
51
0.2287902
0
ARC
8
DEFAULT_255_1_234
10
19.241593
20
171.1084806
40
0.7578929
50
344.4934747
51
353.9765454
0
ARC
8
DEFAULT_255_1_234
10
19.5408521
20
171.0233981
40
0.4467846
50
329.2803592
51
344.7472793
0
ARC
8
DEFAULT_255_1_234
10
19.6401345
20
170.9689018
40
0.3336173
50
324.9352394
51
328.6160465
0
ARC
8
DEFAULT_255_1_234
10
19.6778454
20
170.9425427
40
0.2876076
50
280.580143
51
324.9173126
0
ARC
8
DEFAULT_255_1_234
10
19.6377247
20
171.1096099
40
0.4592847
50
269.5977311
51
281.6734359
0
ARC
8
DEFAULT_255_1_234
10
19.6305152
20
171.0976173
40
0.4472986
50
256.6228859
51
270.51044
0
ARC
8
DEFAULT_255_1_234
10
19.590313
20
170.9427877
40
0.2873874
50
215.8618325
51
257.2788573
0
ARC
8
DEFAULT_255_1_234
10
19.6924162
20
171.0112977
40
0.4102928
50
197.9693508
51
215.2623606
0
ARC
8
DEFAULT_255_1_234
10
19.9409277
20
171.0951709
40
0.6725652
50
187.8816417
51
198.2346507
0
ARC
8
DEFAULT_255_1_234
10
20.3367486
20
171.1523079
40
1.0724845
50
180.8976217
51
188.0055519
0
ARC
8
DEFAULT_255_1_234
10
20.6167674
20
171.1626777
40
1.3526448
50
180.7449369
51
181.1510016
0
ARC
8
DEFAULT_255_1_234
10
20.4590403
20
171.3483042
40
1.1948131
50
173.7675579
51
180.231553
0
ARC
8
DEFAULT_255_1_234
10
20.0072549
20
171.3993666
40
0.7401564
50
164.3058563
51
173.9002247
0
ARC
8
DEFAULT_255_1_234
10
19.7160618
20
171.4832656
40
0.4371288
50
148.7922025
51
164.568378
0
ARC
8
DEFAULT_255_1_234
10
19.620907
20
171.5363929
40
0.3282386
50
144.5883898
51
148.1176286
0
ARC
8
DEFAULT_255_1_234
10
19.5865968
20
171.5603315
40
0.2864044
50
101.6440918
51
144.514236
0
ARC
8
DEFAULT_255_1_234
10
19.6291035
20
171.3914069
40
0.4604934
50
89.5284041
51
102.5819763
0
ARC
8
DEFAULT_255_1_234
10
19.6370123
20
171.3875018
40
0.464401
50
77.0437873
51
90.5081339
0
ARC
8
DEFAULT_255_1_234
10
19.6772125
20
171.5517615
40
0.2953195
50
48.2778575
51
77.4994676
0
ARC
8
DEFAULT_255_1_234
10
19.6844756
20
171.5646746
40
0.2808655
50
36.3142134
51
47.6305865
0
ARC
8
DEFAULT_255_1_234
10
19.5976063
20
171.5061515
40
0.3855453
50
18.2931786
51
35.6769206
0
ARC
8
DEFAULT_255_1_234
10
19.3432822
20
171.4188593
40
0.654423
50
8.024666
51
18.5605216
0
ARC
8
DEFAULT_255_1_234
10
18.9269742
20
171.3573792
40
1.0752407
50
1.1274072
51
8.1718305
0
ARC
8
DEFAULT_255_1_234
10
18.6033932
20
171.3446885
40
1.3990231
50
0.5424119
51
1.3863029
0
ARC
8
DEFAULT_255_1_234
10
18.785531
20
171.3719342
40
1.0682415
50
359.8090433
51
4.9407866
0
ARC
8
DEFAULT_255_1_234
10
19.2065324
20
171.4095113
40
0.6455691
50
4.8362157
51
12.2904523
0
ARC
8
DEFAULT_255_1_234
10
19.4820439
20
171.4708965
40
0.3633074
50
12.0805627
51
23.8173984
0
ARC
8
DEFAULT_255_1_234
10
19.5994144
20
171.5205919
40
0.2358723
50
24.2871213
51
31.3935614
0
ARC
8
DEFAULT_255_1_234
10
19.6518841
20
171.5549233
40
0.1732111
50
30.7407893
51
82.4657128
0
ARC
8
DEFAULT_255_1_234
10
19.6338976
20
171.4665691
40
0.263235
50
81.1060089
51
90.2184952
0
ARC
8
DEFAULT_255_1_234
10
19.6303275
20
171.4923924
40
0.2374236
50
89.3806855
51
105.6762551
0
ARC
8
DEFAULT_255_1_234
10
19.6119905
20
171.5590567
40
0.1682847
50
105.7981136
51
149.7388061
0
ARC
8
DEFAULT_255_1_234
10
19.7183984
20
171.495095
40
0.2924306
50
149.4208916
51
163.6286378
0
ARC
8
DEFAULT_255_1_234
10
19.9274872
20
171.431325
40
0.5110213
50
163.3763315
51
172.1410975
0
ARC
8
DEFAULT_255_1_234
10
20.2575591
20
171.3840518
40
0.8444586
50
172.0259487
51
178.0703232
0
ARC
8
DEFAULT_255_1_234
10
20.560568
20
171.3696906
40
1.1477868
50
177.8631668
51
179.5044149
0
ARC
8
DEFAULT_255_1_234
10
20.4533085
20
171.1382389
40
1.0404907
50
179.7995573
51
185.2460446
0
ARC
8
DEFAULT_255_1_234
10
20.0490124
20
171.0999513
40
0.6343885
50
185.1411642
51
193.0079639
0
ARC
8
DEFAULT_255_1_234
10
19.7846596
20
171.0374641
40
0.3627568
50
192.7897626
51
205.2507664
0
ARC
8
DEFAULT_255_1_234
10
19.6800143
20
170.9907415
40
0.2481908
50
205.8005384
51
211.2537509
0
ARC
8
DEFAULT_255_1_234
10
19.6276584
20
170.955658
40
0.1852521
50
210.3789793
51
238.4008143
0
ARC
8
DEFAULT_255_1_234
10
19.6257106
20
170.9603376
40
0.1882621
50
239.6520629
51
265.9793761
0
ARC
8
DEFAULT_255_1_234
10
19.6342306
20
171.0275427
40
0.2559272
50
265.1315437
51
270.060332
0
ARC
8
DEFAULT_255_1_234
10
19.6371085
20
170.9951534
40
0.2235528
50
269.3314664
51
287.2178029
0
ARC
8
DEFAULT_255_1_234
10
19.6508937
20
170.9448279
40
0.1714108
50
287.7958004
51
329.080874
0
ARC
8
DEFAULT_255_1_234
10
19.5551394
20
171.004593
40
0.2842745
50
328.6634704
51
343.3325132
0
ARC
8
DEFAULT_255_1_234
10
19.3378414
20
171.0722863
40
0.5118644
50
343.0499468
51
351.9393422
0
ARC
8
DEFAULT_255_1_234
10
18.9911714
20
171.1233949
40
0.8622784
50
351.8069023
51
357.7959224
0
ARC
8
DEFAULT_255_1_234
10
18.667627
20
171.1401721
40
1.1862365
50
357.5871873
51
359.2677531
0
LINE
8
DEFAULT_255_2_778
10
9.3927417
20
169.2010328
11
10.7156417
21
169.2010328
0
LINE
8
DEFAULT_255_2_778
10
10.7156417
20
169.2010328
11
10.7156417
21
152.9953328
0
LINE
8
DEFAULT_255_2_778
10
10.7156417
20
148.3651328
11
10.7156417
21
132.1593328
0
LINE
8
DEFAULT_255_2_778
10
10.7156417
20
132.1593328
11
9.3927417
21
132.1593328
0
LINE
8
DEFAULT_255_2_778
10
9.3926834
20
152.9953041
11
12.0384834
21
152.9953041
0
LINE
8
DEFAULT_255_2_778
10
12.0384834
20
152.9953041
11
12.0384834
21
148.3651041
0
LINE
8
DEFAULT_255_2_778
10
12.0384834
20
148.3651041
11
9.3926834
21
148.3651041
0
LINE
8
DEFAULT_255_2_778
10
9.3926834
20
148.3651041
11
9.3926834
21
152.9953041
0
LINE
8
DEFAULT_255_2_778
10
10.1865
20
148.8280833
11
10.1865
21
152.5322833
0
LINE
8
DEFAULT_255_2_778
10
9.9219167
20
151.8378656
11
10.1865167
21
152.5323656
0
LINE
8
DEFAULT_255_2_778
10
10.1865167
20
152.5323656
11
10.4511167
21
151.8378656
0
LINE
8
DEFAULT_255_2_778
10
10.4511167
20
151.8378656
11
9.9219167
21
151.8378656
0
LINE
8
DEFAULT_255_2_778
10
11.2448
20
152.5322833
11
11.2448
21
148.8280833
0
LINE
8
DEFAULT_255_2_778
10
10.9802167
20
149.5226656
11
11.2448167
21
148.8281656
0
LINE
8
DEFAULT_255_2_778
10
11.2448167
20
148.8281656
11
11.5094167
21
149.5226656
0
LINE
8
DEFAULT_255_2_778
10
11.5094167
20
149.5226656
11
10.9802167
21
149.5226656
0
LINE
8
DEFAULT_255_2_778
10
9.3927417
20
126.8677644
11
10.7156417
21
126.8677644
0
LINE
8
DEFAULT_255_2_778
10
10.7156417
20
126.8677644
11
10.7156417
21
110.6620644
0
LINE
8
DEFAULT_255_2_778
10
9.3926834
20
110.6620041
11
12.0384834
21
110.6620041
0
LINE
8
DEFAULT_255_2_778
10
12.0384834
20
110.6620041
11
12.0384834
21
106.0318041
0
LINE
8
DEFAULT_255_2_778
10
12.0384834
20
106.0318041
11
9.3926834
21
106.0318041
0
LINE
8
DEFAULT_255_2_778
10
9.3926834
20
106.0318041
11
9.3926834
21
110.6620041
0
LINE
8
DEFAULT_255_2_778
10
10.1865
20
106.4947833
11
10.1865
21
110.1989833
0
LINE
8
DEFAULT_255_2_778
10
9.9219167
20
109.5044656
11
10.1865167
21
110.1989656
0
LINE
8
DEFAULT_255_2_778
10
10.1865167
20
110.1989656
11
10.4511167
21
109.5044656
0
LINE
8
DEFAULT_255_2_778
10
10.4511167
20
109.5044656
11
9.9219167
21
109.5044656
0
LINE
8
DEFAULT_255_2_778
10
11.2448
20
110.1989833
11
11.2448
21
106.4947833
0
LINE
8
DEFAULT_255_2_778
10
10.9802167
20
107.1893656
11
11.2448167
21
106.4948656
0
LINE
8
DEFAULT_255_2_778
10
11.2448167
20
106.4948656
11
11.5094167
21
107.1893656
0
LINE
8
DEFAULT_255_2_778
10
11.5094167
20
107.1893656
11
10.9802167
21
107.1893656
0
LINE
8
DEFAULT_255_2_778
10
10.7156417
20
106.031762
11
10.7156417
21
89.826062
0
LINE
8
DEFAULT_255_2_778
10
10.7156417
20
89.826062
11
9.3927417
21
89.826062
0
LINE
8
DEFAULT_255_2_778
10
9.3927417
20
84.534362
11
10.7156417
21
84.534362
0
LINE
8
DEFAULT_255_2_778
10
10.7156417
20
84.534362
11
10.7156417
21
68.328662
0
LINE
8
DEFAULT_255_2_778
10
9.3926834
20
68.3287041
11
12.0384834
21
68.3287041
0
LINE
8
DEFAULT_255_2_778
10
12.0384834
20
68.3287041
11
12.0384834
21
63.6985041
0
LINE
8
DEFAULT_255_2_778
10
12.0384834
20
63.6985041
11
9.3926834
21
63.6985041
0
LINE
8
DEFAULT_255_2_778
10
9.3926834
20
63.6985041
11
9.3926834
21
68.3287041
0
LINE
8
DEFAULT_255_2_778
10
10.1865
20
64.1614833
11
10.1865
21
67.8656833
0
LINE
8
DEFAULT_255_2_778
10
9.9219167
20
67.1711656
11
10.1865167
21
67.8656656
0
LINE
8
DEFAULT_255_2_778
10
10.1865167
20
67.8656656
11
10.4511167
21
67.1711656
0
LINE
8
DEFAULT_255_2_778
10
10.4511167
20
67.1711656
11
9.9219167
21
67.1711656
0
LINE
8
DEFAULT_255_2_778
10
11.2448
20
67.8656833
11
11.2448
21
64.1614833
0
LINE
8
DEFAULT_255_2_778
10
10.9802167
20
64.8560656
11
11.2448167
21
64.1615656
0
LINE
8
DEFAULT_255_2_778
10
11.2448167
20
64.1615656
11
11.5094167
21
64.8560656
0
LINE
8
DEFAULT_255_2_778
10
11.5094167
20
64.8560656
11
10.9802167
21
64.8560656
0
LINE
8
DEFAULT_255_2_778
10
10.7156417
20
63.698462
11
10.7156417
21
47.492762
0
LINE
8
DEFAULT_255_2_778
10
10.7156417
20
47.492762
11
9.3927417
21
47.492762
0
LINE
8
DEFAULT_255_2_778
10
9.3927417
20
42.201062
11
10.7156417
21
42.201062
0
LINE
8
DEFAULT_255_2_778
10
10.7156417
20
42.201062
11
10.7156417
21
25.995362
0
LINE
8
DEFAULT_255_2_778
10
9.3926834
20
25.9953041
11
12.0384834
21
25.9953041
0
LINE
8
DEFAULT_255_2_778
10
12.0384834
20
25.9953041
11
12.0384834
21
21.3651041
0
LINE
8
DEFAULT_255_2_778
10
12.0384834
20
21.3651041
11
9.3926834
21
21.3651041
0
LINE
8
DEFAULT_255_2_778
10
9.3926834
20
21.3651041
11
9.3926834
21
25.9953041
0
LINE
8
DEFAULT_255_2_778
10
10.1865
20
21.8280833
11
10.1865
21
25.5322833
0
LINE
8
DEFAULT_255_2_778
10
9.9219167
20
24.8378656
11
10.1865167
21
25.5323656
0
LINE
8
DEFAULT_255_2_778
10
10.1865167
20
25.5323656
11
10.4511167
21
24.8378656
0
LINE
8
DEFAULT_255_2_778
10
10.4511167
20
24.8378656
11
9.9219167
21
24.8378656
0
LINE
8
DEFAULT_255_2_778
10
11.2448
20
25.5322833
11
11.2448
21
21.8280833
0
LINE
8
DEFAULT_255_2_778
10
10.9802167
20
22.5226656
11
11.2448167
21
21.8281656
0
LINE
8
DEFAULT_255_2_778
10
11.2448167
20
21.8281656
11
11.5094167
21
22.5226656
0
LINE
8
DEFAULT_255_2_778
10
11.5094167
20
22.5226656
11
10.9802167
21
22.5226656
0
LINE
8
DEFAULT_255_2_778
10
10.7156417
20
21.3651644
11
10.7156417
21
5.1594644
0
LINE
8
DEFAULT_255_2_778
10
10.7156417
20
5.1594644
11
9.3927417
21
5.1594644
0
LINE
8
DEFAULT_255_1_234
10
4.7333817
20
169.3736327
11
4.7333817
21
169.1808709
0
LINE
8
DEFAULT_255_1_234
10
3.995265
20
169.1607916
11
3.995265
21
169.3591755
0
LINE
8
DEFAULT_255_1_234
10
4.5847946
20
169.1407123
11
4.5847946
21
169.3840739
0
LINE
8
DEFAULT_255_1_234
10
4.1438521
20
169.3953184
11
4.1438521
21
169.1575789
0
ARC
8
DEFAULT_255_1_234
10
3.5086707
20
169.1759805
40
1.2247208
50
353.8441951
51
0.2287902
0
ARC
8
DEFAULT_255_1_234
10
3.9726211
20
169.1241806
40
0.7578929
50
344.4934747
51
353.9765454
0
ARC
8
DEFAULT_255_1_234
10
4.2718801
20
169.0390981
40
0.4467846
50
329.2803592
51
344.7472793
0
ARC
8
DEFAULT_255_1_234
10
4.3711626
20
168.9846018
40
0.3336173
50
324.9352394
51
328.6160465
0
ARC
8
DEFAULT_255_1_234
10
4.4088734
20
168.9582427
40
0.2876076
50
280.580143
51
324.9173126
0
ARC
8
DEFAULT_255_1_234
10
4.3687527
20
169.1253099
40
0.4592847
50
269.5977311
51
281.6734359
0
ARC
8
DEFAULT_255_1_234
10
4.3615433
20
169.1133173
40
0.4472986
50
256.6228859
51
270.51044
0
ARC
8
DEFAULT_255_1_234
10
4.321341
20
168.9584877
40
0.2873874
50
215.8618325
51
257.2788573
0
ARC
8
DEFAULT_255_1_234
10
4.4234442
20
169.0269977
40
0.4102928
50
197.9693508
51
215.2623606
0
ARC
8
DEFAULT_255_1_234
10
4.6719558
20
169.1108709
40
0.6725652
50
187.8816417
51
198.2346507
0
ARC
8
DEFAULT_255_1_234
10
5.0677766
20
169.1680079
40
1.0724845
50
180.8976217
51
188.0055519
0
ARC
8
DEFAULT_255_1_234
10
5.3477954
20
169.1783777
40
1.3526448
50
180.7449369
51
181.1510016
0
ARC
8
DEFAULT_255_1_234
10
5.1900683
20
169.3640042
40
1.1948131
50
173.7675579
51
180.231553
0
ARC
8
DEFAULT_255_1_234
10
4.738283
20
169.4150666
40
0.7401564
50
164.3058563
51
173.9002247
0
ARC
8
DEFAULT_255_1_234
10
4.4470899
20
169.4989656
40
0.4371288
50
148.7922025
51
164.568378
0
ARC
8
DEFAULT_255_1_234
10
4.3519351
20
169.5520929
40
0.3282386
50
144.5883898
51
148.1176286
0
ARC
8
DEFAULT_255_1_234
10
4.3176249
20
169.5760315
40
0.2864044
50
101.6440918
51
144.514236
0
ARC
8
DEFAULT_255_1_234
10
4.3601315
20
169.4071069
40
0.4604934
50
89.5284041
51
102.5819763
0
ARC
8
DEFAULT_255_1_234
10
4.3680403
20
169.4032018
40
0.464401
50
77.0437873
51
90.5081339
0
ARC
8
DEFAULT_255_1_234
10
4.4082405
20
169.5674615
40
0.2953195
50
48.2778575
51
77.4994676
0
ARC
8
DEFAULT_255_1_234
10
4.4155036
20
169.5803746
40
0.2808655
50
36.3142134
51
47.6305865
0
ARC
8
DEFAULT_255_1_234
10
4.3286343
20
169.5218515
40
0.3855453
50
18.2931786
51
35.6769206
0
ARC
8
DEFAULT_255_1_234
10
4.0743102
20
169.4345593
40
0.654423
50
8.024666
51
18.5605216
0
ARC
8
DEFAULT_255_1_234
10
3.6580022
20
169.3730792
40
1.0752407
50
1.1274072
51
8.1718305
0
ARC
8
DEFAULT_255_1_234
10
3.3344213
20
169.3603885
40
1.3990231
50
0.5424119
51
1.3863029
0
ARC
8
DEFAULT_255_1_234
10
3.516559
20
169.3876342
40
1.0682415
50
359.8090433
51
4.9407866
0
ARC
8
DEFAULT_255_1_234
10
3.9375604
20
169.4252113
40
0.6455691
50
4.8362157
51
12.2904523
0
ARC
8
DEFAULT_255_1_234
10
4.2130719
20
169.4865965
40
0.3633074
50
12.0805627
51
23.8173984
0
ARC
8
DEFAULT_255_1_234
10
4.3304425
20
169.5362919
40
0.2358723
50
24.2871213
51
31.3935614
0
ARC
8
DEFAULT_255_1_234
10
4.3829122
20
169.5706233
40
0.1732111
50
30.7407893
51
82.4657128
0
ARC
8
DEFAULT_255_1_234
10
4.3649256
20
169.4822691
40
0.263235
50
81.1060089
51
90.2184952
0
ARC
8
DEFAULT_255_1_234
10
4.3613555
20
169.5080924
40
0.2374236
50
89.3806855
51
105.6762551
0
ARC
8
DEFAULT_255_1_234
10
4.3430186
20
169.5747567
40
0.1682847
50
105.7981136
51
149.7388061
0
ARC
8
DEFAULT_255_1_234
10
4.4494264
20
169.510795
40
0.2924306
50
149.4208916
51
163.6286378
0
ARC
8
DEFAULT_255_1_234
10
4.6585152
20
169.447025
40
0.5110213
50
163.3763315
51
172.1410975
0
ARC
8
DEFAULT_255_1_234
10
4.9885871
20
169.3997518
40
0.8444586
50
172.0259487
51
178.0703232
0
ARC
8
DEFAULT_255_1_234
10
5.291596
20
169.3853906
40
1.1477868
50
177.8631668
51
179.5044149
0
ARC
8
DEFAULT_255_1_234
10
5.1843365
20
169.1539389
40
1.0404907
50
179.7995573
51
185.2460446
0
ARC
8
DEFAULT_255_1_234
10
4.7800404
20
169.1156513
40
0.6343885
50
185.1411642
51
193.0079639
0
ARC
8
DEFAULT_255_1_234
10
4.5156877
20
169.0531641
40
0.3627568
50
192.7897626
51
205.2507664
0
ARC
8
DEFAULT_255_1_234
10
4.4110424
20
169.0064415
40
0.2481908
50
205.8005384
51
211.2537509
0
ARC
8
DEFAULT_255_1_234
10
4.3586864
20
168.971358
40
0.1852521
50
210.3789793
51
238.4008143
0
ARC
8
DEFAULT_255_1_234
10
4.3567386
20
168.9760376
40
0.1882621
50
239.6520629
51
265.9793761
0
ARC
8
DEFAULT_255_1_234
10
4.3652586
20
169.0432427
40
0.2559272
50
265.1315437
51
270.060332
0
ARC
8
DEFAULT_255_1_234
10
4.3681365
20
169.0108534
40
0.2235528
50
269.3314664
51
287.2178029
0
ARC
8
DEFAULT_255_1_234
10
4.3819217
20
168.9605279
40
0.1714108
50
287.7958004
51
329.080874
0
ARC
8
DEFAULT_255_1_234
10
4.2861674
20
169.020293
40
0.2842745
50
328.6634704
51
343.3325132
0
ARC
8
DEFAULT_255_1_234
10
4.0688694
20
169.0879863
40
0.5118644
50
343.0499468
51
351.9393422
0
ARC
8
DEFAULT_255_1_234
10
3.7221994
20
169.1390949
40
0.8622784
50
351.8069023
51
357.7959224
0
ARC
8
DEFAULT_255_1_234
10
3.398655
20
169.1558721
40
1.1862365
50
357.5871873
51
359.2677531
0
LINE
8
DEFAULT_255_1_234
10
4.7550674
20
5.8098211
11
4.7550674
21
5.726291
0
LINE
8
DEFAULT_255_1_234
10
4.7550674
20
5.726291
11
4.2707536
21
4.6404
0
LINE
8
DEFAULT_255_1_234
10
4.2707536
20
4.6404
11
4.1149379
21
4.6404
0
LINE
8
DEFAULT_255_1_234
10
4.1149379
20
4.6404
11
4.5976454
21
5.6877387
0
LINE
8
DEFAULT_255_1_234
10
4.5976454
20
5.6877387
11
3.9647444
21
5.6877387
0
LINE
8
DEFAULT_255_1_234
10
3.9647444
20
5.6877387
11
3.9647444
21
5.8098211
0
LINE
8
DEFAULT_255_1_234
10
3.9647444
20
5.8098211
11
4.7550674
21
5.8098211
0
LINE
8
DEFAULT_255_1_234
10
4.5566835
20
11.1023243
11
4.5831882
21
11.1023243
0
LINE
8
DEFAULT_255_1_234
10
4.5831882
20
11.1023243
11
4.5831882
21
10.976226
0
LINE
8
DEFAULT_255_1_234
10
4.5831882
20
10.976226
11
4.5558803
21
10.976226
0
LINE
8
DEFAULT_255_1_234
10
4.0089189
20
10.3770583
11
4.0089189
21
10.4340836
0
LINE
8
DEFAULT_255_1_234
10
4.1583093
20
10.4148075
11
4.1583093
21
10.3601917
0
ARC
8
DEFAULT_255_1_234
10
4.5611151
20
10.4764455
40
0.4998079
50
90.6001036
51
104.514704
0
ARC
8
DEFAULT_255_1_234
10
4.5222667
20
10.6209131
40
0.3502176
50
104.2855254
51
133.862935
0
ARC
8
DEFAULT_255_1_234
10
4.5386424
20
10.610083
40
0.3693984
50
134.5302688
51
161.6210873
0
ARC
8
DEFAULT_255_1_234
10
4.7039613
20
10.5517895
40
0.5446739
50
161.2849839
51
174.2076652
0
ARC
8
DEFAULT_255_1_234
10
4.844655
20
10.5323787
40
0.6866274
50
173.7810589
51
174.9254635
0
ARC
8
DEFAULT_255_1_234
10
4.3896382
20
10.3940839
40
0.3033419
50
95.8330959
51
138.9954921
0
ARC
8
DEFAULT_255_1_234
10
4.4119738
20
10.2662375
40
0.4328947
50
89.8753725
51
97.0544009
0
ARC
8
DEFAULT_255_1_234
10
4.4167204
20
10.3497748
40
0.3493769
50
71.6407809
51
90.6240094
0
ARC
8
DEFAULT_255_1_234
10
4.4317777
20
10.4052082
40
0.2920396
50
39.6367836
51
71.019018
0
ARC
8
DEFAULT_255_1_234
10
4.368125
20
10.3501998
40
0.3761538
50
10.658731
51
39.9043955
0
ARC
8
DEFAULT_255_1_234
10
4.2133333
20
10.3165686
40
0.5345136
50
359.682601
51
11.132623
0
ARC
8
DEFAULT_255_1_234
10
4.2093464
20
10.309501
40
0.5385081
50
347.2486944
51
0.4369317
0
ARC
8
DEFAULT_255_1_234
10
4.3760941
20
10.2693807
40
0.3670249
50
318.1409698
51
347.6118597
0
ARC
8
DEFAULT_255_1_234
10
4.4085934
20
10.2426702
40
0.3250007
50
275.6342139
51
317.8248465
0
ARC
8
DEFAULT_255_1_234
10
4.3865045
20
10.3726219
40
0.4565864
50
269.8874292
51
276.7917694
0
ARC
8
DEFAULT_255_1_234
10
4.3810116
20
10.2700743
40
0.3540676
50
246.9140195
51
270.7437342
0
ARC
8
DEFAULT_255_1_234
10
4.3816506
20
10.2558384
40
0.3412781
50
218.1665114
51
245.878116
0
ARC
8
DEFAULT_255_1_234
10
4.4695967
20
10.3294279
40
0.455911
50
191.4115814
51
218.6077802
0
ARC
8
DEFAULT_255_1_234
10
4.6634056
20
10.3728833
40
0.6545001
50
179.6345085
51
191.7836486
0
ARC
8
DEFAULT_255_1_234
10
5.2216393
20
10.4407697
40
1.2127388
50
171.4525249
51
180.3158839
0
ARC
8
DEFAULT_255_1_234
10
4.7821269
20
10.5091608
40
0.7679464
50
157.9802646
51
171.6246686
0
ARC
8
DEFAULT_255_1_234
10
4.560729
20
10.5974421
40
0.5296008
50
141.4298019
51
157.854097
0
ARC
8
DEFAULT_255_1_234
10
4.496561
20
10.6428381
40
0.4511509
50
102.8715806
51
140.8564722
0
ARC
8
DEFAULT_255_1_234
10
4.5613226
20
10.3988552
40
0.7034845
50
90.3778349
51
103.5869322
0
ARC
8
DEFAULT_255_1_234
10
4.3875002
20
10.338373
40
0.2370698
50
89.8751008
51
126.2071704
0
ARC
8
DEFAULT_255_1_234
10
4.3920792
20
10.3229303
40
0.2522934
50
124.9745049
51
144.895901
0
ARC
8
DEFAULT_255_1_234
10
4.3744982
20
10.337256
40
0.2296779
50
145.2974905
51
160.2660252
0
ARC
8
DEFAULT_255_1_234
10
4.6817521
20
10.3570071
40
0.5234525
50
179.6514266
51
190.2855912
0
ARC
8
DEFAULT_255_1_234
10
4.5123658
20
10.3250786
40
0.3510893
50
190.0945431
51
207.5098196
0
ARC
8
DEFAULT_255_1_234
10
4.4557928
20
10.2981623
40
0.288489
50
207.9583163
51
216.3251085
0
ARC
8
DEFAULT_255_1_234
10
4.4218036
20
10.2702105
40
0.2445587
50
215.7661442
51
232.5456785
0
ARC
8
DEFAULT_255_1_234
10
4.3835019
20
10.2215482
40
0.1826382
50
232.8005391
51
270.6605633
0
ARC
8
DEFAULT_255_1_234
10
4.388072
20
10.2579612
40
0.2190529
50
269.35537
51
288.4744281
0
ARC
8
DEFAULT_255_1_234
10
4.3973617
20
10.2230118
40
0.1829749
50
289.1833337
51
322.9683818
0
ARC
8
DEFAULT_255_1_234
10
4.3362139
20
10.2712391
40
0.2608399
50
322.6007884
51
346.5182367
0
ARC
8
DEFAULT_255_1_234
10
4.2204735
20
10.3007616
40
0.3802777
50
346.2582162
51
358.7741648
0
ARC
8
DEFAULT_255_1_234
10
4.1186404
20
10.3062965
40
0.4822176
50
358.3755224
51
0.0098023
0
ARC
8
DEFAULT_255_1_234
10
4.1942591
20
10.3090657
40
0.4066078
50
359.6214041
51
11.2839074
0
ARC
8
DEFAULT_255_1_234
10
4.3219738
20
10.3357066
40
0.2761514
50
11.0482309
51
31.8146458
0
ARC
8
DEFAULT_255_1_234
10
4.3528781
20
10.3524584
40
0.2410679
50
32.3035391
51
38.082671
0
ARC
8
DEFAULT_255_1_234
10
4.3949441
20
10.3905662
40
0.1844966
50
36.825067
51
85.7415724
0
ARC
8
DEFAULT_255_1_234
10
4.3882274
20
10.3405301
40
0.2349122
50
85.0140713
51
90.0513278
0
LINE
8
DEFAULT_255_1_234
10
4.1872235
20
15.7794963
11
4.0683538
21
15.8100169
0
LINE
8
DEFAULT_255_1_234
10
4.0683538
20
15.8100169
11
4.1277887
21
16.3931211
0
LINE
8
DEFAULT_255_1_234
10
4.1277887
20
16.3931211
11
4.7269563
21
16.3931211
0
LINE
8
DEFAULT_255_1_234
10
4.7269563
20
16.3931211
11
4.7269563
21
16.2557784
0
LINE
8
DEFAULT_255_1_234
10
4.7269563
20
16.2557784
11
4.253887
21
16.2557784
0
LINE
8
DEFAULT_255_1_234
10
4.253887
20
16.2557784
11
4.2185473
21
15.9369184
0
LINE
8
DEFAULT_255_1_234
10
4.0265888
20
15.5313156
11
4.1671442
21
15.5313156
0
LINE
8
DEFAULT_255_1_234
10
4.2265791
20
15.8116232
11
4.1872235
21
15.7794963
0
ARC
8
DEFAULT_255_1_234
10
4.4040257
20
15.618923
40
0.3681349
50
93.7182161
51
120.2538958
0
ARC
8
DEFAULT_255_1_234
10
4.413452
20
15.5381394
40
0.449379
50
89.9660152
51
94.2496022
0
ARC
8
DEFAULT_255_1_234
10
4.4175254
20
15.5970549
40
0.390482
50
73.8043271
51
90.5585896
0
ARC
8
DEFAULT_255_1_234
10
4.4410151
20
15.6828602
40
0.3015334
50
41.3071453
51
73.5430202
0
ARC
8
DEFAULT_255_1_234
10
4.3993978
20
15.6470324
40
0.3564457
50
13.5075983
51
41.2174222
0
ARC
8
DEFAULT_255_1_234
10
4.2352182
20
15.6040486
40
0.5261351
50
1.1331335
51
13.8829381
0
ARC
8
DEFAULT_255_1_234
10
4.0940551
20
15.5964665
40
0.6674378
50
359.9919444
51
1.544251
0
ARC
8
DEFAULT_255_1_234
10
4.2217377
20
15.592328
40
0.5397702
50
347.8572367
51
0.4293338
0
ARC
8
DEFAULT_255_1_234
10
4.3967695
20
15.5526736
40
0.3603188
50
323.673004
51
348.1672506
0
ARC
8
DEFAULT_255_1_234
10
4.4262203
20
15.5347168
40
0.3259678
50
316.8171152
51
323.1492751
0
ARC
8
DEFAULT_255_1_234
10
4.4323392
20
15.531046
40
0.3189975
50
281.8396411
51
316.5457803
0
ARC
8
DEFAULT_255_1_234
10
4.3947656
20
15.6865762
40
0.4789527
50
269.5770101
51
282.4214771
0
ARC
8
DEFAULT_255_1_234
10
4.3876467
20
15.6652125
40
0.45759
50
256.2427136
51
270.4486331
0
ARC
8
DEFAULT_255_1_234
10
4.357737
20
15.5452229
40
0.3339303
50
228.9023911
51
256.3314342
0
ARC
8
DEFAULT_255_1_234
10
4.3503602
20
15.5335746
40
0.32031
50
193.753695
51
228.5271154
0
ARC
8
DEFAULT_255_1_234
10
4.4741556
20
15.56988
40
0.4492253
50
184.924711
51
194.497588
0
ARC
8
DEFAULT_255_1_234
10
4.4934123
20
15.5734591
40
0.3289787
50
187.3600538
51
198.6732863
0
ARC
8
DEFAULT_255_1_234
10
4.3884417
20
15.5370674
40
0.217884
50
198.4451669
51
217.794479
0
ARC
8
DEFAULT_255_1_234
10
4.3588592
20
15.5161085
40
0.1816698
50
218.2887171
51
228.5612368
0
ARC
8
DEFAULT_255_1_234
10
4.3686379
20
15.5292963
40
0.1980329
50
228.9654866
51
258.1234728
0
ARC
8
DEFAULT_255_1_234
10
4.3892089
20
15.6173833
40
0.2884748
50
257.7258293
51
270.401361
0
ARC
8
DEFAULT_255_1_234
10
4.3936975
20
15.5728821
40
0.2439788
50
269.4204404
51
286.4209037
0
ARC
8
DEFAULT_255_1_234
10
4.4085463
20
15.5189657
40
0.1880666
50
286.7251356
51
320.600362
0
ARC
8
DEFAULT_255_1_234
10
4.3702288
20
15.5500595
40
0.2374121
50
320.6712579
51
344.5441685
0
ARC
8
DEFAULT_255_1_234
10
4.2545614
20
15.5840045
40
0.3579479
50
344.2412205
51
356.7357071
0
ARC
8
DEFAULT_255_1_234
10
4.1296763
20
15.5943444
40
0.4832297
50
356.3548756
51
0.0500261
0
ARC
8
DEFAULT_255_1_234
10
4.2633272
20
15.597465
40
0.3495889
50
359.5576869
51
12.953486
0
ARC
8
DEFAULT_255_1_234
10
4.3688169
20
15.6230434
40
0.2410532
50
12.6490276
51
41.6081334
0
ARC
8
DEFAULT_255_1_234
10
4.391854
20
15.6426321
40
0.2108218
50
41.7850273
51
85.9892764
0
ARC
8
DEFAULT_255_1_234
10
4.3795277
20
15.5613462
40
0.2928454
50
84.6957577
51
90.0676183
0
ARC
8
DEFAULT_255_1_234
10
4.3771761
20
15.4944716
40
0.3597255
50
89.6804936
51
99.1614436
0
ARC
8
DEFAULT_255_1_234
10
4.3566392
20
15.6172131
40
0.235281
50
98.9830931
51
113.8908934
0
ARC
8
DEFAULT_255_1_234
10
4.3336802
20
15.6713587
40
0.176479
50
114.1950727
51
127.3641004
0
LINE
8
DEFAULT_255_1_234
10
4.8389628
20
21.6848211
11
4.8389628
21
20.908152
0
LINE
8
DEFAULT_255_1_234
10
4.8389628
20
20.908152
11
5.0012039
21
20.908152
0
LINE
8
DEFAULT_255_1_234
10
5.0012039
20
20.908152
11
5.0012039
21
20.7868728
0
LINE
8
DEFAULT_255_1_234
10
5.0012039
20
20.7868728
11
4.8389628
21
20.7868728
0
LINE
8
DEFAULT_255_1_234
10
4.8389628
20
20.7868728
11
4.8389628
21
20.5154
0
LINE
8
DEFAULT_255_1_234
10
4.8389628
20
20.5154
11
4.6895725
21
20.5154
0
LINE
8
DEFAULT_255_1_234
10
4.6895725
20
20.5154
11
4.6895725
21
20.7868728
0
LINE
8
DEFAULT_255_1_234
10
4.6895725
20
20.7868728
11
4.1570682
21
20.7868728
0
LINE
8
DEFAULT_255_1_234
10
4.1570682
20
20.7868728
11
4.1570682
21
20.8744187
0
LINE
8
DEFAULT_255_1_234
10
4.1570682
20
20.8744187
11
4.6807375
21
21.6848211
0
LINE
8
DEFAULT_255_1_234
10
4.6807375
20
21.6848211
11
4.8389628
21
21.6848211
0
LINE
8
DEFAULT_255_1_234
10
4.6719026
20
21.4494912
11
4.3257347
21
20.908152
0
LINE
8
DEFAULT_255_1_234
10
4.3257347
20
20.908152
11
4.6895725
21
20.908152
0
LINE
8
DEFAULT_255_1_234
10
4.6895725
20
20.908152
11
4.6895725
21
21.4816181
0
LINE
8
DEFAULT_255_1_234
10
4.6895725
20
21.4816181
11
4.6719026
21
21.4494912
0
LINE
8
DEFAULT_255_1_234
10
4.2161378
20
26.3428169
11
4.2161378
21
26.4640962
0
LINE
8
DEFAULT_255_1_234
10
4.2161378
20
26.4640962
11
4.327779
21
26.4640962
0
LINE
8
DEFAULT_255_1_234
10
4.1374268
20
26.6697087
11
3.9888396
21
26.6697087
0
LINE
8
DEFAULT_255_1_234
10
3.9783983
20
26.1155187
11
4.1277887
21
26.1155187
0
LINE
8
DEFAULT_255_1_234
10
4.327779
20
26.3428169
11
4.2161378
21
26.3428169
0
ARC
8
DEFAULT_255_1_234
10
4.3248656
20
26.8033713
40
0.3392876
50
270.4919872
51
281.8951556
0
ARC
8
DEFAULT_255_1_234
10
4.3489918
20
26.6931702
40
0.2264817
50
281.6691735
51
301.2943132
0
ARC
8
DEFAULT_255_1_234
10
4.3660128
20
26.6620304
40
0.1910381
50
301.7833094
51
311.7545298
0
ARC
8
DEFAULT_255_1_234
10
4.3751704
20
26.6518748
40
0.1773635
50
311.7323931
51
354.2802411
0
ARC
8
DEFAULT_255_1_234
10
4.3025329
20
26.6643722
40
0.2509385
50
353.0937916
51
0.1181479
0
ARC
8
DEFAULT_255_1_234
10
4.2564114
20
26.6691386
40
0.2970898
50
359.1805295
51
15.0453146
0
ARC
8
DEFAULT_255_1_234
10
4.3909951
20
26.7083992
40
0.1569564
50
13.9577229
51
77.6713066
0
ARC
8
DEFAULT_255_1_234
10
4.352348
20
26.5698949
40
0.3006298
50
76.1116566
51
90.7026153
0
ARC
8
DEFAULT_255_1_234
10
4.3464318
20
26.5972545
40
0.2732568
50
89.5324876
51
103.531937
0
ARC
8
DEFAULT_255_1_234
10
4.3263762
20
26.6771884
40
0.1908508
50
103.2931773
51
133.5619022
0
ARC
8
DEFAULT_255_1_234
10
4.3219251
20
26.6831375
40
0.1834746
50
133.8349307
51
173.5344437
0
ARC
8
DEFAULT_255_1_234
10
4.3942294
20
26.6703213
40
0.2568033
50
172.5096846
51
180.1366907
0
ARC
8
DEFAULT_255_1_234
10
4.2991188
20
26.6737622
40
0.3103056
50
155.3484492
51
180.7484736
0
ARC
8
DEFAULT_255_1_234
10
4.2942277
20
26.6708846
40
0.3070957
50
131.5744599
51
154.4798489
0
ARC
8
DEFAULT_255_1_234
10
4.3255424
20
26.639231
40
0.3515643
50
96.9875458
51
131.9690667
0
ARC
8
DEFAULT_255_1_234
10
4.3474904
20
26.5146636
40
0.4779224
50
89.8596053
51
97.7825159
0
ARC
8
DEFAULT_255_1_234
10
4.3522967
20
26.4884616
40
0.5041361
50
78.3655447
51
90.4131539
0
ARC
8
DEFAULT_255_1_234
10
4.3880885
20
26.6543887
40
0.3344039
50
56.6229102
51
78.638727
0
ARC
8
DEFAULT_255_1_234
10
4.4095829
20
26.6919805
40
0.2912001
50
47.0253525
51
56.0854072
0
ARC
8
DEFAULT_255_1_234
10
4.4115609
20
26.6959223
40
0.2869704
50
10.9208013
51
46.7778124
0
ARC
8
DEFAULT_255_1_234
10
4.2751675
20
26.6643857
40
0.426899
50
359.6364486
51
11.6087304
0
ARC
8
DEFAULT_255_1_234
10
4.4586519
20
26.6628752
40
0.243409
50
332.3549906
51
359.7179418
0
ARC
8
DEFAULT_255_1_234
10
4.3936121
20
26.6937142
40
0.3153459
50
325.2333722
51
332.8745602
0
ARC
8
DEFAULT_255_1_234
10
4.4088744
20
26.6830828
40
0.2967456
50
292.9802137
51
325.2392345
0
ARC
8
DEFAULT_255_1_234
10
4.3814118
20
26.7364863
40
0.3566604
50
292.5402179
51
293.6924929
0
ARC
8
DEFAULT_255_1_234
10
4.4206714
20
26.0910091
40
0.3307468
50
57.6435486
51
72.8625112
0
ARC
8
DEFAULT_255_1_234
10
4.4561214
20
26.1484549
40
0.2632492
50
36.7248896
51
57.4697979
0
ARC
8
DEFAULT_255_1_234
10
4.4549847
20
26.149722
40
0.2634081
50
8.0545065
51
36.356114
0
ARC
8
DEFAULT_255_1_234
10
4.3687032
20
26.1342174
40
0.3510261
50
359.8320645
51
8.5869982
0
ARC
8
DEFAULT_255_1_234
10
4.3311808
20
26.1294101
40
0.3885653
50
343.9829931
51
0.5571613
0
ARC
8
DEFAULT_255_1_234
10
4.4198005
20
26.1051438
40
0.2966924
50
311.6359546
51
343.7651759
0
ARC
8
DEFAULT_255_1_234
10
4.3819574
20
26.1478102
40
0.3537231
50
279.7829875
51
311.6255694
0
ARC
8
DEFAULT_255_1_234
10
4.3518351
20
26.291528
40
0.5004971
50
269.7286406
51
280.3856417
0
ARC
8
DEFAULT_255_1_234
10
4.3456423
20
26.2873996
40
0.4963778
50
256.6828919
51
270.4412052
0
ARC
8
DEFAULT_255_1_234
10
4.3117719
20
26.1489394
40
0.3538406
50
229.4223008
51
256.8556159
0
ARC
8
DEFAULT_255_1_234
10
4.2703112
20
26.1022736
40
0.2914296
50
181.818294
51
229.6455059
0
ARC
8
DEFAULT_255_1_234
10
4.3743068
20
26.1153496
40
0.3959084
50
179.9755256
51
183.2323064
0
ARC
8
DEFAULT_255_1_234
10
4.3570814
20
26.1133037
40
0.2293034
50
179.4465117
51
196.2869258
0
ARC
8
DEFAULT_255_1_234
10
4.3083222
20
26.0999651
40
0.1787621
50
196.5661473
51
227.705904
0
ARC
8
DEFAULT_255_1_234
10
4.3247317
20
26.1183155
40
0.2033784
50
227.7652068
51
257.8762805
0
ARC
8
DEFAULT_255_1_234
10
4.3472287
20
26.2126156
40
0.3003081
50
257.4584385
51
270.426602
0
ARC
8
DEFAULT_255_1_234
10
4.3517853
20
26.2415996
40
0.329292
50
269.5962073
51
280.8789248
0
ARC
8
DEFAULT_255_1_234
10
4.3747382
20
26.1269685
40
0.2123908
50
280.6346389
51
299.8595945
0
ARC
8
DEFAULT_255_1_234
10
4.3938289
20
26.0907212
40
0.171457
50
300.3576302
51
314.5517981
0
ARC
8
DEFAULT_255_1_234
10
4.3855349
20
26.0967919
40
0.1816095
50
315.0728369
51
345.0431014
0
ARC
8
DEFAULT_255_1_234
10
4.2932163
20
26.1236841
40
0.2777492
50
344.5986631
51
357.9269593
0
ARC
8
DEFAULT_255_1_234
10
4.2036489
20
26.1298276
40
0.3674917
50
357.4748886
51
0.0231117
0
ARC
8
DEFAULT_255_1_234
10
4.3059599
20
26.1322679
40
0.2651907
50
359.5047933
51
13.4239635
0
ARC
8
DEFAULT_255_1_234
10
4.3926242
20
26.1544478
40
0.1757509
50
12.9498199
51
48.7551375
0
ARC
8
DEFAULT_255_1_234
10
4.3743976
20
26.12954
40
0.2065134
50
49.5088623
51
72.1836453
0
ARC
8
DEFAULT_255_1_234
10
4.3386129
20
26.0233291
40
0.3185836
50
71.9010081
51
84.3554254
0
ARC
8
DEFAULT_255_1_234
10
4.3224761
20
25.8872326
40
0.4556151
50
84.0193428
51
89.333121
0
LINE
8
DEFAULT_255_1_234
10
4.7663119
20
31.2199792
11
4.7663119
21
31.0987
0
LINE
8
DEFAULT_255_1_234
10
4.7663119
20
31.0987
11
4.000084
21
31.0987
0
LINE
8
DEFAULT_255_1_234
10
4.000084
20
31.0987
11
4.000084
21
31.2055221
0
LINE
8
DEFAULT_255_1_234
10
4.000084
20
31.2055221
11
4.4048836
21
31.6552995
0
LINE
8
DEFAULT_255_1_234
10
4.1261823
20
31.9235595
11
3.9775952
21
31.9235595
0
LINE
8
DEFAULT_255_1_234
10
4.4924296
20
31.5597218
11
4.1791918
21
31.2199792
0
LINE
8
DEFAULT_255_1_234
10
4.1791918
20
31.2199792
11
4.7663119
21
31.2199792
0
ARC
8
DEFAULT_255_1_234
10
3.055867
20
32.8482527
40
1.8008286
50
318.5132453
51
320.7828378
0
ARC
8
DEFAULT_255_1_234
10
3.5845644
20
32.4179426
40
1.1191493
50
320.7372736
51
323.9737074
0
ARC
8
DEFAULT_255_1_234
10
3.9765501
20
32.1339361
40
0.6350923
50
323.8961724
51
328.6421089
0
ARC
8
DEFAULT_255_1_234
10
4.1812096
20
32.0077031
40
0.3946393
50
328.8299013
51
331.789948
0
ARC
8
DEFAULT_255_1_234
10
4.2809274
20
31.9562509
40
0.2824501
50
331.4255242
51
352.9364833
0
ARC
8
DEFAULT_255_1_234
10
4.2945775
20
31.9531976
40
0.2685315
50
353.2248685
51
0.0169286
0
ARC
8
DEFAULT_255_1_234
10
4.3155652
20
31.955495
40
0.2475536
50
359.4866256
51
15.9339782
0
ARC
8
DEFAULT_255_1_234
10
4.3662637
20
31.9691286
40
0.1950618
50
16.1714718
51
43.5284424
0
ARC
8
DEFAULT_255_1_234
10
4.3739946
20
31.9768573
40
0.184134
50
43.4415429
51
83.1661404
0
ARC
8
DEFAULT_255_1_234
10
4.3605864
20
31.9031771
40
0.258926
50
82.160215
51
90.1505798
0
ARC
8
DEFAULT_255_1_234
10
4.3574291
20
31.8494865
40
0.3126255
50
89.5460705
51
102.5418777
0
ARC
8
DEFAULT_255_1_234
10
4.3331377
20
31.9525665
40
0.2067346
50
102.1739365
51
129.2061916
0
ARC
8
DEFAULT_255_1_234
10
4.3252449
20
31.9650094
40
0.1921118
50
129.7279328
51
135.7542026
0
ARC
8
DEFAULT_255_1_234
10
4.3373977
20
31.9553045
40
0.2075944
50
136.175737
51
166.3674722
0
ARC
8
DEFAULT_255_1_234
10
4.4380896
20
31.9283182
40
0.3118201
50
165.9092917
51
178.8683903
0
ARC
8
DEFAULT_255_1_234
10
4.5245757
20
31.9236179
40
0.3983935
50
178.438168
51
180.0083905
0
ARC
8
DEFAULT_255_1_234
10
4.3844359
20
31.9275231
40
0.4068601
50
163.2878735
51
180.5581814
0
ARC
8
DEFAULT_255_1_234
10
4.3042621
20
31.949584
40
0.3237344
50
133.454115
51
162.9470031
0
ARC
8
DEFAULT_255_1_234
10
4.3221162
20
31.9306
40
0.349795
50
100.7869394
51
133.4384016
0
ARC
8
DEFAULT_255_1_234
10
4.3568934
20
31.7757319
40
0.5084616
50
89.6605301
51
101.3704185
0
ARC
8
DEFAULT_255_1_234
10
4.3635273
20
31.7818496
40
0.502348
50
78.2171172
51
90.4130393
0
ARC
8
DEFAULT_255_1_234
10
4.3990351
20
31.9442637
40
0.3361092
50
55.9268222
51
78.4888551
0
ARC
8
DEFAULT_255_1_234
10
4.4186791
20
31.9781324
40
0.2970617
50
47.9292255
51
55.4054003
0
ARC
8
DEFAULT_255_1_234
10
4.4288352
20
31.9884502
40
0.2825983
50
4.3347696
51
48.0560701
0
ARC
8
DEFAULT_255_1_234
10
4.3192745
20
31.9714601
40
0.393225
50
359.925209
51
5.5967654
0
ARC
8
DEFAULT_255_1_234
10
4.3621637
20
31.9770816
40
0.3503892
50
337.8914096
51
358.9967724
0
ARC
8
DEFAULT_255_1_234
10
4.0908049
20
32.0817706
40
0.6412172
50
326.9135351
51
338.3505194
0
ARC
8
DEFAULT_255_1_234
10
3.6922353
20
32.3372284
40
1.1146189
50
319.6472867
51
327.095818
0
ARC
8
DEFAULT_255_1_234
10
3.3089356
20
32.6534
40
1.6114559
50
317.2586784
51
319.9046139
0
LINE
8
DEFAULT_255_1_234
10
4.4801137
20
37.5654433
11
4.4801137
21
36.3904
0
LINE
8
DEFAULT_255_1_234
10
4.4801137
20
36.3904
11
4.3307234
21
36.3904
0
LINE
8
DEFAULT_255_1_234
10
4.3307234
20
36.3904
11
4.3307234
21
37.3807133
0
LINE
8
DEFAULT_255_1_234
10
4.3307234
20
37.3807133
11
4.0311396
21
37.2706785
0
LINE
8
DEFAULT_255_1_234
10
4.0311396
20
37.2706785
11
4.0311396
21
37.4056117
0
LINE
8
DEFAULT_255_1_234
10
4.0311396
20
37.4056117
11
4.4568217
21
37.5654433
0
LINE
8
DEFAULT_255_1_234
10
4.4568217
20
37.5654433
11
4.4801137
21
37.5654433
0
LINE
8
DEFAULT_255_1_234
10
4.7333817
20
42.3736327
11
4.7333817
21
42.1808709
0
LINE
8
DEFAULT_255_1_234
10
3.995265
20
42.1607916
11
3.995265
21
42.3591755
0
LINE
8
DEFAULT_255_1_234
10
4.5847946
20
42.1407123
11
4.5847946
21
42.3840739
0
LINE
8
DEFAULT_255_1_234
10
4.1438521
20
42.3953184
11
4.1438521
21
42.1575789
0
ARC
8
DEFAULT_255_1_234
10
3.5086707
20
42.1759805
40
1.2247208
50
353.8441951
51
0.2287902
0
ARC
8
DEFAULT_255_1_234
10
3.9726211
20
42.1241806
40
0.7578929
50
344.4934747
51
353.9765454
0
ARC
8
DEFAULT_255_1_234
10
4.2718801
20
42.0390981
40
0.4467846
50
329.2803592
51
344.7472793
0
ARC
8
DEFAULT_255_1_234
10
4.3711626
20
41.9846018
40
0.3336173
50
324.9352394
51
328.6160465
0
ARC
8
DEFAULT_255_1_234
10
4.4088734
20
41.9582427
40
0.2876076
50
280.580143
51
324.9173126
0
ARC
8
DEFAULT_255_1_234
10
4.3687527
20
42.1253099
40
0.4592847
50
269.5977311
51
281.6734359
0
ARC
8
DEFAULT_255_1_234
10
4.3615433
20
42.1133173
40
0.4472986
50
256.6228859
51
270.51044
0
ARC
8
DEFAULT_255_1_234
10
4.321341
20
41.9584877
40
0.2873874
50
215.8618325
51
257.2788573
0
ARC
8
DEFAULT_255_1_234
10
4.4234442
20
42.0269977
40
0.4102928
50
197.9693508
51
215.2623606
0
ARC
8
DEFAULT_255_1_234
10
4.6719558
20
42.1108709
40
0.6725652
50
187.8816417
51
198.2346507
0
ARC
8
DEFAULT_255_1_234
10
5.0677766
20
42.1680079
40
1.0724845
50
180.8976217
51
188.0055519
0
ARC
8
DEFAULT_255_1_234
10
5.3477954
20
42.1783777
40
1.3526448
50
180.7449369
51
181.1510016
0
ARC
8
DEFAULT_255_1_234
10
5.1900683
20
42.3640042
40
1.1948131
50
173.7675579
51
180.231553
0
ARC
8
DEFAULT_255_1_234
10
4.738283
20
42.4150666
40
0.7401564
50
164.3058563
51
173.9002247
0
ARC
8
DEFAULT_255_1_234
10
4.4470899
20
42.4989656
40
0.4371288
50
148.7922025
51
164.568378
0
ARC
8
DEFAULT_255_1_234
10
4.3519351
20
42.5520929
40
0.3282386
50
144.5883898
51
148.1176286
0
ARC
8
DEFAULT_255_1_234
10
4.3176249
20
42.5760315
40
0.2864044
50
101.6440918
51
144.514236
0
ARC
8
DEFAULT_255_1_234
10
4.3601315
20
42.4071069
40
0.4604934
50
89.5284041
51
102.5819763
0
ARC
8
DEFAULT_255_1_234
10
4.3680403
20
42.4032018
40
0.464401
50
77.0437873
51
90.5081339
0
ARC
8
DEFAULT_255_1_234
10
4.4082405
20
42.5674615
40
0.2953195
50
48.2778575
51
77.4994676
0
ARC
8
DEFAULT_255_1_234
10
4.4155036
20
42.5803746
40
0.2808655
50
36.3142134
51
47.6305865
0
ARC
8
DEFAULT_255_1_234
10
4.3286343
20
42.5218515
40
0.3855453
50
18.2931786
51
35.6769206
0
ARC
8
DEFAULT_255_1_234
10
4.0743102
20
42.4345593
40
0.654423
50
8.024666
51
18.5605216
0
ARC
8
DEFAULT_255_1_234
10
3.6580022
20
42.3730792
40
1.0752407
50
1.1274072
51
8.1718305
0
ARC
8
DEFAULT_255_1_234
10
3.3344213
20
42.3603885
40
1.3990231
50
0.5424119
51
1.3863029
0
ARC
8
DEFAULT_255_1_234
10
3.516559
20
42.3876342
40
1.0682415
50
359.8090433
51
4.9407866
0
ARC
8
DEFAULT_255_1_234
10
3.9375604
20
42.4252113
40
0.6455691
50
4.8362157
51
12.2904523
0
ARC
8
DEFAULT_255_1_234
10
4.2130719
20
42.4865965
40
0.3633074
50
12.0805627
51
23.8173984
0
ARC
8
DEFAULT_255_1_234
10
4.3304425
20
42.5362919
40
0.2358723
50
24.2871213
51
31.3935614
0
ARC
8
DEFAULT_255_1_234
10
4.3829122
20
42.5706233
40
0.1732111
50
30.7407893
51
82.4657128
0
ARC
8
DEFAULT_255_1_234
10
4.3649256
20
42.4822691
40
0.263235
50
81.1060089
51
90.2184952
0
ARC
8
DEFAULT_255_1_234
10
4.3613555
20
42.5080924
40
0.2374236
50
89.3806855
51
105.6762551
0
ARC
8
DEFAULT_255_1_234
10
4.3430186
20
42.5747567
40
0.1682847
50
105.7981136
51
149.7388061
0
ARC
8
DEFAULT_255_1_234
10
4.4494264
20
42.510795
40
0.2924306
50
149.4208916
51
163.6286378
0
ARC
8
DEFAULT_255_1_234
10
4.6585152
20
42.447025
40
0.5110213
50
163.3763315
51
172.1410975
0
ARC
8
DEFAULT_255_1_234
10
4.9885871
20
42.3997518
40
0.8444586
50
172.0259487
51
178.0703232
0
ARC
8
DEFAULT_255_1_234
10
5.291596
20
42.3853906
40
1.1477868
50
177.8631668
51
179.5044149
0
ARC
8
DEFAULT_255_1_234
10
5.1843365
20
42.1539389
40
1.0404907
50
179.7995573
51
185.2460446
0
ARC
8
DEFAULT_255_1_234
10
4.7800404
20
42.1156513
40
0.6343885
50
185.1411642
51
193.0079639
0
ARC
8
DEFAULT_255_1_234
10
4.5156877
20
42.0531641
40
0.3627568
50
192.7897626
51
205.2507664
0
ARC
8
DEFAULT_255_1_234
10
4.4110424
20
42.0064415
40
0.2481908
50
205.8005384
51
211.2537509
0
ARC
8
DEFAULT_255_1_234
10
4.3586864
20
41.971358
40
0.1852521
50
210.3789793
51
238.4008143
0
ARC
8
DEFAULT_255_1_234
10
4.3567386
20
41.9760376
40
0.1882621
50
239.6520629
51
265.9793761
0
ARC
8
DEFAULT_255_1_234
10
4.3652586
20
42.0432427
40
0.2559272
50
265.1315437
51
270.060332
0
ARC
8
DEFAULT_255_1_234
10
4.3681365
20
42.0108534
40
0.2235528
50
269.3314664
51
287.2178029
0
ARC
8
DEFAULT_255_1_234
10
4.3819217
20
41.9605279
40
0.1714108
50
287.7958004
51
329.080874
0
ARC
8
DEFAULT_255_1_234
10
4.2861674
20
42.020293
40
0.2842745
50
328.6634704
51
343.3325132
0
ARC
8
DEFAULT_255_1_234
10
4.0688694
20
42.0879863
40
0.5118644
50
343.0499468
51
351.9393422
0
ARC
8
DEFAULT_255_1_234
10
3.7221994
20
42.1390949
40
0.8622784
50
351.8069023
51
357.7959224
0
ARC
8
DEFAULT_255_1_234
10
3.398655
20
42.1558721
40
1.1862365
50
357.5871873
51
359.2677531
0
LINE
8
DEFAULT_255_1_234
10
4.7550674
20
48.1431211
11
4.7550674
21
48.059591
0
LINE
8
DEFAULT_255_1_234
10
4.7550674
20
48.059591
11
4.2707536
21
46.9737
0
LINE
8
DEFAULT_255_1_234
10
4.2707536
20
46.9737
11
4.1149379
21
46.9737
0
LINE
8
DEFAULT_255_1_234
10
4.1149379
20
46.9737
11
4.5976454
21
48.0210387
0
LINE
8
DEFAULT_255_1_234
10
4.5976454
20
48.0210387
11
3.9647444
21
48.0210387
0
LINE
8
DEFAULT_255_1_234
10
3.9647444
20
48.0210387
11
3.9647444
21
48.1431211
0
LINE
8
DEFAULT_255_1_234
10
3.9647444
20
48.1431211
11
4.7550674
21
48.1431211
0
LINE
8
DEFAULT_255_1_234
10
4.5566835
20
53.4356243
11
4.5831882
21
53.4356243
0
LINE
8
DEFAULT_255_1_234
10
4.5831882
20
53.4356243
11
4.5831882
21
53.309526
0
LINE
8
DEFAULT_255_1_234
10
4.5831882
20
53.309526
11
4.5558803
21
53.309526
0
LINE
8
DEFAULT_255_1_234
10
4.0089189
20
52.7103583
11
4.0089189
21
52.7673836
0
LINE
8
DEFAULT_255_1_234
10
4.1583093
20
52.7481075
11
4.1583093
21
52.6934917
0
ARC
8
DEFAULT_255_1_234
10
4.5611151
20
52.8097455
40
0.4998079
50
90.6001036
51
104.514704
0
ARC
8
DEFAULT_255_1_234
10
4.5222667
20
52.9542131
40
0.3502176
50
104.2855254
51
133.862935
0
ARC
8
DEFAULT_255_1_234
10
4.5386424
20
52.943383
40
0.3693984
50
134.5302688
51
161.6210873
0
ARC
8
DEFAULT_255_1_234
10
4.7039613
20
52.8850895
40
0.5446739
50
161.2849839
51
174.2076652
0
ARC
8
DEFAULT_255_1_234
10
4.844655
20
52.8656787
40
0.6866274
50
173.7810589
51
174.9254635
0
ARC
8
DEFAULT_255_1_234
10
4.3896382
20
52.7273839
40
0.3033419
50
95.8330959
51
138.9954921
0
ARC
8
DEFAULT_255_1_234
10
4.4119738
20
52.5995375
40
0.4328947
50
89.8753725
51
97.0544009
0
ARC
8
DEFAULT_255_1_234
10
4.4167204
20
52.6830748
40
0.3493769
50
71.6407809
51
90.6240094
0
ARC
8
DEFAULT_255_1_234
10
4.4317777
20
52.7385082
40
0.2920396
50
39.6367836
51
71.019018
0
ARC
8
DEFAULT_255_1_234
10
4.368125
20
52.6834998
40
0.3761538
50
10.658731
51
39.9043955
0
ARC
8
DEFAULT_255_1_234
10
4.2133333
20
52.6498686
40
0.5345136
50
359.682601
51
11.132623
0
ARC
8
DEFAULT_255_1_234
10
4.2093464
20
52.642801
40
0.5385081
50
347.2486944
51
0.4369317
0
ARC
8
DEFAULT_255_1_234
10
4.3760941
20
52.6026807
40
0.3670249
50
318.1409698
51
347.6118597
0
ARC
8
DEFAULT_255_1_234
10
4.4085934
20
52.5759702
40
0.3250007
50
275.6342139
51
317.8248465
0
ARC
8
DEFAULT_255_1_234
10
4.3865045
20
52.7059219
40
0.4565864
50
269.8874292
51
276.7917694
0
ARC
8
DEFAULT_255_1_234
10
4.3810116
20
52.6033743
40
0.3540676
50
246.9140195
51
270.7437342
0
ARC
8
DEFAULT_255_1_234
10
4.3816506
20
52.5891384
40
0.3412781
50
218.1665114
51
245.878116
0
ARC
8
DEFAULT_255_1_234
10
4.4695967
20
52.6627279
40
0.455911
50
191.4115814
51
218.6077802
0
ARC
8
DEFAULT_255_1_234
10
4.6634056
20
52.7061833
40
0.6545001
50
179.6345085
51
191.7836486
0
ARC
8
DEFAULT_255_1_234
10
5.2216393
20
52.7740697
40
1.2127388
50
171.4525249
51
180.3158839
0
ARC
8
DEFAULT_255_1_234
10
4.7821269
20
52.8424608
40
0.7679464
50
157.9802646
51
171.6246686
0
ARC
8
DEFAULT_255_1_234
10
4.560729
20
52.9307421
40
0.5296008
50
141.4298019
51
157.854097
0
ARC
8
DEFAULT_255_1_234
10
4.496561
20
52.9761381
40
0.4511509
50
102.8715806
51
140.8564722
0
ARC
8
DEFAULT_255_1_234
10
4.5613226
20
52.7321552
40
0.7034845
50
90.3778349
51
103.5869322
0
ARC
8
DEFAULT_255_1_234
10
4.3875002
20
52.671673
40
0.2370698
50
89.8751008
51
126.2071704
0
ARC
8
DEFAULT_255_1_234
10
4.3920792
20
52.6562303
40
0.2522934
50
124.9745049
51
144.895901
0
ARC
8
DEFAULT_255_1_234
10
4.3744982
20
52.670556
40
0.2296779
50
145.2974905
51
160.2660252
0
ARC
8
DEFAULT_255_1_234
10
4.6817521
20
52.6903071
40
0.5234525
50
179.6514266
51
190.2855912
0
ARC
8
DEFAULT_255_1_234
10
4.5123658
20
52.6583786
40
0.3510893
50
190.0945431
51
207.5098196
0
ARC
8
DEFAULT_255_1_234
10
4.4557928
20
52.6314623
40
0.288489
50
207.9583163
51
216.3251085
0
ARC
8
DEFAULT_255_1_234
10
4.4218036
20
52.6035105
40
0.2445587
50
215.7661442
51
232.5456785
0
ARC
8
DEFAULT_255_1_234
10
4.3835019
20
52.5548482
40
0.1826382
50
232.8005391
51
270.6605633
0
ARC
8
DEFAULT_255_1_234
10
4.388072
20
52.5912612
40
0.2190529
50
269.35537
51
288.4744281
0
ARC
8
DEFAULT_255_1_234
10
4.3973617
20
52.5563118
40
0.1829749
50
289.1833337
51
322.9683818
0
ARC
8
DEFAULT_255_1_234
10
4.3362139
20
52.6045391
40
0.2608399
50
322.6007884
51
346.5182367
0
ARC
8
DEFAULT_255_1_234
10
4.2204735
20
52.6340616
40
0.3802777
50
346.2582162
51
358.7741648
0
ARC
8
DEFAULT_255_1_234
10
4.1186404
20
52.6395965
40
0.4822176
50
358.3755224
51
0.0098023
0
ARC
8
DEFAULT_255_1_234
10
4.1942591
20
52.6423657
40
0.4066078
50
359.6214041
51
11.2839074
0
ARC
8
DEFAULT_255_1_234
10
4.3219738
20
52.6690066
40
0.2761514
50
11.0482309
51
31.8146458
0
ARC
8
DEFAULT_255_1_234
10
4.3528781
20
52.6857584
40
0.2410679
50
32.3035391
51
38.082671
0
ARC
8
DEFAULT_255_1_234
10
4.3949441
20
52.7238662
40
0.1844966
50
36.825067
51
85.7415724
0
ARC
8
DEFAULT_255_1_234
10
4.3882274
20
52.6738301
40
0.2349122
50
85.0140713
51
90.0513278
0
LINE
8
DEFAULT_255_1_234
10
4.1872235
20
58.1128963
11
4.0683538
21
58.1434169
0
LINE
8
DEFAULT_255_1_234
10
4.0683538
20
58.1434169
11
4.1277887
21
58.7265211
0
LINE
8
DEFAULT_255_1_234
10
4.1277887
20
58.7265211
11
4.7269563
21
58.7265211
0
LINE
8
DEFAULT_255_1_234
10
4.7269563
20
58.7265211
11
4.7269563
21
58.5891784
0
LINE
8
DEFAULT_255_1_234
10
4.7269563
20
58.5891784
11
4.253887
21
58.5891784
0
LINE
8
DEFAULT_255_1_234
10
4.253887
20
58.5891784
11
4.2185473
21
58.2703184
0
LINE
8
DEFAULT_255_1_234
10
4.0265888
20
57.8647156
11
4.1671442
21
57.8647156
0
LINE
8
DEFAULT_255_1_234
10
4.2265791
20
58.1450232
11
4.1872235
21
58.1128963
0
ARC
8
DEFAULT_255_1_234
10
4.4040257
20
57.952323
40
0.3681349
50
93.7182161
51
120.2538958
0
ARC
8
DEFAULT_255_1_234
10
4.413452
20
57.8715394
40
0.449379
50
89.9660152
51
94.2496022
0
ARC
8
DEFAULT_255_1_234
10
4.4175254
20
57.9304549
40
0.390482
50
73.8043271
51
90.5585896
0
ARC
8
DEFAULT_255_1_234
10
4.4410151
20
58.0162602
40
0.3015334
50
41.3071453
51
73.5430202
0
ARC
8
DEFAULT_255_1_234
10
4.3993978
20
57.9804324
40
0.3564457
50
13.5075983
51
41.2174222
0
ARC
8
DEFAULT_255_1_234
10
4.2352182
20
57.9374486
40
0.5261351
50
1.1331335
51
13.8829381
0
ARC
8
DEFAULT_255_1_234
10
4.0940551
20
57.9298665
40
0.6674378
50
359.9919444
51
1.544251
0
ARC
8
DEFAULT_255_1_234
10
4.2217377
20
57.925728
40
0.5397702
50
347.8572367
51
0.4293338
0
ARC
8
DEFAULT_255_1_234
10
4.3967695
20
57.8860736
40
0.3603188
50
323.673004
51
348.1672506
0
ARC
8
DEFAULT_255_1_234
10
4.4262203
20
57.8681168
40
0.3259678
50
316.8171152
51
323.1492751
0
ARC
8
DEFAULT_255_1_234
10
4.4323392
20
57.864446
40
0.3189975
50
281.8396411
51
316.5457803
0
ARC
8
DEFAULT_255_1_234
10
4.3947656
20
58.0199762
40
0.4789527
50
269.5770101
51
282.4214771
0
ARC
8
DEFAULT_255_1_234
10
4.3876467
20
57.9986125
40
0.45759
50
256.2427136
51
270.4486331
0
ARC
8
DEFAULT_255_1_234
10
4.357737
20
57.8786229
40
0.3339303
50
228.9023911
51
256.3314342
0
ARC
8
DEFAULT_255_1_234
10
4.3503602
20
57.8669746
40
0.32031
50
193.753695
51
228.5271154
0
ARC
8
DEFAULT_255_1_234
10
4.4741556
20
57.90328
40
0.4492253
50
184.924711
51
194.497588
0
ARC
8
DEFAULT_255_1_234
10
4.4934123
20
57.9068591
40
0.3289787
50
187.3600538
51
198.6732863
0
ARC
8
DEFAULT_255_1_234
10
4.3884417
20
57.8704674
40
0.217884
50
198.4451669
51
217.794479
0
ARC
8
DEFAULT_255_1_234
10
4.3588592
20
57.8495085
40
0.1816698
50
218.2887171
51
228.5612368
0
ARC
8
DEFAULT_255_1_234
10
4.3686379
20
57.8626963
40
0.1980329
50
228.9654866
51
258.1234728
0
ARC
8
DEFAULT_255_1_234
10
4.3892089
20
57.9507833
40
0.2884748
50
257.7258293
51
270.401361
0
ARC
8
DEFAULT_255_1_234
10
4.3936975
20
57.9062821
40
0.2439788
50
269.4204404
51
286.4209037
0
ARC
8
DEFAULT_255_1_234
10
4.4085463
20
57.8523657
40
0.1880666
50
286.7251356
51
320.600362
0
ARC
8
DEFAULT_255_1_234
10
4.3702288
20
57.8834595
40
0.2374121
50
320.6712579
51
344.5441685
0
ARC
8
DEFAULT_255_1_234
10
4.2545614
20
57.9174045
40
0.3579479
50
344.2412205
51
356.7357071
0
ARC
8
DEFAULT_255_1_234
10
4.1296763
20
57.9277444
40
0.4832297
50
356.3548756
51
0.0500261
0
ARC
8
DEFAULT_255_1_234
10
4.2633272
20
57.930865
40
0.3495889
50
359.5576869
51
12.953486
0
ARC
8
DEFAULT_255_1_234
10
4.3688169
20
57.9564434
40
0.2410532
50
12.6490276
51
41.6081334
0
ARC
8
DEFAULT_255_1_234
10
4.391854
20
57.9760321
40
0.2108218
50
41.7850273
51
85.9892764
0
ARC
8
DEFAULT_255_1_234
10
4.3795277
20
57.8947462
40
0.2928454
50
84.6957577
51
90.0676183
0
ARC
8
DEFAULT_255_1_234
10
4.3771761
20
57.8278716
40
0.3597255
50
89.6804936
51
99.1614436
0
ARC
8
DEFAULT_255_1_234
10
4.3566392
20
57.9506131
40
0.235281
50
98.9830931
51
113.8908934
0
ARC
8
DEFAULT_255_1_234
10
4.3336802
20
58.0047587
40
0.176479
50
114.1950727
51
127.3641004
0
LINE
8
DEFAULT_255_1_234
10
4.8389628
20
64.0181211
11
4.8389628
21
63.241452
0
LINE
8
DEFAULT_255_1_234
10
4.8389628
20
63.241452
11
5.0012039
21
63.241452
0
LINE
8
DEFAULT_255_1_234
10
5.0012039
20
63.241452
11
5.0012039
21
63.1201728
0
LINE
8
DEFAULT_255_1_234
10
5.0012039
20
63.1201728
11
4.8389628
21
63.1201728
0
LINE
8
DEFAULT_255_1_234
10
4.8389628
20
63.1201728
11
4.8389628
21
62.8487
0
LINE
8
DEFAULT_255_1_234
10
4.8389628
20
62.8487
11
4.6895725
21
62.8487
0
LINE
8
DEFAULT_255_1_234
10
4.6895725
20
62.8487
11
4.6895725
21
63.1201728
0
LINE
8
DEFAULT_255_1_234
10
4.6895725
20
63.1201728
11
4.1570682
21
63.1201728
0
LINE
8
DEFAULT_255_1_234
10
4.1570682
20
63.1201728
11
4.1570682
21
63.2077187
0
LINE
8
DEFAULT_255_1_234
10
4.1570682
20
63.2077187
11
4.6807375
21
64.0181211
0
LINE
8
DEFAULT_255_1_234
10
4.6807375
20
64.0181211
11
4.8389628
21
64.0181211
0
LINE
8
DEFAULT_255_1_234
10
4.6719026
20
63.7827912
11
4.3257347
21
63.241452
0
LINE
8
DEFAULT_255_1_234
10
4.3257347
20
63.241452
11
4.6895725
21
63.241452
0
LINE
8
DEFAULT_255_1_234
10
4.6895725
20
63.241452
11
4.6895725
21
63.8149181
0
LINE
8
DEFAULT_255_1_234
10
4.6895725
20
63.8149181
11
4.6719026
21
63.7827912
0
LINE
8
DEFAULT_255_1_234
10
4.2161378
20
68.6761169
11
4.2161378
21
68.7973962
0
LINE
8
DEFAULT_255_1_234
10
4.2161378
20
68.7973962
11
4.327779
21
68.7973962
0
LINE
8
DEFAULT_255_1_234
10
4.1374268
20
69.0030087
11
3.9888396
21
69.0030087
0
LINE
8
DEFAULT_255_1_234
10
3.9783983
20
68.4488187
11
4.1277887
21
68.4488187
0
LINE
8
DEFAULT_255_1_234
10
4.327779
20
68.6761169
11
4.2161378
21
68.6761169
0
ARC
8
DEFAULT_255_1_234
10
4.3248656
20
69.1366713
40
0.3392876
50
270.4919872
51
281.8951556
0
ARC
8
DEFAULT_255_1_234
10
4.3489918
20
69.0264702
40
0.2264817
50
281.6691735
51
301.2943132
0
ARC
8
DEFAULT_255_1_234
10
4.3660128
20
68.9953304
40
0.1910381
50
301.7833094
51
311.7545298
0
ARC
8
DEFAULT_255_1_234
10
4.3751704
20
68.9851748
40
0.1773635
50
311.7323931
51
354.2802411
0
ARC
8
DEFAULT_255_1_234
10
4.3025329
20
68.9976722
40
0.2509385
50
353.0937916
51
0.1181479
0
ARC
8
DEFAULT_255_1_234
10
4.2564114
20
69.0024386
40
0.2970898
50
359.1805295
51
15.0453146
0
ARC
8
DEFAULT_255_1_234
10
4.3909951
20
69.0416992
40
0.1569564
50
13.9577229
51
77.6713066
0
ARC
8
DEFAULT_255_1_234
10
4.352348
20
68.9031949
40
0.3006298
50
76.1116566
51
90.7026153
0
ARC
8
DEFAULT_255_1_234
10
4.3464318
20
68.9305545
40
0.2732568
50
89.5324876
51
103.531937
0
ARC
8
DEFAULT_255_1_234
10
4.3263762
20
69.0104884
40
0.1908508
50
103.2931773
51
133.5619022
0
ARC
8
DEFAULT_255_1_234
10
4.3219251
20
69.0164375
40
0.1834746
50
133.8349307
51
173.5344437
0
ARC
8
DEFAULT_255_1_234
10
4.3942294
20
69.0036213
40
0.2568033
50
172.5096846
51
180.1366907
0
ARC
8
DEFAULT_255_1_234
10
4.2991188
20
69.0070622
40
0.3103056
50
155.3484492
51
180.7484736
0
ARC
8
DEFAULT_255_1_234
10
4.2942277
20
69.0041846
40
0.3070957
50
131.5744599
51
154.4798489
0
ARC
8
DEFAULT_255_1_234
10
4.3255424
20
68.972531
40
0.3515643
50
96.9875458
51
131.9690667
0
ARC
8
DEFAULT_255_1_234
10
4.3474904
20
68.8479636
40
0.4779224
50
89.8596053
51
97.7825159
0
ARC
8
DEFAULT_255_1_234
10
4.3522967
20
68.8217616
40
0.5041361
50
78.3655447
51
90.4131539
0
ARC
8
DEFAULT_255_1_234
10
4.3880885
20
68.9876887
40
0.3344039
50
56.6229102
51
78.638727
0
ARC
8
DEFAULT_255_1_234
10
4.4095829
20
69.0252805
40
0.2912001
50
47.0253525
51
56.0854072
0
ARC
8
DEFAULT_255_1_234
10
4.4115609
20
69.0292223
40
0.2869704
50
10.9208013
51
46.7778124
0
ARC
8
DEFAULT_255_1_234
10
4.2751675
20
68.9976857
40
0.426899
50
359.6364486
51
11.6087304
0
ARC
8
DEFAULT_255_1_234
10
4.4586519
20
68.9961752
40
0.243409
50
332.3549906
51
359.7179418
0
ARC
8
DEFAULT_255_1_234
10
4.3936121
20
69.0270142
40
0.3153459
50
325.2333722
51
332.8745602
0
ARC
8
DEFAULT_255_1_234
10
4.4088744
20
69.0163828
40
0.2967456
50
292.9802137
51
325.2392345
0
ARC
8
DEFAULT_255_1_234
10
4.3814118
20
69.0697863
40
0.3566604
50
292.5402179
51
293.6924929
0
ARC
8
DEFAULT_255_1_234
10
4.4206714
20
68.4243091
40
0.3307468
50
57.6435486
51
72.8625112
0
ARC
8
DEFAULT_255_1_234
10
4.4561214
20
68.4817549
40
0.2632492
50
36.7248896
51
57.4697979
0
ARC
8
DEFAULT_255_1_234
10
4.4549847
20
68.483022
40
0.2634081
50
8.0545065
51
36.356114
0
ARC
8
DEFAULT_255_1_234
10
4.3687032
20
68.4675174
40
0.3510261
50
359.8320645
51
8.5869982
0
ARC
8
DEFAULT_255_1_234
10
4.3311808
20
68.4627101
40
0.3885653
50
343.9829931
51
0.5571613
0
ARC
8
DEFAULT_255_1_234
10
4.4198005
20
68.4384438
40
0.2966924
50
311.6359546
51
343.7651759
0
ARC
8
DEFAULT_255_1_234
10
4.3819574
20
68.4811102
40
0.3537231
50
279.7829875
51
311.6255694
0
ARC
8
DEFAULT_255_1_234
10
4.3518351
20
68.624828
40
0.5004971
50
269.7286406
51
280.3856417
0
ARC
8
DEFAULT_255_1_234
10
4.3456423
20
68.6206996
40
0.4963778
50
256.6828919
51
270.4412052
0
ARC
8
DEFAULT_255_1_234
10
4.3117719
20
68.4822394
40
0.3538406
50
229.4223008
51
256.8556159
0
ARC
8
DEFAULT_255_1_234
10
4.2703112
20
68.4355736
40
0.2914296
50
181.818294
51
229.6455059
0
ARC
8
DEFAULT_255_1_234
10
4.3743068
20
68.4486496
40
0.3959084
50
179.9755256
51
183.2323064
0
ARC
8
DEFAULT_255_1_234
10
4.3570814
20
68.4466037
40
0.2293034
50
179.4465117
51
196.2869258
0
ARC
8
DEFAULT_255_1_234
10
4.3083222
20
68.4332651
40
0.1787621
50
196.5661473
51
227.705904
0
ARC
8
DEFAULT_255_1_234
10
4.3247317
20
68.4516155
40
0.2033784
50
227.7652068
51
257.8762805
0
ARC
8
DEFAULT_255_1_234
10
4.3472287
20
68.5459156
40
0.3003081
50
257.4584385
51
270.426602
0
ARC
8
DEFAULT_255_1_234
10
4.3517853
20
68.5748996
40
0.329292
50
269.5962073
51
280.8789248
0
ARC
8
DEFAULT_255_1_234
10
4.3747382
20
68.4602685
40
0.2123908
50
280.6346389
51
299.8595945
0
ARC
8
DEFAULT_255_1_234
10
4.3938289
20
68.4240212
40
0.171457
50
300.3576302
51
314.5517981
0
ARC
8
DEFAULT_255_1_234
10
4.3855349
20
68.4300919
40
0.1816095
50
315.0728369
51
345.0431014
0
ARC
8
DEFAULT_255_1_234
10
4.2932163
20
68.4569841
40
0.2777492
50
344.5986631
51
357.9269593
0
ARC
8
DEFAULT_255_1_234
10
4.2036489
20
68.4631276
40
0.3674917
50
357.4748886
51
0.0231117
0
ARC
8
DEFAULT_255_1_234
10
4.3059599
20
68.4655679
40
0.2651907
50
359.5047933
51
13.4239635
0
ARC
8
DEFAULT_255_1_234
10
4.3926242
20
68.4877478
40
0.1757509
50
12.9498199
51
48.7551375
0
ARC
8
DEFAULT_255_1_234
10
4.3743976
20
68.46284
40
0.2065134
50
49.5088623
51
72.1836453
0
ARC
8
DEFAULT_255_1_234
10
4.3386129
20
68.3566291
40
0.3185836
50
71.9010081
51
84.3554254
0
ARC
8
DEFAULT_255_1_234
10
4.3224761
20
68.2205326
40
0.4556151
50
84.0193428
51
89.333121
0
LINE
8
DEFAULT_255_1_234
10
4.7663119
20
73.5533792
11
4.7663119
21
73.4321
0
LINE
8
DEFAULT_255_1_234
10
4.7663119
20
73.4321
11
4.000084
21
73.4321
0
LINE
8
DEFAULT_255_1_234
10
4.000084
20
73.4321
11
4.000084
21
73.5389221
0
LINE
8
DEFAULT_255_1_234
10
4.000084
20
73.5389221
11
4.4048836
21
73.9886995
0
LINE
8
DEFAULT_255_1_234
10
4.1261823
20
74.2569595
11
3.9775952
21
74.2569595
0
LINE
8
DEFAULT_255_1_234
10
4.4924296
20
73.8931218
11
4.1791918
21
73.5533792
0
LINE
8
DEFAULT_255_1_234
10
4.1791918
20
73.5533792
11
4.7663119
21
73.5533792
0
ARC
8
DEFAULT_255_1_234
10
3.055867
20
75.1816527
40
1.8008286
50
318.5132453
51
320.7828378
0
ARC
8
DEFAULT_255_1_234
10
3.5845644
20
74.7513426
40
1.1191493
50
320.7372736
51
323.9737074
0
ARC
8
DEFAULT_255_1_234
10
3.9765501
20
74.4673361
40
0.6350923
50
323.8961724
51
328.6421089
0
ARC
8
DEFAULT_255_1_234
10
4.1812096
20
74.3411031
40
0.3946393
50
328.8299013
51
331.789948
0
ARC
8
DEFAULT_255_1_234
10
4.2809274
20
74.2896509
40
0.2824501
50
331.4255242
51
352.9364833
0
ARC
8
DEFAULT_255_1_234
10
4.2945775
20
74.2865976
40
0.2685315
50
353.2248685
51
0.0169286
0
ARC
8
DEFAULT_255_1_234
10
4.3155652
20
74.288895
40
0.2475536
50
359.4866256
51
15.9339782
0
ARC
8
DEFAULT_255_1_234
10
4.3662637
20
74.3025286
40
0.1950618
50
16.1714718
51
43.5284424
0
ARC
8
DEFAULT_255_1_234
10
4.3739946
20
74.3102573
40
0.184134
50
43.4415429
51
83.1661404
0
ARC
8
DEFAULT_255_1_234
10
4.3605864
20
74.2365771
40
0.258926
50
82.160215
51
90.1505798
0
ARC
8
DEFAULT_255_1_234
10
4.3574291
20
74.1828865
40
0.3126255
50
89.5460705
51
102.5418777
0
ARC
8
DEFAULT_255_1_234
10
4.3331377
20
74.2859665
40
0.2067346
50
102.1739365
51
129.2061916
0
ARC
8
DEFAULT_255_1_234
10
4.3252449
20
74.2984094
40
0.1921118
50
129.7279328
51
135.7542026
0
ARC
8
DEFAULT_255_1_234
10
4.3373977
20
74.2887045
40
0.2075944
50
136.175737
51
166.3674722
0
ARC
8
DEFAULT_255_1_234
10
4.4380896
20
74.2617182
40
0.3118201
50
165.9092917
51
178.8683903
0
ARC
8
DEFAULT_255_1_234
10
4.5245757
20
74.2570179
40
0.3983935
50
178.438168
51
180.0083905
0
ARC
8
DEFAULT_255_1_234
10
4.3844359
20
74.2609231
40
0.4068601
50
163.2878735
51
180.5581814
0
ARC
8
DEFAULT_255_1_234
10
4.3042621
20
74.282984
40
0.3237344
50
133.454115
51
162.9470031
0
ARC
8
DEFAULT_255_1_234
10
4.3221162
20
74.264
40
0.349795
50
100.7869394
51
133.4384016
0
ARC
8
DEFAULT_255_1_234
10
4.3568934
20
74.1091319
40
0.5084616
50
89.6605301
51
101.3704185
0
ARC
8
DEFAULT_255_1_234
10
4.3635273
20
74.1152496
40
0.502348
50
78.2171172
51
90.4130393
0
ARC
8
DEFAULT_255_1_234
10
4.3990351
20
74.2776637
40
0.3361092
50
55.9268222
51
78.4888551
0
ARC
8
DEFAULT_255_1_234
10
4.4186791
20
74.3115324
40
0.2970617
50
47.9292255
51
55.4054003
0
ARC
8
DEFAULT_255_1_234
10
4.4288352
20
74.3218502
40
0.2825983
50
4.3347696
51
48.0560701
0
ARC
8
DEFAULT_255_1_234
10
4.3192745
20
74.3048601
40
0.393225
50
359.925209
51
5.5967654
0
ARC
8
DEFAULT_255_1_234
10
4.3621637
20
74.3104816
40
0.3503892
50
337.8914096
51
358.9967724
0
ARC
8
DEFAULT_255_1_234
10
4.0908049
20
74.4151706
40
0.6412172
50
326.9135351
51
338.3505194
0
ARC
8
DEFAULT_255_1_234
10
3.6922353
20
74.6706284
40
1.1146189
50
319.6472867
51
327.095818
0
ARC
8
DEFAULT_255_1_234
10
3.3089356
20
74.9868
40
1.6114559
50
317.2586784
51
319.9046139
0
LINE
8
DEFAULT_255_1_234
10
4.4801137
20
79.8987433
11
4.4801137
21
78.7237
0
LINE
8
DEFAULT_255_1_234
10
4.4801137
20
78.7237
11
4.3307234
21
78.7237
0
LINE
8
DEFAULT_255_1_234
10
4.3307234
20
78.7237
11
4.3307234
21
79.7140133
0
LINE
8
DEFAULT_255_1_234
10
4.3307234
20
79.7140133
11
4.0311396
21
79.6039785
0
LINE
8
DEFAULT_255_1_234
10
4.0311396
20
79.6039785
11
4.0311396
21
79.7389117
0
LINE
8
DEFAULT_255_1_234
10
4.0311396
20
79.7389117
11
4.4568217
21
79.8987433
0
LINE
8
DEFAULT_255_1_234
10
4.4568217
20
79.8987433
11
4.4801137
21
79.8987433
0
LINE
8
DEFAULT_255_1_234
10
4.7333817
20
84.7069327
11
4.7333817
21
84.5141709
0
LINE
8
DEFAULT_255_1_234
10
3.995265
20
84.4940916
11
3.995265
21
84.6924755
0
LINE
8
DEFAULT_255_1_234
10
4.5847946
20
84.4740123
11
4.5847946
21
84.7173739
0
LINE
8
DEFAULT_255_1_234
10
4.1438521
20
84.7286184
11
4.1438521
21
84.4908789
0
ARC
8
DEFAULT_255_1_234
10
3.5086707
20
84.5092805
40
1.2247208
50
353.8441951
51
0.2287902
0
ARC
8
DEFAULT_255_1_234
10
3.9726211
20
84.4574806
40
0.7578929
50
344.4934747
51
353.9765454
0
ARC
8
DEFAULT_255_1_234
10
4.2718801
20
84.3723981
40
0.4467846
50
329.2803592
51
344.7472793
0
ARC
8
DEFAULT_255_1_234
10
4.3711626
20
84.3179018
40
0.3336173
50
324.9352394
51
328.6160465
0
ARC
8
DEFAULT_255_1_234
10
4.4088734
20
84.2915427
40
0.2876076
50
280.580143
51
324.9173126
0
ARC
8
DEFAULT_255_1_234
10
4.3687527
20
84.4586099
40
0.4592847
50
269.5977311
51
281.6734359
0
ARC
8
DEFAULT_255_1_234
10
4.3615433
20
84.4466173
40
0.4472986
50
256.6228859
51
270.51044
0
ARC
8
DEFAULT_255_1_234
10
4.321341
20
84.2917877
40
0.2873874
50
215.8618325
51
257.2788573
0
ARC
8
DEFAULT_255_1_234
10
4.4234442
20
84.3602977
40
0.4102928
50
197.9693508
51
215.2623606
0
ARC
8
DEFAULT_255_1_234
10
4.6719558
20
84.4441709
40
0.6725652
50
187.8816417
51
198.2346507
0
ARC
8
DEFAULT_255_1_234
10
5.0677766
20
84.5013079
40
1.0724845
50
180.8976217
51
188.0055519
0
ARC
8
DEFAULT_255_1_234
10
5.3477954
20
84.5116777
40
1.3526448
50
180.7449369
51
181.1510016
0
ARC
8
DEFAULT_255_1_234
10
5.1900683
20
84.6973042
40
1.1948131
50
173.7675579
51
180.231553
0
ARC
8
DEFAULT_255_1_234
10
4.738283
20
84.7483666
40
0.7401564
50
164.3058563
51
173.9002247
0
ARC
8
DEFAULT_255_1_234
10
4.4470899
20
84.8322656
40
0.4371288
50
148.7922025
51
164.568378
0
ARC
8
DEFAULT_255_1_234
10
4.3519351
20
84.8853929
40
0.3282386
50
144.5883898
51
148.1176286
0
ARC
8
DEFAULT_255_1_234
10
4.3176249
20
84.9093315
40
0.2864044
50
101.6440918
51
144.514236
0
ARC
8
DEFAULT_255_1_234
10
4.3601315
20
84.7404069
40
0.4604934
50
89.5284041
51
102.5819763
0
ARC
8
DEFAULT_255_1_234
10
4.3680403
20
84.7365018
40
0.464401
50
77.0437873
51
90.5081339
0
ARC
8
DEFAULT_255_1_234
10
4.4082405
20
84.9007615
40
0.2953195
50
48.2778575
51
77.4994676
0
ARC
8
DEFAULT_255_1_234
10
4.4155036
20
84.9136746
40
0.2808655
50
36.3142134
51
47.6305865
0
ARC
8
DEFAULT_255_1_234
10
4.3286343
20
84.8551515
40
0.3855453
50
18.2931786
51
35.6769206
0
ARC
8
DEFAULT_255_1_234
10
4.0743102
20
84.7678593
40
0.654423
50
8.024666
51
18.5605216
0
ARC
8
DEFAULT_255_1_234
10
3.6580022
20
84.7063792
40
1.0752407
50
1.1274072
51
8.1718305
0
ARC
8
DEFAULT_255_1_234
10
3.3344213
20
84.6936885
40
1.3990231
50
0.5424119
51
1.3863029
0
ARC
8
DEFAULT_255_1_234
10
3.516559
20
84.7209342
40
1.0682415
50
359.8090433
51
4.9407866
0
ARC
8
DEFAULT_255_1_234
10
3.9375604
20
84.7585113
40
0.6455691
50
4.8362157
51
12.2904523
0
ARC
8
DEFAULT_255_1_234
10
4.2130719
20
84.8198965
40
0.3633074
50
12.0805627
51
23.8173984
0
ARC
8
DEFAULT_255_1_234
10
4.3304425
20
84.8695919
40
0.2358723
50
24.2871213
51
31.3935614
0
ARC
8
DEFAULT_255_1_234
10
4.3829122
20
84.9039233
40
0.1732111
50
30.7407893
51
82.4657128
0
ARC
8
DEFAULT_255_1_234
10
4.3649256
20
84.8155691
40
0.263235
50
81.1060089
51
90.2184952
0
ARC
8
DEFAULT_255_1_234
10
4.3613555
20
84.8413924
40
0.2374236
50
89.3806855
51
105.6762551
0
ARC
8
DEFAULT_255_1_234
10
4.3430186
20
84.9080567
40
0.1682847
50
105.7981136
51
149.7388061
0
ARC
8
DEFAULT_255_1_234
10
4.4494264
20
84.844095
40
0.2924306
50
149.4208916
51
163.6286378
0
ARC
8
DEFAULT_255_1_234
10
4.6585152
20
84.780325
40
0.5110213
50
163.3763315
51
172.1410975
0
ARC
8
DEFAULT_255_1_234
10
4.9885871
20
84.7330518
40
0.8444586
50
172.0259487
51
178.0703232
0
ARC
8
DEFAULT_255_1_234
10
5.291596
20
84.7186906
40
1.1477868
50
177.8631668
51
179.5044149
0
ARC
8
DEFAULT_255_1_234
10
5.1843365
20
84.4872389
40
1.0404907
50
179.7995573
51
185.2460446
0
ARC
8
DEFAULT_255_1_234
10
4.7800404
20
84.4489513
40
0.6343885
50
185.1411642
51
193.0079639
0
ARC
8
DEFAULT_255_1_234
10
4.5156877
20
84.3864641
40
0.3627568
50
192.7897626
51
205.2507664
0
ARC
8
DEFAULT_255_1_234
10
4.4110424
20
84.3397415
40
0.2481908
50
205.8005384
51
211.2537509
0
ARC
8
DEFAULT_255_1_234
10
4.3586864
20
84.304658
40
0.1852521
50
210.3789793
51
238.4008143
0
ARC
8
DEFAULT_255_1_234
10
4.3567386
20
84.3093376
40
0.1882621
50
239.6520629
51
265.9793761
0
ARC
8
DEFAULT_255_1_234
10
4.3652586
20
84.3765427
40
0.2559272
50
265.1315437
51
270.060332
0
ARC
8
DEFAULT_255_1_234
10
4.3681365
20
84.3441534
40
0.2235528
50
269.3314664
51
287.2178029
0
ARC
8
DEFAULT_255_1_234
10
4.3819217
20
84.2938279
40
0.1714108
50
287.7958004
51
329.080874
0
ARC
8
DEFAULT_255_1_234
10
4.2861674
20
84.353593
40
0.2842745
50
328.6634704
51
343.3325132
0
ARC
8
DEFAULT_255_1_234
10
4.0688694
20
84.4212863
40
0.5118644
50
343.0499468
51
351.9393422
0
ARC
8
DEFAULT_255_1_234
10
3.7221994
20
84.4723949
40
0.8622784
50
351.8069023
51
357.7959224
0
ARC
8
DEFAULT_255_1_234
10
3.398655
20
84.4891721
40
1.1862365
50
357.5871873
51
359.2677531
0
LINE
8
DEFAULT_255_1_234
10
4.7550674
20
90.4765211
11
4.7550674
21
90.392991
0
LINE
8
DEFAULT_255_1_234
10
4.7550674
20
90.392991
11
4.2707536
21
89.3071
0
LINE
8
DEFAULT_255_1_234
10
4.2707536
20
89.3071
11
4.1149379
21
89.3071
0
LINE
8
DEFAULT_255_1_234
10
4.1149379
20
89.3071
11
4.5976454
21
90.3544387
0
LINE
8
DEFAULT_255_1_234
10
4.5976454
20
90.3544387
11
3.9647444
21
90.3544387
0
LINE
8
DEFAULT_255_1_234
10
3.9647444
20
90.3544387
11
3.9647444
21
90.4765211
0
LINE
8
DEFAULT_255_1_234
10
3.9647444
20
90.4765211
11
4.7550674
21
90.4765211
0
LINE
8
DEFAULT_255_1_234
10
4.5566835
20
95.7689243
11
4.5831882
21
95.7689243
0
LINE
8
DEFAULT_255_1_234
10
4.5831882
20
95.7689243
11
4.5831882
21
95.642826
0
LINE
8
DEFAULT_255_1_234
10
4.5831882
20
95.642826
11
4.5558803
21
95.642826
0
LINE
8
DEFAULT_255_1_234
10
4.0089189
20
95.0436583
11
4.0089189
21
95.1006836
0
LINE
8
DEFAULT_255_1_234
10
4.1583093
20
95.0814075
11
4.1583093
21
95.0267917
0
ARC
8
DEFAULT_255_1_234
10
4.5611151
20
95.1430455
40
0.4998079
50
90.6001036
51
104.514704
0
ARC
8
DEFAULT_255_1_234
10
4.5222667
20
95.2875131
40
0.3502176
50
104.2855254
51
133.862935
0
ARC
8
DEFAULT_255_1_234
10
4.5386424
20
95.276683
40
0.3693984
50
134.5302688
51
161.6210873
0
ARC
8
DEFAULT_255_1_234
10
4.7039613
20
95.2183895
40
0.5446739
50
161.2849839
51
174.2076652
0
ARC
8
DEFAULT_255_1_234
10
4.844655
20
95.1989787
40
0.6866274
50
173.7810589
51
174.9254635
0
ARC
8
DEFAULT_255_1_234
10
4.3896382
20
95.0606839
40
0.3033419
50
95.8330959
51
138.9954921
0
ARC
8
DEFAULT_255_1_234
10
4.4119738
20
94.9328375
40
0.4328947
50
89.8753725
51
97.0544009
0
ARC
8
DEFAULT_255_1_234
10
4.4167204
20
95.0163748
40
0.3493769
50
71.6407809
51
90.6240094
0
ARC
8
DEFAULT_255_1_234
10
4.4317777
20
95.0718082
40
0.2920396
50
39.6367836
51
71.019018
0
ARC
8
DEFAULT_255_1_234
10
4.368125
20
95.0167998
40
0.3761538
50
10.658731
51
39.9043955
0
ARC
8
DEFAULT_255_1_234
10
4.2133333
20
94.9831686
40
0.5345136
50
359.682601
51
11.132623
0
ARC
8
DEFAULT_255_1_234
10
4.2093464
20
94.976101
40
0.5385081
50
347.2486944
51
0.4369317
0
ARC
8
DEFAULT_255_1_234
10
4.3760941
20
94.9359807
40
0.3670249
50
318.1409698
51
347.6118597
0
ARC
8
DEFAULT_255_1_234
10
4.4085934
20
94.9092702
40
0.3250007
50
275.6342139
51
317.8248465
0
ARC
8
DEFAULT_255_1_234
10
4.3865045
20
95.0392219
40
0.4565864
50
269.8874292
51
276.7917694
0
ARC
8
DEFAULT_255_1_234
10
4.3810116
20
94.9366743
40
0.3540676
50
246.9140195
51
270.7437342
0
ARC
8
DEFAULT_255_1_234
10
4.3816506
20
94.9224384
40
0.3412781
50
218.1665114
51
245.878116
0
ARC
8
DEFAULT_255_1_234
10
4.4695967
20
94.9960279
40
0.455911
50
191.4115814
51
218.6077802
0
ARC
8
DEFAULT_255_1_234
10
4.6634056
20
95.0394833
40
0.6545001
50
179.6345085
51
191.7836486
0
ARC
8
DEFAULT_255_1_234
10
5.2216393
20
95.1073697
40
1.2127388
50
171.4525249
51
180.3158839
0
ARC
8
DEFAULT_255_1_234
10
4.7821269
20
95.1757608
40
0.7679464
50
157.9802646
51
171.6246686
0
ARC
8
DEFAULT_255_1_234
10
4.560729
20
95.2640421
40
0.5296008
50
141.4298019
51
157.854097
0
ARC
8
DEFAULT_255_1_234
10
4.496561
20
95.3094381
40
0.4511509
50
102.8715806
51
140.8564722
0
ARC
8
DEFAULT_255_1_234
10
4.5613226
20
95.0654552
40
0.7034845
50
90.3778349
51
103.5869322
0
ARC
8
DEFAULT_255_1_234
10
4.3875002
20
95.004973
40
0.2370698
50
89.8751008
51
126.2071704
0
ARC
8
DEFAULT_255_1_234
10
4.3920792
20
94.9895303
40
0.2522934
50
124.9745049
51
144.895901
0
ARC
8
DEFAULT_255_1_234
10
4.3744982
20
95.003856
40
0.2296779
50
145.2974905
51
160.2660252
0
ARC
8
DEFAULT_255_1_234
10
4.6817521
20
95.0236071
40
0.5234525
50
179.6514266
51
190.2855912
0
ARC
8
DEFAULT_255_1_234
10
4.5123658
20
94.9916786
40
0.3510893
50
190.0945431
51
207.5098196
0
ARC
8
DEFAULT_255_1_234
10
4.4557928
20
94.9647623
40
0.288489
50
207.9583163
51
216.3251085
0
ARC
8
DEFAULT_255_1_234
10
4.4218036
20
94.9368105
40
0.2445587
50
215.7661442
51
232.5456785
0
ARC
8
DEFAULT_255_1_234
10
4.3835019
20
94.8881482
40
0.1826382
50
232.8005391
51
270.6605633
0
ARC
8
DEFAULT_255_1_234
10
4.388072
20
94.9245612
40
0.2190529
50
269.35537
51
288.4744281
0
ARC
8
DEFAULT_255_1_234
10
4.3973617
20
94.8896118
40
0.1829749
50
289.1833337
51
322.9683818
0
ARC
8
DEFAULT_255_1_234
10
4.3362139
20
94.9378391
40
0.2608399
50
322.6007884
51
346.5182367
0
ARC
8
DEFAULT_255_1_234
10
4.2204735
20
94.9673616
40
0.3802777
50
346.2582162
51
358.7741648
0
ARC
8
DEFAULT_255_1_234
10
4.1186404
20
94.9728965
40
0.4822176
50
358.3755224
51
0.0098023
0
ARC
8
DEFAULT_255_1_234
10
4.1942591
20
94.9756657
40
0.4066078
50
359.6214041
51
11.2839074
0
ARC
8
DEFAULT_255_1_234
10
4.3219738
20
95.0023066
40
0.2761514
50
11.0482309
51
31.8146458
0
ARC
8
DEFAULT_255_1_234
10
4.3528781
20
95.0190584
40
0.2410679
50
32.3035391
51
38.082671
0
ARC
8
DEFAULT_255_1_234
10
4.3949441
20
95.0571662
40
0.1844966
50
36.825067
51
85.7415724
0
ARC
8
DEFAULT_255_1_234
10
4.3882274
20
95.0071301
40
0.2349122
50
85.0140713
51
90.0513278
0
LINE
8
DEFAULT_255_1_234
10
4.1872235
20
100.4461963
11
4.0683538
21
100.4767169
0
LINE
8
DEFAULT_255_1_234
10
4.0683538
20
100.4767169
11
4.1277887
21
101.0598211
0
LINE
8
DEFAULT_255_1_234
10
4.1277887
20
101.0598211
11
4.7269563
21
101.0598211
0
LINE
8
DEFAULT_255_1_234
10
4.7269563
20
101.0598211
11
4.7269563
21
100.9224784
0
LINE
8
DEFAULT_255_1_234
10
4.7269563
20
100.9224784
11
4.253887
21
100.9224784
0
LINE
8
DEFAULT_255_1_234
10
4.253887
20
100.9224784
11
4.2185473
21
100.6036184
0
LINE
8
DEFAULT_255_1_234
10
4.0265888
20
100.1980156
11
4.1671442
21
100.1980156
0
LINE
8
DEFAULT_255_1_234
10
4.2265791
20
100.4783232
11
4.1872235
21
100.4461963
0
ARC
8
DEFAULT_255_1_234
10
4.4040257
20
100.285623
40
0.3681349
50
93.7182161
51
120.2538958
0
ARC
8
DEFAULT_255_1_234
10
4.413452
20
100.2048394
40
0.449379
50
89.9660152
51
94.2496022
0
ARC
8
DEFAULT_255_1_234
10
4.4175254
20
100.2637549
40
0.390482
50
73.8043271
51
90.5585896
0
ARC
8
DEFAULT_255_1_234
10
4.4410151
20
100.3495602
40
0.3015334
50
41.3071453
51
73.5430202
0
ARC
8
DEFAULT_255_1_234
10
4.3993978
20
100.3137324
40
0.3564457
50
13.5075983
51
41.2174222
0
ARC
8
DEFAULT_255_1_234
10
4.2352182
20
100.2707486
40
0.5261351
50
1.1331335
51
13.8829381
0
ARC
8
DEFAULT_255_1_234
10
4.0940551
20
100.2631665
40
0.6674378
50
359.9919444
51
1.544251
0
ARC
8
DEFAULT_255_1_234
10
4.2217377
20
100.259028
40
0.5397702
50
347.8572367
51
0.4293338
0
ARC
8
DEFAULT_255_1_234
10
4.3967695
20
100.2193736
40
0.3603188
50
323.673004
51
348.1672506
0
ARC
8
DEFAULT_255_1_234
10
4.4262203
20
100.2014168
40
0.3259678
50
316.8171152
51
323.1492751
0
ARC
8
DEFAULT_255_1_234
10
4.4323392
20
100.197746
40
0.3189975
50
281.8396411
51
316.5457803
0
ARC
8
DEFAULT_255_1_234
10
4.3947656
20
100.3532762
40
0.4789527
50
269.5770101
51
282.4214771
0
ARC
8
DEFAULT_255_1_234
10
4.3876467
20
100.3319125
40
0.45759
50
256.2427136
51
270.4486331
0
ARC
8
DEFAULT_255_1_234
10
4.357737
20
100.2119229
40
0.3339303
50
228.9023911
51
256.3314342
0
ARC
8
DEFAULT_255_1_234
10
4.3503602
20
100.2002746
40
0.32031
50
193.753695
51
228.5271154
0
ARC
8
DEFAULT_255_1_234
10
4.4741556
20
100.23658
40
0.4492253
50
184.924711
51
194.497588
0
ARC
8
DEFAULT_255_1_234
10
4.4934123
20
100.2401591
40
0.3289787
50
187.3600538
51
198.6732863
0
ARC
8
DEFAULT_255_1_234
10
4.3884417
20
100.2037674
40
0.217884
50
198.4451669
51
217.794479
0
ARC
8
DEFAULT_255_1_234
10
4.3588592
20
100.1828085
40
0.1816698
50
218.2887171
51
228.5612368
0
ARC
8
DEFAULT_255_1_234
10
4.3686379
20
100.1959963
40
0.1980329
50
228.9654866
51
258.1234728
0
ARC
8
DEFAULT_255_1_234
10
4.3892089
20
100.2840833
40
0.2884748
50
257.7258293
51
270.401361
0
ARC
8
DEFAULT_255_1_234
10
4.3936975
20
100.2395821
40
0.2439788
50
269.4204404
51
286.4209037
0
ARC
8
DEFAULT_255_1_234
10
4.4085463
20
100.1856657
40
0.1880666
50
286.7251356
51
320.600362
0
ARC
8
DEFAULT_255_1_234
10
4.3702288
20
100.2167595
40
0.2374121
50
320.6712579
51
344.5441685
0
ARC
8
DEFAULT_255_1_234
10
4.2545614
20
100.2507045
40
0.3579479
50
344.2412205
51
356.7357071
0
ARC
8
DEFAULT_255_1_234
10
4.1296763
20
100.2610444
40
0.4832297
50
356.3548756
51
0.0500261
0
ARC
8
DEFAULT_255_1_234
10
4.2633272
20
100.264165
40
0.3495889
50
359.5576869
51
12.953486
0
ARC
8
DEFAULT_255_1_234
10
4.3688169
20
100.2897434
40
0.2410532
50
12.6490276
51
41.6081334
0
ARC
8
DEFAULT_255_1_234
10
4.391854
20
100.3093321
40
0.2108218
50
41.7850273
51
85.9892764
0
ARC
8
DEFAULT_255_1_234
10
4.3795277
20
100.2280462
40
0.2928454
50
84.6957577
51
90.0676183
0
ARC
8
DEFAULT_255_1_234
10
4.3771761
20
100.1611716
40
0.3597255
50
89.6804936
51
99.1614436
0
ARC
8
DEFAULT_255_1_234
10
4.3566392
20
100.2839131
40
0.235281
50
98.9830931
51
113.8908934
0
ARC
8
DEFAULT_255_1_234
10
4.3336802
20
100.3380587
40
0.176479
50
114.1950727
51
127.3641004
0
LINE
8
DEFAULT_255_1_234
10
4.8389628
20
106.3515211
11
4.8389628
21
105.574852
0
LINE
8
DEFAULT_255_1_234
10
4.8389628
20
105.574852
11
5.0012039
21
105.574852
0
LINE
8
DEFAULT_255_1_234
10
5.0012039
20
105.574852
11
5.0012039
21
105.4535728
0
LINE
8
DEFAULT_255_1_234
10
5.0012039
20
105.4535728
11
4.8389628
21
105.4535728
0
LINE
8
DEFAULT_255_1_234
10
4.8389628
20
105.4535728
11
4.8389628
21
105.1821
0
LINE
8
DEFAULT_255_1_234
10
4.8389628
20
105.1821
11
4.6895725
21
105.1821
0
LINE
8
DEFAULT_255_1_234
10
4.6895725
20
105.1821
11
4.6895725
21
105.4535728
0
LINE
8
DEFAULT_255_1_234
10
4.6895725
20
105.4535728
11
4.1570682
21
105.4535728
0
LINE
8
DEFAULT_255_1_234
10
4.1570682
20
105.4535728
11
4.1570682
21
105.5411187
0
LINE
8
DEFAULT_255_1_234
10
4.1570682
20
105.5411187
11
4.6807375
21
106.3515211
0
LINE
8
DEFAULT_255_1_234
10
4.6807375
20
106.3515211
11
4.8389628
21
106.3515211
0
LINE
8
DEFAULT_255_1_234
10
4.6719026
20
106.1161912
11
4.3257347
21
105.574852
0
LINE
8
DEFAULT_255_1_234
10
4.3257347
20
105.574852
11
4.6895725
21
105.574852
0
LINE
8
DEFAULT_255_1_234
10
4.6895725
20
105.574852
11
4.6895725
21
106.1483181
0
LINE
8
DEFAULT_255_1_234
10
4.6895725
20
106.1483181
11
4.6719026
21
106.1161912
0
LINE
8
DEFAULT_255_1_234
10
4.2161378
20
111.0094169
11
4.2161378
21
111.1306962
0
LINE
8
DEFAULT_255_1_234
10
4.2161378
20
111.1306962
11
4.327779
21
111.1306962
0
LINE
8
DEFAULT_255_1_234
10
4.1374268
20
111.3363087
11
3.9888396
21
111.3363087
0
LINE
8
DEFAULT_255_1_234
10
3.9783983
20
110.7821188
11
4.1277887
21
110.7821188
0
LINE
8
DEFAULT_255_1_234
10
4.327779
20
111.0094169
11
4.2161378
21
111.0094169
0
ARC
8
DEFAULT_255_1_234
10
4.3248656
20
111.4699713
40
0.3392876
50
270.4919872
51
281.8951556
0
ARC
8
DEFAULT_255_1_234
10
4.3489918
20
111.3597702
40
0.2264817
50
281.6691735
51
301.2943132
0
ARC
8
DEFAULT_255_1_234
10
4.3660128
20
111.3286304
40
0.1910381
50
301.7833094
51
311.7545298
0
ARC
8
DEFAULT_255_1_234
10
4.3751704
20
111.3184748
40
0.1773635
50
311.7323931
51
354.2802411
0
ARC
8
DEFAULT_255_1_234
10
4.3025329
20
111.3309722
40
0.2509385
50
353.0937916
51
0.1181479
0
ARC
8
DEFAULT_255_1_234
10
4.2564114
20
111.3357386
40
0.2970898
50
359.1805295
51
15.0453146
0
ARC
8
DEFAULT_255_1_234
10
4.3909951
20
111.3749992
40
0.1569564
50
13.9577229
51
77.6713066
0
ARC
8
DEFAULT_255_1_234
10
4.352348
20
111.2364949
40
0.3006298
50
76.1116566
51
90.7026153
0
ARC
8
DEFAULT_255_1_234
10
4.3464318
20
111.2638545
40
0.2732568
50
89.5324876
51
103.531937
0
ARC
8
DEFAULT_255_1_234
10
4.3263762
20
111.3437884
40
0.1908508
50
103.2931773
51
133.5619022
0
ARC
8
DEFAULT_255_1_234
10
4.3219251
20
111.3497375
40
0.1834746
50
133.8349307
51
173.5344437
0
ARC
8
DEFAULT_255_1_234
10
4.3942294
20
111.3369213
40
0.2568033
50
172.5096846
51
180.1366907
0
ARC
8
DEFAULT_255_1_234
10
4.2991188
20
111.3403622
40
0.3103056
50
155.3484492
51
180.7484736
0
ARC
8
DEFAULT_255_1_234
10
4.2942277
20
111.3374846
40
0.3070957
50
131.5744599
51
154.4798489
0
ARC
8
DEFAULT_255_1_234
10
4.3255424
20
111.305831
40
0.3515643
50
96.9875458
51
131.9690667
0
ARC
8
DEFAULT_255_1_234
10
4.3474904
20
111.1812636
40
0.4779224
50
89.8596053
51
97.7825159
0
ARC
8
DEFAULT_255_1_234
10
4.3522967
20
111.1550616
40
0.5041361
50
78.3655447
51
90.4131539
0
ARC
8
DEFAULT_255_1_234
10
4.3880885
20
111.3209887
40
0.3344039
50
56.6229102
51
78.638727
0
ARC
8
DEFAULT_255_1_234
10
4.4095829
20
111.3585805
40
0.2912001
50
47.0253525
51
56.0854072
0
ARC
8
DEFAULT_255_1_234
10
4.4115609
20
111.3625223
40
0.2869704
50
10.9208013
51
46.7778124
0
ARC
8
DEFAULT_255_1_234
10
4.2751675
20
111.3309857
40
0.426899
50
359.6364486
51
11.6087304
0
ARC
8
DEFAULT_255_1_234
10
4.4586519
20
111.3294752
40
0.243409
50
332.3549906
51
359.7179418
0
ARC
8
DEFAULT_255_1_234
10
4.3936121
20
111.3603142
40
0.3153459
50
325.2333722
51
332.8745602
0
ARC
8
DEFAULT_255_1_234
10
4.4088744
20
111.3496828
40
0.2967456
50
292.9802137
51
325.2392345
0
ARC
8
DEFAULT_255_1_234
10
4.3814118
20
111.4030863
40
0.3566604
50
292.5402179
51
293.6924929
0
ARC
8
DEFAULT_255_1_234
10
4.4206714
20
110.7576091
40
0.3307468
50
57.6435486
51
72.8625112
0
ARC
8
DEFAULT_255_1_234
10
4.4561214
20
110.8150549
40
0.2632492
50
36.7248896
51
57.4697979
0
ARC
8
DEFAULT_255_1_234
10
4.4549847
20
110.816322
40
0.2634081
50
8.0545065
51
36.356114
0
ARC
8
DEFAULT_255_1_234
10
4.3687032
20
110.8008174
40
0.3510261
50
359.8320645
51
8.5869982
0
ARC
8
DEFAULT_255_1_234
10
4.3311808
20
110.7960101
40
0.3885653
50
343.9829931
51
0.5571613
0
ARC
8
DEFAULT_255_1_234
10
4.4198005
20
110.7717438
40
0.2966924
50
311.6359546
51
343.7651759
0
ARC
8
DEFAULT_255_1_234
10
4.3819574
20
110.8144102
40
0.3537231
50
279.7829875
51
311.6255694
0
ARC
8
DEFAULT_255_1_234
10
4.3518351
20
110.958128
40
0.5004971
50
269.7286406
51
280.3856417
0
ARC
8
DEFAULT_255_1_234
10
4.3456423
20
110.9539996
40
0.4963778
50
256.6828919
51
270.4412052
0
ARC
8
DEFAULT_255_1_234
10
4.3117719
20
110.8155394
40
0.3538406
50
229.4223008
51
256.8556159
0
ARC
8
DEFAULT_255_1_234
10
4.2703112
20
110.7688736
40
0.2914296
50
181.818294
51
229.6455059
0
ARC
8
DEFAULT_255_1_234
10
4.3743068
20
110.7819496
40
0.3959084
50
179.9755256
51
183.2323064
0
ARC
8
DEFAULT_255_1_234
10
4.3570814
20
110.7799037
40
0.2293034
50
179.4465117
51
196.2869258
0
ARC
8
DEFAULT_255_1_234
10
4.3083222
20
110.7665651
40
0.1787621
50
196.5661473
51
227.705904
0
ARC
8
DEFAULT_255_1_234
10
4.3247317
20
110.7849155
40
0.2033784
50
227.7652068
51
257.8762805
0
ARC
8
DEFAULT_255_1_234
10
4.3472287
20
110.8792156
40
0.3003081
50
257.4584385
51
270.426602
0
ARC
8
DEFAULT_255_1_234
10
4.3517853
20
110.9081996
40
0.329292
50
269.5962073
51
280.8789248
0
ARC
8
DEFAULT_255_1_234
10
4.3747382
20
110.7935685
40
0.2123908
50
280.6346389
51
299.8595945
0
ARC
8
DEFAULT_255_1_234
10
4.3938289
20
110.7573212
40
0.171457
50
300.3576302
51
314.5517981
0
ARC
8
DEFAULT_255_1_234
10
4.3855349
20
110.7633919
40
0.1816095
50
315.0728369
51
345.0431014
0
ARC
8
DEFAULT_255_1_234
10
4.2932163
20
110.7902841
40
0.2777492
50
344.5986631
51
357.9269593
0
ARC
8
DEFAULT_255_1_234
10
4.2036489
20
110.7964276
40
0.3674917
50
357.4748886
51
0.0231117
0
ARC
8
DEFAULT_255_1_234
10
4.3059599
20
110.7988679
40
0.2651907
50
359.5047933
51
13.4239635
0
ARC
8
DEFAULT_255_1_234
10
4.3926242
20
110.8210478
40
0.1757509
50
12.9498199
51
48.7551375
0
ARC
8
DEFAULT_255_1_234
10
4.3743976
20
110.79614
40
0.2065134
50
49.5088623
51
72.1836453
0
ARC
8
DEFAULT_255_1_234
10
4.3386129
20
110.6899291
40
0.3185836
50
71.9010081
51
84.3554254
0
ARC
8
DEFAULT_255_1_234
10
4.3224761
20
110.5538326
40
0.4556151
50
84.0193428
51
89.333121
0
LINE
8
DEFAULT_255_1_234
10
4.7663119
20
115.8866792
11
4.7663119
21
115.7654
0
LINE
8
DEFAULT_255_1_234
10
4.7663119
20
115.7654
11
4.000084
21
115.7654
0
LINE
8
DEFAULT_255_1_234
10
4.000084
20
115.7654
11
4.000084
21
115.8722221
0
LINE
8
DEFAULT_255_1_234
10
4.000084
20
115.8722221
11
4.4048836
21
116.3219995
0
LINE
8
DEFAULT_255_1_234
10
4.1261823
20
116.5902595
11
3.9775952
21
116.5902595
0
LINE
8
DEFAULT_255_1_234
10
4.4924296
20
116.2264218
11
4.1791918
21
115.8866792
0
LINE
8
DEFAULT_255_1_234
10
4.1791918
20
115.8866792
11
4.7663119
21
115.8866792
0
ARC
8
DEFAULT_255_1_234
10
3.055867
20
117.5149527
40
1.8008286
50
318.5132453
51
320.7828378
0
ARC
8
DEFAULT_255_1_234
10
3.5845644
20
117.0846426
40
1.1191493
50
320.7372736
51
323.9737074
0
ARC
8
DEFAULT_255_1_234
10
3.9765501
20
116.8006361
40
0.6350923
50
323.8961724
51
328.6421089
0
ARC
8
DEFAULT_255_1_234
10
4.1812096
20
116.6744031
40
0.3946393
50
328.8299013
51
331.789948
0
ARC
8
DEFAULT_255_1_234
10
4.2809274
20
116.6229509
40
0.2824501
50
331.4255242
51
352.9364833
0
ARC
8
DEFAULT_255_1_234
10
4.2945775
20
116.6198976
40
0.2685315
50
353.2248685
51
0.0169286
0
ARC
8
DEFAULT_255_1_234
10
4.3155652
20
116.622195
40
0.2475536
50
359.4866256
51
15.9339782
0
ARC
8
DEFAULT_255_1_234
10
4.3662637
20
116.6358286
40
0.1950618
50
16.1714718
51
43.5284424
0
ARC
8
DEFAULT_255_1_234
10
4.3739946
20
116.6435573
40
0.184134
50
43.4415429
51
83.1661404
0
ARC
8
DEFAULT_255_1_234
10
4.3605864
20
116.5698771
40
0.258926
50
82.160215
51
90.1505798
0
ARC
8
DEFAULT_255_1_234
10
4.3574291
20
116.5161865
40
0.3126255
50
89.5460705
51
102.5418777
0
ARC
8
DEFAULT_255_1_234
10
4.3331377
20
116.6192665
40
0.2067346
50
102.1739365
51
129.2061916
0
ARC
8
DEFAULT_255_1_234
10
4.3252449
20
116.6317094
40
0.1921118
50
129.7279328
51
135.7542026
0
ARC
8
DEFAULT_255_1_234
10
4.3373977
20
116.6220045
40
0.2075944
50
136.175737
51
166.3674722
0
ARC
8
DEFAULT_255_1_234
10
4.4380896
20
116.5950182
40
0.3118201
50
165.9092917
51
178.8683903
0
ARC
8
DEFAULT_255_1_234
10
4.5245757
20
116.5903179
40
0.3983935
50
178.438168
51
180.0083905
0
ARC
8
DEFAULT_255_1_234
10
4.3844359
20
116.5942231
40
0.4068601
50
163.2878735
51
180.5581814
0
ARC
8
DEFAULT_255_1_234
10
4.3042621
20
116.616284
40
0.3237344
50
133.454115
51
162.9470031
0
ARC
8
DEFAULT_255_1_234
10
4.3221162
20
116.5973
40
0.349795
50
100.7869394
51
133.4384016
0
ARC
8
DEFAULT_255_1_234
10
4.3568934
20
116.4424319
40
0.5084616
50
89.6605301
51
101.3704185
0
ARC
8
DEFAULT_255_1_234
10
4.3635273
20
116.4485496
40
0.502348
50
78.2171172
51
90.4130393
0
ARC
8
DEFAULT_255_1_234
10
4.3990351
20
116.6109637
40
0.3361092
50
55.9268222
51
78.4888551
0
ARC
8
DEFAULT_255_1_234
10
4.4186791
20
116.6448324
40
0.2970617
50
47.9292255
51
55.4054003
0
ARC
8
DEFAULT_255_1_234
10
4.4288352
20
116.6551502
40
0.2825983
50
4.3347696
51
48.0560701
0
ARC
8
DEFAULT_255_1_234
10
4.3192745
20
116.6381601
40
0.393225
50
359.925209
51
5.5967654
0
ARC
8
DEFAULT_255_1_234
10
4.3621637
20
116.6437816
40
0.3503892
50
337.8914096
51
358.9967724
0
ARC
8
DEFAULT_255_1_234
10
4.0908049
20
116.7484706
40
0.6412172
50
326.9135351
51
338.3505194
0
ARC
8
DEFAULT_255_1_234
10
3.6922353
20
117.0039284
40
1.1146189
50
319.6472867
51
327.095818
0
ARC
8
DEFAULT_255_1_234
10
3.3089356
20
117.3201
40
1.6114559
50
317.2586784
51
319.9046139
0
LINE
8
DEFAULT_255_1_234
10
4.4801137
20
122.2321433
11
4.4801137
21
121.0571
0
LINE
8
DEFAULT_255_1_234
10
4.4801137
20
121.0571
11
4.3307234
21
121.0571
0
LINE
8
DEFAULT_255_1_234
10
4.3307234
20
121.0571
11
4.3307234
21
122.0474133
0
LINE
8
DEFAULT_255_1_234
10
4.3307234
20
122.0474133
11
4.0311396
21
121.9373785
0
LINE
8
DEFAULT_255_1_234
10
4.0311396
20
121.9373785
11
4.0311396
21
122.0723117
0
LINE
8
DEFAULT_255_1_234
10
4.0311396
20
122.0723117
11
4.4568217
21
122.2321433
0
LINE
8
DEFAULT_255_1_234
10
4.4568217
20
122.2321433
11
4.4801137
21
122.2321433
0
LINE
8
DEFAULT_255_1_234
10
4.7333817
20
127.0402327
11
4.7333817
21
126.8474709
0
LINE
8
DEFAULT_255_1_234
10
3.995265
20
126.8273916
11
3.995265
21
127.0257755
0
LINE
8
DEFAULT_255_1_234
10
4.5847946
20
126.8073123
11
4.5847946
21
127.0506739
0
LINE
8
DEFAULT_255_1_234
10
4.1438521
20
127.0619184
11
4.1438521
21
126.8241789
0
ARC
8
DEFAULT_255_1_234
10
3.5086707
20
126.8425805
40
1.2247208
50
353.8441951
51
0.2287902
0
ARC
8
DEFAULT_255_1_234
10
3.9726211
20
126.7907806
40
0.7578929
50
344.4934747
51
353.9765454
0
ARC
8
DEFAULT_255_1_234
10
4.2718801
20
126.7056981
40
0.4467846
50
329.2803592
51
344.7472793
0
ARC
8
DEFAULT_255_1_234
10
4.3711626
20
126.6512018
40
0.3336173
50
324.9352394
51
328.6160465
0
ARC
8
DEFAULT_255_1_234
10
4.4088734
20
126.6248427
40
0.2876076
50
280.580143
51
324.9173126
0
ARC
8
DEFAULT_255_1_234
10
4.3687527
20
126.7919099
40
0.4592847
50
269.5977311
51
281.6734359
0
ARC
8
DEFAULT_255_1_234
10
4.3615433
20
126.7799173
40
0.4472986
50
256.6228859
51
270.51044
0
ARC
8
DEFAULT_255_1_234
10
4.321341
20
126.6250877
40
0.2873874
50
215.8618325
51
257.2788573
0
ARC
8
DEFAULT_255_1_234
10
4.4234442
20
126.6935977
40
0.4102928
50
197.9693508
51
215.2623606
0
ARC
8
DEFAULT_255_1_234
10
4.6719558
20
126.7774709
40
0.6725652
50
187.8816417
51
198.2346507
0
ARC
8
DEFAULT_255_1_234
10
5.0677766
20
126.8346079
40
1.0724845
50
180.8976217
51
188.0055519
0
ARC
8
DEFAULT_255_1_234
10
5.3477954
20
126.8449777
40
1.3526448
50
180.7449369
51
181.1510016
0
ARC
8
DEFAULT_255_1_234
10
5.1900683
20
127.0306042
40
1.1948131
50
173.7675579
51
180.231553
0
ARC
8
DEFAULT_255_1_234
10
4.738283
20
127.0816666
40
0.7401564
50
164.3058563
51
173.9002247
0
ARC
8
DEFAULT_255_1_234
10
4.4470899
20
127.1655656
40
0.4371288
50
148.7922025
51
164.568378
0
ARC
8
DEFAULT_255_1_234
10
4.3519351
20
127.2186929
40
0.3282386
50
144.5883898
51
148.1176286
0
ARC
8
DEFAULT_255_1_234
10
4.3176249
20
127.2426315
40
0.2864044
50
101.6440918
51
144.514236
0
ARC
8
DEFAULT_255_1_234
10
4.3601315
20
127.0737069
40
0.4604934
50
89.5284041
51
102.5819763
0
ARC
8
DEFAULT_255_1_234
10
4.3680403
20
127.0698018
40
0.464401
50
77.0437873
51
90.5081339
0
ARC
8
DEFAULT_255_1_234
10
4.4082405
20
127.2340615
40
0.2953195
50
48.2778575
51
77.4994676
0
ARC
8
DEFAULT_255_1_234
10
4.4155036
20
127.2469746
40
0.2808655
50
36.3142134
51
47.6305865
0
ARC
8
DEFAULT_255_1_234
10
4.3286343
20
127.1884515
40
0.3855453
50
18.2931786
51
35.6769206
0
ARC
8
DEFAULT_255_1_234
10
4.0743102
20
127.1011593
40
0.654423
50
8.024666
51
18.5605216
0
ARC
8
DEFAULT_255_1_234
10
3.6580022
20
127.0396792
40
1.0752407
50
1.1274072
51
8.1718305
0
ARC
8
DEFAULT_255_1_234
10
3.3344213
20
127.0269885
40
1.3990231
50
0.5424119
51
1.3863029
0
ARC
8
DEFAULT_255_1_234
10
3.516559
20
127.0542342
40
1.0682415
50
359.8090433
51
4.9407866
0
ARC
8
DEFAULT_255_1_234
10
3.9375604
20
127.0918113
40
0.6455691
50
4.8362157
51
12.2904523
0
ARC
8
DEFAULT_255_1_234
10
4.2130719
20
127.1531965
40
0.3633074
50
12.0805627
51
23.8173984
0
ARC
8
DEFAULT_255_1_234
10
4.3304425
20
127.2028919
40
0.2358723
50
24.2871213
51
31.3935614
0
ARC
8
DEFAULT_255_1_234
10
4.3829122
20
127.2372233
40
0.1732111
50
30.7407893
51
82.4657128
0
ARC
8
DEFAULT_255_1_234
10
4.3649256
20
127.1488691
40
0.263235
50
81.1060089
51
90.2184952
0
ARC
8
DEFAULT_255_1_234
10
4.3613555
20
127.1746924
40
0.2374236
50
89.3806855
51
105.6762551
0
ARC
8
DEFAULT_255_1_234
10
4.3430186
20
127.2413567
40
0.1682847
50
105.7981136
51
149.7388061
0
ARC
8
DEFAULT_255_1_234
10
4.4494264
20
127.177395
40
0.2924306
50
149.4208916
51
163.6286378
0
ARC
8
DEFAULT_255_1_234
10
4.6585152
20
127.113625
40
0.5110213
50
163.3763315
51
172.1410975
0
ARC
8
DEFAULT_255_1_234
10
4.9885871
20
127.0663518
40
0.8444586
50
172.0259487
51
178.0703232
0
ARC
8
DEFAULT_255_1_234
10
5.291596
20
127.0519906
40
1.1477868
50
177.8631668
51
179.5044149
0
ARC
8
DEFAULT_255_1_234
10
5.1843365
20
126.8205389
40
1.0404907
50
179.7995573
51
185.2460446
0
ARC
8
DEFAULT_255_1_234
10
4.7800404
20
126.7822513
40
0.6343885
50
185.1411642
51
193.0079639
0
ARC
8
DEFAULT_255_1_234
10
4.5156877
20
126.7197641
40
0.3627568
50
192.7897626
51
205.2507664
0
ARC
8
DEFAULT_255_1_234
10
4.4110424
20
126.6730415
40
0.2481908
50
205.8005384
51
211.2537509
0
ARC
8
DEFAULT_255_1_234
10
4.3586864
20
126.637958
40
0.1852521
50
210.3789793
51
238.4008143
0
ARC
8
DEFAULT_255_1_234
10
4.3567386
20
126.6426376
40
0.1882621
50
239.6520629
51
265.9793761
0
ARC
8
DEFAULT_255_1_234
10
4.3652586
20
126.7098427
40
0.2559272
50
265.1315437
51
270.060332
0
ARC
8
DEFAULT_255_1_234
10
4.3681365
20
126.6774534
40
0.2235528
50
269.3314664
51
287.2178029
0
ARC
8
DEFAULT_255_1_234
10
4.3819217
20
126.6271279
40
0.1714108
50
287.7958004
51
329.080874
0
ARC
8
DEFAULT_255_1_234
10
4.2861674
20
126.686893
40
0.2842745
50
328.6634704
51
343.3325132
0
ARC
8
DEFAULT_255_1_234
10
4.0688694
20
126.7545863
40
0.5118644
50
343.0499468
51
351.9393422
0
ARC
8
DEFAULT_255_1_234
10
3.7221994
20
126.8056949
40
0.8622784
50
351.8069023
51
357.7959224
0
ARC
8
DEFAULT_255_1_234
10
3.398655
20
126.8224721
40
1.1862365
50
357.5871873
51
359.2677531
0
LINE
8
DEFAULT_255_1_234
10
4.7550674
20
132.8098211
11
4.7550674
21
132.726291
0
LINE
8
DEFAULT_255_1_234
10
4.7550674
20
132.726291
11
4.2707536
21
131.6404
0
LINE
8
DEFAULT_255_1_234
10
4.2707536
20
131.6404
11
4.1149379
21
131.6404
0
LINE
8
DEFAULT_255_1_234
10
4.1149379
20
131.6404
11
4.5976454
21
132.6877387
0
LINE
8
DEFAULT_255_1_234
10
4.5976454
20
132.6877387
11
3.9647444
21
132.6877387
0
LINE
8
DEFAULT_255_1_234
10
3.9647444
20
132.6877387
11
3.9647444
21
132.8098211
0
LINE
8
DEFAULT_255_1_234
10
3.9647444
20
132.8098211
11
4.7550674
21
132.8098211
0
LINE
8
DEFAULT_255_1_234
10
4.5566835
20
138.1023243
11
4.5831882
21
138.1023243
0
LINE
8
DEFAULT_255_1_234
10
4.5831882
20
138.1023243
11
4.5831882
21
137.976226
0
LINE
8
DEFAULT_255_1_234
10
4.5831882
20
137.976226
11
4.5558803
21
137.976226
0
LINE
8
DEFAULT_255_1_234
10
4.0089189
20
137.3770583
11
4.0089189
21
137.4340836
0
LINE
8
DEFAULT_255_1_234
10
4.1583093
20
137.4148075
11
4.1583093
21
137.3601917
0
ARC
8
DEFAULT_255_1_234
10
4.5611151
20
137.4764455
40
0.4998079
50
90.6001036
51
104.514704
0
ARC
8
DEFAULT_255_1_234
10
4.5222667
20
137.6209131
40
0.3502176
50
104.2855254
51
133.862935
0
ARC
8
DEFAULT_255_1_234
10
4.5386424
20
137.610083
40
0.3693984
50
134.5302688
51
161.6210873
0
ARC
8
DEFAULT_255_1_234
10
4.7039613
20
137.5517895
40
0.5446739
50
161.2849839
51
174.2076652
0
ARC
8
DEFAULT_255_1_234
10
4.844655
20
137.5323787
40
0.6866274
50
173.7810589
51
174.9254635
0
ARC
8
DEFAULT_255_1_234
10
4.3896382
20
137.3940839
40
0.3033419
50
95.8330959
51
138.9954921
0
ARC
8
DEFAULT_255_1_234
10
4.4119738
20
137.2662375
40
0.4328947
50
89.8753725
51
97.0544009
0
ARC
8
DEFAULT_255_1_234
10
4.4167204
20
137.3497748
40
0.3493769
50
71.6407809
51
90.6240094
0
ARC
8
DEFAULT_255_1_234
10
4.4317777
20
137.4052082
40
0.2920396
50
39.6367836
51
71.019018
0
ARC
8
DEFAULT_255_1_234
10
4.368125
20
137.3501998
40
0.3761538
50
10.658731
51
39.9043955
0
ARC
8
DEFAULT_255_1_234
10
4.2133333
20
137.3165686
40
0.5345136
50
359.682601
51
11.132623
0
ARC
8
DEFAULT_255_1_234
10
4.2093464
20
137.309501
40
0.5385081
50
347.2486944
51
0.4369317
0
ARC
8
DEFAULT_255_1_234
10
4.3760941
20
137.2693807
40
0.3670249
50
318.1409698
51
347.6118597
0
ARC
8
DEFAULT_255_1_234
10
4.4085934
20
137.2426702
40
0.3250007
50
275.6342139
51
317.8248465
0
ARC
8
DEFAULT_255_1_234
10
4.3865045
20
137.3726219
40
0.4565864
50
269.8874292
51
276.7917694
0
ARC
8
DEFAULT_255_1_234
10
4.3810116
20
137.2700743
40
0.3540676
50
246.9140195
51
270.7437342
0
ARC
8
DEFAULT_255_1_234
10
4.3816506
20
137.2558384
40
0.3412781
50
218.1665114
51
245.878116
0
ARC
8
DEFAULT_255_1_234
10
4.4695967
20
137.3294279
40
0.455911
50
191.4115814
51
218.6077802
0
ARC
8
DEFAULT_255_1_234
10
4.6634056
20
137.3728833
40
0.6545001
50
179.6345085
51
191.7836486
0
ARC
8
DEFAULT_255_1_234
10
5.2216393
20
137.4407697
40
1.2127388
50
171.4525249
51
180.3158839
0
ARC
8
DEFAULT_255_1_234
10
4.7821269
20
137.5091608
40
0.7679464
50
157.9802646
51
171.6246686
0
ARC
8
DEFAULT_255_1_234
10
4.560729
20
137.5974421
40
0.5296008
50
141.4298019
51
157.854097
0
ARC
8
DEFAULT_255_1_234
10
4.496561
20
137.6428381
40
0.4511509
50
102.8715806
51
140.8564722
0
ARC
8
DEFAULT_255_1_234
10
4.5613226
20
137.3988552
40
0.7034845
50
90.3778349
51
103.5869322
0
ARC
8
DEFAULT_255_1_234
10
4.3875002
20
137.338373
40
0.2370698
50
89.8751008
51
126.2071704
0
ARC
8
DEFAULT_255_1_234
10
4.3920792
20
137.3229303
40
0.2522934
50
124.9745049
51
144.895901
0
ARC
8
DEFAULT_255_1_234
10
4.3744982
20
137.337256
40
0.2296779
50
145.2974905
51
160.2660252
0
ARC
8
DEFAULT_255_1_234
10
4.6817521
20
137.3570071
40
0.5234525
50
179.6514266
51
190.2855912
0
ARC
8
DEFAULT_255_1_234
10
4.5123658
20
137.3250786
40
0.3510893
50
190.0945431
51
207.5098196
0
ARC
8
DEFAULT_255_1_234
10
4.4557928
20
137.2981623
40
0.288489
50
207.9583163
51
216.3251085
0
ARC
8
DEFAULT_255_1_234
10
4.4218036
20
137.2702105
40
0.2445587
50
215.7661442
51
232.5456785
0
ARC
8
DEFAULT_255_1_234
10
4.3835019
20
137.2215482
40
0.1826382
50
232.8005391
51
270.6605633
0
ARC
8
DEFAULT_255_1_234
10
4.388072
20
137.2579612
40
0.2190529
50
269.35537
51
288.4744281
0
ARC
8
DEFAULT_255_1_234
10
4.3973617
20
137.2230118
40
0.1829749
50
289.1833337
51
322.9683818
0
ARC
8
DEFAULT_255_1_234
10
4.3362139
20
137.2712391
40
0.2608399
50
322.6007884
51
346.5182367
0
ARC
8
DEFAULT_255_1_234
10
4.2204735
20
137.3007616
40
0.3802777
50
346.2582162
51
358.7741648
0
ARC
8
DEFAULT_255_1_234
10
4.1186404
20
137.3062965
40
0.4822176
50
358.3755224
51
0.0098023
0
ARC
8
DEFAULT_255_1_234
10
4.1942591
20
137.3090657
40
0.4066078
50
359.6214041
51
11.2839074
0
ARC
8
DEFAULT_255_1_234
10
4.3219738
20
137.3357066
40
0.2761514
50
11.0482309
51
31.8146458
0
ARC
8
DEFAULT_255_1_234
10
4.3528781
20
137.3524584
40
0.2410679
50
32.3035391
51
38.082671
0
ARC
8
DEFAULT_255_1_234
10
4.3949441
20
137.3905662
40
0.1844966
50
36.825067
51
85.7415724
0
ARC
8
DEFAULT_255_1_234
10
4.3882274
20
137.3405301
40
0.2349122
50
85.0140713
51
90.0513278
0
LINE
8
DEFAULT_255_1_234
10
4.1872235
20
142.7794963
11
4.0683538
21
142.8100169
0
LINE
8
DEFAULT_255_1_234
10
4.0683538
20
142.8100169
11
4.1277887
21
143.3931211
0
LINE
8
DEFAULT_255_1_234
10
4.1277887
20
143.3931211
11
4.7269563
21
143.3931211
0
LINE
8
DEFAULT_255_1_234
10
4.7269563
20
143.3931211
11
4.7269563
21
143.2557784
0
LINE
8
DEFAULT_255_1_234
10
4.7269563
20
143.2557784
11
4.253887
21
143.2557784
0
LINE
8
DEFAULT_255_1_234
10
4.253887
20
143.2557784
11
4.2185473
21
142.9369184
0
LINE
8
DEFAULT_255_1_234
10
4.0265888
20
142.5313156
11
4.1671442
21
142.5313156
0
LINE
8
DEFAULT_255_1_234
10
4.2265791
20
142.8116232
11
4.1872235
21
142.7794963
0
ARC
8
DEFAULT_255_1_234
10
4.4040257
20
142.618923
40
0.3681349
50
93.7182161
51
120.2538958
0
ARC
8
DEFAULT_255_1_234
10
4.413452
20
142.5381394
40
0.449379
50
89.9660152
51
94.2496022
0
ARC
8
DEFAULT_255_1_234
10
4.4175254
20
142.5970549
40
0.390482
50
73.8043271
51
90.5585896
0
ARC
8
DEFAULT_255_1_234
10
4.4410151
20
142.6828602
40
0.3015334
50
41.3071453
51
73.5430202
0
ARC
8
DEFAULT_255_1_234
10
4.3993978
20
142.6470324
40
0.3564457
50
13.5075983
51
41.2174222
0
ARC
8
DEFAULT_255_1_234
10
4.2352182
20
142.6040486
40
0.5261351
50
1.1331335
51
13.8829381
0
ARC
8
DEFAULT_255_1_234
10
4.0940551
20
142.5964665
40
0.6674378
50
359.9919444
51
1.544251
0
ARC
8
DEFAULT_255_1_234
10
4.2217377
20
142.592328
40
0.5397702
50
347.8572367
51
0.4293338
0
ARC
8
DEFAULT_255_1_234
10
4.3967695
20
142.5526736
40
0.3603188
50
323.673004
51
348.1672506
0
ARC
8
DEFAULT_255_1_234
10
4.4262203
20
142.5347168
40
0.3259678
50
316.8171152
51
323.1492751
0
ARC
8
DEFAULT_255_1_234
10
4.4323392
20
142.531046
40
0.3189975
50
281.8396411
51
316.5457803
0
ARC
8
DEFAULT_255_1_234
10
4.3947656
20
142.6865762
40
0.4789527
50
269.5770101
51
282.4214771
0
ARC
8
DEFAULT_255_1_234
10
4.3876467
20
142.6652125
40
0.45759
50
256.2427136
51
270.4486331
0
ARC
8
DEFAULT_255_1_234
10
4.357737
20
142.5452229
40
0.3339303
50
228.9023911
51
256.3314342
0
ARC
8
DEFAULT_255_1_234
10
4.3503602
20
142.5335746
40
0.32031
50
193.753695
51
228.5271154
0
ARC
8
DEFAULT_255_1_234
10
4.4741556
20
142.56988
40
0.4492253
50
184.924711
51
194.497588
0
ARC
8
DEFAULT_255_1_234
10
4.4934123
20
142.5734591
40
0.3289787
50
187.3600538
51
198.6732863
0
ARC
8
DEFAULT_255_1_234
10
4.3884417
20
142.5370674
40
0.217884
50
198.4451669
51
217.794479
0
ARC
8
DEFAULT_255_1_234
10
4.3588592
20
142.5161085
40
0.1816698
50
218.2887171
51
228.5612368
0
ARC
8
DEFAULT_255_1_234
10
4.3686379
20
142.5292963
40
0.1980329
50
228.9654866
51
258.1234728
0
ARC
8
DEFAULT_255_1_234
10
4.3892089
20
142.6173833
40
0.2884748
50
257.7258293
51
270.401361
0
ARC
8
DEFAULT_255_1_234
10
4.3936975
20
142.5728821
40
0.2439788
50
269.4204404
51
286.4209037
0
ARC
8
DEFAULT_255_1_234
10
4.4085463
20
142.5189657
40
0.1880666
50
286.7251356
51
320.600362
0
ARC
8
DEFAULT_255_1_234
10
4.3702288
20
142.5500595
40
0.2374121
50
320.6712579
51
344.5441685
0
ARC
8
DEFAULT_255_1_234
10
4.2545614
20
142.5840045
40
0.3579479
50
344.2412205
51
356.7357071
0
ARC
8
DEFAULT_255_1_234
10
4.1296763
20
142.5943444
40
0.4832297
50
356.3548756
51
0.0500261
0
ARC
8
DEFAULT_255_1_234
10
4.2633272
20
142.597465
40
0.3495889
50
359.5576869
51
12.953486
0
ARC
8
DEFAULT_255_1_234
10
4.3688169
20
142.6230434
40
0.2410532
50
12.6490276
51
41.6081334
0
ARC
8
DEFAULT_255_1_234
10
4.391854
20
142.6426321
40
0.2108218
50
41.7850273
51
85.9892764
0
ARC
8
DEFAULT_255_1_234
10
4.3795277
20
142.5613462
40
0.2928454
50
84.6957577
51
90.0676183
0
ARC
8
DEFAULT_255_1_234
10
4.3771761
20
142.4944716
40
0.3597255
50
89.6804936
51
99.1614436
0
ARC
8
DEFAULT_255_1_234
10
4.3566392
20
142.6172131
40
0.235281
50
98.9830931
51
113.8908934
0
ARC
8
DEFAULT_255_1_234
10
4.3336802
20
142.6713587
40
0.176479
50
114.1950727
51
127.3641004
0
LINE
8
DEFAULT_255_1_234
10
4.8389628
20
148.6848211
11
4.8389628
21
147.908152
0
LINE
8
DEFAULT_255_1_234
10
4.8389628
20
147.908152
11
5.0012039
21
147.908152
0
LINE
8
DEFAULT_255_1_234
10
5.0012039
20
147.908152
11
5.0012039
21
147.7868728
0
LINE
8
DEFAULT_255_1_234
10
5.0012039
20
147.7868728
11
4.8389628
21
147.7868728
0
LINE
8
DEFAULT_255_1_234
10
4.8389628
20
147.7868728
11
4.8389628
21
147.5154
0
LINE
8
DEFAULT_255_1_234
10
4.8389628
20
147.5154
11
4.6895725
21
147.5154
0
LINE
8
DEFAULT_255_1_234
10
4.6895725
20
147.5154
11
4.6895725
21
147.7868728
0
LINE
8
DEFAULT_255_1_234
10
4.6895725
20
147.7868728
11
4.1570682
21
147.7868728
0
LINE
8
DEFAULT_255_1_234
10
4.1570682
20
147.7868728
11
4.1570682
21
147.8744187
0
LINE
8
DEFAULT_255_1_234
10
4.1570682
20
147.8744187
11
4.6807375
21
148.6848211
0
LINE
8
DEFAULT_255_1_234
10
4.6807375
20
148.6848211
11
4.8389628
21
148.6848211
0
LINE
8
DEFAULT_255_1_234
10
4.6719026
20
148.4494912
11
4.3257347
21
147.908152
0
LINE
8
DEFAULT_255_1_234
10
4.3257347
20
147.908152
11
4.6895725
21
147.908152
0
LINE
8
DEFAULT_255_1_234
10
4.6895725
20
147.908152
11
4.6895725
21
148.4816181
0
LINE
8
DEFAULT_255_1_234
10
4.6895725
20
148.4816181
11
4.6719026
21
148.4494912
0
LINE
8
DEFAULT_255_1_234
10
4.2161378
20
153.3428169
11
4.2161378
21
153.4640962
0
LINE
8
DEFAULT_255_1_234
10
4.2161378
20
153.4640962
11
4.327779
21
153.4640962
0
LINE
8
DEFAULT_255_1_234
10
4.1374268
20
153.6697087
11
3.9888396
21
153.6697087
0
LINE
8
DEFAULT_255_1_234
10
3.9783983
20
153.1155187
11
4.1277887
21
153.1155187
0
LINE
8
DEFAULT_255_1_234
10
4.327779
20
153.3428169
11
4.2161378
21
153.3428169
0
ARC
8
DEFAULT_255_1_234
10
4.3248656
20
153.8033713
40
0.3392876
50
270.4919872
51
281.8951556
0
ARC
8
DEFAULT_255_1_234
10
4.3489918
20
153.6931702
40
0.2264817
50
281.6691735
51
301.2943132
0
ARC
8
DEFAULT_255_1_234
10
4.3660128
20
153.6620304
40
0.1910381
50
301.7833094
51
311.7545298
0
ARC
8
DEFAULT_255_1_234
10
4.3751704
20
153.6518748
40
0.1773635
50
311.7323931
51
354.2802411
0
ARC
8
DEFAULT_255_1_234
10
4.3025329
20
153.6643722
40
0.2509385
50
353.0937916
51
0.1181479
0
ARC
8
DEFAULT_255_1_234
10
4.2564114
20
153.6691386
40
0.2970898
50
359.1805295
51
15.0453146
0
ARC
8
DEFAULT_255_1_234
10
4.3909951
20
153.7083992
40
0.1569564
50
13.9577229
51
77.6713066
0
ARC
8
DEFAULT_255_1_234
10
4.352348
20
153.5698949
40
0.3006298
50
76.1116566
51
90.7026153
0
ARC
8
DEFAULT_255_1_234
10
4.3464318
20
153.5972545
40
0.2732568
50
89.5324876
51
103.531937
0
ARC
8
DEFAULT_255_1_234
10
4.3263762
20
153.6771884
40
0.1908508
50
103.2931773
51
133.5619022
0
ARC
8
DEFAULT_255_1_234
10
4.3219251
20
153.6831375
40
0.1834746
50
133.8349307
51
173.5344437
0
ARC
8
DEFAULT_255_1_234
10
4.3942294
20
153.6703213
40
0.2568033
50
172.5096846
51
180.1366907
0
ARC
8
DEFAULT_255_1_234
10
4.2991188
20
153.6737622
40
0.3103056
50
155.3484492
51
180.7484736
0
ARC
8
DEFAULT_255_1_234
10
4.2942277
20
153.6708846
40
0.3070957
50
131.5744599
51
154.4798489
0
ARC
8
DEFAULT_255_1_234
10
4.3255424
20
153.639231
40
0.3515643
50
96.9875458
51
131.9690667
0
ARC
8
DEFAULT_255_1_234
10
4.3474904
20
153.5146636
40
0.4779224
50
89.8596053
51
97.7825159
0
ARC
8
DEFAULT_255_1_234
10
4.3522967
20
153.4884616
40
0.5041361
50
78.3655447
51
90.4131539
0
ARC
8
DEFAULT_255_1_234
10
4.3880885
20
153.6543887
40
0.3344039
50
56.6229102
51
78.638727
0
ARC
8
DEFAULT_255_1_234
10
4.4095829
20
153.6919805
40
0.2912001
50
47.0253525
51
56.0854072
0
ARC
8
DEFAULT_255_1_234
10
4.4115609
20
153.6959223
40
0.2869704
50
10.9208013
51
46.7778124
0
ARC
8
DEFAULT_255_1_234
10
4.2751675
20
153.6643857
40
0.426899
50
359.6364486
51
11.6087304
0
ARC
8
DEFAULT_255_1_234
10
4.4586519
20
153.6628752
40
0.243409
50
332.3549906
51
359.7179418
0
ARC
8
DEFAULT_255_1_234
10
4.3936121
20
153.6937142
40
0.3153459
50
325.2333722
51
332.8745602
0
ARC
8
DEFAULT_255_1_234
10
4.4088744
20
153.6830828
40
0.2967456
50
292.9802137
51
325.2392345
0
ARC
8
DEFAULT_255_1_234
10
4.3814118
20
153.7364863
40
0.3566604
50
292.5402179
51
293.6924929
0
ARC
8
DEFAULT_255_1_234
10
4.4206714
20
153.0910091
40
0.3307468
50
57.6435486
51
72.8625112
0
ARC
8
DEFAULT_255_1_234
10
4.4561214
20
153.1484549
40
0.2632492
50
36.7248896
51
57.4697979
0
ARC
8
DEFAULT_255_1_234
10
4.4549847
20
153.149722
40
0.2634081
50
8.0545065
51
36.356114
0
ARC
8
DEFAULT_255_1_234
10
4.3687032
20
153.1342174
40
0.3510261
50
359.8320645
51
8.5869982
0
ARC
8
DEFAULT_255_1_234
10
4.3311808
20
153.1294101
40
0.3885653
50
343.9829931
51
0.5571613
0
ARC
8
DEFAULT_255_1_234
10
4.4198005
20
153.1051438
40
0.2966924
50
311.6359546
51
343.7651759
0
ARC
8
DEFAULT_255_1_234
10
4.3819574
20
153.1478102
40
0.3537231
50
279.7829875
51
311.6255694
0
ARC
8
DEFAULT_255_1_234
10
4.3518351
20
153.291528
40
0.5004971
50
269.7286406
51
280.3856417
0
ARC
8
DEFAULT_255_1_234
10
4.3456423
20
153.2873996
40
0.4963778
50
256.6828919
51
270.4412052
0
ARC
8
DEFAULT_255_1_234
10
4.3117719
20
153.1489394
40
0.3538406
50
229.4223008
51
256.8556159
0
ARC
8
DEFAULT_255_1_234
10
4.2703112
20
153.1022736
40
0.2914296
50
181.818294
51
229.6455059
0
ARC
8
DEFAULT_255_1_234
10
4.3743068
20
153.1153496
40
0.3959084
50
179.9755256
51
183.2323064
0
ARC
8
DEFAULT_255_1_234
10
4.3570814
20
153.1133037
40
0.2293034
50
179.4465117
51
196.2869258
0
ARC
8
DEFAULT_255_1_234
10
4.3083222
20
153.0999651
40
0.1787621
50
196.5661473
51
227.705904
0
ARC
8
DEFAULT_255_1_234
10
4.3247317
20
153.1183155
40
0.2033784
50
227.7652068
51
257.8762805
0
ARC
8
DEFAULT_255_1_234
10
4.3472287
20
153.2126156
40
0.3003081
50
257.4584385
51
270.426602
0
ARC
8
DEFAULT_255_1_234
10
4.3517853
20
153.2415996
40
0.329292
50
269.5962073
51
280.8789248
0
ARC
8
DEFAULT_255_1_234
10
4.3747382
20
153.1269685
40
0.2123908
50
280.6346389
51
299.8595945
0
ARC
8
DEFAULT_255_1_234
10
4.3938289
20
153.0907212
40
0.171457
50
300.3576302
51
314.5517981
0
ARC
8
DEFAULT_255_1_234
10
4.3855349
20
153.0967919
40
0.1816095
50
315.0728369
51
345.0431014
0
ARC
8
DEFAULT_255_1_234
10
4.2932163
20
153.1236841
40
0.2777492
50
344.5986631
51
357.9269593
0
ARC
8
DEFAULT_255_1_234
10
4.2036489
20
153.1298276
40
0.3674917
50
357.4748886
51
0.0231117
0
ARC
8
DEFAULT_255_1_234
10
4.3059599
20
153.1322679
40
0.2651907
50
359.5047933
51
13.4239635
0
ARC
8
DEFAULT_255_1_234
10
4.3926242
20
153.1544478
40
0.1757509
50
12.9498199
51
48.7551375
0
ARC
8
DEFAULT_255_1_234
10
4.3743976
20
153.12954
40
0.2065134
50
49.5088623
51
72.1836453
0
ARC
8
DEFAULT_255_1_234
10
4.3386129
20
153.0233291
40
0.3185836
50
71.9010081
51
84.3554254
0
ARC
8
DEFAULT_255_1_234
10
4.3224761
20
152.8872326
40
0.4556151
50
84.0193428
51
89.333121
0
LINE
8
DEFAULT_255_1_234
10
4.7663119
20
158.2199792
11
4.7663119
21
158.0987
0
LINE
8
DEFAULT_255_1_234
10
4.7663119
20
158.0987
11
4.000084
21
158.0987
0
LINE
8
DEFAULT_255_1_234
10
4.000084
20
158.0987
11
4.000084
21
158.2055221
0
LINE
8
DEFAULT_255_1_234
10
4.000084
20
158.2055221
11
4.4048836
21
158.6552995
0
LINE
8
DEFAULT_255_1_234
10
4.1261823
20
158.9235595
11
3.9775952
21
158.9235595
0
LINE
8
DEFAULT_255_1_234
10
4.4924296
20
158.5597218
11
4.1791918
21
158.2199792
0
LINE
8
DEFAULT_255_1_234
10
4.1791918
20
158.2199792
11
4.7663119
21
158.2199792
0
ARC
8
DEFAULT_255_1_234
10
3.055867
20
159.8482527
40
1.8008286
50
318.5132453
51
320.7828378
0
ARC
8
DEFAULT_255_1_234
10
3.5845644
20
159.4179426
40
1.1191493
50
320.7372736
51
323.9737074
0
ARC
8
DEFAULT_255_1_234
10
3.9765501
20
159.1339361
40
0.6350923
50
323.8961724
51
328.6421089
0
ARC
8
DEFAULT_255_1_234
10
4.1812096
20
159.0077031
40
0.3946393
50
328.8299013
51
331.789948
0
ARC
8
DEFAULT_255_1_234
10
4.2809274
20
158.9562509
40
0.2824501
50
331.4255242
51
352.9364833
0
ARC
8
DEFAULT_255_1_234
10
4.2945775
20
158.9531976
40
0.2685315
50
353.2248685
51
0.0169286
0
ARC
8
DEFAULT_255_1_234
10
4.3155652
20
158.955495
40
0.2475536
50
359.4866256
51
15.9339782
0
ARC
8
DEFAULT_255_1_234
10
4.3662637
20
158.9691286
40
0.1950618
50
16.1714718
51
43.5284424
0
ARC
8
DEFAULT_255_1_234
10
4.3739946
20
158.9768573
40
0.184134
50
43.4415429
51
83.1661404
0
ARC
8
DEFAULT_255_1_234
10
4.3605864
20
158.9031771
40
0.258926
50
82.160215
51
90.1505798
0
ARC
8
DEFAULT_255_1_234
10
4.3574291
20
158.8494865
40
0.3126255
50
89.5460705
51
102.5418777
0
ARC
8
DEFAULT_255_1_234
10
4.3331377
20
158.9525665
40
0.2067346
50
102.1739365
51
129.2061916
0
ARC
8
DEFAULT_255_1_234
10
4.3252449
20
158.9650094
40
0.1921118
50
129.7279328
51
135.7542026
0
ARC
8
DEFAULT_255_1_234
10
4.3373977
20
158.9553045
40
0.2075944
50
136.175737
51
166.3674722
0
ARC
8
DEFAULT_255_1_234
10
4.4380896
20
158.9283182
40
0.3118201
50
165.9092917
51
178.8683903
0
ARC
8
DEFAULT_255_1_234
10
4.5245757
20
158.9236179
40
0.3983935
50
178.438168
51
180.0083905
0
ARC
8
DEFAULT_255_1_234
10
4.3844359
20
158.9275231
40
0.4068601
50
163.2878735
51
180.5581814
0
ARC
8
DEFAULT_255_1_234
10
4.3042621
20
158.949584
40
0.3237344
50
133.454115
51
162.9470031
0
ARC
8
DEFAULT_255_1_234
10
4.3221162
20
158.9306
40
0.349795
50
100.7869394
51
133.4384016
0
ARC
8
DEFAULT_255_1_234
10
4.3568934
20
158.7757319
40
0.5084616
50
89.6605301
51
101.3704185
0
ARC
8
DEFAULT_255_1_234
10
4.3635273
20
158.7818496
40
0.502348
50
78.2171172
51
90.4130393
0
ARC
8
DEFAULT_255_1_234
10
4.3990351
20
158.9442637
40
0.3361092
50
55.9268222
51
78.4888551
0
ARC
8
DEFAULT_255_1_234
10
4.4186791
20
158.9781324
40
0.2970617
50
47.9292255
51
55.4054003
0
ARC
8
DEFAULT_255_1_234
10
4.4288352
20
158.9884502
40
0.2825983
50
4.3347696
51
48.0560701
0
ARC
8
DEFAULT_255_1_234
10
4.3192745
20
158.9714601
40
0.393225
50
359.925209
51
5.5967654
0
ARC
8
DEFAULT_255_1_234
10
4.3621637
20
158.9770816
40
0.3503892
50
337.8914096
51
358.9967724
0
ARC
8
DEFAULT_255_1_234
10
4.0908049
20
159.0817706
40
0.6412172
50
326.9135351
51
338.3505194
0
ARC
8
DEFAULT_255_1_234
10
3.6922353
20
159.3372284
40
1.1146189
50
319.6472867
51
327.095818
0
ARC
8
DEFAULT_255_1_234
10
3.3089356
20
159.6534
40
1.6114559
50
317.2586784
51
319.9046139
0
LINE
8
DEFAULT_255_1_234
10
4.4801137
20
164.5654433
11
4.4801137
21
163.3904
0
LINE
8
DEFAULT_255_1_234
10
4.4801137
20
163.3904
11
4.3307234
21
163.3904
0
LINE
8
DEFAULT_255_1_234
10
4.3307234
20
163.3904
11
4.3307234
21
164.3807133
0
LINE
8
DEFAULT_255_1_234
10
4.3307234
20
164.3807133
11
4.0311396
21
164.2706785
0
LINE
8
DEFAULT_255_1_234
10
4.0311396
20
164.2706785
11
4.0311396
21
164.4056117
0
LINE
8
DEFAULT_255_1_234
10
4.0311396
20
164.4056117
11
4.4568217
21
164.5654433
0
LINE
8
DEFAULT_255_1_234
10
4.4568217
20
164.5654433
11
4.4801137
21
164.5654433
0
ENDSEC
0
EOF