0
SECTION
2
HEADER
9
$MEASUREMENT
70
1
0
ENDSEC
0
SECTION
2
TABLES
0
TABLE
2
LTYPE
0
LTYPE
72
65
70
64
2
CONTINUOUS
3
______
73
0
40
0
0
ENDTAB
0
TABLE
2
LAYER
0
LAYER
2
DEFAULT_255_2_778
70
0
62
255
6
CONTINUOUS
0
LAYER
2
DEFAULT_255_1_234
70
0
62
255
6
CONTINUOUS
0
ENDTAB
0
ENDSEC
0
SECTION
2
ENTITIES
0
ARC
8
DEFAULT_255_2_778
10
3.5695693
20
197.513468
40
0.7914215
50
129.1312896
51
180.1450914
0
ARC
8
DEFAULT_255_2_778
10
3.5698345
20
197.5139551
40
0.7912112
50
89.854026
51
129.1684493
0
ARC
8
DEFAULT_255_2_778
10
25.7988937
20
197.5136417
40
0.7915249
50
39.4792447
51
90.147911
0
ARC
8
DEFAULT_255_2_778
10
25.7994935
20
197.5134883
40
0.7911595
50
359.8533901
51
39.5154338
0
ARC
8
DEFAULT_255_2_778
10
25.7992714
20
-1.9864444
40
0.7913815
50
309.1282118
51
0.1454017
0
ARC
8
DEFAULT_255_2_778
10
25.7988889
20
-1.9867618
40
0.7913769
50
269.8524075
51
309.1641908
0
ARC
8
DEFAULT_255_2_778
10
3.5698462
20
-1.9867171
40
0.7914215
50
219.1312896
51
270.1450914
0
ARC
8
DEFAULT_255_2_778
10
3.5693591
20
-1.9864519
40
0.7912112
50
179.854026
51
219.1684493
0
LINE
8
DEFAULT_255_2_778
10
3.5718503
20
198.3051639
11
25.7968503
21
198.3051639
0
LINE
8
DEFAULT_255_2_778
10
26.5906503
20
197.5114639
11
26.5906503
21
-1.9844361
0
LINE
8
DEFAULT_255_2_778
10
25.7968503
20
-2.7781361
11
3.5718503
21
-2.7781361
0
LINE
8
DEFAULT_255_2_778
10
2.7781503
20
-1.9844361
11
2.7781503
21
197.5114639
0
LINE
8
DEFAULT_255_1_234
10
6.8086835
20
0.5189243
11
6.8351882
21
0.5189243
0
LINE
8
DEFAULT_255_1_234
10
6.8351882
20
0.5189243
11
6.8351882
21
0.392826
0
LINE
8
DEFAULT_255_1_234
10
6.8351882
20
0.392826
11
6.8078803
21
0.392826
0
LINE
8
DEFAULT_255_1_234
10
6.2609189
20
-0.2063417
11
6.2609189
21
-0.1493164
0
LINE
8
DEFAULT_255_1_234
10
6.4103093
20
-0.1685925
11
6.4103093
21
-0.2232083
0
ARC
8
DEFAULT_255_1_234
10
6.8131151
20
-0.1069545
40
0.4998079
50
90.6001036
51
104.514704
0
ARC
8
DEFAULT_255_1_234
10
6.7742667
20
0.0375131
40
0.3502176
50
104.2855254
51
133.862935
0
ARC
8
DEFAULT_255_1_234
10
6.7906424
20
0.026683
40
0.3693984
50
134.5302688
51
161.6210873
0
ARC
8
DEFAULT_255_1_234
10
6.9559613
20
-0.0316105
40
0.5446739
50
161.2849839
51
174.2076652
0
ARC
8
DEFAULT_255_1_234
10
7.096655
20
-0.0510213
40
0.6866274
50
173.7810589
51
174.9254635
0
ARC
8
DEFAULT_255_1_234
10
6.6416382
20
-0.1893161
40
0.3033419
50
95.8330959
51
138.9954921
0
ARC
8
DEFAULT_255_1_234
10
6.6639738
20
-0.3171625
40
0.4328947
50
89.8753725
51
97.0544009
0
ARC
8
DEFAULT_255_1_234
10
6.6687204
20
-0.2336252
40
0.3493769
50
71.6407809
51
90.6240094
0
ARC
8
DEFAULT_255_1_234
10
6.6837777
20
-0.1781918
40
0.2920396
50
39.6367836
51
71.019018
0
ARC
8
DEFAULT_255_1_234
10
6.620125
20
-0.2332002
40
0.3761538
50
10.658731
51
39.9043955
0
ARC
8
DEFAULT_255_1_234
10
6.4653333
20
-0.2668314
40
0.5345136
50
359.682601
51
11.132623
0
ARC
8
DEFAULT_255_1_234
10
6.4613464
20
-0.273899
40
0.5385081
50
347.2486944
51
0.4369317
0
ARC
8
DEFAULT_255_1_234
10
6.6280941
20
-0.3140193
40
0.3670249
50
318.1409698
51
347.6118597
0
ARC
8
DEFAULT_255_1_234
10
6.6605934
20
-0.3407298
40
0.3250007
50
275.6342139
51
317.8248465
0
ARC
8
DEFAULT_255_1_234
10
6.6385045
20
-0.2107781
40
0.4565864
50
269.8874292
51
276.7917694
0
ARC
8
DEFAULT_255_1_234
10
6.6330116
20
-0.3133257
40
0.3540676
50
246.9140195
51
270.7437342
0
ARC
8
DEFAULT_255_1_234
10
6.6336506
20
-0.3275616
40
0.3412781
50
218.1665114
51
245.878116
0
ARC
8
DEFAULT_255_1_234
10
6.7215967
20
-0.2539721
40
0.455911
50
191.4115814
51
218.6077802
0
ARC
8
DEFAULT_255_1_234
10
6.9154056
20
-0.2105167
40
0.6545001
50
179.6345085
51
191.7836486
0
ARC
8
DEFAULT_255_1_234
10
7.4736393
20
-0.1426303
40
1.2127388
50
171.4525249
51
180.3158839
0
ARC
8
DEFAULT_255_1_234
10
7.0341269
20
-0.0742392
40
0.7679464
50
157.9802646
51
171.6246686
0
ARC
8
DEFAULT_255_1_234
10
6.812729
20
0.0140421
40
0.5296008
50
141.4298019
51
157.854097
0
ARC
8
DEFAULT_255_1_234
10
6.748561
20
0.0594381
40
0.4511509
50
102.8715806
51
140.8564722
0
ARC
8
DEFAULT_255_1_234
10
6.8133226
20
-0.1845448
40
0.7034845
50
90.3778349
51
103.5869322
0
ARC
8
DEFAULT_255_1_234
10
6.6395002
20
-0.245027
40
0.2370698
50
89.8751008
51
126.2071704
0
ARC
8
DEFAULT_255_1_234
10
6.6440792
20
-0.2604697
40
0.2522934
50
124.9745049
51
144.895901
0
ARC
8
DEFAULT_255_1_234
10
6.6264982
20
-0.246144
40
0.2296779
50
145.2974905
51
160.2660252
0
ARC
8
DEFAULT_255_1_234
10
6.9337521
20
-0.2263929
40
0.5234525
50
179.6514266
51
190.2855912
0
ARC
8
DEFAULT_255_1_234
10
6.7643658
20
-0.2583214
40
0.3510893
50
190.0945431
51
207.5098196
0
ARC
8
DEFAULT_255_1_234
10
6.7077928
20
-0.2852377
40
0.288489
50
207.9583163
51
216.3251085
0
ARC
8
DEFAULT_255_1_234
10
6.6738036
20
-0.3131895
40
0.2445587
50
215.7661442
51
232.5456785
0
ARC
8
DEFAULT_255_1_234
10
6.6355019
20
-0.3618518
40
0.1826382
50
232.8005391
51
270.6605633
0
ARC
8
DEFAULT_255_1_234
10
6.640072
20
-0.3254388
40
0.2190529
50
269.35537
51
288.4744281
0
ARC
8
DEFAULT_255_1_234
10
6.6493617
20
-0.3603882
40
0.1829749
50
289.1833337
51
322.9683818
0
ARC
8
DEFAULT_255_1_234
10
6.5882139
20
-0.3121609
40
0.2608399
50
322.6007884
51
346.5182367
0
ARC
8
DEFAULT_255_1_234
10
6.4724735
20
-0.2826384
40
0.3802777
50
346.2582162
51
358.7741648
0
ARC
8
DEFAULT_255_1_234
10
6.3706404
20
-0.2771035
40
0.4822176
50
358.3755224
51
0.0098023
0
ARC
8
DEFAULT_255_1_234
10
6.4462591
20
-0.2743343
40
0.4066078
50
359.6214041
51
11.2839074
0
ARC
8
DEFAULT_255_1_234
10
6.5739738
20
-0.2476934
40
0.2761514
50
11.0482309
51
31.8146458
0
ARC
8
DEFAULT_255_1_234
10
6.6048781
20
-0.2309416
40
0.2410679
50
32.3035391
51
38.082671
0
ARC
8
DEFAULT_255_1_234
10
6.6469441
20
-0.1928338
40
0.1844966
50
36.825067
51
85.7415724
0
ARC
8
DEFAULT_255_1_234
10
6.6402274
20
-0.2428699
40
0.2349122
50
85.0140713
51
90.0513278
0
LINE
8
DEFAULT_255_1_234
10
7.8752983
20
0.0153343
11
7.8752983
21
-0.110764
0
LINE
8
DEFAULT_255_1_234
10
7.8752983
20
-0.110764
11
7.3684957
21
-0.110764
0
LINE
8
DEFAULT_255_1_234
10
7.3684957
20
-0.110764
11
7.3684957
21
-0.5252017
0
LINE
8
DEFAULT_255_1_234
10
7.3684957
20
-0.5252017
11
7.9572221
21
-0.5252017
0
LINE
8
DEFAULT_255_1_234
10
7.9572221
20
-0.5252017
11
7.9572221
21
-0.6513
0
LINE
8
DEFAULT_255_1_234
10
7.9572221
20
-0.6513
11
7.2142863
21
-0.6513
0
LINE
8
DEFAULT_255_1_234
10
7.2142863
20
-0.6513
11
7.2142863
21
0.5181211
0
LINE
8
DEFAULT_255_1_234
10
7.2142863
20
0.5181211
11
7.9491903
21
0.5181211
0
LINE
8
DEFAULT_255_1_234
10
7.9491903
20
0.5181211
11
7.9491903
21
0.3912196
0
LINE
8
DEFAULT_255_1_234
10
7.9491903
20
0.3912196
11
7.3684957
21
0.3912196
0
LINE
8
DEFAULT_255_1_234
10
7.3684957
20
0.3912196
11
7.3684957
21
0.0153343
0
LINE
8
DEFAULT_255_1_234
10
7.3684957
20
0.0153343
11
7.8752983
21
0.0153343
0
LINE
8
DEFAULT_255_1_234
10
8.9250465
20
0.1799849
11
8.770034
21
0.1799849
0
LINE
8
DEFAULT_255_1_234
10
8.0776981
20
-0.3123606
11
8.2327107
21
-0.3123606
0
ARC
8
DEFAULT_255_1_234
10
8.8359153
20
1.0746768
40
1.252368
50
248.9199003
51
254.1439814
0
ARC
8
DEFAULT_255_1_234
10
8.6678648
20
0.6420234
40
0.788226
50
241.633709
51
249.0064503
0
ARC
8
DEFAULT_255_1_234
10
8.5150042
20
0.3619317
40
0.4691427
50
230.498225
51
241.8087113
0
ARC
8
DEFAULT_255_1_234
10
8.4365616
20
0.2619906
40
0.3421437
50
227.4064532
51
229.9881192
0
ARC
8
DEFAULT_255_1_234
10
8.3878137
20
0.2144088
40
0.2741476
50
200.6781896
51
228.1763934
0
ARC
8
DEFAULT_255_1_234
10
8.3950447
20
0.2129077
40
0.2804109
50
179.5061581
51
199.8694617
0
ARC
8
DEFAULT_255_1_234
10
8.3941199
20
0.220321
40
0.2795204
50
132.4834203
51
181.0242172
0
ARC
8
DEFAULT_255_1_234
10
8.4536782
20
0.1640704
40
0.3612768
50
129.2532479
51
133.4242687
0
ARC
8
DEFAULT_255_1_234
10
8.4683231
20
0.1420965
40
0.3875675
50
101.98776
51
128.8742646
0
ARC
8
DEFAULT_255_1_234
10
8.5081842
20
-0.0300259
40
0.5642249
50
89.5906553
51
102.3169264
0
ARC
8
DEFAULT_255_1_234
10
8.5152334
20
0.0018148
40
0.5323783
50
77.2360837
51
90.3248275
0
ARC
8
DEFAULT_255_1_234
10
8.5359413
20
0.09854
40
0.4334697
50
63.837784
51
77.0809408
0
ARC
8
DEFAULT_255_1_234
10
8.5637175
20
0.1502911
40
0.3747796
50
45.9864267
51
64.1607727
0
ARC
8
DEFAULT_255_1_234
10
8.5898056
20
0.1800866
40
0.3352302
50
32.2747395
51
45.6547121
0
ARC
8
DEFAULT_255_1_234
10
8.5964497
20
0.181988
40
0.328603
50
359.6507365
51
32.6130309
0
ARC
8
DEFAULT_255_1_234
10
8.5021592
20
0.182466
40
0.2678863
50
359.469343
51
14.9832209
0
ARC
8
DEFAULT_255_1_234
10
8.5726654
20
0.2013539
40
0.1948938
50
14.9781179
51
48.2004265
0
ARC
8
DEFAULT_255_1_234
10
8.5562299
20
0.1806983
40
0.2212521
50
48.5927837
51
74.1241538
0
ARC
8
DEFAULT_255_1_234
10
8.5228788
20
0.0706248
40
0.3362561
50
73.7888341
51
86.6652678
0
ARC
8
DEFAULT_255_1_234
10
8.5126354
20
-0.0501119
40
0.4573953
50
86.2640471
51
90.0526343
0
ARC
8
DEFAULT_255_1_234
10
8.5098066
20
-0.0105808
40
0.4178709
50
89.6697524
51
99.2309573
0
ARC
8
DEFAULT_255_1_234
10
8.4855517
20
0.1338964
40
0.2713749
50
99.069534
51
113.7658566
0
ARC
8
DEFAULT_255_1_234
10
8.4581708
20
0.1984677
40
0.2012469
50
114.0401004
51
127.9850673
0
ARC
8
DEFAULT_255_1_234
10
8.4341272
20
0.228073
40
0.1631167
50
127.7287463
51
176.7105154
0
ARC
8
DEFAULT_255_1_234
10
8.501999
20
0.2179693
40
0.2315392
50
175.1779447
51
180.0581938
0
ARC
8
DEFAULT_255_1_234
10
8.4176836
20
0.2167428
40
0.1472271
50
179.6142195
51
228.1246017
0
ARC
8
DEFAULT_255_1_234
10
8.4618505
20
0.2576308
40
0.2072299
50
226.5779593
51
230.8800004
0
ARC
8
DEFAULT_255_1_234
10
8.5089584
20
0.3201636
40
0.2854818
50
231.4635071
51
241.9260842
0
ARC
8
DEFAULT_255_1_234
10
8.6286762
20
0.54048
40
0.53622
50
241.7178533
51
248.3259551
0
ARC
8
DEFAULT_255_1_234
10
8.7672134
20
0.8837064
40
0.9063478
50
248.2007737
51
252.4528373
0
ARC
8
DEFAULT_255_1_234
10
8.8875858
20
1.2558441
40
1.2974635
50
252.3391078
51
254.3469452
0
ARC
8
DEFAULT_255_1_234
10
8.1333561
20
-1.4418852
40
1.5037162
50
71.0197183
51
74.4087047
0
ARC
8
DEFAULT_255_1_234
10
8.3028246
20
-0.9526889
40
0.9859993
50
66.1847285
51
71.086374
0
ARC
8
DEFAULT_255_1_234
10
8.4584559
20
-0.60228
40
0.6025855
50
59.3536294
51
66.2691831
0
ARC
8
DEFAULT_255_1_234
10
8.5473211
20
-0.4519391
40
0.4279449
50
49.1020879
51
59.3293958
0
ARC
8
DEFAULT_255_1_234
10
8.6291951
20
-0.3586166
40
0.3038015
50
32.7919921
51
49.2505539
0
ARC
8
DEFAULT_255_1_234
10
8.6613041
20
-0.3357809
40
0.264448
50
31.1181161
51
32.4005348
0
ARC
8
DEFAULT_255_1_234
10
8.6524579
20
-0.3393221
40
0.2738556
50
8.1116974
51
30.7958831
0
ARC
8
DEFAULT_255_1_234
10
8.5714247
20
-0.3531247
40
0.3560327
50
359.8389159
51
8.4706516
0
ARC
8
DEFAULT_255_1_234
10
8.6340038
20
-0.3579863
40
0.2934776
50
337.4731098
51
0.7537279
0
ARC
8
DEFAULT_255_1_234
10
8.6518733
20
-0.3599613
40
0.2762607
50
307.5917067
51
336.4315538
0
ARC
8
DEFAULT_255_1_234
10
8.6058561
20
-0.3086898
40
0.3449979
50
307.6551545
51
308.4529766
0
ARC
8
DEFAULT_255_1_234
10
8.582828
20
-0.273175
40
0.3871988
50
284.3734338
51
307.1424381
0
ARC
8
DEFAULT_255_1_234
10
8.533311
20
-0.0910068
40
0.5759636
50
272.4382747
51
284.646547
0
ARC
8
DEFAULT_255_1_234
10
8.5206319
20
0.0889893
40
0.7563528
50
269.9708387
51
272.8178037
0
ARC
8
DEFAULT_255_1_234
10
8.5163358
20
-0.1148284
40
0.5525489
50
248.2707594
51
270.4055579
0
ARC
8
DEFAULT_255_1_234
10
8.51091
20
-0.1338808
40
0.5328452
50
246.1383403
51
248.0542782
0
ARC
8
DEFAULT_255_1_234
10
8.4690478
20
-0.2218157
40
0.4355005
50
233.1670131
51
246.4950969
0
ARC
8
DEFAULT_255_1_234
10
8.4136383
20
-0.2966188
40
0.3424126
50
215.3403242
51
233.0843104
0
ARC
8
DEFAULT_255_1_234
10
8.3863815
20
-0.3164451
40
0.3087104
50
179.2419209
51
215.2648451
0
ARC
8
DEFAULT_255_1_234
10
8.4631409
20
-0.3150334
40
0.2304457
50
179.335461
51
199.1045811
0
ARC
8
DEFAULT_255_1_234
10
8.4299085
20
-0.3237234
40
0.1962176
50
199.8828939
51
232.7063202
0
ARC
8
DEFAULT_255_1_234
10
8.4771353
20
-0.2643212
40
0.2720938
50
232.3738199
51
255.5136649
0
ARC
8
DEFAULT_255_1_234
10
8.511222
20
-0.1399165
40
0.4010747
50
255.2446292
51
267.5320849
0
ARC
8
DEFAULT_255_1_234
10
8.5199843
20
-0.0166298
40
0.5246356
50
267.1557994
51
270.0286766
0
ARC
8
DEFAULT_255_1_234
10
8.5227616
20
-0.061005
40
0.4802668
50
269.7000017
51
278.1660162
0
ARC
8
DEFAULT_255_1_234
10
8.548362
20
-0.2340485
40
0.3053425
50
278.0231263
51
290.625471
0
ARC
8
DEFAULT_255_1_234
10
8.5831308
20
-0.3267975
40
0.206291
50
290.6619762
51
307.0370976
0
ARC
8
DEFAULT_255_1_234
10
8.6131697
20
-0.3636496
40
0.1587906
50
306.3943566
51
355.3030547
0
ARC
8
DEFAULT_255_1_234
10
8.5619628
20
-0.3559887
40
0.2104809
50
354.3660432
51
0.0698737
0
ARC
8
DEFAULT_255_1_234
10
8.5761973
20
-0.3537383
40
0.1962563
50
359.417946
51
16.1971788
0
ARC
8
DEFAULT_255_1_234
10
8.6217284
20
-0.3412582
40
0.149053
50
16.4723299
51
52.6262157
0
ARC
8
DEFAULT_255_1_234
10
8.5396338
20
-0.4496567
40
0.2850296
50
52.7386432
51
62.4979148
0
ARC
8
DEFAULT_255_1_234
10
8.4011415
20
-0.7102717
40
0.5801521
50
62.2515216
51
68.1220564
0
ARC
8
DEFAULT_255_1_234
10
8.2291325
20
-1.1330128
40
1.0365451
50
68.0062803
51
71.8053402
0
ARC
8
DEFAULT_255_1_234
10
8.0495697
20
-1.6715242
40
1.6042013
50
71.7183119
51
73.9258742
0
LINE
8
DEFAULT_255_1_234
10
9.8414679
20
0.5181211
11
9.8414679
21
0.434591
0
LINE
8
DEFAULT_255_1_234
10
9.8414679
20
0.434591
11
9.3571541
21
-0.6513
0
LINE
8
DEFAULT_255_1_234
10
9.3571541
20
-0.6513
11
9.2013383
21
-0.6513
0
LINE
8
DEFAULT_255_1_234
10
9.2013383
20
-0.6513
11
9.6840458
21
0.3960387
0
LINE
8
DEFAULT_255_1_234
10
9.6840458
20
0.3960387
11
9.0511448
21
0.3960387
0
LINE
8
DEFAULT_255_1_234
10
9.0511448
20
0.3960387
11
9.0511448
21
0.5181211
0
LINE
8
DEFAULT_255_1_234
10
9.0511448
20
0.5181211
11
9.8414679
21
0.5181211
0
LINE
8
DEFAULT_255_1_234
10
10.6374131
20
0.5181211
11
10.6374131
21
-0.258548
0
LINE
8
DEFAULT_255_1_234
10
10.6374131
20
-0.258548
11
10.7996542
21
-0.258548
0
LINE
8
DEFAULT_255_1_234
10
10.7996542
20
-0.258548
11
10.7996542
21
-0.3798272
0
LINE
8
DEFAULT_255_1_234
10
10.7996542
20
-0.3798272
11
10.6374131
21
-0.3798272
0
LINE
8
DEFAULT_255_1_234
10
10.6374131
20
-0.3798272
11
10.6374131
21
-0.6513
0
LINE
8
DEFAULT_255_1_234
10
10.6374131
20
-0.6513
11
10.4880228
21
-0.6513
0
LINE
8
DEFAULT_255_1_234
10
10.4880228
20
-0.6513
11
10.4880228
21
-0.3798272
0
LINE
8
DEFAULT_255_1_234
10
10.4880228
20
-0.3798272
11
9.9555186
21
-0.3798272
0
LINE
8
DEFAULT_255_1_234
10
9.9555186
20
-0.3798272
11
9.9555186
21
-0.2922813
0
LINE
8
DEFAULT_255_1_234
10
9.9555186
20
-0.2922813
11
10.4791879
21
0.5181211
0
LINE
8
DEFAULT_255_1_234
10
10.4791879
20
0.5181211
11
10.6374131
21
0.5181211
0
LINE
8
DEFAULT_255_1_234
10
10.470353
20
0.2827912
11
10.1241851
21
-0.258548
0
LINE
8
DEFAULT_255_1_234
10
10.1241851
20
-0.258548
11
10.4880228
21
-0.258548
0
LINE
8
DEFAULT_255_1_234
10
10.4880228
20
-0.258548
11
10.4880228
21
0.3149181
0
LINE
8
DEFAULT_255_1_234
10
10.4880228
20
0.3149181
11
10.470353
21
0.2827912
0
LINE
8
DEFAULT_255_1_234
10
11.7000121
20
-0.5300208
11
11.7000121
21
-0.6513
0
LINE
8
DEFAULT_255_1_234
10
11.7000121
20
-0.6513
11
10.9337843
21
-0.6513
0
LINE
8
DEFAULT_255_1_234
10
10.9337843
20
-0.6513
11
10.9337843
21
-0.5444779
0
LINE
8
DEFAULT_255_1_234
10
10.9337843
20
-0.5444779
11
11.3385839
21
-0.0947005
0
LINE
8
DEFAULT_255_1_234
10
11.0598826
20
0.1735595
11
10.9112954
21
0.1735595
0
LINE
8
DEFAULT_255_1_234
10
11.4261298
20
-0.1902782
11
11.112892
21
-0.5300208
0
LINE
8
DEFAULT_255_1_234
10
11.112892
20
-0.5300208
11
11.7000121
21
-0.5300208
0
ARC
8
DEFAULT_255_1_234
10
9.9895672
20
1.0982527
40
1.8008286
50
318.5132453
51
320.7828378
0
ARC
8
DEFAULT_255_1_234
10
10.5182647
20
0.6679426
40
1.1191493
50
320.7372736
51
323.9737074
0
ARC
8
DEFAULT_255_1_234
10
10.9102503
20
0.3839361
40
0.6350923
50
323.8961724
51
328.6421089
0
ARC
8
DEFAULT_255_1_234
10
11.1149098
20
0.2577031
40
0.3946393
50
328.8299013
51
331.789948
0
ARC
8
DEFAULT_255_1_234
10
11.2146277
20
0.2062509
40
0.2824501
50
331.4255242
51
352.9364833
0
ARC
8
DEFAULT_255_1_234
10
11.2282778
20
0.2031976
40
0.2685315
50
353.2248685
51
0.0169286
0
ARC
8
DEFAULT_255_1_234
10
11.2492654
20
0.205495
40
0.2475536
50
359.4866256
51
15.9339782
0
ARC
8
DEFAULT_255_1_234
10
11.299964
20
0.2191286
40
0.1950618
50
16.1714718
51
43.5284424
0
ARC
8
DEFAULT_255_1_234
10
11.3076948
20
0.2268573
40
0.184134
50
43.4415429
51
83.1661404
0
ARC
8
DEFAULT_255_1_234
10
11.2942866
20
0.1531771
40
0.258926
50
82.160215
51
90.1505798
0
ARC
8
DEFAULT_255_1_234
10
11.2911294
20
0.0994865
40
0.3126255
50
89.5460705
51
102.5418777
0
ARC
8
DEFAULT_255_1_234
10
11.266838
20
0.2025665
40
0.2067346
50
102.1739365
51
129.2061916
0
ARC
8
DEFAULT_255_1_234
10
11.2589452
20
0.2150094
40
0.1921118
50
129.7279328
51
135.7542026
0
ARC
8
DEFAULT_255_1_234
10
11.2710979
20
0.2053045
40
0.2075944
50
136.175737
51
166.3674722
0
ARC
8
DEFAULT_255_1_234
10
11.3717899
20
0.1783182
40
0.3118201
50
165.9092917
51
178.8683903
0
ARC
8
DEFAULT_255_1_234
10
11.458276
20
0.1736179
40
0.3983935
50
178.438168
51
180.0083905
0
ARC
8
DEFAULT_255_1_234
10
11.3181362
20
0.1775231
40
0.4068601
50
163.2878735
51
180.5581814
0
ARC
8
DEFAULT_255_1_234
10
11.2379623
20
0.199584
40
0.3237344
50
133.454115
51
162.9470031
0
ARC
8
DEFAULT_255_1_234
10
11.2558165
20
0.1806
40
0.349795
50
100.7869394
51
133.4384016
0
ARC
8
DEFAULT_255_1_234
10
11.2905936
20
0.0257319
40
0.5084616
50
89.6605301
51
101.3704185
0
ARC
8
DEFAULT_255_1_234
10
11.2972275
20
0.0318496
40
0.502348
50
78.2171172
51
90.4130393
0
ARC
8
DEFAULT_255_1_234
10
11.3327353
20
0.1942637
40
0.3361092
50
55.9268222
51
78.4888551
0
ARC
8
DEFAULT_255_1_234
10
11.3523793
20
0.2281324
40
0.2970617
50
47.9292255
51
55.4054003
0
ARC
8
DEFAULT_255_1_234
10
11.3625354
20
0.2384502
40
0.2825983
50
4.3347696
51
48.0560701
0
ARC
8
DEFAULT_255_1_234
10
11.2529748
20
0.2214601
40
0.393225
50
359.925209
51
5.5967654
0
ARC
8
DEFAULT_255_1_234
10
11.2958639
20
0.2270816
40
0.3503892
50
337.8914096
51
358.9967724
0
ARC
8
DEFAULT_255_1_234
10
11.0245052
20
0.3317706
40
0.6412172
50
326.9135351
51
338.3505194
0
ARC
8
DEFAULT_255_1_234
10
10.6259355
20
0.5872284
40
1.1146189
50
319.6472867
51
327.095818
0
ARC
8
DEFAULT_255_1_234
10
10.2426358
20
0.9034
40
1.6114559
50
317.2586784
51
319.9046139
0
LINE
8
DEFAULT_255_1_234
10
12.3457639
20
0.5237433
11
12.3457639
21
-0.6513
0
LINE
8
DEFAULT_255_1_234
10
12.3457639
20
-0.6513
11
12.1963735
21
-0.6513
0
LINE
8
DEFAULT_255_1_234
10
12.1963735
20
-0.6513
11
12.1963735
21
0.3390133
0
LINE
8
DEFAULT_255_1_234
10
12.1963735
20
0.3390133
11
11.8967897
21
0.2289785
0
LINE
8
DEFAULT_255_1_234
10
11.8967897
20
0.2289785
11
11.8967897
21
0.3639117
0
LINE
8
DEFAULT_255_1_234
10
11.8967897
20
0.3639117
11
12.3224718
21
0.5237433
0
LINE
8
DEFAULT_255_1_234
10
12.3224718
20
0.5237433
11
12.3457639
21
0.5237433
0
LINE
8
DEFAULT_255_1_234
10
13.1055663
20
-0.0938974
11
13.1055663
21
-0.2151766
0
LINE
8
DEFAULT_255_1_234
10
13.1055663
20
-0.2151766
11
12.7136175
21
-0.2151766
0
LINE
8
DEFAULT_255_1_234
10
12.7136175
20
-0.2151766
11
12.7136175
21
-0.0938974
0
LINE
8
DEFAULT_255_1_234
10
12.7136175
20
-0.0938974
11
13.1055663
21
-0.0938974
0
LINE
8
DEFAULT_255_1_234
10
13.723207
20
0.5237433
11
13.723207
21
-0.6513
0
LINE
8
DEFAULT_255_1_234
10
13.723207
20
-0.6513
11
13.5738167
21
-0.6513
0
LINE
8
DEFAULT_255_1_234
10
13.5738167
20
-0.6513
11
13.5738167
21
0.3390133
0
LINE
8
DEFAULT_255_1_234
10
13.5738167
20
0.3390133
11
13.2742328
21
0.2289785
0
LINE
8
DEFAULT_255_1_234
10
13.2742328
20
0.2289785
11
13.2742328
21
0.3639117
0
LINE
8
DEFAULT_255_1_234
10
13.2742328
20
0.3639117
11
13.6999149
21
0.5237433
0
LINE
8
DEFAULT_255_1_234
10
13.6999149
20
0.5237433
11
13.723207
21
0.5237433
0
LINE
8
DEFAULT_255_1_234
10
14.8580916
20
0.0153343
11
14.8580916
21
-0.110764
0
LINE
8
DEFAULT_255_1_234
10
14.8580916
20
-0.110764
11
14.3512889
21
-0.110764
0
LINE
8
DEFAULT_255_1_234
10
14.3512889
20
-0.110764
11
14.3512889
21
-0.5252017
0
LINE
8
DEFAULT_255_1_234
10
14.3512889
20
-0.5252017
11
14.9400153
21
-0.5252017
0
LINE
8
DEFAULT_255_1_234
10
14.9400153
20
-0.5252017
11
14.9400153
21
-0.6513
0
LINE
8
DEFAULT_255_1_234
10
14.9400153
20
-0.6513
11
14.1970795
21
-0.6513
0
LINE
8
DEFAULT_255_1_234
10
14.1970795
20
-0.6513
11
14.1970795
21
0.5181211
0
LINE
8
DEFAULT_255_1_234
10
14.1970795
20
0.5181211
11
14.9319836
21
0.5181211
0
LINE
8
DEFAULT_255_1_234
10
14.9319836
20
0.5181211
11
14.9319836
21
0.3912196
0
LINE
8
DEFAULT_255_1_234
10
14.9319836
20
0.3912196
11
14.3512889
21
0.3912196
0
LINE
8
DEFAULT_255_1_234
10
14.3512889
20
0.3912196
11
14.3512889
21
0.0153343
0
LINE
8
DEFAULT_255_1_234
10
14.3512889
20
0.0153343
11
14.8580916
21
0.0153343
0
LINE
8
DEFAULT_255_1_234
10
15.2869864
20
0.5181211
11
15.2869864
21
-0.5252017
0
LINE
8
DEFAULT_255_1_234
10
15.2869864
20
-0.5252017
11
15.8411764
21
-0.5252017
0
LINE
8
DEFAULT_255_1_234
10
15.8411764
20
-0.5252017
11
15.8411764
21
-0.6513
0
LINE
8
DEFAULT_255_1_234
10
15.8411764
20
-0.6513
11
15.1319739
21
-0.6513
0
LINE
8
DEFAULT_255_1_234
10
15.1319739
20
-0.6513
11
15.1319739
21
0.5181211
0
LINE
8
DEFAULT_255_1_234
10
15.1319739
20
0.5181211
11
15.2869864
21
0.5181211
0
LINE
8
DEFAULT_255_1_234
10
16.7118168
20
0.0402327
11
16.7118168
21
-0.1525291
0
LINE
8
DEFAULT_255_1_234
10
15.9737
20
-0.1726084
11
15.9737
21
0.0257755
0
LINE
8
DEFAULT_255_1_234
10
16.5632296
20
-0.1926877
11
16.5632296
21
0.0506739
0
LINE
8
DEFAULT_255_1_234
10
16.1222872
20
0.0619184
11
16.1222872
21
-0.1758211
0
ARC
8
DEFAULT_255_1_234
10
15.4871058
20
-0.1574195
40
1.2247208
50
353.8441951
51
0.2287902
0
ARC
8
DEFAULT_255_1_234
10
15.9510561
20
-0.2092194
40
0.7578929
50
344.4934747
51
353.9765454
0
ARC
8
DEFAULT_255_1_234
10
16.2503151
20
-0.2943019
40
0.4467846
50
329.2803592
51
344.7472793
0
ARC
8
DEFAULT_255_1_234
10
16.3495976
20
-0.3487982
40
0.3336173
50
324.9352394
51
328.6160465
0
ARC
8
DEFAULT_255_1_234
10
16.3873085
20
-0.3751573
40
0.2876076
50
280.580143
51
324.9173126
0
ARC
8
DEFAULT_255_1_234
10
16.3471878
20
-0.2080901
40
0.4592847
50
269.5977311
51
281.6734359
0
ARC
8
DEFAULT_255_1_234
10
16.3399783
20
-0.2200827
40
0.4472986
50
256.6228859
51
270.51044
0
ARC
8
DEFAULT_255_1_234
10
16.2997761
20
-0.3749123
40
0.2873874
50
215.8618325
51
257.2788573
0
ARC
8
DEFAULT_255_1_234
10
16.4018793
20
-0.3064023
40
0.4102928
50
197.9693508
51
215.2623606
0
ARC
8
DEFAULT_255_1_234
10
16.6503908
20
-0.2225291
40
0.6725652
50
187.8816417
51
198.2346507
0
ARC
8
DEFAULT_255_1_234
10
17.0462116
20
-0.1653921
40
1.0724845
50
180.8976217
51
188.0055519
0
ARC
8
DEFAULT_255_1_234
10
17.3262305
20
-0.1550223
40
1.3526448
50
180.7449369
51
181.1510016
0
ARC
8
DEFAULT_255_1_234
10
17.1685034
20
0.0306042
40
1.1948131
50
173.7675579
51
180.231553
0
ARC
8
DEFAULT_255_1_234
10
16.716718
20
0.0816666
40
0.7401564
50
164.3058563
51
173.9002247
0
ARC
8
DEFAULT_255_1_234
10
16.4255249
20
0.1655656
40
0.4371288
50
148.7922025
51
164.568378
0
ARC
8
DEFAULT_255_1_234
10
16.3303701
20
0.2186929
40
0.3282386
50
144.5883898
51
148.1176286
0
ARC
8
DEFAULT_255_1_234
10
16.2960599
20
0.2426315
40
0.2864044
50
101.6440918
51
144.514236
0
ARC
8
DEFAULT_255_1_234
10
16.3385666
20
0.0737069
40
0.4604934
50
89.5284041
51
102.5819763
0
ARC
8
DEFAULT_255_1_234
10
16.3464754
20
0.0698018
40
0.464401
50
77.0437873
51
90.5081339
0
ARC
8
DEFAULT_255_1_234
10
16.3866755
20
0.2340615
40
0.2953195
50
48.2778575
51
77.4994676
0
ARC
8
DEFAULT_255_1_234
10
16.3939387
20
0.2469746
40
0.2808655
50
36.3142134
51
47.6305865
0
ARC
8
DEFAULT_255_1_234
10
16.3070694
20
0.1884515
40
0.3855453
50
18.2931786
51
35.6769206
0
ARC
8
DEFAULT_255_1_234
10
16.0527453
20
0.1011593
40
0.654423
50
8.024666
51
18.5605216
0
ARC
8
DEFAULT_255_1_234
10
15.6364373
20
0.0396792
40
1.0752407
50
1.1274072
51
8.1718305
0
ARC
8
DEFAULT_255_1_234
10
15.3128563
20
0.0269885
40
1.3990231
50
0.5424119
51
1.3863029
0
ARC
8
DEFAULT_255_1_234
10
15.4949941
20
0.0542342
40
1.0682415
50
359.8090433
51
4.9407866
0
ARC
8
DEFAULT_255_1_234
10
15.9159955
20
0.0918113
40
0.6455691
50
4.8362157
51
12.2904523
0
ARC
8
DEFAULT_255_1_234
10
16.191507
20
0.1531965
40
0.3633074
50
12.0805627
51
23.8173984
0
ARC
8
DEFAULT_255_1_234
10
16.3088775
20
0.2028919
40
0.2358723
50
24.2871213
51
31.3935614
0
ARC
8
DEFAULT_255_1_234
10
16.3613472
20
0.2372233
40
0.1732111
50
30.7407893
51
82.4657128
0
ARC
8
DEFAULT_255_1_234
10
16.3433607
20
0.1488691
40
0.263235
50
81.1060089
51
90.2184952
0
ARC
8
DEFAULT_255_1_234
10
16.3397906
20
0.1746924
40
0.2374236
50
89.3806855
51
105.6762551
0
ARC
8
DEFAULT_255_1_234
10
16.3214536
20
0.2413567
40
0.1682847
50
105.7981136
51
149.7388061
0
ARC
8
DEFAULT_255_1_234
10
16.4278615
20
0.177395
40
0.2924306
50
149.4208916
51
163.6286378
0
ARC
8
DEFAULT_255_1_234
10
16.6369503
20
0.113625
40
0.5110213
50
163.3763315
51
172.1410975
0
ARC
8
DEFAULT_255_1_234
10
16.9670221
20
0.0663518
40
0.8444586
50
172.0259487
51
178.0703232
0
ARC
8
DEFAULT_255_1_234
10
17.2700311
20
0.0519906
40
1.1477868
50
177.8631668
51
179.5044149
0
ARC
8
DEFAULT_255_1_234
10
17.1627715
20
-0.1794611
40
1.0404907
50
179.7995573
51
185.2460446
0
ARC
8
DEFAULT_255_1_234
10
16.7584755
20
-0.2177487
40
0.6343885
50
185.1411642
51
193.0079639
0
ARC
8
DEFAULT_255_1_234
10
16.4941227
20
-0.2802359
40
0.3627568
50
192.7897626
51
205.2507664
0
ARC
8
DEFAULT_255_1_234
10
16.3894774
20
-0.3269585
40
0.2481908
50
205.8005384
51
211.2537509
0
ARC
8
DEFAULT_255_1_234
10
16.3371215
20
-0.362042
40
0.1852521
50
210.3789793
51
238.4008143
0
ARC
8
DEFAULT_255_1_234
10
16.3351737
20
-0.3573624
40
0.1882621
50
239.6520629
51
265.9793761
0
ARC
8
DEFAULT_255_1_234
10
16.3436937
20
-0.2901573
40
0.2559272
50
265.1315437
51
270.060332
0
ARC
8
DEFAULT_255_1_234
10
16.3465716
20
-0.3225466
40
0.2235528
50
269.3314664
51
287.2178029
0
ARC
8
DEFAULT_255_1_234
10
16.3603568
20
-0.3728721
40
0.1714108
50
287.7958004
51
329.080874
0
ARC
8
DEFAULT_255_1_234
10
16.2646024
20
-0.313107
40
0.2842745
50
328.6634704
51
343.3325132
0
ARC
8
DEFAULT_255_1_234
10
16.0473044
20
-0.2454137
40
0.5118644
50
343.0499468
51
351.9393422
0
ARC
8
DEFAULT_255_1_234
10
15.7006344
20
-0.1943051
40
0.8622784
50
351.8069023
51
357.7959224
0
ARC
8
DEFAULT_255_1_234
10
15.37709
20
-0.1775279
40
1.1862365
50
357.5871873
51
359.2677531
0
LINE
8
DEFAULT_255_1_234
10
17.6354667
20
0.0402327
11
17.6354667
21
-0.1525291
0
LINE
8
DEFAULT_255_1_234
10
16.89735
20
-0.1726084
11
16.89735
21
0.0257755
0
LINE
8
DEFAULT_255_1_234
10
17.4868795
20
-0.1926877
11
17.4868795
21
0.0506739
0
LINE
8
DEFAULT_255_1_234
10
17.0459371
20
0.0619184
11
17.0459371
21
-0.1758211
0
ARC
8
DEFAULT_255_1_234
10
16.4107557
20
-0.1574195
40
1.2247208
50
353.8441951
51
0.2287902
0
ARC
8
DEFAULT_255_1_234
10
16.874706
20
-0.2092194
40
0.7578929
50
344.4934747
51
353.9765454
0
ARC
8
DEFAULT_255_1_234
10
17.173965
20
-0.2943019
40
0.4467846
50
329.2803592
51
344.7472793
0
ARC
8
DEFAULT_255_1_234
10
17.2732475
20
-0.3487982
40
0.3336173
50
324.9352394
51
328.6160465
0
ARC
8
DEFAULT_255_1_234
10
17.3109584
20
-0.3751573
40
0.2876076
50
280.580143
51
324.9173126
0
ARC
8
DEFAULT_255_1_234
10
17.2708377
20
-0.2080901
40
0.4592847
50
269.5977311
51
281.6734359
0
ARC
8
DEFAULT_255_1_234
10
17.2636282
20
-0.2200827
40
0.4472986
50
256.6228859
51
270.51044
0
ARC
8
DEFAULT_255_1_234
10
17.223426
20
-0.3749123
40
0.2873874
50
215.8618325
51
257.2788573
0
ARC
8
DEFAULT_255_1_234
10
17.3255292
20
-0.3064023
40
0.4102928
50
197.9693508
51
215.2623606
0
ARC
8
DEFAULT_255_1_234
10
17.5740407
20
-0.2225291
40
0.6725652
50
187.8816417
51
198.2346507
0
ARC
8
DEFAULT_255_1_234
10
17.9698616
20
-0.1653921
40
1.0724845
50
180.8976217
51
188.0055519
0
ARC
8
DEFAULT_255_1_234
10
18.2498804
20
-0.1550223
40
1.3526448
50
180.7449369
51
181.1510016
0
ARC
8
DEFAULT_255_1_234
10
18.0921533
20
0.0306042
40
1.1948131
50
173.7675579
51
180.231553
0
ARC
8
DEFAULT_255_1_234
10
17.6403679
20
0.0816666
40
0.7401564
50
164.3058563
51
173.9002247
0
ARC
8
DEFAULT_255_1_234
10
17.3491748
20
0.1655656
40
0.4371288
50
148.7922025
51
164.568378
0
ARC
8
DEFAULT_255_1_234
10
17.25402
20
0.2186929
40
0.3282386
50
144.5883898
51
148.1176286
0
ARC
8
DEFAULT_255_1_234
10
17.2197098
20
0.2426315
40
0.2864044
50
101.6440918
51
144.514236
0
ARC
8
DEFAULT_255_1_234
10
17.2622165
20
0.0737069
40
0.4604934
50
89.5284041
51
102.5819763
0
ARC
8
DEFAULT_255_1_234
10
17.2701253
20
0.0698018
40
0.464401
50
77.0437873
51
90.5081339
0
ARC
8
DEFAULT_255_1_234
10
17.3103254
20
0.2340615
40
0.2953195
50
48.2778575
51
77.4994676
0
ARC
8
DEFAULT_255_1_234
10
17.3175886
20
0.2469746
40
0.2808655
50
36.3142134
51
47.6305865
0
ARC
8
DEFAULT_255_1_234
10
17.2307193
20
0.1884515
40
0.3855453
50
18.2931786
51
35.6769206
0
ARC
8
DEFAULT_255_1_234
10
16.9763952
20
0.1011593
40
0.654423
50
8.024666
51
18.5605216
0
ARC
8
DEFAULT_255_1_234
10
16.5600872
20
0.0396792
40
1.0752407
50
1.1274072
51
8.1718305
0
ARC
8
DEFAULT_255_1_234
10
16.2365062
20
0.0269885
40
1.3990231
50
0.5424119
51
1.3863029
0
ARC
8
DEFAULT_255_1_234
10
16.418644
20
0.0542342
40
1.0682415
50
359.8090433
51
4.9407866
0
ARC
8
DEFAULT_255_1_234
10
16.8396454
20
0.0918113
40
0.6455691
50
4.8362157
51
12.2904523
0
ARC
8
DEFAULT_255_1_234
10
17.1151569
20
0.1531965
40
0.3633074
50
12.0805627
51
23.8173984
0
ARC
8
DEFAULT_255_1_234
10
17.2325274
20
0.2028919
40
0.2358723
50
24.2871213
51
31.3935614
0
ARC
8
DEFAULT_255_1_234
10
17.2849971
20
0.2372233
40
0.1732111
50
30.7407893
51
82.4657128
0
ARC
8
DEFAULT_255_1_234
10
17.2670106
20
0.1488691
40
0.263235
50
81.1060089
51
90.2184952
0
ARC
8
DEFAULT_255_1_234
10
17.2634405
20
0.1746924
40
0.2374236
50
89.3806855
51
105.6762551
0
ARC
8
DEFAULT_255_1_234
10
17.2451035
20
0.2413567
40
0.1682847
50
105.7981136
51
149.7388061
0
ARC
8
DEFAULT_255_1_234
10
17.3515114
20
0.177395
40
0.2924306
50
149.4208916
51
163.6286378
0
ARC
8
DEFAULT_255_1_234
10
17.5606002
20
0.113625
40
0.5110213
50
163.3763315
51
172.1410975
0
ARC
8
DEFAULT_255_1_234
10
17.8906721
20
0.0663518
40
0.8444586
50
172.0259487
51
178.0703232
0
ARC
8
DEFAULT_255_1_234
10
18.193681
20
0.0519906
40
1.1477868
50
177.8631668
51
179.5044149
0
ARC
8
DEFAULT_255_1_234
10
18.0864214
20
-0.1794611
40
1.0404907
50
179.7995573
51
185.2460446
0
ARC
8
DEFAULT_255_1_234
10
17.6821254
20
-0.2177487
40
0.6343885
50
185.1411642
51
193.0079639
0
ARC
8
DEFAULT_255_1_234
10
17.4177726
20
-0.2802359
40
0.3627568
50
192.7897626
51
205.2507664
0
ARC
8
DEFAULT_255_1_234
10
17.3131273
20
-0.3269585
40
0.2481908
50
205.8005384
51
211.2537509
0
ARC
8
DEFAULT_255_1_234
10
17.2607714
20
-0.362042
40
0.1852521
50
210.3789793
51
238.4008143
0
ARC
8
DEFAULT_255_1_234
10
17.2588236
20
-0.3573624
40
0.1882621
50
239.6520629
51
265.9793761
0
ARC
8
DEFAULT_255_1_234
10
17.2673436
20
-0.2901573
40
0.2559272
50
265.1315437
51
270.060332
0
ARC
8
DEFAULT_255_1_234
10
17.2702215
20
-0.3225466
40
0.2235528
50
269.3314664
51
287.2178029
0
ARC
8
DEFAULT_255_1_234
10
17.2840067
20
-0.3728721
40
0.1714108
50
287.7958004
51
329.080874
0
ARC
8
DEFAULT_255_1_234
10
17.1882523
20
-0.313107
40
0.2842745
50
328.6634704
51
343.3325132
0
ARC
8
DEFAULT_255_1_234
10
16.9709543
20
-0.2454137
40
0.5118644
50
343.0499468
51
351.9393422
0
ARC
8
DEFAULT_255_1_234
10
16.6242843
20
-0.1943051
40
0.8622784
50
351.8069023
51
357.7959224
0
ARC
8
DEFAULT_255_1_234
10
16.3007399
20
-0.1775279
40
1.1862365
50
357.5871873
51
359.2677531
0
LINE
8
DEFAULT_255_1_234
10
18.1503011
20
-0.0938974
11
18.1503011
21
-0.2151766
0
LINE
8
DEFAULT_255_1_234
10
18.1503011
20
-0.2151766
11
17.7583523
21
-0.2151766
0
LINE
8
DEFAULT_255_1_234
10
17.7583523
20
-0.2151766
11
17.7583523
21
-0.0938974
0
LINE
8
DEFAULT_255_1_234
10
17.7583523
20
-0.0938974
11
18.1503011
21
-0.0938974
0
LINE
8
DEFAULT_255_1_234
10
19.0129098
20
0.0402327
11
19.0129098
21
-0.1525291
0
LINE
8
DEFAULT_255_1_234
10
18.2747931
20
-0.1726084
11
18.2747931
21
0.0257755
0
LINE
8
DEFAULT_255_1_234
10
18.8643227
20
-0.1926877
11
18.8643227
21
0.0506739
0
LINE
8
DEFAULT_255_1_234
10
18.4233802
20
0.0619184
11
18.4233802
21
-0.1758211
0
ARC
8
DEFAULT_255_1_234
10
17.7881988
20
-0.1574195
40
1.2247208
50
353.8441951
51
0.2287902
0
ARC
8
DEFAULT_255_1_234
10
18.2521491
20
-0.2092194
40
0.7578929
50
344.4934747
51
353.9765454
0
ARC
8
DEFAULT_255_1_234
10
18.5514082
20
-0.2943019
40
0.4467846
50
329.2803592
51
344.7472793
0
ARC
8
DEFAULT_255_1_234
10
18.6506906
20
-0.3487982
40
0.3336173
50
324.9352394
51
328.6160465
0
ARC
8
DEFAULT_255_1_234
10
18.6884015
20
-0.3751573
40
0.2876076
50
280.580143
51
324.9173126
0
ARC
8
DEFAULT_255_1_234
10
18.6482808
20
-0.2080901
40
0.4592847
50
269.5977311
51
281.6734359
0
ARC
8
DEFAULT_255_1_234
10
18.6410713
20
-0.2200827
40
0.4472986
50
256.6228859
51
270.51044
0
ARC
8
DEFAULT_255_1_234
10
18.6008691
20
-0.3749123
40
0.2873874
50
215.8618325
51
257.2788573
0
ARC
8
DEFAULT_255_1_234
10
18.7029723
20
-0.3064023
40
0.4102928
50
197.9693508
51
215.2623606
0
ARC
8
DEFAULT_255_1_234
10
18.9514838
20
-0.2225291
40
0.6725652
50
187.8816417
51
198.2346507
0
ARC
8
DEFAULT_255_1_234
10
19.3473047
20
-0.1653921
40
1.0724845
50
180.8976217
51
188.0055519
0
ARC
8
DEFAULT_255_1_234
10
19.6273235
20
-0.1550223
40
1.3526448
50
180.7449369
51
181.1510016
0
ARC
8
DEFAULT_255_1_234
10
19.4695964
20
0.0306042
40
1.1948131
50
173.7675579
51
180.231553
0
ARC
8
DEFAULT_255_1_234
10
19.017811
20
0.0816666
40
0.7401564
50
164.3058563
51
173.9002247
0
ARC
8
DEFAULT_255_1_234
10
18.7266179
20
0.1655656
40
0.4371288
50
148.7922025
51
164.568378
0
ARC
8
DEFAULT_255_1_234
10
18.6314631
20
0.2186929
40
0.3282386
50
144.5883898
51
148.1176286
0
ARC
8
DEFAULT_255_1_234
10
18.5971529
20
0.2426315
40
0.2864044
50
101.6440918
51
144.514236
0
ARC
8
DEFAULT_255_1_234
10
18.6396596
20
0.0737069
40
0.4604934
50
89.5284041
51
102.5819763
0
ARC
8
DEFAULT_255_1_234
10
18.6475684
20
0.0698018
40
0.464401
50
77.0437873
51
90.5081339
0
ARC
8
DEFAULT_255_1_234
10
18.6877686
20
0.2340615
40
0.2953195
50
48.2778575
51
77.4994676
0
ARC
8
DEFAULT_255_1_234
10
18.6950317
20
0.2469746
40
0.2808655
50
36.3142134
51
47.6305865
0
ARC
8
DEFAULT_255_1_234
10
18.6081624
20
0.1884515
40
0.3855453
50
18.2931786
51
35.6769206
0
ARC
8
DEFAULT_255_1_234
10
18.3538383
20
0.1011593
40
0.654423
50
8.024666
51
18.5605216
0
ARC
8
DEFAULT_255_1_234
10
17.9375303
20
0.0396792
40
1.0752407
50
1.1274072
51
8.1718305
0
ARC
8
DEFAULT_255_1_234
10
17.6139493
20
0.0269885
40
1.3990231
50
0.5424119
51
1.3863029
0
ARC
8
DEFAULT_255_1_234
10
17.7960871
20
0.0542342
40
1.0682415
50
359.8090433
51
4.9407866
0
ARC
8
DEFAULT_255_1_234
10
18.2170885
20
0.0918113
40
0.6455691
50
4.8362157
51
12.2904523
0
ARC
8
DEFAULT_255_1_234
10
18.4926
20
0.1531965
40
0.3633074
50
12.0805627
51
23.8173984
0
ARC
8
DEFAULT_255_1_234
10
18.6099705
20
0.2028919
40
0.2358723
50
24.2871213
51
31.3935614
0
ARC
8
DEFAULT_255_1_234
10
18.6624403
20
0.2372233
40
0.1732111
50
30.7407893
51
82.4657128
0
ARC
8
DEFAULT_255_1_234
10
18.6444537
20
0.1488691
40
0.263235
50
81.1060089
51
90.2184952
0
ARC
8
DEFAULT_255_1_234
10
18.6408836
20
0.1746924
40
0.2374236
50
89.3806855
51
105.6762551
0
ARC
8
DEFAULT_255_1_234
10
18.6225466
20
0.2413567
40
0.1682847
50
105.7981136
51
149.7388061
0
ARC
8
DEFAULT_255_1_234
10
18.7289545
20
0.177395
40
0.2924306
50
149.4208916
51
163.6286378
0
ARC
8
DEFAULT_255_1_234
10
18.9380433
20
0.113625
40
0.5110213
50
163.3763315
51
172.1410975
0
ARC
8
DEFAULT_255_1_234
10
19.2681152
20
0.0663518
40
0.8444586
50
172.0259487
51
178.0703232
0
ARC
8
DEFAULT_255_1_234
10
19.5711241
20
0.0519906
40
1.1477868
50
177.8631668
51
179.5044149
0
ARC
8
DEFAULT_255_1_234
10
19.4638646
20
-0.1794611
40
1.0404907
50
179.7995573
51
185.2460446
0
ARC
8
DEFAULT_255_1_234
10
19.0595685
20
-0.2177487
40
0.6343885
50
185.1411642
51
193.0079639
0
ARC
8
DEFAULT_255_1_234
10
18.7952157
20
-0.2802359
40
0.3627568
50
192.7897626
51
205.2507664
0
ARC
8
DEFAULT_255_1_234
10
18.6905704
20
-0.3269585
40
0.2481908
50
205.8005384
51
211.2537509
0
ARC
8
DEFAULT_255_1_234
10
18.6382145
20
-0.362042
40
0.1852521
50
210.3789793
51
238.4008143
0
ARC
8
DEFAULT_255_1_234
10
18.6362667
20
-0.3573624
40
0.1882621
50
239.6520629
51
265.9793761
0
ARC
8
DEFAULT_255_1_234
10
18.6447867
20
-0.2901573
40
0.2559272
50
265.1315437
51
270.060332
0
ARC
8
DEFAULT_255_1_234
10
18.6476646
20
-0.3225466
40
0.2235528
50
269.3314664
51
287.2178029
0
ARC
8
DEFAULT_255_1_234
10
18.6614498
20
-0.3728721
40
0.1714108
50
287.7958004
51
329.080874
0
ARC
8
DEFAULT_255_1_234
10
18.5656955
20
-0.313107
40
0.2842745
50
328.6634704
51
343.3325132
0
ARC
8
DEFAULT_255_1_234
10
18.3483975
20
-0.2454137
40
0.5118644
50
343.0499468
51
351.9393422
0
ARC
8
DEFAULT_255_1_234
10
18.0017275
20
-0.1943051
40
0.8622784
50
351.8069023
51
357.7959224
0
ARC
8
DEFAULT_255_1_234
10
17.6781831
20
-0.1775279
40
1.1862365
50
357.5871873
51
359.2677531
0
LINE
8
DEFAULT_255_1_234
10
19.9992073
20
-0.6513
11
19.8875661
21
-0.3460939
0
LINE
8
DEFAULT_255_1_234
10
19.8875661
20
-0.3460939
11
19.3976301
21
-0.3460939
0
LINE
8
DEFAULT_255_1_234
10
19.3976301
20
-0.3460939
11
19.2875953
21
-0.6513
0
LINE
8
DEFAULT_255_1_234
10
19.2875953
20
-0.6513
11
19.1285668
21
-0.6513
0
LINE
8
DEFAULT_255_1_234
10
19.1285668
20
-0.6513
11
19.5751315
21
0.5181211
0
LINE
8
DEFAULT_255_1_234
10
19.5751315
20
0.5181211
11
19.7100647
21
0.5181211
0
LINE
8
DEFAULT_255_1_234
10
19.7100647
20
0.5181211
11
20.1574325
21
-0.6513
0
LINE
8
DEFAULT_255_1_234
10
20.1574325
20
-0.6513
11
19.9992073
21
-0.6513
0
LINE
8
DEFAULT_255_1_234
10
19.6425981
20
0.3277689
11
19.4442142
21
-0.2191925
0
LINE
8
DEFAULT_255_1_234
10
19.4442142
20
-0.2191925
11
19.8417852
21
-0.2191925
0
LINE
8
DEFAULT_255_1_234
10
19.8417852
20
-0.2191925
11
19.6425981
21
0.3277689
0
LINE
8
DEFAULT_255_1_234
10
21.0722475
20
-0.6513
11
20.9606063
21
-0.3460939
0
LINE
8
DEFAULT_255_1_234
10
20.9606063
20
-0.3460939
11
20.4706703
21
-0.3460939
0
LINE
8
DEFAULT_255_1_234
10
20.4706703
20
-0.3460939
11
20.3606355
21
-0.6513
0
LINE
8
DEFAULT_255_1_234
10
20.3606355
20
-0.6513
11
20.2016071
21
-0.6513
0
LINE
8
DEFAULT_255_1_234
10
20.2016071
20
-0.6513
11
20.6481717
21
0.5181211
0
LINE
8
DEFAULT_255_1_234
10
20.6481717
20
0.5181211
11
20.7831049
21
0.5181211
0
LINE
8
DEFAULT_255_1_234
10
20.7831049
20
0.5181211
11
21.2304728
21
-0.6513
0
LINE
8
DEFAULT_255_1_234
10
21.2304728
20
-0.6513
11
21.0722475
21
-0.6513
0
LINE
8
DEFAULT_255_1_234
10
20.7156383
20
0.3277689
11
20.5172544
21
-0.2191925
0
LINE
8
DEFAULT_255_1_234
10
20.5172544
20
-0.2191925
11
20.9148254
21
-0.2191925
0
LINE
8
DEFAULT_255_1_234
10
20.9148254
20
-0.2191925
11
20.7156383
21
0.3277689
0
LINE
8
DEFAULT_255_1_234
10
22.0826402
20
0.0402327
11
22.0826402
21
-0.1525291
0
LINE
8
DEFAULT_255_1_234
10
21.3445234
20
-0.1726084
11
21.3445234
21
0.0257755
0
LINE
8
DEFAULT_255_1_234
10
21.934053
20
-0.1926877
11
21.934053
21
0.0506739
0
LINE
8
DEFAULT_255_1_234
10
21.4931106
20
0.0619184
11
21.4931106
21
-0.1758211
0
ARC
8
DEFAULT_255_1_234
10
20.8579291
20
-0.1574195
40
1.2247208
50
353.8441951
51
0.2287902
0
ARC
8
DEFAULT_255_1_234
10
21.3218795
20
-0.2092194
40
0.7578929
50
344.4934747
51
353.9765454
0
ARC
8
DEFAULT_255_1_234
10
21.6211385
20
-0.2943019
40
0.4467846
50
329.2803592
51
344.7472793
0
ARC
8
DEFAULT_255_1_234
10
21.720421
20
-0.3487982
40
0.3336173
50
324.9352394
51
328.6160465
0
ARC
8
DEFAULT_255_1_234
10
21.7581319
20
-0.3751573
40
0.2876076
50
280.580143
51
324.9173126
0
ARC
8
DEFAULT_255_1_234
10
21.7180111
20
-0.2080901
40
0.4592847
50
269.5977311
51
281.6734359
0
ARC
8
DEFAULT_255_1_234
10
21.7108017
20
-0.2200827
40
0.4472986
50
256.6228859
51
270.51044
0
ARC
8
DEFAULT_255_1_234
10
21.6705995
20
-0.3749123
40
0.2873874
50
215.8618325
51
257.2788573
0
ARC
8
DEFAULT_255_1_234
10
21.7727026
20
-0.3064023
40
0.4102928
50
197.9693508
51
215.2623606
0
ARC
8
DEFAULT_255_1_234
10
22.0212142
20
-0.2225291
40
0.6725652
50
187.8816417
51
198.2346507
0
ARC
8
DEFAULT_255_1_234
10
22.417035
20
-0.1653921
40
1.0724845
50
180.8976217
51
188.0055519
0
ARC
8
DEFAULT_255_1_234
10
22.6970539
20
-0.1550223
40
1.3526448
50
180.7449369
51
181.1510016
0
ARC
8
DEFAULT_255_1_234
10
22.5393268
20
0.0306042
40
1.1948131
50
173.7675579
51
180.231553
0
ARC
8
DEFAULT_255_1_234
10
22.0875414
20
0.0816666
40
0.7401564
50
164.3058563
51
173.9002247
0
ARC
8
DEFAULT_255_1_234
10
21.7963483
20
0.1655656
40
0.4371288
50
148.7922025
51
164.568378
0
ARC
8
DEFAULT_255_1_234
10
21.7011935
20
0.2186929
40
0.3282386
50
144.5883898
51
148.1176286
0
ARC
8
DEFAULT_255_1_234
10
21.6668833
20
0.2426315
40
0.2864044
50
101.6440918
51
144.514236
0
ARC
8
DEFAULT_255_1_234
10
21.70939
20
0.0737069
40
0.4604934
50
89.5284041
51
102.5819763
0
ARC
8
DEFAULT_255_1_234
10
21.7172988
20
0.0698018
40
0.464401
50
77.0437873
51
90.5081339
0
ARC
8
DEFAULT_255_1_234
10
21.7574989
20
0.2340615
40
0.2953195
50
48.2778575
51
77.4994676
0
ARC
8
DEFAULT_255_1_234
10
21.7647621
20
0.2469746
40
0.2808655
50
36.3142134
51
47.6305865
0
ARC
8
DEFAULT_255_1_234
10
21.6778928
20
0.1884515
40
0.3855453
50
18.2931786
51
35.6769206
0
ARC
8
DEFAULT_255_1_234
10
21.4235686
20
0.1011593
40
0.654423
50
8.024666
51
18.5605216
0
ARC
8
DEFAULT_255_1_234
10
21.0072606
20
0.0396792
40
1.0752407
50
1.1274072
51
8.1718305
0
ARC
8
DEFAULT_255_1_234
10
20.6836797
20
0.0269885
40
1.3990231
50
0.5424119
51
1.3863029
0
ARC
8
DEFAULT_255_1_234
10
20.8658175
20
0.0542342
40
1.0682415
50
359.8090433
51
4.9407866
0
ARC
8
DEFAULT_255_1_234
10
21.2868189
20
0.0918113
40
0.6455691
50
4.8362157
51
12.2904523
0
ARC
8
DEFAULT_255_1_234
10
21.5623304
20
0.1531965
40
0.3633074
50
12.0805627
51
23.8173984
0
ARC
8
DEFAULT_255_1_234
10
21.6797009
20
0.2028919
40
0.2358723
50
24.2871213
51
31.3935614
0
ARC
8
DEFAULT_255_1_234
10
21.7321706
20
0.2372233
40
0.1732111
50
30.7407893
51
82.4657128
0
ARC
8
DEFAULT_255_1_234
10
21.7141841
20
0.1488691
40
0.263235
50
81.1060089
51
90.2184952
0
ARC
8
DEFAULT_255_1_234
10
21.7106139
20
0.1746924
40
0.2374236
50
89.3806855
51
105.6762551
0
ARC
8
DEFAULT_255_1_234
10
21.692277
20
0.2413567
40
0.1682847
50
105.7981136
51
149.7388061
0
ARC
8
DEFAULT_255_1_234
10
21.7986848
20
0.177395
40
0.2924306
50
149.4208916
51
163.6286378
0
ARC
8
DEFAULT_255_1_234
10
22.0077736
20
0.113625
40
0.5110213
50
163.3763315
51
172.1410975
0
ARC
8
DEFAULT_255_1_234
10
22.3378455
20
0.0663518
40
0.8444586
50
172.0259487
51
178.0703232
0
ARC
8
DEFAULT_255_1_234
10
22.6408545
20
0.0519906
40
1.1477868
50
177.8631668
51
179.5044149
0
ARC
8
DEFAULT_255_1_234
10
22.5335949
20
-0.1794611
40
1.0404907
50
179.7995573
51
185.2460446
0
ARC
8
DEFAULT_255_1_234
10
22.1292989
20
-0.2177487
40
0.6343885
50
185.1411642
51
193.0079639
0
ARC
8
DEFAULT_255_1_234
10
21.8649461
20
-0.2802359
40
0.3627568
50
192.7897626
51
205.2507664
0
ARC
8
DEFAULT_255_1_234
10
21.7603008
20
-0.3269585
40
0.2481908
50
205.8005384
51
211.2537509
0
ARC
8
DEFAULT_255_1_234
10
21.7079449
20
-0.362042
40
0.1852521
50
210.3789793
51
238.4008143
0
ARC
8
DEFAULT_255_1_234
10
21.7059971
20
-0.3573624
40
0.1882621
50
239.6520629
51
265.9793761
0
ARC
8
DEFAULT_255_1_234
10
21.7145171
20
-0.2901573
40
0.2559272
50
265.1315437
51
270.060332
0
ARC
8
DEFAULT_255_1_234
10
21.717395
20
-0.3225466
40
0.2235528
50
269.3314664
51
287.2178029
0
ARC
8
DEFAULT_255_1_234
10
21.7311801
20
-0.3728721
40
0.1714108
50
287.7958004
51
329.080874
0
ARC
8
DEFAULT_255_1_234
10
21.6354258
20
-0.313107
40
0.2842745
50
328.6634704
51
343.3325132
0
ARC
8
DEFAULT_255_1_234
10
21.4181278
20
-0.2454137
40
0.5118644
50
343.0499468
51
351.9393422
0
ARC
8
DEFAULT_255_1_234
10
21.0714578
20
-0.1943051
40
0.8622784
50
351.8069023
51
357.7959224
0
ARC
8
DEFAULT_255_1_234
10
20.7479134
20
-0.1775279
40
1.1862365
50
357.5871873
51
359.2677531
0
ARC
8
DEFAULT_255_2_778
10
7.7537338
20
197.8595992
40
3.0484709
50
251.6854144
51
258.6071955
0
ARC
8
DEFAULT_255_2_778
10
7.539521
20
196.7779738
40
1.9458471
50
258.4992492
51
268.3986479
0
ARC
8
DEFAULT_255_2_778
10
7.5172314
20
196.3477206
40
1.5151737
50
268.7865272
51
269.9950384
0
ARC
8
DEFAULT_255_2_778
10
7.5277432
20
195.8965355
40
1.0640417
50
269.426895
51
279.6711067
0
ARC
8
DEFAULT_255_2_778
10
7.6417753
20
195.2669746
40
0.4243233
50
278.7731084
51
300.3324923
0
ARC
8
DEFAULT_255_2_778
10
7.760746
20
195.0643552
40
0.1893587
50
300.2240287
51
1.9041213
0
ARC
8
DEFAULT_255_2_778
10
7.7452705
20
195.0735089
40
0.2047497
50
359.1991369
51
359.99965
0
ARC
8
DEFAULT_255_2_778
10
7.7523233
20
195.0743378
40
0.1976988
50
359.7594145
51
47.1793976
0
ARC
8
DEFAULT_255_2_778
10
7.6187277
20
194.925731
40
0.3975169
50
47.6144502
51
60.8366176
0
ARC
8
DEFAULT_255_2_778
10
7.0190958
20
193.9097865
40
1.5771337
50
59.799464
51
64.8885807
0
ARC
8
DEFAULT_255_2_778
10
6.0948833
20
191.9807682
40
3.7160912
50
64.6076081
51
66.8386974
0
ARC
8
DEFAULT_255_2_778
10
9.6419609
20
200.3438052
40
5.368109
50
244.3032309
51
247.1393781
0
ARC
8
DEFAULT_255_2_778
10
8.5507088
20
198.083818
40
2.8584574
50
240.2323579
51
244.3709759
0
ARC
8
DEFAULT_255_2_778
10
7.7800475
20
196.7469591
40
1.315392
50
233.2209971
51
240.4606284
0
ARC
8
DEFAULT_255_2_778
10
7.3561477
20
196.1758187
40
0.6041399
50
225.6990744
51
232.9899679
0
ARC
8
DEFAULT_255_2_778
10
7.3965073
20
196.2002214
40
0.6499005
50
178.2783416
51
224.6550883
0
ARC
8
DEFAULT_255_2_778
10
7.5059624
20
196.2335974
40
0.7591885
50
157.033673
51
181.0453383
0
ARC
8
DEFAULT_255_2_778
10
7.378439
20
196.2744396
40
0.6259551
50
124.9113017
51
155.9211516
0
ARC
8
DEFAULT_255_2_778
10
7.5960466
20
195.9658681
40
1.0035357
50
100.4079723
51
125.0168617
0
ARC
8
DEFAULT_255_2_778
10
7.6991199
20
195.4718046
40
1.5081396
50
89.6483922
51
100.8684975
0
ARC
8
DEFAULT_255_2_778
10
7.7083242
20
195.1195988
40
1.8603169
50
89.5079487
51
89.9984402
0
ARC
8
DEFAULT_255_2_778
10
7.7099573
20
195.0543694
40
1.9255311
50
83.9170631
51
89.5732113
0
ARC
8
DEFAULT_255_2_778
10
7.5071517
20
193.0467957
40
3.9433074
50
80.7325723
51
84.0779772
0
ARC
8
DEFAULT_255_2_778
10
7.0208457
20
190.023882
40
7.0050837
50
78.5086351
51
80.7886813
0
ARC
8
DEFAULT_255_2_778
10
7.6620177
20
194.6233544
40
1.9415426
50
67.135818
51
78.0934208
0
ARC
8
DEFAULT_255_2_778
10
7.7851814
20
195.1937809
40
1.3579807
50
78.2126325
51
89.7333975
0
ARC
8
DEFAULT_255_2_778
10
7.7793853
20
195.6089211
40
0.9429038
50
89.2638155
51
100.5666868
0
ARC
8
DEFAULT_255_2_778
10
7.6660949
20
196.1787419
40
0.362036
50
99.4784875
51
124.329414
0
ARC
8
DEFAULT_255_2_778
10
7.5705593
20
196.326851
40
0.1859067
50
125.7571195
51
182.2824883
0
ARC
8
DEFAULT_255_2_778
10
7.5493239
20
196.3201629
40
0.1645253
50
180.2492993
51
239.8144161
0
ARC
8
DEFAULT_255_2_778
10
7.932718
20
196.9202128
40
0.876484
50
237.8725734
51
242.8068846
0
ARC
8
DEFAULT_255_2_778
10
9.4175857
20
199.7367958
40
4.0604642
50
242.3328458
51
244.031083
0
ARC
8
DEFAULT_255_2_778
10
12.3804066
20
205.7852314
40
10.7955807
50
243.950624
51
244.8024316
0
ARC
8
DEFAULT_255_2_778
10
15.4009918
20
212.1692175
40
17.8580926
50
244.7535425
51
244.9563234
0
ARC
8
DEFAULT_255_2_778
10
5.8652927
20
191.6676264
40
4.7527588
50
62.2505456
51
65.4301556
0
ARC
8
DEFAULT_255_2_778
10
6.9275435
20
193.6757172
40
2.4810291
50
57.2951304
51
62.3684211
0
ARC
8
DEFAULT_255_2_778
10
7.6807233
20
194.8390235
40
1.0952081
50
48.7345704
51
57.5685367
0
ARC
8
DEFAULT_255_2_778
10
8.0117486
20
195.2265722
40
0.5856147
50
44.3236031
51
48.0704418
0
ARC
8
DEFAULT_255_2_778
10
7.9783002
20
195.2065468
40
0.6236013
50
1.3523843
51
43.4925744
0
ARC
8
DEFAULT_255_2_778
10
7.7103531
20
195.1736151
40
0.8926473
50
359.9763756
51
3.0599076
0
ARC
8
DEFAULT_255_2_778
10
7.8645343
20
195.1585407
40
0.7386124
50
333.0361889
51
1.1408766
0
ARC
8
DEFAULT_255_2_778
10
7.8947908
20
195.1654919
40
0.7150741
50
300.8430083
51
331.4403095
0
ARC
8
DEFAULT_255_2_778
10
7.694568
20
195.4790162
40
1.0869673
50
281.4258583
51
301.4316118
0
ARC
8
DEFAULT_255_2_778
10
7.5632666
20
196.0872414
40
1.7091691
50
270.2273513
51
281.7010805
0
ARC
8
DEFAULT_255_2_778
10
7.5453797
20
196.5639043
40
2.1859577
50
269.9983113
51
270.6466065
0
LINE
8
DEFAULT_255_2_778
10
7.5453153
20
194.3779465
11
7.5438002
21
194.377947
0
ARC
8
DEFAULT_255_2_778
10
7.5509161
20
197.5608969
40
3.1829579
50
256.2431122
51
269.871909
0
ARC
8
DEFAULT_255_2_778
10
21.7538511
20
197.7854629
40
2.9720345
50
251.5709223
51
258.7508181
0
ARC
8
DEFAULT_255_2_778
10
21.5538128
20
196.7622385
40
1.9294488
50
258.6495077
51
268.8281511
0
ARC
8
DEFAULT_255_2_778
10
21.5355488
20
196.3674193
40
1.5343723
50
269.2085037
51
269.9981866
0
ARC
8
DEFAULT_255_2_778
10
21.5473849
20
195.8990184
40
1.0660376
50
269.3612297
51
279.5899087
0
ARC
8
DEFAULT_255_2_778
10
21.6608439
20
195.2675324
40
0.424527
50
278.6895227
51
300.2363944
0
ARC
8
DEFAULT_255_2_778
10
21.7799083
20
195.0640793
40
0.188796
50
300.1108484
51
1.9024905
0
ARC
8
DEFAULT_255_2_778
10
21.7439577
20
195.0747221
40
0.2246851
50
358.8842611
51
0.0019649
0
ARC
8
DEFAULT_255_2_778
10
21.7769791
20
195.0786385
40
0.1917038
50
358.831716
51
47.0900458
0
ARC
8
DEFAULT_255_2_778
10
21.6364654
20
194.919284
40
0.4041259
50
47.8812665
51
61.174665
0
ARC
8
DEFAULT_255_2_778
10
21.0418848
20
193.8993117
40
1.5846568
50
60.1210877
51
65.1917015
0
ARC
8
DEFAULT_255_2_778
10
20.1415278
20
191.9937122
40
3.6922188
50
64.9168629
51
67.1565628
0
ARC
8
DEFAULT_255_2_778
10
23.6275467
20
200.2652888
40
5.2839333
50
244.2656926
51
247.1407051
0
ARC
8
DEFAULT_255_2_778
10
22.5594997
20
198.057065
40
2.8309849
50
240.1545061
51
244.3326325
0
ARC
8
DEFAULT_255_2_778
10
21.7856548
20
196.7210346
40
1.2870531
50
232.697515
51
240.4357497
0
ARC
8
DEFAULT_255_2_778
10
21.3705506
20
196.1700218
40
0.5972006
50
225.5850892
51
232.3393736
0
ARC
8
DEFAULT_255_2_778
10
21.4133941
20
196.1995933
40
0.6483829
50
178.7795739
51
224.7095916
0
ARC
8
DEFAULT_255_2_778
10
21.6669319
20
196.2236135
40
0.9018316
50
179.997867
51
180.6487041
0
ARC
8
DEFAULT_255_2_778
10
21.5167738
20
196.2374249
40
0.7517998
50
156.9195758
51
181.050088
0
ARC
8
DEFAULT_255_2_778
10
21.3928482
20
196.2768712
40
0.6224513
50
124.7111133
51
155.7879672
0
ARC
8
DEFAULT_255_2_778
10
21.6055459
20
195.9849942
40
0.9835402
50
101.7934503
51
125.2143527
0
ARC
8
DEFAULT_255_2_778
10
21.729848
20
195.4324326
40
1.5498677
50
89.5248728
51
102.1166783
0
ARC
8
DEFAULT_255_2_778
10
21.7283109
20
194.8788834
40
2.1034129
50
83.2889725
51
89.6080411
0
ARC
8
DEFAULT_255_2_778
10
21.529975
20
193.1110668
40
3.8823067
50
79.4764054
51
83.4308492
0
ARC
8
DEFAULT_255_2_778
10
21.2186357
20
191.3578673
40
5.6628977
50
78.2224868
51
79.6190915
0
ARC
8
DEFAULT_255_2_778
10
21.6838473
20
194.6353715
40
1.9311543
50
67.1323814
51
78.3148813
0
ARC
8
DEFAULT_255_2_778
10
21.801359
20
195.1868614
40
1.3672981
50
78.4565774
51
89.7552271
0
ARC
8
DEFAULT_255_2_778
10
21.7951366
20
195.617747
40
0.9364778
50
89.2619009
51
100.5950934
0
ARC
8
DEFAULT_255_2_778
10
21.6824182
20
196.1832169
40
0.3599879
50
99.5087086
51
124.406715
0
ARC
8
DEFAULT_255_2_778
10
21.5878565
20
196.329643
40
0.1858061
50
125.8630185
51
182.2986975
0
ARC
8
DEFAULT_255_2_778
10
21.5497296
20
196.3221047
40
0.1475296
50
179.9666559
51
180.100057
0
ARC
8
DEFAULT_255_2_778
10
21.566185
20
196.322093
40
0.163985
50
180.0859454
51
239.8819968
0
ARC
8
DEFAULT_255_2_778
10
21.9379018
20
196.9088619
40
0.8584853
50
238.072871
51
243.0442008
0
ARC
8
DEFAULT_255_2_778
10
23.4872034
20
199.8738845
40
4.2038426
50
242.5409111
51
244.1884903
0
ARC
8
DEFAULT_255_2_778
10
26.6463384
20
206.368496
40
11.4260319
50
244.1076525
51
244.9219574
0
ARC
8
DEFAULT_255_2_778
10
29.9038827
20
213.292155
40
19.0777309
50
244.8743531
51
245.066969
0
ARC
8
DEFAULT_255_2_778
10
19.8865272
20
191.6999274
40
4.7250654
50
62.0340028
51
65.293009
0
ARC
8
DEFAULT_255_2_778
10
20.9507744
20
193.6948758
40
2.464003
50
57.1127289
51
62.13736
0
ARC
8
DEFAULT_255_2_778
10
21.7037139
20
194.8485906
40
1.0863604
50
48.3695509
51
57.4197129
0
ARC
8
DEFAULT_255_2_778
10
22.0286268
20
195.2253419
40
0.5889589
50
44.472493
51
47.6467012
0
ARC
8
DEFAULT_255_2_778
10
21.9979457
20
195.2082032
40
0.6229283
50
1.2061613
51
43.6203607
0
ARC
8
DEFAULT_255_2_778
10
21.7312413
20
195.1757903
40
0.890659
50
359.9779196
51
2.9299178
0
ARC
8
DEFAULT_255_2_778
10
21.8802547
20
195.1606837
40
0.7417924
50
333.172934
51
1.140392
0
ARC
8
DEFAULT_255_2_778
10
21.9146167
20
195.1653736
40
0.7135172
50
300.9808035
51
331.5913995
0
ARC
8
DEFAULT_255_2_778
10
21.7182603
20
195.4752862
40
1.0803281
50
281.9040909
51
301.4483918
0
ARC
8
DEFAULT_255_2_778
10
21.5848425
20
196.0738518
40
1.6935565
50
270.5796874
51
282.1436175
0
ARC
8
DEFAULT_255_2_778
10
21.5636722
20
196.5687735
40
2.1887267
50
269.9959074
51
271.0027751
0
LINE
8
DEFAULT_255_2_778
10
21.5635158
20
194.3800468
11
21.5625002
21
194.380047
0
ARC
8
DEFAULT_255_2_778
10
21.5700221
20
197.5688174
40
3.1887792
50
256.2556596
51
269.8648469
0
LINE
8
DEFAULT_255_2_778
10
6.7958002
20
194.470847
11
6.7958002
21
194.965547
0
LINE
8
DEFAULT_255_2_778
10
8.4164002
20
196.888547
11
8.4164002
21
196.412347
0
LINE
8
DEFAULT_255_2_778
10
6.7940002
20
194.469247
11
6.7958002
21
194.470847
0
LINE
8
DEFAULT_255_2_778
10
8.9866002
20
196.938047
11
9.6629002
21
196.938047
0
LINE
8
DEFAULT_255_2_778
10
9.6629002
20
196.938047
11
9.6629002
21
194.430647
0
LINE
8
DEFAULT_255_2_778
10
9.6629002
20
194.430647
11
8.9866002
21
194.430647
0
LINE
8
DEFAULT_255_2_778
10
8.9866002
20
194.430647
11
8.9866002
21
196.938047
0
LINE
8
DEFAULT_255_2_778
10
10.2809002
20
194.430647
11
10.2809002
21
196.938047
0
LINE
8
DEFAULT_255_2_778
10
10.2809002
20
196.938047
11
12.0132002
21
196.938047
0
LINE
8
DEFAULT_255_2_778
10
12.0132002
20
196.938047
11
12.0132002
21
196.484347
0
LINE
8
DEFAULT_255_2_778
10
12.0132002
20
196.484347
11
10.9321002
21
196.484347
0
LINE
8
DEFAULT_255_2_778
10
10.9321002
20
196.484347
11
10.9321002
21
195.918047
0
LINE
8
DEFAULT_255_2_778
10
10.9321002
20
195.918047
11
11.8735002
21
195.918047
0
LINE
8
DEFAULT_255_2_778
10
11.8735002
20
195.918047
11
11.8735002
21
195.504547
0
LINE
8
DEFAULT_255_2_778
10
11.8735002
20
195.504547
11
10.9321002
21
195.504547
0
LINE
8
DEFAULT_255_2_778
10
10.9321002
20
195.504547
11
10.9321002
21
194.909247
0
LINE
8
DEFAULT_255_2_778
10
10.9321002
20
194.909247
11
12.0412002
21
194.909247
0
LINE
8
DEFAULT_255_2_778
10
12.0412002
20
194.909247
11
12.0412002
21
194.429047
0
LINE
8
DEFAULT_255_2_778
10
12.0412002
20
194.429047
11
10.2809002
21
194.430647
0
LINE
8
DEFAULT_255_2_778
10
12.4817002
20
194.430647
11
12.4817002
21
196.938047
0
LINE
8
DEFAULT_255_2_778
10
12.4817002
20
196.938047
11
13.3575002
21
196.938047
0
LINE
8
DEFAULT_255_2_778
10
13.3575002
20
196.938047
11
13.9671002
21
195.335747
0
LINE
8
DEFAULT_255_2_778
10
13.9671002
20
195.335747
11
14.5897002
21
196.938047
0
LINE
8
DEFAULT_255_2_778
10
14.5897002
20
196.938047
11
15.4215002
21
196.938047
0
LINE
8
DEFAULT_255_2_778
10
15.4215002
20
196.938047
11
15.4215002
21
194.430647
0
LINE
8
DEFAULT_255_2_778
10
15.4215002
20
194.430647
11
14.7812002
21
194.430647
0
LINE
8
DEFAULT_255_2_778
10
14.7812002
20
194.430647
11
14.7812002
21
196.206447
0
LINE
8
DEFAULT_255_2_778
10
14.7812002
20
196.206447
11
14.0724002
21
194.406247
0
LINE
8
DEFAULT_255_2_778
10
14.0724002
20
194.406247
11
13.6515002
21
194.406247
0
LINE
8
DEFAULT_255_2_778
10
13.6515002
20
194.406247
11
12.9559002
21
196.206447
0
LINE
8
DEFAULT_255_2_778
10
12.9559002
20
196.206447
11
12.9559002
21
194.430347
0
LINE
8
DEFAULT_255_2_778
10
12.9559002
20
194.430347
11
12.4817002
21
194.430647
0
LINE
8
DEFAULT_255_2_778
10
16.0409002
20
194.430647
11
16.0409002
21
196.938047
0
LINE
8
DEFAULT_255_2_778
10
16.0409002
20
196.938047
11
17.7731002
21
196.938047
0
LINE
8
DEFAULT_255_2_778
10
17.7731002
20
196.938047
11
17.7731002
21
196.484347
0
LINE
8
DEFAULT_255_2_778
10
17.7731002
20
196.484347
11
16.6921002
21
196.484347
0
LINE
8
DEFAULT_255_2_778
10
16.6921002
20
196.484347
11
16.6921002
21
195.918047
0
LINE
8
DEFAULT_255_2_778
10
16.6921002
20
195.918047
11
17.6334002
21
195.918047
0
LINE
8
DEFAULT_255_2_778
10
17.6334002
20
195.918047
11
17.6334002
21
195.504547
0
LINE
8
DEFAULT_255_2_778
10
17.6334002
20
195.504547
11
16.6921002
21
195.504547
0
LINE
8
DEFAULT_255_2_778
10
16.6921002
20
195.504547
11
16.6921002
21
194.909247
0
LINE
8
DEFAULT_255_2_778
10
16.6921002
20
194.909247
11
17.8030002
21
194.909247
0
LINE
8
DEFAULT_255_2_778
10
17.8030002
20
194.909247
11
17.8030002
21
194.429047
0
LINE
8
DEFAULT_255_2_778
10
17.8030002
20
194.429047
11
16.0409002
21
194.430647
0
LINE
8
DEFAULT_255_2_778
10
18.2454002
20
194.430647
11
18.2454002
21
196.938047
0
LINE
8
DEFAULT_255_2_778
10
18.2454002
20
196.938047
11
19.0283002
21
196.938047
0
LINE
8
DEFAULT_255_2_778
10
19.0283002
20
196.938047
11
19.8586002
21
195.259247
0
LINE
8
DEFAULT_255_2_778
10
19.8586002
20
195.259247
11
19.8586002
21
196.938047
0
LINE
8
DEFAULT_255_2_778
10
19.8586002
20
196.938047
11
20.3343002
21
196.938047
0
LINE
8
DEFAULT_255_2_778
10
20.3343002
20
196.938047
11
20.3343002
21
194.430647
0
LINE
8
DEFAULT_255_2_778
10
20.3343002
20
194.430647
11
19.5739002
21
194.430647
0
LINE
8
DEFAULT_255_2_778
10
19.5739002
20
194.430647
11
18.7214002
21
196.131847
0
LINE
8
DEFAULT_255_2_778
10
18.7214002
20
196.131847
11
18.7214002
21
194.430647
0
LINE
8
DEFAULT_255_2_778
10
18.7214002
20
194.430647
11
18.2454002
21
194.430647
0
LINE
8
DEFAULT_255_2_778
10
20.8143002
20
194.471047
11
20.8143002
21
194.965847
0
LINE
8
DEFAULT_255_2_778
10
22.3745002
20
196.901547
11
22.4343002
21
196.890947
0
LINE
8
DEFAULT_255_2_778
10
22.4343002
20
196.890947
11
22.4343002
21
196.414747
0
LINE
8
DEFAULT_255_2_778
10
20.8124002
20
194.471347
11
20.8143002
21
194.471047
0
LINE
8
DEFAULT_255_1_234
10
9.1368023
20
192.6642849
11
8.9817897
21
192.6642849
0
LINE
8
DEFAULT_255_1_234
10
8.2894539
20
192.1719394
11
8.4444665
21
192.1719394
0
ARC
8
DEFAULT_255_1_234
10
9.047671
20
193.5589768
40
1.252368
50
248.9199003
51
254.1439814
0
ARC
8
DEFAULT_255_1_234
10
8.8796205
20
193.1263234
40
0.788226
50
241.633709
51
249.0064503
0
ARC
8
DEFAULT_255_1_234
10
8.72676
20
192.8462317
40
0.4691427
50
230.498225
51
241.8087113
0
ARC
8
DEFAULT_255_1_234
10
8.6483174
20
192.7462906
40
0.3421437
50
227.4064532
51
229.9881192
0
ARC
8
DEFAULT_255_1_234
10
8.5995694
20
192.6987088
40
0.2741476
50
200.6781896
51
228.1763934
0
ARC
8
DEFAULT_255_1_234
10
8.6068005
20
192.6972077
40
0.2804109
50
179.5061581
51
199.8694617
0
ARC
8
DEFAULT_255_1_234
10
8.6058757
20
192.704621
40
0.2795204
50
132.4834203
51
181.0242172
0
ARC
8
DEFAULT_255_1_234
10
8.6654339
20
192.6483704
40
0.3612768
50
129.2532479
51
133.4242687
0
ARC
8
DEFAULT_255_1_234
10
8.6800789
20
192.6263965
40
0.3875675
50
101.98776
51
128.8742646
0
ARC
8
DEFAULT_255_1_234
10
8.7199399
20
192.4542741
40
0.5642249
50
89.5906553
51
102.3169264
0
ARC
8
DEFAULT_255_1_234
10
8.7269891
20
192.4861148
40
0.5323783
50
77.2360837
51
90.3248275
0
ARC
8
DEFAULT_255_1_234
10
8.7476971
20
192.58284
40
0.4334697
50
63.837784
51
77.0809408
0
ARC
8
DEFAULT_255_1_234
10
8.7754732
20
192.6345911
40
0.3747796
50
45.9864267
51
64.1607727
0
ARC
8
DEFAULT_255_1_234
10
8.8015614
20
192.6643866
40
0.3352302
50
32.2747395
51
45.6547121
0
ARC
8
DEFAULT_255_1_234
10
8.8082054
20
192.666288
40
0.328603
50
359.6507365
51
32.6130309
0
ARC
8
DEFAULT_255_1_234
10
8.713915
20
192.666766
40
0.2678863
50
359.469343
51
14.9832209
0
ARC
8
DEFAULT_255_1_234
10
8.7844212
20
192.6856539
40
0.1948938
50
14.9781179
51
48.2004265
0
ARC
8
DEFAULT_255_1_234
10
8.7679856
20
192.6649983
40
0.2212521
50
48.5927837
51
74.1241538
0
ARC
8
DEFAULT_255_1_234
10
8.7346346
20
192.5549248
40
0.3362561
50
73.7888341
51
86.6652678
0
ARC
8
DEFAULT_255_1_234
10
8.7243911
20
192.4341881
40
0.4573953
50
86.2640471
51
90.0526343
0
ARC
8
DEFAULT_255_1_234
10
8.7215624
20
192.4737192
40
0.4178709
50
89.6697524
51
99.2309573
0
ARC
8
DEFAULT_255_1_234
10
8.6973075
20
192.6181964
40
0.2713749
50
99.069534
51
113.7658566
0
ARC
8
DEFAULT_255_1_234
10
8.6699266
20
192.6827677
40
0.2012469
50
114.0401004
51
127.9850673
0
ARC
8
DEFAULT_255_1_234
10
8.645883
20
192.712373
40
0.1631167
50
127.7287463
51
176.7105154
0
ARC
8
DEFAULT_255_1_234
10
8.7137547
20
192.7022693
40
0.2315392
50
175.1779447
51
180.0581938
0
ARC
8
DEFAULT_255_1_234
10
8.6294394
20
192.7010428
40
0.1472271
50
179.6142195
51
228.1246017
0
ARC
8
DEFAULT_255_1_234
10
8.6736063
20
192.7419308
40
0.2072299
50
226.5779593
51
230.8800004
0
ARC
8
DEFAULT_255_1_234
10
8.7207141
20
192.8044636
40
0.2854818
50
231.4635071
51
241.9260842
0
ARC
8
DEFAULT_255_1_234
10
8.8404319
20
193.02478
40
0.53622
50
241.7178533
51
248.3259551
0
ARC
8
DEFAULT_255_1_234
10
8.9789691
20
193.3680064
40
0.9063478
50
248.2007737
51
252.4528373
0
ARC
8
DEFAULT_255_1_234
10
9.0993416
20
193.7401441
40
1.2974635
50
252.3391078
51
254.3469452
0
ARC
8
DEFAULT_255_1_234
10
8.3451119
20
191.0424148
40
1.5037162
50
71.0197183
51
74.4087047
0
ARC
8
DEFAULT_255_1_234
10
8.5145804
20
191.5316111
40
0.9859993
50
66.1847285
51
71.086374
0
ARC
8
DEFAULT_255_1_234
10
8.6702116
20
191.88202
40
0.6025855
50
59.3536294
51
66.2691831
0
ARC
8
DEFAULT_255_1_234
10
8.7590769
20
192.0323609
40
0.4279449
50
49.1020879
51
59.3293958
0
ARC
8
DEFAULT_255_1_234
10
8.8409509
20
192.1256834
40
0.3038015
50
32.7919921
51
49.2505539
0
ARC
8
DEFAULT_255_1_234
10
8.8730599
20
192.1485191
40
0.264448
50
31.1181161
51
32.4005348
0
ARC
8
DEFAULT_255_1_234
10
8.8642136
20
192.1449779
40
0.2738556
50
8.1116974
51
30.7958831
0
ARC
8
DEFAULT_255_1_234
10
8.7831804
20
192.1311753
40
0.3560327
50
359.8389159
51
8.4706516
0
ARC
8
DEFAULT_255_1_234
10
8.8457596
20
192.1263137
40
0.2934776
50
337.4731098
51
0.7537279
0
ARC
8
DEFAULT_255_1_234
10
8.8636291
20
192.1243387
40
0.2762607
50
307.5917067
51
336.4315538
0
ARC
8
DEFAULT_255_1_234
10
8.8176119
20
192.1756102
40
0.3449979
50
307.6551545
51
308.4529766
0
ARC
8
DEFAULT_255_1_234
10
8.7945838
20
192.211125
40
0.3871988
50
284.3734338
51
307.1424381
0
ARC
8
DEFAULT_255_1_234
10
8.7450668
20
192.3932932
40
0.5759636
50
272.4382747
51
284.646547
0
ARC
8
DEFAULT_255_1_234
10
8.7323876
20
192.5732893
40
0.7563528
50
269.9708387
51
272.8178037
0
ARC
8
DEFAULT_255_1_234
10
8.7280916
20
192.3694716
40
0.5525489
50
248.2707594
51
270.4055579
0
ARC
8
DEFAULT_255_1_234
10
8.7226657
20
192.3504192
40
0.5328452
50
246.1383403
51
248.0542782
0
ARC
8
DEFAULT_255_1_234
10
8.6808036
20
192.2624843
40
0.4355005
50
233.1670131
51
246.4950969
0
ARC
8
DEFAULT_255_1_234
10
8.6253941
20
192.1876812
40
0.3424126
50
215.3403242
51
233.0843104
0
ARC
8
DEFAULT_255_1_234
10
8.5981372
20
192.1678549
40
0.3087104
50
179.2419209
51
215.2648451
0
ARC
8
DEFAULT_255_1_234
10
8.6748966
20
192.1692666
40
0.2304457
50
179.335461
51
199.1045811
0
ARC
8
DEFAULT_255_1_234
10
8.6416643
20
192.1605766
40
0.1962176
50
199.8828939
51
232.7063202
0
ARC
8
DEFAULT_255_1_234
10
8.6888911
20
192.2199788
40
0.2720938
50
232.3738199
51
255.5136649
0
ARC
8
DEFAULT_255_1_234
10
8.7229778
20
192.3443835
40
0.4010747
50
255.2446292
51
267.5320849
0
ARC
8
DEFAULT_255_1_234
10
8.7317401
20
192.4676702
40
0.5246356
50
267.1557994
51
270.0286766
0
ARC
8
DEFAULT_255_1_234
10
8.7345173
20
192.423295
40
0.4802668
50
269.7000017
51
278.1660162
0
ARC
8
DEFAULT_255_1_234
10
8.7601178
20
192.2502515
40
0.3053425
50
278.0231263
51
290.625471
0
ARC
8
DEFAULT_255_1_234
10
8.7948865
20
192.1575025
40
0.206291
50
290.6619762
51
307.0370976
0
ARC
8
DEFAULT_255_1_234
10
8.8249254
20
192.1206504
40
0.1587906
50
306.3943566
51
355.3030547
0
ARC
8
DEFAULT_255_1_234
10
8.7737186
20
192.1283113
40
0.2104809
50
354.3660432
51
0.0698737
0
ARC
8
DEFAULT_255_1_234
10
8.7879531
20
192.1305617
40
0.1962563
50
359.417946
51
16.1971788
0
ARC
8
DEFAULT_255_1_234
10
8.8334841
20
192.1430418
40
0.149053
50
16.4723299
51
52.6262157
0
ARC
8
DEFAULT_255_1_234
10
8.7513895
20
192.0346433
40
0.2850296
50
52.7386432
51
62.4979148
0
ARC
8
DEFAULT_255_1_234
10
8.6128972
20
191.7740283
40
0.5801521
50
62.2515216
51
68.1220564
0
ARC
8
DEFAULT_255_1_234
10
8.4408883
20
191.3512872
40
1.0365451
50
68.0062803
51
71.8053402
0
ARC
8
DEFAULT_255_1_234
10
8.2613255
20
190.8127758
40
1.6042013
50
71.7183119
51
73.9258742
0
LINE
8
DEFAULT_255_1_234
10
9.5022464
20
193.0024211
11
9.5022464
21
191.833
0
LINE
8
DEFAULT_255_1_234
10
9.5022464
20
191.833
11
9.348037
21
191.833
0
LINE
8
DEFAULT_255_1_234
10
9.348037
20
191.833
11
9.348037
21
193.0024211
0
LINE
8
DEFAULT_255_1_234
10
9.348037
20
193.0024211
11
9.5022464
21
193.0024211
0
LINE
8
DEFAULT_255_1_234
10
9.7841604
20
193.0024211
11
9.9833475
21
193.0024211
0
LINE
8
DEFAULT_255_1_234
10
9.9833475
20
193.0024211
11
10.3656583
21
192.0482506
0
LINE
8
DEFAULT_255_1_234
10
10.3656583
20
192.0482506
11
10.747969
21
193.0024211
0
LINE
8
DEFAULT_255_1_234
10
10.747969
20
193.0024211
11
10.9479593
21
193.0024211
0
LINE
8
DEFAULT_255_1_234
10
10.9479593
20
193.0024211
11
10.9479593
21
191.833
0
LINE
8
DEFAULT_255_1_234
10
10.9479593
20
191.833
11
10.7937499
21
191.833
0
LINE
8
DEFAULT_255_1_234
10
10.7937499
20
191.833
11
10.7937499
21
192.2883996
0
LINE
8
DEFAULT_255_1_234
10
10.7937499
20
192.2883996
11
10.808207
21
192.7799419
0
LINE
8
DEFAULT_255_1_234
10
10.808207
20
192.7799419
11
10.4242899
21
191.833
0
LINE
8
DEFAULT_255_1_234
10
10.4242899
20
191.833
11
10.3062234
21
191.833
0
LINE
8
DEFAULT_255_1_234
10
10.3062234
20
191.833
11
9.9231095
21
192.7775324
0
LINE
8
DEFAULT_255_1_234
10
9.9231095
20
192.7775324
11
9.9383698
21
192.2883996
0
LINE
8
DEFAULT_255_1_234
10
9.9383698
20
192.2883996
11
9.9383698
21
191.833
0
LINE
8
DEFAULT_255_1_234
10
9.9383698
20
191.833
11
9.7841604
21
191.833
0
LINE
8
DEFAULT_255_1_234
10
9.7841604
20
191.833
11
9.7841604
21
193.0024211
0
LINE
8
DEFAULT_255_1_234
10
11.9920853
20
191.833
11
11.8804441
21
192.1382061
0
LINE
8
DEFAULT_255_1_234
10
11.8804441
20
192.1382061
11
11.3905081
21
192.1382061
0
LINE
8
DEFAULT_255_1_234
10
11.3905081
20
192.1382061
11
11.2804732
21
191.833
0
LINE
8
DEFAULT_255_1_234
10
11.2804732
20
191.833
11
11.1214448
21
191.833
0
LINE
8
DEFAULT_255_1_234
10
11.1214448
20
191.833
11
11.5680095
21
193.0024211
0
LINE
8
DEFAULT_255_1_234
10
11.5680095
20
193.0024211
11
11.7029427
21
193.0024211
0
LINE
8
DEFAULT_255_1_234
10
11.7029427
20
193.0024211
11
12.1503105
21
191.833
0
LINE
8
DEFAULT_255_1_234
10
12.1503105
20
191.833
11
11.9920853
21
191.833
0
LINE
8
DEFAULT_255_1_234
10
11.6354761
20
192.8120689
11
11.4370921
21
192.2651075
0
LINE
8
DEFAULT_255_1_234
10
11.4370921
20
192.2651075
11
11.8346632
21
192.2651075
0
LINE
8
DEFAULT_255_1_234
10
11.8346632
20
192.2651075
11
11.6354761
21
192.8120689
0
LINE
8
DEFAULT_255_1_234
10
13.012116
20
193.0024211
11
13.012116
21
192.8755196
0
LINE
8
DEFAULT_255_1_234
10
13.012116
20
192.8755196
11
12.6362307
21
192.8755196
0
LINE
8
DEFAULT_255_1_234
10
12.6362307
20
192.8755196
11
12.6362307
21
191.833
0
LINE
8
DEFAULT_255_1_234
10
12.6362307
20
191.833
11
12.4828245
21
191.833
0
LINE
8
DEFAULT_255_1_234
10
12.4828245
20
191.833
11
12.4828245
21
192.8755196
0
LINE
8
DEFAULT_255_1_234
10
12.4828245
20
192.8755196
11
12.1077423
21
192.8755196
0
LINE
8
DEFAULT_255_1_234
10
12.1077423
20
192.8755196
11
12.1077423
21
193.0024211
0
LINE
8
DEFAULT_255_1_234
10
12.1077423
20
193.0024211
11
13.012116
21
193.0024211
0
LINE
8
DEFAULT_255_1_234
10
13.3510554
20
193.0024211
11
13.3510554
21
191.833
0
LINE
8
DEFAULT_255_1_234
10
13.3510554
20
191.833
11
13.196846
21
191.833
0
LINE
8
DEFAULT_255_1_234
10
13.196846
20
191.833
11
13.196846
21
193.0024211
0
LINE
8
DEFAULT_255_1_234
10
13.196846
20
193.0024211
11
13.3510554
21
193.0024211
0
LINE
8
DEFAULT_255_1_234
10
14.338156
20
192.2040663
11
14.4931686
21
192.2040663
0
LINE
8
DEFAULT_255_1_234
10
13.5928107
20
192.3630947
11
13.5928107
21
192.4755391
0
LINE
8
DEFAULT_255_1_234
10
14.4931686
20
192.6265357
11
14.338156
21
192.6265357
0
LINE
8
DEFAULT_255_1_234
10
13.7478232
20
192.4715232
11
13.7478232
21
192.3582757
0
ARC
8
DEFAULT_255_1_234
10
13.9451072
20
192.2637846
40
0.5513052
50
340.1774281
51
353.7814284
0
ARC
8
DEFAULT_255_1_234
10
14.1022425
20
192.2052582
40
0.3836379
50
311.4558989
51
340.4421614
0
ARC
8
DEFAULT_255_1_234
10
14.0989093
20
192.2163528
40
0.3941894
50
282.4333181
51
310.7513653
0
ARC
8
DEFAULT_255_1_234
10
14.0549832
20
192.3978679
40
0.5809175
50
269.9358511
51
282.809604
0
ARC
8
DEFAULT_255_1_234
10
14.0497899
20
192.5436212
40
0.7266847
50
270.0021091
51
270.3581957
0
ARC
8
DEFAULT_255_1_234
10
14.0445315
20
192.2835585
40
0.4666519
50
250.7884749
51
270.6489167
0
ARC
8
DEFAULT_255_1_234
10
14.027715
20
192.2198319
40
0.4009729
50
219.3627325
51
250.0611886
0
ARC
8
DEFAULT_255_1_234
10
14.1106361
20
192.2903042
40
0.5097822
50
193.5479632
51
219.5756669
0
ARC
8
DEFAULT_255_1_234
10
14.3477982
20
192.3518919
40
0.7547848
50
181.1218675
51
193.87563
0
ARC
8
DEFAULT_255_1_234
10
14.5548163
20
192.362958
40
0.9620055
50
179.9918545
51
181.5394234
0
ARC
8
DEFAULT_255_1_234
10
14.3697265
20
192.4792788
40
0.7769248
50
169.5837241
51
180.2757934
0
ARC
8
DEFAULT_255_1_234
10
14.1860203
20
192.5132229
40
0.590109
50
155.0365899
51
169.6003176
0
ARC
8
DEFAULT_255_1_234
10
14.0724667
20
192.5679677
40
0.4640625
50
136.783148
51
155.2472683
0
ARC
8
DEFAULT_255_1_234
10
14.0335144
20
192.6010562
40
0.4130255
50
121.7633186
51
136.428115
0
ARC
8
DEFAULT_255_1_234
10
14.0470106
20
192.5761227
40
0.4413323
50
95.6459699
51
121.5490577
0
ARC
8
DEFAULT_255_1_234
10
14.0627388
20
192.4652949
40
0.55319
50
89.924208
51
96.1377933
0
ARC
8
DEFAULT_255_1_234
10
14.0677821
20
192.4771542
40
0.5413475
50
76.6779277
51
90.4563316
0
ARC
8
DEFAULT_255_1_234
10
14.1071444
20
192.6362114
40
0.3775041
50
47.485847
51
76.9287264
0
ARC
8
DEFAULT_255_1_234
10
14.0924417
20
192.6262159
40
0.3948286
50
16.5424086
51
46.8933463
0
ARC
8
DEFAULT_255_1_234
10
13.9316574
20
192.5733861
40
0.564021
50
5.4072051
51
17.0365086
0
ARC
8
DEFAULT_255_1_234
10
13.7877591
20
192.5502679
40
0.5556559
50
7.8891745
51
15.9239216
0
ARC
8
DEFAULT_255_1_234
10
13.9864605
20
192.6079631
40
0.3487515
50
15.7653144
51
27.9410532
0
ARC
8
DEFAULT_255_1_234
10
14.0968822
20
192.667079
40
0.2235026
50
27.8166557
51
46.4008329
0
ARC
8
DEFAULT_255_1_234
10
14.1018465
20
192.6665082
40
0.2205286
50
47.4371857
51
75.0698205
0
ARC
8
DEFAULT_255_1_234
10
14.070986
20
192.5590765
40
0.3322915
50
74.7008593
51
87.8124495
0
ARC
8
DEFAULT_255_1_234
10
14.0636547
20
192.4534844
40
0.4380987
50
87.3814673
51
90.0240855
0
ARC
8
DEFAULT_255_1_234
10
14.0598091
20
192.5712291
40
0.3203749
50
89.3451631
51
108.5745436
0
ARC
8
DEFAULT_255_1_234
10
14.0461196
20
192.6225908
40
0.2673494
50
109.2998449
51
143.3037509
0
ARC
8
DEFAULT_255_1_234
10
14.1223268
20
192.5639881
40
0.3634757
50
143.0753173
51
163.1916937
0
ARC
8
DEFAULT_255_1_234
10
14.3174996
20
192.5023967
40
0.5681262
50
162.9373603
51
174.6208611
0
ARC
8
DEFAULT_255_1_234
10
14.5801038
20
192.473601
40
0.8322832
50
174.3419979
51
180.1430411
0
ARC
8
DEFAULT_255_1_234
10
14.4870194
20
192.3541698
40
0.7392076
50
179.6817502
51
189.150529
0
ARC
8
DEFAULT_255_1_234
10
14.2369443
20
192.312519
40
0.4856932
50
188.9910863
51
203.5773039
0
ARC
8
DEFAULT_255_1_234
10
14.1289775
20
192.2677211
40
0.3688271
50
203.9077269
51
215.1312379
0
ARC
8
DEFAULT_255_1_234
10
14.0366869
20
192.1961941
40
0.2522457
50
213.9071664
51
263.8849284
0
ARC
8
DEFAULT_255_1_234
10
14.0492198
20
192.2746518
40
0.3316174
50
263.1758525
51
270.1031083
0
ARC
8
DEFAULT_255_1_234
10
14.052429
20
192.3993365
40
0.4563091
50
269.6719807
51
279.0609165
0
ARC
8
DEFAULT_255_1_234
10
14.0791058
20
192.2380907
40
0.2928759
50
278.8750225
51
293.6346586
0
ARC
8
DEFAULT_255_1_234
10
14.1111266
20
192.16289
40
0.2111472
50
293.8553404
51
310.0518804
0
ARC
8
DEFAULT_255_1_234
10
14.111612
20
192.1566516
40
0.2060917
50
311.0646779
51
332.0108348
0
ARC
8
DEFAULT_255_1_234
10
13.9923847
20
192.2223978
40
0.3422352
50
331.6588543
51
343.2878891
0
ARC
8
DEFAULT_255_1_234
10
13.7861362
20
192.2857798
40
0.5580003
50
343.1446044
51
351.010618
0
ARC
8
DEFAULT_255_1_234
10
13.6320008
20
192.3138871
40
0.7146438
50
350.7157277
51
351.1602153
0
LINE
8
DEFAULT_255_1_234
10
15.8866751
20
192.6642849
11
15.7316626
21
192.6642849
0
LINE
8
DEFAULT_255_1_234
10
15.0393268
20
192.1719394
11
15.1943393
21
192.1719394
0
ARC
8
DEFAULT_255_1_234
10
15.7975439
20
193.5589768
40
1.252368
50
248.9199003
51
254.1439814
0
ARC
8
DEFAULT_255_1_234
10
15.6294934
20
193.1263234
40
0.788226
50
241.633709
51
249.0064503
0
ARC
8
DEFAULT_255_1_234
10
15.4766328
20
192.8462317
40
0.4691427
50
230.498225
51
241.8087113
0
ARC
8
DEFAULT_255_1_234
10
15.3981902
20
192.7462906
40
0.3421437
50
227.4064532
51
229.9881192
0
ARC
8
DEFAULT_255_1_234
10
15.3494423
20
192.6987088
40
0.2741476
50
200.6781896
51
228.1763934
0
ARC
8
DEFAULT_255_1_234
10
15.3566734
20
192.6972077
40
0.2804109
50
179.5061581
51
199.8694617
0
ARC
8
DEFAULT_255_1_234
10
15.3557485
20
192.704621
40
0.2795204
50
132.4834203
51
181.0242172
0
ARC
8
DEFAULT_255_1_234
10
15.4153068
20
192.6483704
40
0.3612768
50
129.2532479
51
133.4242687
0
ARC
8
DEFAULT_255_1_234
10
15.4299517
20
192.6263965
40
0.3875675
50
101.98776
51
128.8742646
0
ARC
8
DEFAULT_255_1_234
10
15.4698128
20
192.4542741
40
0.5642249
50
89.5906553
51
102.3169264
0
ARC
8
DEFAULT_255_1_234
10
15.476862
20
192.4861148
40
0.5323783
50
77.2360837
51
90.3248275
0
ARC
8
DEFAULT_255_1_234
10
15.4975699
20
192.58284
40
0.4334697
50
63.837784
51
77.0809408
0
ARC
8
DEFAULT_255_1_234
10
15.5253461
20
192.6345911
40
0.3747796
50
45.9864267
51
64.1607727
0
ARC
8
DEFAULT_255_1_234
10
15.5514342
20
192.6643866
40
0.3352302
50
32.2747395
51
45.6547121
0
ARC
8
DEFAULT_255_1_234
10
15.5580783
20
192.666288
40
0.328603
50
359.6507365
51
32.6130309
0
ARC
8
DEFAULT_255_1_234
10
15.4637878
20
192.666766
40
0.2678863
50
359.469343
51
14.9832209
0
ARC
8
DEFAULT_255_1_234
10
15.5342941
20
192.6856539
40
0.1948938
50
14.9781179
51
48.2004265
0
ARC
8
DEFAULT_255_1_234
10
15.5178585
20
192.6649983
40
0.2212521
50
48.5927837
51
74.1241538
0
ARC
8
DEFAULT_255_1_234
10
15.4845074
20
192.5549248
40
0.3362561
50
73.7888341
51
86.6652678
0
ARC
8
DEFAULT_255_1_234
10
15.474264
20
192.4341881
40
0.4573953
50
86.2640471
51
90.0526343
0
ARC
8
DEFAULT_255_1_234
10
15.4714352
20
192.4737192
40
0.4178709
50
89.6697524
51
99.2309573
0
ARC
8
DEFAULT_255_1_234
10
15.4471803
20
192.6181964
40
0.2713749
50
99.069534
51
113.7658566
0
ARC
8
DEFAULT_255_1_234
10
15.4197994
20
192.6827677
40
0.2012469
50
114.0401004
51
127.9850673
0
ARC
8
DEFAULT_255_1_234
10
15.3957558
20
192.712373
40
0.1631167
50
127.7287463
51
176.7105154
0
ARC
8
DEFAULT_255_1_234
10
15.4636276
20
192.7022693
40
0.2315392
50
175.1779447
51
180.0581938
0
ARC
8
DEFAULT_255_1_234
10
15.3793123
20
192.7010428
40
0.1472271
50
179.6142195
51
228.1246017
0
ARC
8
DEFAULT_255_1_234
10
15.4234791
20
192.7419308
40
0.2072299
50
226.5779593
51
230.8800004
0
ARC
8
DEFAULT_255_1_234
10
15.470587
20
192.8044636
40
0.2854818
50
231.4635071
51
241.9260842
0
ARC
8
DEFAULT_255_1_234
10
15.5903048
20
193.02478
40
0.53622
50
241.7178533
51
248.3259551
0
ARC
8
DEFAULT_255_1_234
10
15.728842
20
193.3680064
40
0.9063478
50
248.2007737
51
252.4528373
0
ARC
8
DEFAULT_255_1_234
10
15.8492145
20
193.7401441
40
1.2974635
50
252.3391078
51
254.3469452
0
ARC
8
DEFAULT_255_1_234
10
15.0949847
20
191.0424148
40
1.5037162
50
71.0197183
51
74.4087047
0
ARC
8
DEFAULT_255_1_234
10
15.2644532
20
191.5316111
40
0.9859993
50
66.1847285
51
71.086374
0
ARC
8
DEFAULT_255_1_234
10
15.4200845
20
191.88202
40
0.6025855
50
59.3536294
51
66.2691831
0
ARC
8
DEFAULT_255_1_234
10
15.5089497
20
192.0323609
40
0.4279449
50
49.1020879
51
59.3293958
0
ARC
8
DEFAULT_255_1_234
10
15.5908237
20
192.1256834
40
0.3038015
50
32.7919921
51
49.2505539
0
ARC
8
DEFAULT_255_1_234
10
15.6229327
20
192.1485191
40
0.264448
50
31.1181161
51
32.4005348
0
ARC
8
DEFAULT_255_1_234
10
15.6140865
20
192.1449779
40
0.2738556
50
8.1116974
51
30.7958831
0
ARC
8
DEFAULT_255_1_234
10
15.5330533
20
192.1311753
40
0.3560327
50
359.8389159
51
8.4706516
0
ARC
8
DEFAULT_255_1_234
10
15.5956324
20
192.1263137
40
0.2934776
50
337.4731098
51
0.7537279
0
ARC
8
DEFAULT_255_1_234
10
15.6135019
20
192.1243387
40
0.2762607
50
307.5917067
51
336.4315538
0
ARC
8
DEFAULT_255_1_234
10
15.5674847
20
192.1756102
40
0.3449979
50
307.6551545
51
308.4529766
0
ARC
8
DEFAULT_255_1_234
10
15.5444566
20
192.211125
40
0.3871988
50
284.3734338
51
307.1424381
0
ARC
8
DEFAULT_255_1_234
10
15.4949396
20
192.3932932
40
0.5759636
50
272.4382747
51
284.646547
0
ARC
8
DEFAULT_255_1_234
10
15.4822605
20
192.5732893
40
0.7563528
50
269.9708387
51
272.8178037
0
ARC
8
DEFAULT_255_1_234
10
15.4779645
20
192.3694716
40
0.5525489
50
248.2707594
51
270.4055579
0
ARC
8
DEFAULT_255_1_234
10
15.4725386
20
192.3504192
40
0.5328452
50
246.1383403
51
248.0542782
0
ARC
8
DEFAULT_255_1_234
10
15.4306765
20
192.2624843
40
0.4355005
50
233.1670131
51
246.4950969
0
ARC
8
DEFAULT_255_1_234
10
15.375267
20
192.1876812
40
0.3424126
50
215.3403242
51
233.0843104
0
ARC
8
DEFAULT_255_1_234
10
15.3480101
20
192.1678549
40
0.3087104
50
179.2419209
51
215.2648451
0
ARC
8
DEFAULT_255_1_234
10
15.4247695
20
192.1692666
40
0.2304457
50
179.335461
51
199.1045811
0
ARC
8
DEFAULT_255_1_234
10
15.3915371
20
192.1605766
40
0.1962176
50
199.8828939
51
232.7063202
0
ARC
8
DEFAULT_255_1_234
10
15.438764
20
192.2199788
40
0.2720938
50
232.3738199
51
255.5136649
0
ARC
8
DEFAULT_255_1_234
10
15.4728506
20
192.3443835
40
0.4010747
50
255.2446292
51
267.5320849
0
ARC
8
DEFAULT_255_1_234
10
15.481613
20
192.4676702
40
0.5246356
50
267.1557994
51
270.0286766
0
ARC
8
DEFAULT_255_1_234
10
15.4843902
20
192.423295
40
0.4802668
50
269.7000017
51
278.1660162
0
ARC
8
DEFAULT_255_1_234
10
15.5099907
20
192.2502515
40
0.3053425
50
278.0231263
51
290.625471
0
ARC
8
DEFAULT_255_1_234
10
15.5447594
20
192.1575025
40
0.206291
50
290.6619762
51
307.0370976
0
ARC
8
DEFAULT_255_1_234
10
15.5747983
20
192.1206504
40
0.1587906
50
306.3943566
51
355.3030547
0
ARC
8
DEFAULT_255_1_234
10
15.5235914
20
192.1283113
40
0.2104809
50
354.3660432
51
0.0698737
0
ARC
8
DEFAULT_255_1_234
10
15.537826
20
192.1305617
40
0.1962563
50
359.417946
51
16.1971788
0
ARC
8
DEFAULT_255_1_234
10
15.583357
20
192.1430418
40
0.149053
50
16.4723299
51
52.6262157
0
ARC
8
DEFAULT_255_1_234
10
15.5012624
20
192.0346433
40
0.2850296
50
52.7386432
51
62.4979148
0
ARC
8
DEFAULT_255_1_234
10
15.3627701
20
191.7740283
40
0.5801521
50
62.2515216
51
68.1220564
0
ARC
8
DEFAULT_255_1_234
10
15.1907612
20
191.3512872
40
1.0365451
50
68.0062803
51
71.8053402
0
ARC
8
DEFAULT_255_1_234
10
15.0111983
20
190.8127758
40
1.6042013
50
71.7183119
51
73.9258742
0
LINE
8
DEFAULT_255_1_234
10
16.8030965
20
193.0024211
11
16.8030965
21
192.918891
0
LINE
8
DEFAULT_255_1_234
10
16.8030965
20
192.918891
11
16.3187827
21
191.833
0
LINE
8
DEFAULT_255_1_234
10
16.3187827
20
191.833
11
16.1629669
21
191.833
0
LINE
8
DEFAULT_255_1_234
10
16.1629669
20
191.833
11
16.6456744
21
192.8803387
0
LINE
8
DEFAULT_255_1_234
10
16.6456744
20
192.8803387
11
16.0127734
21
192.8803387
0
LINE
8
DEFAULT_255_1_234
10
16.0127734
20
192.8803387
11
16.0127734
21
193.0024211
0
LINE
8
DEFAULT_255_1_234
10
16.0127734
20
193.0024211
11
16.8030965
21
193.0024211
0
LINE
8
DEFAULT_255_1_234
10
17.2962452
20
192.3904026
11
17.2962452
21
192.2691234
0
LINE
8
DEFAULT_255_1_234
10
17.2962452
20
192.2691234
11
16.9042964
21
192.2691234
0
LINE
8
DEFAULT_255_1_234
10
16.9042964
20
192.2691234
11
16.9042964
21
192.3904026
0
LINE
8
DEFAULT_255_1_234
10
16.9042964
20
192.3904026
11
17.2962452
21
192.3904026
0
LINE
8
DEFAULT_255_1_234
10
18.052835
20
193.0024211
11
18.052835
21
192.225752
0
LINE
8
DEFAULT_255_1_234
10
18.052835
20
192.225752
11
18.2150761
21
192.225752
0
LINE
8
DEFAULT_255_1_234
10
18.2150761
20
192.225752
11
18.2150761
21
192.1044728
0
LINE
8
DEFAULT_255_1_234
10
18.2150761
20
192.1044728
11
18.052835
21
192.1044728
0
LINE
8
DEFAULT_255_1_234
10
18.052835
20
192.1044728
11
18.052835
21
191.833
0
LINE
8
DEFAULT_255_1_234
10
18.052835
20
191.833
11
17.9034446
21
191.833
0
LINE
8
DEFAULT_255_1_234
10
17.9034446
20
191.833
11
17.9034446
21
192.1044728
0
LINE
8
DEFAULT_255_1_234
10
17.9034446
20
192.1044728
11
17.3709404
21
192.1044728
0
LINE
8
DEFAULT_255_1_234
10
17.3709404
20
192.1044728
11
17.3709404
21
192.1920187
0
LINE
8
DEFAULT_255_1_234
10
17.3709404
20
192.1920187
11
17.8946097
21
193.0024211
0
LINE
8
DEFAULT_255_1_234
10
17.8946097
20
193.0024211
11
18.052835
21
193.0024211
0
LINE
8
DEFAULT_255_1_234
10
17.8857748
20
192.7670912
11
17.5396069
21
192.225752
0
LINE
8
DEFAULT_255_1_234
10
17.5396069
20
192.225752
11
17.9034446
21
192.225752
0
LINE
8
DEFAULT_255_1_234
10
17.9034446
20
192.225752
11
17.9034446
21
192.7992181
0
LINE
8
DEFAULT_255_1_234
10
17.9034446
20
192.7992181
11
17.8857748
21
192.7670912
0
LINE
8
DEFAULT_255_1_234
10
19.0825038
20
192.5245327
11
19.0825038
21
192.3317709
0
LINE
8
DEFAULT_255_1_234
10
18.3443871
20
192.3116916
11
18.3443871
21
192.5100755
0
LINE
8
DEFAULT_255_1_234
10
18.9339167
20
192.2916123
11
18.9339167
21
192.5349739
0
LINE
8
DEFAULT_255_1_234
10
18.4929742
20
192.5462184
11
18.4929742
21
192.3084789
0
ARC
8
DEFAULT_255_1_234
10
17.8577928
20
192.3268805
40
1.2247208
50
353.8441951
51
0.2287902
0
ARC
8
DEFAULT_255_1_234
10
18.3217431
20
192.2750806
40
0.7578929
50
344.4934747
51
353.9765454
0
ARC
8
DEFAULT_255_1_234
10
18.6210022
20
192.1899981
40
0.4467846
50
329.2803592
51
344.7472793
0
ARC
8
DEFAULT_255_1_234
10
18.7202846
20
192.1355018
40
0.3336173
50
324.9352394
51
328.6160465
0
ARC
8
DEFAULT_255_1_234
10
18.7579955
20
192.1091427
40
0.2876076
50
280.580143
51
324.9173126
0
ARC
8
DEFAULT_255_1_234
10
18.7178748
20
192.2762099
40
0.4592847
50
269.5977311
51
281.6734359
0
ARC
8
DEFAULT_255_1_234
10
18.7106653
20
192.2642173
40
0.4472986
50
256.6228859
51
270.51044
0
ARC
8
DEFAULT_255_1_234
10
18.6704631
20
192.1093877
40
0.2873874
50
215.8618325
51
257.2788573
0
ARC
8
DEFAULT_255_1_234
10
18.7725663
20
192.1778977
40
0.4102928
50
197.9693508
51
215.2623606
0
ARC
8
DEFAULT_255_1_234
10
19.0210778
20
192.2617709
40
0.6725652
50
187.8816417
51
198.2346507
0
ARC
8
DEFAULT_255_1_234
10
19.4168987
20
192.3189079
40
1.0724845
50
180.8976217
51
188.0055519
0
ARC
8
DEFAULT_255_1_234
10
19.6969175
20
192.3292777
40
1.3526448
50
180.7449369
51
181.1510016
0
ARC
8
DEFAULT_255_1_234
10
19.5391904
20
192.5149042
40
1.1948131
50
173.7675579
51
180.231553
0
ARC
8
DEFAULT_255_1_234
10
19.087405
20
192.5659666
40
0.7401564
50
164.3058563
51
173.9002247
0
ARC
8
DEFAULT_255_1_234
10
18.7962119
20
192.6498656
40
0.4371288
50
148.7922025
51
164.568378
0
ARC
8
DEFAULT_255_1_234
10
18.7010571
20
192.7029929
40
0.3282386
50
144.5883898
51
148.1176286
0
ARC
8
DEFAULT_255_1_234
10
18.6667469
20
192.7269315
40
0.2864044
50
101.6440918
51
144.514236
0
ARC
8
DEFAULT_255_1_234
10
18.7092536
20
192.5580069
40
0.4604934
50
89.5284041
51
102.5819763
0
ARC
8
DEFAULT_255_1_234
10
18.7171624
20
192.5541018
40
0.464401
50
77.0437873
51
90.5081339
0
ARC
8
DEFAULT_255_1_234
10
18.7573626
20
192.7183615
40
0.2953195
50
48.2778575
51
77.4994676
0
ARC
8
DEFAULT_255_1_234
10
18.7646257
20
192.7312746
40
0.2808655
50
36.3142134
51
47.6305865
0
ARC
8
DEFAULT_255_1_234
10
18.6777564
20
192.6727515
40
0.3855453
50
18.2931786
51
35.6769206
0
ARC
8
DEFAULT_255_1_234
10
18.4234323
20
192.5854593
40
0.654423
50
8.024666
51
18.5605216
0
ARC
8
DEFAULT_255_1_234
10
18.0071243
20
192.5239792
40
1.0752407
50
1.1274072
51
8.1718305
0
ARC
8
DEFAULT_255_1_234
10
17.6835433
20
192.5112885
40
1.3990231
50
0.5424119
51
1.3863029
0
ARC
8
DEFAULT_255_1_234
10
17.8656811
20
192.5385342
40
1.0682415
50
359.8090433
51
4.9407866
0
ARC
8
DEFAULT_255_1_234
10
18.2866825
20
192.5761113
40
0.6455691
50
4.8362157
51
12.2904523
0
ARC
8
DEFAULT_255_1_234
10
18.562194
20
192.6374965
40
0.3633074
50
12.0805627
51
23.8173984
0
ARC
8
DEFAULT_255_1_234
10
18.6795645
20
192.6871919
40
0.2358723
50
24.2871213
51
31.3935614
0
ARC
8
DEFAULT_255_1_234
10
18.7320342
20
192.7215233
40
0.1732111
50
30.7407893
51
82.4657128
0
ARC
8
DEFAULT_255_1_234
10
18.7140477
20
192.6331691
40
0.263235
50
81.1060089
51
90.2184952
0
ARC
8
DEFAULT_255_1_234
10
18.7104776
20
192.6589924
40
0.2374236
50
89.3806855
51
105.6762551
0
ARC
8
DEFAULT_255_1_234
10
18.6921406
20
192.7256567
40
0.1682847
50
105.7981136
51
149.7388061
0
ARC
8
DEFAULT_255_1_234
10
18.7985485
20
192.661695
40
0.2924306
50
149.4208916
51
163.6286378
0
ARC
8
DEFAULT_255_1_234
10
19.0076373
20
192.597925
40
0.5110213
50
163.3763315
51
172.1410975
0
ARC
8
DEFAULT_255_1_234
10
19.3377092
20
192.5506518
40
0.8444586
50
172.0259487
51
178.0703232
0
ARC
8
DEFAULT_255_1_234
10
19.6407181
20
192.5362906
40
1.1477868
50
177.8631668
51
179.5044149
0
ARC
8
DEFAULT_255_1_234
10
19.5334586
20
192.3048389
40
1.0404907
50
179.7995573
51
185.2460446
0
ARC
8
DEFAULT_255_1_234
10
19.1291625
20
192.2665513
40
0.6343885
50
185.1411642
51
193.0079639
0
ARC
8
DEFAULT_255_1_234
10
18.8648097
20
192.2040641
40
0.3627568
50
192.7897626
51
205.2507664
0
ARC
8
DEFAULT_255_1_234
10
18.7601644
20
192.1573415
40
0.2481908
50
205.8005384
51
211.2537509
0
ARC
8
DEFAULT_255_1_234
10
18.7078085
20
192.122258
40
0.1852521
50
210.3789793
51
238.4008143
0
ARC
8
DEFAULT_255_1_234
10
18.7058607
20
192.1269376
40
0.1882621
50
239.6520629
51
265.9793761
0
ARC
8
DEFAULT_255_1_234
10
18.7143807
20
192.1941427
40
0.2559272
50
265.1315437
51
270.060332
0
ARC
8
DEFAULT_255_1_234
10
18.7172586
20
192.1617534
40
0.2235528
50
269.3314664
51
287.2178029
0
ARC
8
DEFAULT_255_1_234
10
18.7310438
20
192.1114279
40
0.1714108
50
287.7958004
51
329.080874
0
ARC
8
DEFAULT_255_1_234
10
18.6352894
20
192.171193
40
0.2842745
50
328.6634704
51
343.3325132
0
ARC
8
DEFAULT_255_1_234
10
18.4179915
20
192.2388863
40
0.5118644
50
343.0499468
51
351.9393422
0
ARC
8
DEFAULT_255_1_234
10
18.0713215
20
192.2899949
40
0.8622784
50
351.8069023
51
357.7959224
0
ARC
8
DEFAULT_255_1_234
10
17.7477771
20
192.3067721
40
1.1862365
50
357.5871873
51
359.2677531
0
LINE
8
DEFAULT_255_1_234
10
20.0061537
20
192.5245327
11
20.0061537
21
192.3317709
0
LINE
8
DEFAULT_255_1_234
10
19.268037
20
192.3116916
11
19.268037
21
192.5100755
0
LINE
8
DEFAULT_255_1_234
10
19.8575666
20
192.2916123
11
19.8575666
21
192.5349739
0
LINE
8
DEFAULT_255_1_234
10
19.4166241
20
192.5462184
11
19.4166241
21
192.3084789
0
ARC
8
DEFAULT_255_1_234
10
18.7814427
20
192.3268805
40
1.2247208
50
353.8441951
51
0.2287902
0
ARC
8
DEFAULT_255_1_234
10
19.245393
20
192.2750806
40
0.7578929
50
344.4934747
51
353.9765454
0
ARC
8
DEFAULT_255_1_234
10
19.5446521
20
192.1899981
40
0.4467846
50
329.2803592
51
344.7472793
0
ARC
8
DEFAULT_255_1_234
10
19.6439345
20
192.1355018
40
0.3336173
50
324.9352394
51
328.6160465
0
ARC
8
DEFAULT_255_1_234
10
19.6816454
20
192.1091427
40
0.2876076
50
280.580143
51
324.9173126
0
ARC
8
DEFAULT_255_1_234
10
19.6415247
20
192.2762099
40
0.4592847
50
269.5977311
51
281.6734359
0
ARC
8
DEFAULT_255_1_234
10
19.6343152
20
192.2642173
40
0.4472986
50
256.6228859
51
270.51044
0
ARC
8
DEFAULT_255_1_234
10
19.594113
20
192.1093877
40
0.2873874
50
215.8618325
51
257.2788573
0
ARC
8
DEFAULT_255_1_234
10
19.6962162
20
192.1778977
40
0.4102928
50
197.9693508
51
215.2623606
0
ARC
8
DEFAULT_255_1_234
10
19.9447277
20
192.2617709
40
0.6725652
50
187.8816417
51
198.2346507
0
ARC
8
DEFAULT_255_1_234
10
20.3405486
20
192.3189079
40
1.0724845
50
180.8976217
51
188.0055519
0
ARC
8
DEFAULT_255_1_234
10
20.6205674
20
192.3292777
40
1.3526448
50
180.7449369
51
181.1510016
0
ARC
8
DEFAULT_255_1_234
10
20.4628403
20
192.5149042
40
1.1948131
50
173.7675579
51
180.231553
0
ARC
8
DEFAULT_255_1_234
10
20.0110549
20
192.5659666
40
0.7401564
50
164.3058563
51
173.9002247
0
ARC
8
DEFAULT_255_1_234
10
19.7198618
20
192.6498656
40
0.4371288
50
148.7922025
51
164.568378
0
ARC
8
DEFAULT_255_1_234
10
19.624707
20
192.7029929
40
0.3282386
50
144.5883898
51
148.1176286
0
ARC
8
DEFAULT_255_1_234
10
19.5903968
20
192.7269315
40
0.2864044
50
101.6440918
51
144.514236
0
ARC
8
DEFAULT_255_1_234
10
19.6329035
20
192.5580069
40
0.4604934
50
89.5284041
51
102.5819763
0
ARC
8
DEFAULT_255_1_234
10
19.6408123
20
192.5541018
40
0.464401
50
77.0437873
51
90.5081339
0
ARC
8
DEFAULT_255_1_234
10
19.6810125
20
192.7183615
40
0.2953195
50
48.2778575
51
77.4994676
0
ARC
8
DEFAULT_255_1_234
10
19.6882756
20
192.7312746
40
0.2808655
50
36.3142134
51
47.6305865
0
ARC
8
DEFAULT_255_1_234
10
19.6014063
20
192.6727515
40
0.3855453
50
18.2931786
51
35.6769206
0
ARC
8
DEFAULT_255_1_234
10
19.3470822
20
192.5854593
40
0.654423
50
8.024666
51
18.5605216
0
ARC
8
DEFAULT_255_1_234
10
18.9307742
20
192.5239792
40
1.0752407
50
1.1274072
51
8.1718305
0
ARC
8
DEFAULT_255_1_234
10
18.6071932
20
192.5112885
40
1.3990231
50
0.5424119
51
1.3863029
0
ARC
8
DEFAULT_255_1_234
10
18.789331
20
192.5385342
40
1.0682415
50
359.8090433
51
4.9407866
0
ARC
8
DEFAULT_255_1_234
10
19.2103324
20
192.5761113
40
0.6455691
50
4.8362157
51
12.2904523
0
ARC
8
DEFAULT_255_1_234
10
19.4858439
20
192.6374965
40
0.3633074
50
12.0805627
51
23.8173984
0
ARC
8
DEFAULT_255_1_234
10
19.6032144
20
192.6871919
40
0.2358723
50
24.2871213
51
31.3935614
0
ARC
8
DEFAULT_255_1_234
10
19.6556841
20
192.7215233
40
0.1732111
50
30.7407893
51
82.4657128
0
ARC
8
DEFAULT_255_1_234
10
19.6376976
20
192.6331691
40
0.263235
50
81.1060089
51
90.2184952
0
ARC
8
DEFAULT_255_1_234
10
19.6341275
20
192.6589924
40
0.2374236
50
89.3806855
51
105.6762551
0
ARC
8
DEFAULT_255_1_234
10
19.6157905
20
192.7256567
40
0.1682847
50
105.7981136
51
149.7388061
0
ARC
8
DEFAULT_255_1_234
10
19.7221984
20
192.661695
40
0.2924306
50
149.4208916
51
163.6286378
0
ARC
8
DEFAULT_255_1_234
10
19.9312872
20
192.597925
40
0.5110213
50
163.3763315
51
172.1410975
0
ARC
8
DEFAULT_255_1_234
10
20.2613591
20
192.5506518
40
0.8444586
50
172.0259487
51
178.0703232
0
ARC
8
DEFAULT_255_1_234
10
20.564368
20
192.5362906
40
1.1477868
50
177.8631668
51
179.5044149
0
ARC
8
DEFAULT_255_1_234
10
20.4571085
20
192.3048389
40
1.0404907
50
179.7995573
51
185.2460446
0
ARC
8
DEFAULT_255_1_234
10
20.0528124
20
192.2665513
40
0.6343885
50
185.1411642
51
193.0079639
0
ARC
8
DEFAULT_255_1_234
10
19.7884596
20
192.2040641
40
0.3627568
50
192.7897626
51
205.2507664
0
ARC
8
DEFAULT_255_1_234
10
19.6838143
20
192.1573415
40
0.2481908
50
205.8005384
51
211.2537509
0
ARC
8
DEFAULT_255_1_234
10
19.6314584
20
192.122258
40
0.1852521
50
210.3789793
51
238.4008143
0
ARC
8
DEFAULT_255_1_234
10
19.6295106
20
192.1269376
40
0.1882621
50
239.6520629
51
265.9793761
0
ARC
8
DEFAULT_255_1_234
10
19.6380306
20
192.1941427
40
0.2559272
50
265.1315437
51
270.060332
0
ARC
8
DEFAULT_255_1_234
10
19.6409085
20
192.1617534
40
0.2235528
50
269.3314664
51
287.2178029
0
ARC
8
DEFAULT_255_1_234
10
19.6546937
20
192.1114279
40
0.1714108
50
287.7958004
51
329.080874
0
ARC
8
DEFAULT_255_1_234
10
19.5589394
20
192.171193
40
0.2842745
50
328.6634704
51
343.3325132
0
ARC
8
DEFAULT_255_1_234
10
19.3416414
20
192.2388863
40
0.5118644
50
343.0499468
51
351.9393422
0
ARC
8
DEFAULT_255_1_234
10
18.9949714
20
192.2899949
40
0.8622784
50
351.8069023
51
357.7959224
0
ARC
8
DEFAULT_255_1_234
10
18.671427
20
192.3067721
40
1.1862365
50
357.5871873
51
359.2677531
0
LINE
8
DEFAULT_255_2_778
10
9.3927417
20
190.3676328
11
10.7156417
21
190.3676328
0
LINE
8
DEFAULT_255_2_778
10
10.7156417
20
190.3676328
11
10.7156417
21
174.1619328
0
LINE
8
DEFAULT_255_2_778
10
10.7156417
20
169.5317328
11
10.7156417
21
153.3259328
0
LINE
8
DEFAULT_255_2_778
10
10.7156417
20
153.3259328
11
9.3927417
21
153.3259328
0
LINE
8
DEFAULT_255_2_778
10
9.3926834
20
174.1619041
11
12.0384834
21
174.1619041
0
LINE
8
DEFAULT_255_2_778
10
12.0384834
20
174.1619041
11
12.0384834
21
169.5317041
0
LINE
8
DEFAULT_255_2_778
10
12.0384834
20
169.5317041
11
9.3926834
21
169.5317041
0
LINE
8
DEFAULT_255_2_778
10
9.3926834
20
169.5317041
11
9.3926834
21
174.1619041
0
LINE
8
DEFAULT_255_2_778
10
10.1865
20
169.9946833
11
10.1865
21
173.6988833
0
LINE
8
DEFAULT_255_2_778
10
9.9219167
20
173.0044656
11
10.1865167
21
173.6989656
0
LINE
8
DEFAULT_255_2_778
10
10.1865167
20
173.6989656
11
10.4511167
21
173.0044656
0
LINE
8
DEFAULT_255_2_778
10
10.4511167
20
173.0044656
11
9.9219167
21
173.0044656
0
LINE
8
DEFAULT_255_2_778
10
11.2448
20
173.6988833
11
11.2448
21
169.9946833
0
LINE
8
DEFAULT_255_2_778
10
10.9802167
20
170.6892656
11
11.2448167
21
169.9947656
0
LINE
8
DEFAULT_255_2_778
10
11.2448167
20
169.9947656
11
11.5094167
21
170.6892656
0
LINE
8
DEFAULT_255_2_778
10
11.5094167
20
170.6892656
11
10.9802167
21
170.6892656
0
LINE
8
DEFAULT_255_2_778
10
9.3927417
20
95.1176644
11
10.7156417
21
95.1176644
0
LINE
8
DEFAULT_255_2_778
10
10.7156417
20
95.1176644
11
10.7156417
21
78.9119644
0
LINE
8
DEFAULT_255_2_778
10
9.3926834
20
78.9119041
11
12.0384834
21
78.9119041
0
LINE
8
DEFAULT_255_2_778
10
12.0384834
20
78.9119041
11
12.0384834
21
74.2817041
0
LINE
8
DEFAULT_255_2_778
10
12.0384834
20
74.2817041
11
9.3926834
21
74.2817041
0
LINE
8
DEFAULT_255_2_778
10
9.3926834
20
74.2817041
11
9.3926834
21
78.9119041
0
LINE
8
DEFAULT_255_2_778
10
10.1865
20
74.7446833
11
10.1865
21
78.4488833
0
LINE
8
DEFAULT_255_2_778
10
9.9219167
20
77.7544656
11
10.1865167
21
78.4489656
0
LINE
8
DEFAULT_255_2_778
10
10.1865167
20
78.4489656
11
10.4511167
21
77.7544656
0
LINE
8
DEFAULT_255_2_778
10
10.4511167
20
77.7544656
11
9.9219167
21
77.7544656
0
LINE
8
DEFAULT_255_2_778
10
11.2448
20
78.4488833
11
11.2448
21
74.7446833
0
LINE
8
DEFAULT_255_2_778
10
10.9802167
20
75.4392656
11
11.2448167
21
74.7447656
0
LINE
8
DEFAULT_255_2_778
10
11.2448167
20
74.7447656
11
11.5094167
21
75.4392656
0
LINE
8
DEFAULT_255_2_778
10
11.5094167
20
75.4392656
11
10.9802167
21
75.4392656
0
LINE
8
DEFAULT_255_2_778
10
10.7156417
20
74.2817322
11
10.7156417
21
58.0759322
0
LINE
8
DEFAULT_255_2_778
10
10.7156417
20
58.0759322
11
9.3927417
21
58.0759322
0
LINE
8
DEFAULT_255_2_778
10
9.3927417
20
142.7426322
11
10.7156417
21
142.7426322
0
LINE
8
DEFAULT_255_2_778
10
10.7156417
20
142.7426322
11
10.7156417
21
126.5369322
0
LINE
8
DEFAULT_255_2_778
10
9.3926834
20
126.5369041
11
12.0384834
21
126.5369041
0
LINE
8
DEFAULT_255_2_778
10
12.0384834
20
126.5369041
11
12.0384834
21
121.9067041
0
LINE
8
DEFAULT_255_2_778
10
12.0384834
20
121.9067041
11
9.3926834
21
121.9067041
0
LINE
8
DEFAULT_255_2_778
10
9.3926834
20
121.9067041
11
9.3926834
21
126.5369041
0
LINE
8
DEFAULT_255_2_778
10
10.1865
20
122.3696833
11
10.1865
21
126.0738833
0
LINE
8
DEFAULT_255_2_778
10
9.9219167
20
125.3794656
11
10.1865167
21
126.0739656
0
LINE
8
DEFAULT_255_2_778
10
10.1865167
20
126.0739656
11
10.4511167
21
125.3794656
0
LINE
8
DEFAULT_255_2_778
10
10.4511167
20
125.3794656
11
9.9219167
21
125.3794656
0
LINE
8
DEFAULT_255_2_778
10
11.2448
20
126.0738833
11
11.2448
21
122.3696833
0
LINE
8
DEFAULT_255_2_778
10
10.9802167
20
123.0642656
11
11.2448167
21
122.3697656
0
LINE
8
DEFAULT_255_2_778
10
11.2448167
20
122.3697656
11
11.5094167
21
123.0642656
0
LINE
8
DEFAULT_255_2_778
10
11.5094167
20
123.0642656
11
10.9802167
21
123.0642656
0
LINE
8
DEFAULT_255_2_778
10
10.7156417
20
121.9066946
11
10.7156417
21
105.7009946
0
LINE
8
DEFAULT_255_2_778
10
10.7156417
20
105.7009946
11
9.3927417
21
105.7009946
0
LINE
8
DEFAULT_255_2_778
10
9.3927417
20
47.4925946
11
10.7156417
21
47.4925946
0
LINE
8
DEFAULT_255_2_778
10
10.7156417
20
47.4925946
11
10.7156417
21
31.2868946
0
LINE
8
DEFAULT_255_2_778
10
9.3926834
20
31.2869041
11
12.0384834
21
31.2869041
0
LINE
8
DEFAULT_255_2_778
10
12.0384834
20
31.2869041
11
12.0384834
21
26.6567041
0
LINE
8
DEFAULT_255_2_778
10
12.0384834
20
26.6567041
11
9.3926834
21
26.6567041
0
LINE
8
DEFAULT_255_2_778
10
9.3926834
20
26.6567041
11
9.3926834
21
31.2869041
0
LINE
8
DEFAULT_255_2_778
10
10.1865
20
27.1196833
11
10.1865
21
30.8238833
0
LINE
8
DEFAULT_255_2_778
10
9.9219167
20
30.1294656
11
10.1865167
21
30.8239656
0
LINE
8
DEFAULT_255_2_778
10
10.1865167
20
30.8239656
11
10.4511167
21
30.1294656
0
LINE
8
DEFAULT_255_2_778
10
10.4511167
20
30.1294656
11
9.9219167
21
30.1294656
0
LINE
8
DEFAULT_255_2_778
10
11.2448
20
30.8238833
11
11.2448
21
27.1196833
0
LINE
8
DEFAULT_255_2_778
10
10.9802167
20
27.8142656
11
11.2448167
21
27.1197656
0
LINE
8
DEFAULT_255_2_778
10
11.2448167
20
27.1197656
11
11.5094167
21
27.8142656
0
LINE
8
DEFAULT_255_2_778
10
11.5094167
20
27.8142656
11
10.9802167
21
27.8142656
0
LINE
8
DEFAULT_255_2_778
10
10.7156417
20
26.6567644
11
10.7156417
21
10.4510644
0
LINE
8
DEFAULT_255_2_778
10
10.7156417
20
10.4510644
11
9.3927417
21
10.4510644
0
LINE
8
DEFAULT_255_1_234
10
4.7333817
20
190.5402327
11
4.7333817
21
190.3474709
0
LINE
8
DEFAULT_255_1_234
10
3.995265
20
190.3273916
11
3.995265
21
190.5257755
0
LINE
8
DEFAULT_255_1_234
10
4.5847946
20
190.3073123
11
4.5847946
21
190.5506739
0
LINE
8
DEFAULT_255_1_234
10
4.1438521
20
190.5619184
11
4.1438521
21
190.3241789
0
ARC
8
DEFAULT_255_1_234
10
3.5086707
20
190.3425805
40
1.2247208
50
353.8441951
51
0.2287902
0
ARC
8
DEFAULT_255_1_234
10
3.9726211
20
190.2907806
40
0.7578929
50
344.4934747
51
353.9765454
0
ARC
8
DEFAULT_255_1_234
10
4.2718801
20
190.2056981
40
0.4467846
50
329.2803592
51
344.7472793
0
ARC
8
DEFAULT_255_1_234
10
4.3711626
20
190.1512018
40
0.3336173
50
324.9352394
51
328.6160465
0
ARC
8
DEFAULT_255_1_234
10
4.4088734
20
190.1248427
40
0.2876076
50
280.580143
51
324.9173126
0
ARC
8
DEFAULT_255_1_234
10
4.3687527
20
190.2919099
40
0.4592847
50
269.5977311
51
281.6734359
0
ARC
8
DEFAULT_255_1_234
10
4.3615433
20
190.2799173
40
0.4472986
50
256.6228859
51
270.51044
0
ARC
8
DEFAULT_255_1_234
10
4.321341
20
190.1250877
40
0.2873874
50
215.8618325
51
257.2788573
0
ARC
8
DEFAULT_255_1_234
10
4.4234442
20
190.1935977
40
0.4102928
50
197.9693508
51
215.2623606
0
ARC
8
DEFAULT_255_1_234
10
4.6719558
20
190.2774709
40
0.6725652
50
187.8816417
51
198.2346507
0
ARC
8
DEFAULT_255_1_234
10
5.0677766
20
190.3346079
40
1.0724845
50
180.8976217
51
188.0055519
0
ARC
8
DEFAULT_255_1_234
10
5.3477954
20
190.3449777
40
1.3526448
50
180.7449369
51
181.1510016
0
ARC
8
DEFAULT_255_1_234
10
5.1900683
20
190.5306042
40
1.1948131
50
173.7675579
51
180.231553
0
ARC
8
DEFAULT_255_1_234
10
4.738283
20
190.5816666
40
0.7401564
50
164.3058563
51
173.9002247
0
ARC
8
DEFAULT_255_1_234
10
4.4470899
20
190.6655656
40
0.4371288
50
148.7922025
51
164.568378
0
ARC
8
DEFAULT_255_1_234
10
4.3519351
20
190.7186929
40
0.3282386
50
144.5883898
51
148.1176286
0
ARC
8
DEFAULT_255_1_234
10
4.3176249
20
190.7426315
40
0.2864044
50
101.6440918
51
144.514236
0
ARC
8
DEFAULT_255_1_234
10
4.3601315
20
190.5737069
40
0.4604934
50
89.5284041
51
102.5819763
0
ARC
8
DEFAULT_255_1_234
10
4.3680403
20
190.5698018
40
0.464401
50
77.0437873
51
90.5081339
0
ARC
8
DEFAULT_255_1_234
10
4.4082405
20
190.7340615
40
0.2953195
50
48.2778575
51
77.4994676
0
ARC
8
DEFAULT_255_1_234
10
4.4155036
20
190.7469746
40
0.2808655
50
36.3142134
51
47.6305865
0
ARC
8
DEFAULT_255_1_234
10
4.3286343
20
190.6884515
40
0.3855453
50
18.2931786
51
35.6769206
0
ARC
8
DEFAULT_255_1_234
10
4.0743102
20
190.6011593
40
0.654423
50
8.024666
51
18.5605216
0
ARC
8
DEFAULT_255_1_234
10
3.6580022
20
190.5396792
40
1.0752407
50
1.1274072
51
8.1718305
0
ARC
8
DEFAULT_255_1_234
10
3.3344213
20
190.5269885
40
1.3990231
50
0.5424119
51
1.3863029
0
ARC
8
DEFAULT_255_1_234
10
3.516559
20
190.5542342
40
1.0682415
50
359.8090433
51
4.9407866
0
ARC
8
DEFAULT_255_1_234
10
3.9375604
20
190.5918113
40
0.6455691
50
4.8362157
51
12.2904523
0
ARC
8
DEFAULT_255_1_234
10
4.2130719
20
190.6531965
40
0.3633074
50
12.0805627
51
23.8173984
0
ARC
8
DEFAULT_255_1_234
10
4.3304425
20
190.7028919
40
0.2358723
50
24.2871213
51
31.3935614
0
ARC
8
DEFAULT_255_1_234
10
4.3829122
20
190.7372233
40
0.1732111
50
30.7407893
51
82.4657128
0
ARC
8
DEFAULT_255_1_234
10
4.3649256
20
190.6488691
40
0.263235
50
81.1060089
51
90.2184952
0
ARC
8
DEFAULT_255_1_234
10
4.3613555
20
190.6746924
40
0.2374236
50
89.3806855
51
105.6762551
0
ARC
8
DEFAULT_255_1_234
10
4.3430186
20
190.7413567
40
0.1682847
50
105.7981136
51
149.7388061
0
ARC
8
DEFAULT_255_1_234
10
4.4494264
20
190.677395
40
0.2924306
50
149.4208916
51
163.6286378
0
ARC
8
DEFAULT_255_1_234
10
4.6585152
20
190.613625
40
0.5110213
50
163.3763315
51
172.1410975
0
ARC
8
DEFAULT_255_1_234
10
4.9885871
20
190.5663518
40
0.8444586
50
172.0259487
51
178.0703232
0
ARC
8
DEFAULT_255_1_234
10
5.291596
20
190.5519906
40
1.1477868
50
177.8631668
51
179.5044149
0
ARC
8
DEFAULT_255_1_234
10
5.1843365
20
190.3205389
40
1.0404907
50
179.7995573
51
185.2460446
0
ARC
8
DEFAULT_255_1_234
10
4.7800404
20
190.2822513
40
0.6343885
50
185.1411642
51
193.0079639
0
ARC
8
DEFAULT_255_1_234
10
4.5156877
20
190.2197641
40
0.3627568
50
192.7897626
51
205.2507664
0
ARC
8
DEFAULT_255_1_234
10
4.4110424
20
190.1730415
40
0.2481908
50
205.8005384
51
211.2537509
0
ARC
8
DEFAULT_255_1_234
10
4.3586864
20
190.137958
40
0.1852521
50
210.3789793
51
238.4008143
0
ARC
8
DEFAULT_255_1_234
10
4.3567386
20
190.1426376
40
0.1882621
50
239.6520629
51
265.9793761
0
ARC
8
DEFAULT_255_1_234
10
4.3652586
20
190.2098427
40
0.2559272
50
265.1315437
51
270.060332
0
ARC
8
DEFAULT_255_1_234
10
4.3681365
20
190.1774534
40
0.2235528
50
269.3314664
51
287.2178029
0
ARC
8
DEFAULT_255_1_234
10
4.3819217
20
190.1271279
40
0.1714108
50
287.7958004
51
329.080874
0
ARC
8
DEFAULT_255_1_234
10
4.2861674
20
190.186893
40
0.2842745
50
328.6634704
51
343.3325132
0
ARC
8
DEFAULT_255_1_234
10
4.0688694
20
190.2545863
40
0.5118644
50
343.0499468
51
351.9393422
0
ARC
8
DEFAULT_255_1_234
10
3.7221994
20
190.3056949
40
0.8622784
50
351.8069023
51
357.7959224
0
ARC
8
DEFAULT_255_1_234
10
3.398655
20
190.3224721
40
1.1862365
50
357.5871873
51
359.2677531
0
LINE
8
DEFAULT_255_1_234
10
4.7992628
20
5.8097211
11
4.7992628
21
5.033052
0
LINE
8
DEFAULT_255_1_234
10
4.7992628
20
5.033052
11
4.9615039
21
5.033052
0
LINE
8
DEFAULT_255_1_234
10
4.9615039
20
5.033052
11
4.9615039
21
4.9117728
0
LINE
8
DEFAULT_255_1_234
10
4.9615039
20
4.9117728
11
4.7992628
21
4.9117728
0
LINE
8
DEFAULT_255_1_234
10
4.7992628
20
4.9117728
11
4.7992628
21
4.6403
0
LINE
8
DEFAULT_255_1_234
10
4.7992628
20
4.6403
11
4.6498725
21
4.6403
0
LINE
8
DEFAULT_255_1_234
10
4.6498725
20
4.6403
11
4.6498725
21
4.9117728
0
LINE
8
DEFAULT_255_1_234
10
4.6498725
20
4.9117728
11
4.1173682
21
4.9117728
0
LINE
8
DEFAULT_255_1_234
10
4.1173682
20
4.9117728
11
4.1173682
21
4.9993187
0
LINE
8
DEFAULT_255_1_234
10
4.1173682
20
4.9993187
11
4.6410375
21
5.8097211
0
LINE
8
DEFAULT_255_1_234
10
4.6410375
20
5.8097211
11
4.7992628
21
5.8097211
0
LINE
8
DEFAULT_255_1_234
10
4.6322026
20
5.5743912
11
4.2860347
21
5.033052
0
LINE
8
DEFAULT_255_1_234
10
4.2860347
20
5.033052
11
4.6498725
21
5.033052
0
LINE
8
DEFAULT_255_1_234
10
4.6498725
20
5.033052
11
4.6498725
21
5.6065181
0
LINE
8
DEFAULT_255_1_234
10
4.6498725
20
5.6065181
11
4.6322026
21
5.5743912
0
LINE
8
DEFAULT_255_1_234
10
6.0329378
20
5.8097211
11
6.0329378
21
4.6403
0
LINE
8
DEFAULT_255_1_234
10
6.0329378
20
4.6403
11
5.8779252
21
4.6403
0
LINE
8
DEFAULT_255_1_234
10
5.8779252
20
4.6403
11
5.2891988
21
5.541461
0
LINE
8
DEFAULT_255_1_234
10
5.2891988
20
5.541461
11
5.2891988
21
4.6403
0
LINE
8
DEFAULT_255_1_234
10
5.2891988
20
4.6403
11
5.1341863
21
4.6403
0
LINE
8
DEFAULT_255_1_234
10
5.1341863
20
4.6403
11
5.1341863
21
5.8097211
0
LINE
8
DEFAULT_255_1_234
10
5.1341863
20
5.8097211
11
5.2891988
21
5.8097211
0
LINE
8
DEFAULT_255_1_234
10
5.2891988
20
5.8097211
11
5.8795316
21
4.9045442
0
LINE
8
DEFAULT_255_1_234
10
5.8795316
20
4.9045442
11
5.8795316
21
5.8097211
0
LINE
8
DEFAULT_255_1_234
10
5.8795316
20
5.8097211
11
6.0329378
21
5.8097211
0
LINE
8
DEFAULT_255_1_234
10
4.7550674
20
11.1014211
11
4.7550674
21
11.017891
0
LINE
8
DEFAULT_255_1_234
10
4.7550674
20
11.017891
11
4.2707536
21
9.932
0
LINE
8
DEFAULT_255_1_234
10
4.2707536
20
9.932
11
4.1149379
21
9.932
0
LINE
8
DEFAULT_255_1_234
10
4.1149379
20
9.932
11
4.5976454
21
10.9793387
0
LINE
8
DEFAULT_255_1_234
10
4.5976454
20
10.9793387
11
3.9647444
21
10.9793387
0
LINE
8
DEFAULT_255_1_234
10
3.9647444
20
10.9793387
11
3.9647444
21
11.1014211
0
LINE
8
DEFAULT_255_1_234
10
3.9647444
20
11.1014211
11
4.7550674
21
11.1014211
0
LINE
8
DEFAULT_255_1_234
10
4.5566835
20
16.3939243
11
4.5831882
21
16.3939243
0
LINE
8
DEFAULT_255_1_234
10
4.5831882
20
16.3939243
11
4.5831882
21
16.267826
0
LINE
8
DEFAULT_255_1_234
10
4.5831882
20
16.267826
11
4.5558803
21
16.267826
0
LINE
8
DEFAULT_255_1_234
10
4.0089189
20
15.6686583
11
4.0089189
21
15.7256836
0
LINE
8
DEFAULT_255_1_234
10
4.1583093
20
15.7064075
11
4.1583093
21
15.6517917
0
ARC
8
DEFAULT_255_1_234
10
4.5611151
20
15.7680455
40
0.4998079
50
90.6001036
51
104.514704
0
ARC
8
DEFAULT_255_1_234
10
4.5222667
20
15.9125131
40
0.3502176
50
104.2855254
51
133.862935
0
ARC
8
DEFAULT_255_1_234
10
4.5386424
20
15.901683
40
0.3693984
50
134.5302688
51
161.6210873
0
ARC
8
DEFAULT_255_1_234
10
4.7039613
20
15.8433895
40
0.5446739
50
161.2849839
51
174.2076652
0
ARC
8
DEFAULT_255_1_234
10
4.844655
20
15.8239787
40
0.6866274
50
173.7810589
51
174.9254635
0
ARC
8
DEFAULT_255_1_234
10
4.3896382
20
15.6856839
40
0.3033419
50
95.8330959
51
138.9954921
0
ARC
8
DEFAULT_255_1_234
10
4.4119738
20
15.5578375
40
0.4328947
50
89.8753725
51
97.0544009
0
ARC
8
DEFAULT_255_1_234
10
4.4167204
20
15.6413748
40
0.3493769
50
71.6407809
51
90.6240094
0
ARC
8
DEFAULT_255_1_234
10
4.4317777
20
15.6968082
40
0.2920396
50
39.6367836
51
71.019018
0
ARC
8
DEFAULT_255_1_234
10
4.368125
20
15.6417998
40
0.3761538
50
10.658731
51
39.9043955
0
ARC
8
DEFAULT_255_1_234
10
4.2133333
20
15.6081686
40
0.5345136
50
359.682601
51
11.132623
0
ARC
8
DEFAULT_255_1_234
10
4.2093464
20
15.601101
40
0.5385081
50
347.2486944
51
0.4369317
0
ARC
8
DEFAULT_255_1_234
10
4.3760941
20
15.5609807
40
0.3670249
50
318.1409698
51
347.6118597
0
ARC
8
DEFAULT_255_1_234
10
4.4085934
20
15.5342702
40
0.3250007
50
275.6342139
51
317.8248465
0
ARC
8
DEFAULT_255_1_234
10
4.3865045
20
15.6642219
40
0.4565864
50
269.8874292
51
276.7917694
0
ARC
8
DEFAULT_255_1_234
10
4.3810116
20
15.5616743
40
0.3540676
50
246.9140195
51
270.7437342
0
ARC
8
DEFAULT_255_1_234
10
4.3816506
20
15.5474384
40
0.3412781
50
218.1665114
51
245.878116
0
ARC
8
DEFAULT_255_1_234
10
4.4695967
20
15.6210279
40
0.455911
50
191.4115814
51
218.6077802
0
ARC
8
DEFAULT_255_1_234
10
4.6634056
20
15.6644833
40
0.6545001
50
179.6345085
51
191.7836486
0
ARC
8
DEFAULT_255_1_234
10
5.2216393
20
15.7323697
40
1.2127388
50
171.4525249
51
180.3158839
0
ARC
8
DEFAULT_255_1_234
10
4.7821269
20
15.8007608
40
0.7679464
50
157.9802646
51
171.6246686
0
ARC
8
DEFAULT_255_1_234
10
4.560729
20
15.8890421
40
0.5296008
50
141.4298019
51
157.854097
0
ARC
8
DEFAULT_255_1_234
10
4.496561
20
15.9344381
40
0.4511509
50
102.8715806
51
140.8564722
0
ARC
8
DEFAULT_255_1_234
10
4.5613226
20
15.6904552
40
0.7034845
50
90.3778349
51
103.5869322
0
ARC
8
DEFAULT_255_1_234
10
4.3875002
20
15.629973
40
0.2370698
50
89.8751008
51
126.2071704
0
ARC
8
DEFAULT_255_1_234
10
4.3920792
20
15.6145303
40
0.2522934
50
124.9745049
51
144.895901
0
ARC
8
DEFAULT_255_1_234
10
4.3744982
20
15.628856
40
0.2296779
50
145.2974905
51
160.2660252
0
ARC
8
DEFAULT_255_1_234
10
4.6817521
20
15.6486071
40
0.5234525
50
179.6514266
51
190.2855912
0
ARC
8
DEFAULT_255_1_234
10
4.5123658
20
15.6166786
40
0.3510893
50
190.0945431
51
207.5098196
0
ARC
8
DEFAULT_255_1_234
10
4.4557928
20
15.5897623
40
0.288489
50
207.9583163
51
216.3251085
0
ARC
8
DEFAULT_255_1_234
10
4.4218036
20
15.5618105
40
0.2445587
50
215.7661442
51
232.5456785
0
ARC
8
DEFAULT_255_1_234
10
4.3835019
20
15.5131482
40
0.1826382
50
232.8005391
51
270.6605633
0
ARC
8
DEFAULT_255_1_234
10
4.388072
20
15.5495612
40
0.2190529
50
269.35537
51
288.4744281
0
ARC
8
DEFAULT_255_1_234
10
4.3973617
20
15.5146118
40
0.1829749
50
289.1833337
51
322.9683818
0
ARC
8
DEFAULT_255_1_234
10
4.3362139
20
15.5628391
40
0.2608399
50
322.6007884
51
346.5182367
0
ARC
8
DEFAULT_255_1_234
10
4.2204735
20
15.5923616
40
0.3802777
50
346.2582162
51
358.7741648
0
ARC
8
DEFAULT_255_1_234
10
4.1186404
20
15.5978965
40
0.4822176
50
358.3755224
51
0.0098023
0
ARC
8
DEFAULT_255_1_234
10
4.1942591
20
15.6006657
40
0.4066078
50
359.6214041
51
11.2839074
0
ARC
8
DEFAULT_255_1_234
10
4.3219738
20
15.6273066
40
0.2761514
50
11.0482309
51
31.8146458
0
ARC
8
DEFAULT_255_1_234
10
4.3528781
20
15.6440584
40
0.2410679
50
32.3035391
51
38.082671
0
ARC
8
DEFAULT_255_1_234
10
4.3949441
20
15.6821662
40
0.1844966
50
36.825067
51
85.7415724
0
ARC
8
DEFAULT_255_1_234
10
4.3882274
20
15.6321301
40
0.2349122
50
85.0140713
51
90.0513278
0
LINE
8
DEFAULT_255_1_234
10
4.1872235
20
21.0710963
11
4.0683538
21
21.1016169
0
LINE
8
DEFAULT_255_1_234
10
4.0683538
20
21.1016169
11
4.1277887
21
21.6847211
0
LINE
8
DEFAULT_255_1_234
10
4.1277887
20
21.6847211
11
4.7269563
21
21.6847211
0
LINE
8
DEFAULT_255_1_234
10
4.7269563
20
21.6847211
11
4.7269563
21
21.5473784
0
LINE
8
DEFAULT_255_1_234
10
4.7269563
20
21.5473784
11
4.253887
21
21.5473784
0
LINE
8
DEFAULT_255_1_234
10
4.253887
20
21.5473784
11
4.2185473
21
21.2285184
0
LINE
8
DEFAULT_255_1_234
10
4.0265888
20
20.8229156
11
4.1671442
21
20.8229156
0
LINE
8
DEFAULT_255_1_234
10
4.2265791
20
21.1032232
11
4.1872235
21
21.0710963
0
ARC
8
DEFAULT_255_1_234
10
4.4040257
20
20.910523
40
0.3681349
50
93.7182161
51
120.2538958
0
ARC
8
DEFAULT_255_1_234
10
4.413452
20
20.8297394
40
0.449379
50
89.9660152
51
94.2496022
0
ARC
8
DEFAULT_255_1_234
10
4.4175254
20
20.8886549
40
0.390482
50
73.8043271
51
90.5585896
0
ARC
8
DEFAULT_255_1_234
10
4.4410151
20
20.9744602
40
0.3015334
50
41.3071453
51
73.5430202
0
ARC
8
DEFAULT_255_1_234
10
4.3993978
20
20.9386324
40
0.3564457
50
13.5075983
51
41.2174222
0
ARC
8
DEFAULT_255_1_234
10
4.2352182
20
20.8956486
40
0.5261351
50
1.1331335
51
13.8829381
0
ARC
8
DEFAULT_255_1_234
10
4.0940551
20
20.8880665
40
0.6674378
50
359.9919444
51
1.544251
0
ARC
8
DEFAULT_255_1_234
10
4.2217377
20
20.883928
40
0.5397702
50
347.8572367
51
0.4293338
0
ARC
8
DEFAULT_255_1_234
10
4.3967695
20
20.8442736
40
0.3603188
50
323.673004
51
348.1672506
0
ARC
8
DEFAULT_255_1_234
10
4.4262203
20
20.8263168
40
0.3259678
50
316.8171152
51
323.1492751
0
ARC
8
DEFAULT_255_1_234
10
4.4323392
20
20.822646
40
0.3189975
50
281.8396411
51
316.5457803
0
ARC
8
DEFAULT_255_1_234
10
4.3947656
20
20.9781762
40
0.4789527
50
269.5770101
51
282.4214771
0
ARC
8
DEFAULT_255_1_234
10
4.3876467
20
20.9568125
40
0.45759
50
256.2427136
51
270.4486331
0
ARC
8
DEFAULT_255_1_234
10
4.357737
20
20.8368229
40
0.3339303
50
228.9023911
51
256.3314342
0
ARC
8
DEFAULT_255_1_234
10
4.3503602
20
20.8251746
40
0.32031
50
193.753695
51
228.5271154
0
ARC
8
DEFAULT_255_1_234
10
4.4741556
20
20.86148
40
0.4492253
50
184.924711
51
194.497588
0
ARC
8
DEFAULT_255_1_234
10
4.4934123
20
20.8650591
40
0.3289787
50
187.3600538
51
198.6732863
0
ARC
8
DEFAULT_255_1_234
10
4.3884417
20
20.8286674
40
0.217884
50
198.4451669
51
217.794479
0
ARC
8
DEFAULT_255_1_234
10
4.3588592
20
20.8077085
40
0.1816698
50
218.2887171
51
228.5612368
0
ARC
8
DEFAULT_255_1_234
10
4.3686379
20
20.8208963
40
0.1980329
50
228.9654866
51
258.1234728
0
ARC
8
DEFAULT_255_1_234
10
4.3892089
20
20.9089833
40
0.2884748
50
257.7258293
51
270.401361
0
ARC
8
DEFAULT_255_1_234
10
4.3936975
20
20.8644821
40
0.2439788
50
269.4204404
51
286.4209037
0
ARC
8
DEFAULT_255_1_234
10
4.4085463
20
20.8105657
40
0.1880666
50
286.7251356
51
320.600362
0
ARC
8
DEFAULT_255_1_234
10
4.3702288
20
20.8416595
40
0.2374121
50
320.6712579
51
344.5441685
0
ARC
8
DEFAULT_255_1_234
10
4.2545614
20
20.8756045
40
0.3579479
50
344.2412205
51
356.7357071
0
ARC
8
DEFAULT_255_1_234
10
4.1296763
20
20.8859444
40
0.4832297
50
356.3548756
51
0.0500261
0
ARC
8
DEFAULT_255_1_234
10
4.2633272
20
20.889065
40
0.3495889
50
359.5576869
51
12.953486
0
ARC
8
DEFAULT_255_1_234
10
4.3688169
20
20.9146434
40
0.2410532
50
12.6490276
51
41.6081334
0
ARC
8
DEFAULT_255_1_234
10
4.391854
20
20.9342321
40
0.2108218
50
41.7850273
51
85.9892764
0
ARC
8
DEFAULT_255_1_234
10
4.3795277
20
20.8529462
40
0.2928454
50
84.6957577
51
90.0676183
0
ARC
8
DEFAULT_255_1_234
10
4.3771761
20
20.7860716
40
0.3597255
50
89.6804936
51
99.1614436
0
ARC
8
DEFAULT_255_1_234
10
4.3566392
20
20.9088131
40
0.235281
50
98.9830931
51
113.8908934
0
ARC
8
DEFAULT_255_1_234
10
4.3336802
20
20.9629587
40
0.176479
50
114.1950727
51
127.3641004
0
LINE
8
DEFAULT_255_1_234
10
4.8389628
20
26.9764211
11
4.8389628
21
26.199752
0
LINE
8
DEFAULT_255_1_234
10
4.8389628
20
26.199752
11
5.0012039
21
26.199752
0
LINE
8
DEFAULT_255_1_234
10
5.0012039
20
26.199752
11
5.0012039
21
26.0784728
0
LINE
8
DEFAULT_255_1_234
10
5.0012039
20
26.0784728
11
4.8389628
21
26.0784728
0
LINE
8
DEFAULT_255_1_234
10
4.8389628
20
26.0784728
11
4.8389628
21
25.807
0
LINE
8
DEFAULT_255_1_234
10
4.8389628
20
25.807
11
4.6895725
21
25.807
0
LINE
8
DEFAULT_255_1_234
10
4.6895725
20
25.807
11
4.6895725
21
26.0784728
0
LINE
8
DEFAULT_255_1_234
10
4.6895725
20
26.0784728
11
4.1570682
21
26.0784728
0
LINE
8
DEFAULT_255_1_234
10
4.1570682
20
26.0784728
11
4.1570682
21
26.1660187
0
LINE
8
DEFAULT_255_1_234
10
4.1570682
20
26.1660187
11
4.6807375
21
26.9764211
0
LINE
8
DEFAULT_255_1_234
10
4.6807375
20
26.9764211
11
4.8389628
21
26.9764211
0
LINE
8
DEFAULT_255_1_234
10
4.6719026
20
26.7410912
11
4.3257347
21
26.199752
0
LINE
8
DEFAULT_255_1_234
10
4.3257347
20
26.199752
11
4.6895725
21
26.199752
0
LINE
8
DEFAULT_255_1_234
10
4.6895725
20
26.199752
11
4.6895725
21
26.7732181
0
LINE
8
DEFAULT_255_1_234
10
4.6895725
20
26.7732181
11
4.6719026
21
26.7410912
0
LINE
8
DEFAULT_255_1_234
10
4.2161378
20
31.6344169
11
4.2161378
21
31.7556962
0
LINE
8
DEFAULT_255_1_234
10
4.2161378
20
31.7556962
11
4.327779
21
31.7556962
0
LINE
8
DEFAULT_255_1_234
10
4.1374268
20
31.9613087
11
3.9888396
21
31.9613087
0
LINE
8
DEFAULT_255_1_234
10
3.9783983
20
31.4071188
11
4.1277887
21
31.4071188
0
LINE
8
DEFAULT_255_1_234
10
4.327779
20
31.6344169
11
4.2161378
21
31.6344169
0
ARC
8
DEFAULT_255_1_234
10
4.3248656
20
32.0949713
40
0.3392876
50
270.4919872
51
281.8951556
0
ARC
8
DEFAULT_255_1_234
10
4.3489918
20
31.9847702
40
0.2264817
50
281.6691735
51
301.2943132
0
ARC
8
DEFAULT_255_1_234
10
4.3660128
20
31.9536304
40
0.1910381
50
301.7833094
51
311.7545298
0
ARC
8
DEFAULT_255_1_234
10
4.3751704
20
31.9434748
40
0.1773635
50
311.7323931
51
354.2802411
0
ARC
8
DEFAULT_255_1_234
10
4.3025329
20
31.9559722
40
0.2509385
50
353.0937916
51
0.1181479
0
ARC
8
DEFAULT_255_1_234
10
4.2564114
20
31.9607386
40
0.2970898
50
359.1805295
51
15.0453146
0
ARC
8
DEFAULT_255_1_234
10
4.3909951
20
31.9999992
40
0.1569564
50
13.9577229
51
77.6713066
0
ARC
8
DEFAULT_255_1_234
10
4.352348
20
31.8614949
40
0.3006298
50
76.1116566
51
90.7026153
0
ARC
8
DEFAULT_255_1_234
10
4.3464318
20
31.8888545
40
0.2732568
50
89.5324876
51
103.531937
0
ARC
8
DEFAULT_255_1_234
10
4.3263762
20
31.9687884
40
0.1908508
50
103.2931773
51
133.5619022
0
ARC
8
DEFAULT_255_1_234
10
4.3219251
20
31.9747375
40
0.1834746
50
133.8349307
51
173.5344437
0
ARC
8
DEFAULT_255_1_234
10
4.3942294
20
31.9619213
40
0.2568033
50
172.5096846
51
180.1366907
0
ARC
8
DEFAULT_255_1_234
10
4.2991188
20
31.9653622
40
0.3103056
50
155.3484492
51
180.7484736
0
ARC
8
DEFAULT_255_1_234
10
4.2942277
20
31.9624846
40
0.3070957
50
131.5744599
51
154.4798489
0
ARC
8
DEFAULT_255_1_234
10
4.3255424
20
31.930831
40
0.3515643
50
96.9875458
51
131.9690667
0
ARC
8
DEFAULT_255_1_234
10
4.3474904
20
31.8062636
40
0.4779224
50
89.8596053
51
97.7825159
0
ARC
8
DEFAULT_255_1_234
10
4.3522967
20
31.7800616
40
0.5041361
50
78.3655447
51
90.4131539
0
ARC
8
DEFAULT_255_1_234
10
4.3880885
20
31.9459887
40
0.3344039
50
56.6229102
51
78.638727
0
ARC
8
DEFAULT_255_1_234
10
4.4095829
20
31.9835805
40
0.2912001
50
47.0253525
51
56.0854072
0
ARC
8
DEFAULT_255_1_234
10
4.4115609
20
31.9875223
40
0.2869704
50
10.9208013
51
46.7778124
0
ARC
8
DEFAULT_255_1_234
10
4.2751675
20
31.9559857
40
0.426899
50
359.6364486
51
11.6087304
0
ARC
8
DEFAULT_255_1_234
10
4.4586519
20
31.9544752
40
0.243409
50
332.3549906
51
359.7179418
0
ARC
8
DEFAULT_255_1_234
10
4.3936121
20
31.9853142
40
0.3153459
50
325.2333722
51
332.8745602
0
ARC
8
DEFAULT_255_1_234
10
4.4088744
20
31.9746828
40
0.2967456
50
292.9802137
51
325.2392345
0
ARC
8
DEFAULT_255_1_234
10
4.3814118
20
32.0280863
40
0.3566604
50
292.5402179
51
293.6924929
0
ARC
8
DEFAULT_255_1_234
10
4.4206714
20
31.3826091
40
0.3307468
50
57.6435486
51
72.8625112
0
ARC
8
DEFAULT_255_1_234
10
4.4561214
20
31.4400549
40
0.2632492
50
36.7248896
51
57.4697979
0
ARC
8
DEFAULT_255_1_234
10
4.4549847
20
31.441322
40
0.2634081
50
8.0545065
51
36.356114
0
ARC
8
DEFAULT_255_1_234
10
4.3687032
20
31.4258174
40
0.3510261
50
359.8320645
51
8.5869982
0
ARC
8
DEFAULT_255_1_234
10
4.3311808
20
31.4210101
40
0.3885653
50
343.9829931
51
0.5571613
0
ARC
8
DEFAULT_255_1_234
10
4.4198005
20
31.3967438
40
0.2966924
50
311.6359546
51
343.7651759
0
ARC
8
DEFAULT_255_1_234
10
4.3819574
20
31.4394102
40
0.3537231
50
279.7829875
51
311.6255694
0
ARC
8
DEFAULT_255_1_234
10
4.3518351
20
31.583128
40
0.5004971
50
269.7286406
51
280.3856417
0
ARC
8
DEFAULT_255_1_234
10
4.3456423
20
31.5789996
40
0.4963778
50
256.6828919
51
270.4412052
0
ARC
8
DEFAULT_255_1_234
10
4.3117719
20
31.4405394
40
0.3538406
50
229.4223008
51
256.8556159
0
ARC
8
DEFAULT_255_1_234
10
4.2703112
20
31.3938736
40
0.2914296
50
181.818294
51
229.6455059
0
ARC
8
DEFAULT_255_1_234
10
4.3743068
20
31.4069496
40
0.3959084
50
179.9755256
51
183.2323064
0
ARC
8
DEFAULT_255_1_234
10
4.3570814
20
31.4049037
40
0.2293034
50
179.4465117
51
196.2869258
0
ARC
8
DEFAULT_255_1_234
10
4.3083222
20
31.3915651
40
0.1787621
50
196.5661473
51
227.705904
0
ARC
8
DEFAULT_255_1_234
10
4.3247317
20
31.4099155
40
0.2033784
50
227.7652068
51
257.8762805
0
ARC
8
DEFAULT_255_1_234
10
4.3472287
20
31.5042156
40
0.3003081
50
257.4584385
51
270.426602
0
ARC
8
DEFAULT_255_1_234
10
4.3517853
20
31.5331996
40
0.329292
50
269.5962073
51
280.8789248
0
ARC
8
DEFAULT_255_1_234
10
4.3747382
20
31.4185685
40
0.2123908
50
280.6346389
51
299.8595945
0
ARC
8
DEFAULT_255_1_234
10
4.3938289
20
31.3823212
40
0.171457
50
300.3576302
51
314.5517981
0
ARC
8
DEFAULT_255_1_234
10
4.3855349
20
31.3883919
40
0.1816095
50
315.0728369
51
345.0431014
0
ARC
8
DEFAULT_255_1_234
10
4.2932163
20
31.4152841
40
0.2777492
50
344.5986631
51
357.9269593
0
ARC
8
DEFAULT_255_1_234
10
4.2036489
20
31.4214276
40
0.3674917
50
357.4748886
51
0.0231117
0
ARC
8
DEFAULT_255_1_234
10
4.3059599
20
31.4238679
40
0.2651907
50
359.5047933
51
13.4239635
0
ARC
8
DEFAULT_255_1_234
10
4.3926242
20
31.4460478
40
0.1757509
50
12.9498199
51
48.7551375
0
ARC
8
DEFAULT_255_1_234
10
4.3743976
20
31.42114
40
0.2065134
50
49.5088623
51
72.1836453
0
ARC
8
DEFAULT_255_1_234
10
4.3386129
20
31.3149291
40
0.3185836
50
71.9010081
51
84.3554254
0
ARC
8
DEFAULT_255_1_234
10
4.3224761
20
31.1788326
40
0.4556151
50
84.0193428
51
89.333121
0
LINE
8
DEFAULT_255_1_234
10
4.7663119
20
36.5115792
11
4.7663119
21
36.3903
0
LINE
8
DEFAULT_255_1_234
10
4.7663119
20
36.3903
11
4.000084
21
36.3903
0
LINE
8
DEFAULT_255_1_234
10
4.000084
20
36.3903
11
4.000084
21
36.4971221
0
LINE
8
DEFAULT_255_1_234
10
4.000084
20
36.4971221
11
4.4048836
21
36.9468995
0
LINE
8
DEFAULT_255_1_234
10
4.1261823
20
37.2151595
11
3.9775952
21
37.2151595
0
LINE
8
DEFAULT_255_1_234
10
4.4924296
20
36.8513218
11
4.1791918
21
36.5115792
0
LINE
8
DEFAULT_255_1_234
10
4.1791918
20
36.5115792
11
4.7663119
21
36.5115792
0
ARC
8
DEFAULT_255_1_234
10
3.055867
20
38.1398527
40
1.8008286
50
318.5132453
51
320.7828378
0
ARC
8
DEFAULT_255_1_234
10
3.5845644
20
37.7095426
40
1.1191493
50
320.7372736
51
323.9737074
0
ARC
8
DEFAULT_255_1_234
10
3.9765501
20
37.4255361
40
0.6350923
50
323.8961724
51
328.6421089
0
ARC
8
DEFAULT_255_1_234
10
4.1812096
20
37.2993031
40
0.3946393
50
328.8299013
51
331.789948
0
ARC
8
DEFAULT_255_1_234
10
4.2809274
20
37.2478509
40
0.2824501
50
331.4255242
51
352.9364833
0
ARC
8
DEFAULT_255_1_234
10
4.2945775
20
37.2447976
40
0.2685315
50
353.2248685
51
0.0169286
0
ARC
8
DEFAULT_255_1_234
10
4.3155652
20
37.247095
40
0.2475536
50
359.4866256
51
15.9339782
0
ARC
8
DEFAULT_255_1_234
10
4.3662637
20
37.2607286
40
0.1950618
50
16.1714718
51
43.5284424
0
ARC
8
DEFAULT_255_1_234
10
4.3739946
20
37.2684573
40
0.184134
50
43.4415429
51
83.1661404
0
ARC
8
DEFAULT_255_1_234
10
4.3605864
20
37.1947771
40
0.258926
50
82.160215
51
90.1505798
0
ARC
8
DEFAULT_255_1_234
10
4.3574291
20
37.1410865
40
0.3126255
50
89.5460705
51
102.5418777
0
ARC
8
DEFAULT_255_1_234
10
4.3331377
20
37.2441665
40
0.2067346
50
102.1739365
51
129.2061916
0
ARC
8
DEFAULT_255_1_234
10
4.3252449
20
37.2566094
40
0.1921118
50
129.7279328
51
135.7542026
0
ARC
8
DEFAULT_255_1_234
10
4.3373977
20
37.2469045
40
0.2075944
50
136.175737
51
166.3674722
0
ARC
8
DEFAULT_255_1_234
10
4.4380896
20
37.2199182
40
0.3118201
50
165.9092917
51
178.8683903
0
ARC
8
DEFAULT_255_1_234
10
4.5245757
20
37.2152179
40
0.3983935
50
178.438168
51
180.0083905
0
ARC
8
DEFAULT_255_1_234
10
4.3844359
20
37.2191231
40
0.4068601
50
163.2878735
51
180.5581814
0
ARC
8
DEFAULT_255_1_234
10
4.3042621
20
37.241184
40
0.3237344
50
133.454115
51
162.9470031
0
ARC
8
DEFAULT_255_1_234
10
4.3221162
20
37.2222
40
0.349795
50
100.7869394
51
133.4384016
0
ARC
8
DEFAULT_255_1_234
10
4.3568934
20
37.0673319
40
0.5084616
50
89.6605301
51
101.3704185
0
ARC
8
DEFAULT_255_1_234
10
4.3635273
20
37.0734496
40
0.502348
50
78.2171172
51
90.4130393
0
ARC
8
DEFAULT_255_1_234
10
4.3990351
20
37.2358637
40
0.3361092
50
55.9268222
51
78.4888551
0
ARC
8
DEFAULT_255_1_234
10
4.4186791
20
37.2697324
40
0.2970617
50
47.9292255
51
55.4054003
0
ARC
8
DEFAULT_255_1_234
10
4.4288352
20
37.2800502
40
0.2825983
50
4.3347696
51
48.0560701
0
ARC
8
DEFAULT_255_1_234
10
4.3192745
20
37.2630601
40
0.393225
50
359.925209
51
5.5967654
0
ARC
8
DEFAULT_255_1_234
10
4.3621637
20
37.2686816
40
0.3503892
50
337.8914096
51
358.9967724
0
ARC
8
DEFAULT_255_1_234
10
4.0908049
20
37.3733706
40
0.6412172
50
326.9135351
51
338.3505194
0
ARC
8
DEFAULT_255_1_234
10
3.6922353
20
37.6288284
40
1.1146189
50
319.6472867
51
327.095818
0
ARC
8
DEFAULT_255_1_234
10
3.3089356
20
37.945
40
1.6114559
50
317.2586784
51
319.9046139
0
LINE
8
DEFAULT_255_1_234
10
4.4801137
20
42.8570433
11
4.4801137
21
41.682
0
LINE
8
DEFAULT_255_1_234
10
4.4801137
20
41.682
11
4.3307234
21
41.682
0
LINE
8
DEFAULT_255_1_234
10
4.3307234
20
41.682
11
4.3307234
21
42.6723133
0
LINE
8
DEFAULT_255_1_234
10
4.3307234
20
42.6723133
11
4.0311396
21
42.5622785
0
LINE
8
DEFAULT_255_1_234
10
4.0311396
20
42.5622785
11
4.0311396
21
42.6972117
0
LINE
8
DEFAULT_255_1_234
10
4.0311396
20
42.6972117
11
4.4568217
21
42.8570433
0
LINE
8
DEFAULT_255_1_234
10
4.4568217
20
42.8570433
11
4.4801137
21
42.8570433
0
LINE
8
DEFAULT_255_1_234
10
4.7333817
20
47.6652327
11
4.7333817
21
47.4724709
0
LINE
8
DEFAULT_255_1_234
10
3.995265
20
47.4523916
11
3.995265
21
47.6507755
0
LINE
8
DEFAULT_255_1_234
10
4.5847946
20
47.4323123
11
4.5847946
21
47.6756739
0
LINE
8
DEFAULT_255_1_234
10
4.1438521
20
47.6869184
11
4.1438521
21
47.4491789
0
ARC
8
DEFAULT_255_1_234
10
3.5086707
20
47.4675805
40
1.2247208
50
353.8441951
51
0.2287902
0
ARC
8
DEFAULT_255_1_234
10
3.9726211
20
47.4157806
40
0.7578929
50
344.4934747
51
353.9765454
0
ARC
8
DEFAULT_255_1_234
10
4.2718801
20
47.3306981
40
0.4467846
50
329.2803592
51
344.7472793
0
ARC
8
DEFAULT_255_1_234
10
4.3711626
20
47.2762018
40
0.3336173
50
324.9352394
51
328.6160465
0
ARC
8
DEFAULT_255_1_234
10
4.4088734
20
47.2498427
40
0.2876076
50
280.580143
51
324.9173126
0
ARC
8
DEFAULT_255_1_234
10
4.3687527
20
47.4169099
40
0.4592847
50
269.5977311
51
281.6734359
0
ARC
8
DEFAULT_255_1_234
10
4.3615433
20
47.4049173
40
0.4472986
50
256.6228859
51
270.51044
0
ARC
8
DEFAULT_255_1_234
10
4.321341
20
47.2500877
40
0.2873874
50
215.8618325
51
257.2788573
0
ARC
8
DEFAULT_255_1_234
10
4.4234442
20
47.3185977
40
0.4102928
50
197.9693508
51
215.2623606
0
ARC
8
DEFAULT_255_1_234
10
4.6719558
20
47.4024709
40
0.6725652
50
187.8816417
51
198.2346507
0
ARC
8
DEFAULT_255_1_234
10
5.0677766
20
47.4596079
40
1.0724845
50
180.8976217
51
188.0055519
0
ARC
8
DEFAULT_255_1_234
10
5.3477954
20
47.4699777
40
1.3526448
50
180.7449369
51
181.1510016
0
ARC
8
DEFAULT_255_1_234
10
5.1900683
20
47.6556042
40
1.1948131
50
173.7675579
51
180.231553
0
ARC
8
DEFAULT_255_1_234
10
4.738283
20
47.7066666
40
0.7401564
50
164.3058563
51
173.9002247
0
ARC
8
DEFAULT_255_1_234
10
4.4470899
20
47.7905656
40
0.4371288
50
148.7922025
51
164.568378
0
ARC
8
DEFAULT_255_1_234
10
4.3519351
20
47.8436929
40
0.3282386
50
144.5883898
51
148.1176286
0
ARC
8
DEFAULT_255_1_234
10
4.3176249
20
47.8676315
40
0.2864044
50
101.6440918
51
144.514236
0
ARC
8
DEFAULT_255_1_234
10
4.3601315
20
47.6987069
40
0.4604934
50
89.5284041
51
102.5819763
0
ARC
8
DEFAULT_255_1_234
10
4.3680403
20
47.6948018
40
0.464401
50
77.0437873
51
90.5081339
0
ARC
8
DEFAULT_255_1_234
10
4.4082405
20
47.8590615
40
0.2953195
50
48.2778575
51
77.4994676
0
ARC
8
DEFAULT_255_1_234
10
4.4155036
20
47.8719746
40
0.2808655
50
36.3142134
51
47.6305865
0
ARC
8
DEFAULT_255_1_234
10
4.3286343
20
47.8134515
40
0.3855453
50
18.2931786
51
35.6769206
0
ARC
8
DEFAULT_255_1_234
10
4.0743102
20
47.7261593
40
0.654423
50
8.024666
51
18.5605216
0
ARC
8
DEFAULT_255_1_234
10
3.6580022
20
47.6646792
40
1.0752407
50
1.1274072
51
8.1718305
0
ARC
8
DEFAULT_255_1_234
10
3.3344213
20
47.6519885
40
1.3990231
50
0.5424119
51
1.3863029
0
ARC
8
DEFAULT_255_1_234
10
3.516559
20
47.6792342
40
1.0682415
50
359.8090433
51
4.9407866
0
ARC
8
DEFAULT_255_1_234
10
3.9375604
20
47.7168113
40
0.6455691
50
4.8362157
51
12.2904523
0
ARC
8
DEFAULT_255_1_234
10
4.2130719
20
47.7781965
40
0.3633074
50
12.0805627
51
23.8173984
0
ARC
8
DEFAULT_255_1_234
10
4.3304425
20
47.8278919
40
0.2358723
50
24.2871213
51
31.3935614
0
ARC
8
DEFAULT_255_1_234
10
4.3829122
20
47.8622233
40
0.1732111
50
30.7407893
51
82.4657128
0
ARC
8
DEFAULT_255_1_234
10
4.3649256
20
47.7738691
40
0.263235
50
81.1060089
51
90.2184952
0
ARC
8
DEFAULT_255_1_234
10
4.3613555
20
47.7996924
40
0.2374236
50
89.3806855
51
105.6762551
0
ARC
8
DEFAULT_255_1_234
10
4.3430186
20
47.8663567
40
0.1682847
50
105.7981136
51
149.7388061
0
ARC
8
DEFAULT_255_1_234
10
4.4494264
20
47.802395
40
0.2924306
50
149.4208916
51
163.6286378
0
ARC
8
DEFAULT_255_1_234
10
4.6585152
20
47.738625
40
0.5110213
50
163.3763315
51
172.1410975
0
ARC
8
DEFAULT_255_1_234
10
4.9885871
20
47.6913518
40
0.8444586
50
172.0259487
51
178.0703232
0
ARC
8
DEFAULT_255_1_234
10
5.291596
20
47.6769906
40
1.1477868
50
177.8631668
51
179.5044149
0
ARC
8
DEFAULT_255_1_234
10
5.1843365
20
47.4455389
40
1.0404907
50
179.7995573
51
185.2460446
0
ARC
8
DEFAULT_255_1_234
10
4.7800404
20
47.4072513
40
0.6343885
50
185.1411642
51
193.0079639
0
ARC
8
DEFAULT_255_1_234
10
4.5156877
20
47.3447641
40
0.3627568
50
192.7897626
51
205.2507664
0
ARC
8
DEFAULT_255_1_234
10
4.4110424
20
47.2980415
40
0.2481908
50
205.8005384
51
211.2537509
0
ARC
8
DEFAULT_255_1_234
10
4.3586864
20
47.262958
40
0.1852521
50
210.3789793
51
238.4008143
0
ARC
8
DEFAULT_255_1_234
10
4.3567386
20
47.2676376
40
0.1882621
50
239.6520629
51
265.9793761
0
ARC
8
DEFAULT_255_1_234
10
4.3652586
20
47.3348427
40
0.2559272
50
265.1315437
51
270.060332
0
ARC
8
DEFAULT_255_1_234
10
4.3681365
20
47.3024534
40
0.2235528
50
269.3314664
51
287.2178029
0
ARC
8
DEFAULT_255_1_234
10
4.3819217
20
47.2521279
40
0.1714108
50
287.7958004
51
329.080874
0
ARC
8
DEFAULT_255_1_234
10
4.2861674
20
47.311893
40
0.2842745
50
328.6634704
51
343.3325132
0
ARC
8
DEFAULT_255_1_234
10
4.0688694
20
47.3795863
40
0.5118644
50
343.0499468
51
351.9393422
0
ARC
8
DEFAULT_255_1_234
10
3.7221994
20
47.4306949
40
0.8622784
50
351.8069023
51
357.7959224
0
ARC
8
DEFAULT_255_1_234
10
3.398655
20
47.4474721
40
1.1862365
50
357.5871873
51
359.2677531
0
LINE
8
DEFAULT_255_1_234
10
4.2822378
20
52.8010169
11
4.2822378
21
52.9222962
0
LINE
8
DEFAULT_255_1_234
10
4.2822378
20
52.9222962
11
4.393879
21
52.9222962
0
LINE
8
DEFAULT_255_1_234
10
4.2035268
20
53.1279087
11
4.0549396
21
53.1279087
0
LINE
8
DEFAULT_255_1_234
10
4.0444983
20
52.5737188
11
4.1938887
21
52.5737188
0
LINE
8
DEFAULT_255_1_234
10
4.393879
20
52.8010169
11
4.2822378
21
52.8010169
0
ARC
8
DEFAULT_255_1_234
10
4.3909656
20
53.2615713
40
0.3392876
50
270.4919872
51
281.8951556
0
ARC
8
DEFAULT_255_1_234
10
4.4150918
20
53.1513702
40
0.2264817
50
281.6691735
51
301.2943132
0
ARC
8
DEFAULT_255_1_234
10
4.4321128
20
53.1202304
40
0.1910381
50
301.7833094
51
311.7545298
0
ARC
8
DEFAULT_255_1_234
10
4.4412704
20
53.1100748
40
0.1773635
50
311.7323931
51
354.2802411
0
ARC
8
DEFAULT_255_1_234
10
4.3686329
20
53.1225722
40
0.2509385
50
353.0937916
51
0.1181479
0
ARC
8
DEFAULT_255_1_234
10
4.3225114
20
53.1273386
40
0.2970898
50
359.1805295
51
15.0453146
0
ARC
8
DEFAULT_255_1_234
10
4.4570951
20
53.1665992
40
0.1569564
50
13.9577229
51
77.6713066
0
ARC
8
DEFAULT_255_1_234
10
4.418448
20
53.0280949
40
0.3006298
50
76.1116566
51
90.7026153
0
ARC
8
DEFAULT_255_1_234
10
4.4125318
20
53.0554545
40
0.2732568
50
89.5324876
51
103.531937
0
ARC
8
DEFAULT_255_1_234
10
4.3924762
20
53.1353884
40
0.1908508
50
103.2931773
51
133.5619022
0
ARC
8
DEFAULT_255_1_234
10
4.3880251
20
53.1413375
40
0.1834746
50
133.8349307
51
173.5344437
0
ARC
8
DEFAULT_255_1_234
10
4.4603294
20
53.1285213
40
0.2568033
50
172.5096846
51
180.1366907
0
ARC
8
DEFAULT_255_1_234
10
4.3652188
20
53.1319622
40
0.3103056
50
155.3484492
51
180.7484736
0
ARC
8
DEFAULT_255_1_234
10
4.3603277
20
53.1290846
40
0.3070957
50
131.5744599
51
154.4798489
0
ARC
8
DEFAULT_255_1_234
10
4.3916424
20
53.097431
40
0.3515643
50
96.9875458
51
131.9690667
0
ARC
8
DEFAULT_255_1_234
10
4.4135904
20
52.9728636
40
0.4779224
50
89.8596053
51
97.7825159
0
ARC
8
DEFAULT_255_1_234
10
4.4183967
20
52.9466616
40
0.5041361
50
78.3655447
51
90.4131539
0
ARC
8
DEFAULT_255_1_234
10
4.4541885
20
53.1125887
40
0.3344039
50
56.6229102
51
78.638727
0
ARC
8
DEFAULT_255_1_234
10
4.4756829
20
53.1501805
40
0.2912001
50
47.0253525
51
56.0854072
0
ARC
8
DEFAULT_255_1_234
10
4.4776609
20
53.1541223
40
0.2869704
50
10.9208013
51
46.7778124
0
ARC
8
DEFAULT_255_1_234
10
4.3412675
20
53.1225857
40
0.426899
50
359.6364486
51
11.6087304
0
ARC
8
DEFAULT_255_1_234
10
4.5247519
20
53.1210752
40
0.243409
50
332.3549906
51
359.7179418
0
ARC
8
DEFAULT_255_1_234
10
4.4597121
20
53.1519142
40
0.3153459
50
325.2333722
51
332.8745602
0
ARC
8
DEFAULT_255_1_234
10
4.4749744
20
53.1412828
40
0.2967456
50
292.9802137
51
325.2392345
0
ARC
8
DEFAULT_255_1_234
10
4.4475118
20
53.1946863
40
0.3566604
50
292.5402179
51
293.6924929
0
ARC
8
DEFAULT_255_1_234
10
4.4867714
20
52.5492091
40
0.3307468
50
57.6435486
51
72.8625112
0
ARC
8
DEFAULT_255_1_234
10
4.5222214
20
52.6066549
40
0.2632492
50
36.7248896
51
57.4697979
0
ARC
8
DEFAULT_255_1_234
10
4.5210847
20
52.607922
40
0.2634081
50
8.0545065
51
36.356114
0
ARC
8
DEFAULT_255_1_234
10
4.4348032
20
52.5924174
40
0.3510261
50
359.8320645
51
8.5869982
0
ARC
8
DEFAULT_255_1_234
10
4.3972808
20
52.5876101
40
0.3885653
50
343.9829931
51
0.5571613
0
ARC
8
DEFAULT_255_1_234
10
4.4859005
20
52.5633438
40
0.2966924
50
311.6359546
51
343.7651759
0
ARC
8
DEFAULT_255_1_234
10
4.4480574
20
52.6060102
40
0.3537231
50
279.7829875
51
311.6255694
0
ARC
8
DEFAULT_255_1_234
10
4.4179351
20
52.749728
40
0.5004971
50
269.7286406
51
280.3856417
0
ARC
8
DEFAULT_255_1_234
10
4.4117423
20
52.7455996
40
0.4963778
50
256.6828919
51
270.4412052
0
ARC
8
DEFAULT_255_1_234
10
4.3778719
20
52.6071394
40
0.3538406
50
229.4223008
51
256.8556159
0
ARC
8
DEFAULT_255_1_234
10
4.3364112
20
52.5604736
40
0.2914296
50
181.818294
51
229.6455059
0
ARC
8
DEFAULT_255_1_234
10
4.4404068
20
52.5735496
40
0.3959084
50
179.9755256
51
183.2323064
0
ARC
8
DEFAULT_255_1_234
10
4.4231814
20
52.5715037
40
0.2293034
50
179.4465117
51
196.2869258
0
ARC
8
DEFAULT_255_1_234
10
4.3744222
20
52.5581651
40
0.1787621
50
196.5661473
51
227.705904
0
ARC
8
DEFAULT_255_1_234
10
4.3908317
20
52.5765155
40
0.2033784
50
227.7652068
51
257.8762805
0
ARC
8
DEFAULT_255_1_234
10
4.4133287
20
52.6708156
40
0.3003081
50
257.4584385
51
270.426602
0
ARC
8
DEFAULT_255_1_234
10
4.4178853
20
52.6997996
40
0.329292
50
269.5962073
51
280.8789248
0
ARC
8
DEFAULT_255_1_234
10
4.4408382
20
52.5851685
40
0.2123908
50
280.6346389
51
299.8595945
0
ARC
8
DEFAULT_255_1_234
10
4.4599289
20
52.5489212
40
0.171457
50
300.3576302
51
314.5517981
0
ARC
8
DEFAULT_255_1_234
10
4.4516349
20
52.5549919
40
0.1816095
50
315.0728369
51
345.0431014
0
ARC
8
DEFAULT_255_1_234
10
4.3593163
20
52.5818841
40
0.2777492
50
344.5986631
51
357.9269593
0
ARC
8
DEFAULT_255_1_234
10
4.2697489
20
52.5880276
40
0.3674917
50
357.4748886
51
0.0231117
0
ARC
8
DEFAULT_255_1_234
10
4.3720599
20
52.5904679
40
0.2651907
50
359.5047933
51
13.4239635
0
ARC
8
DEFAULT_255_1_234
10
4.4587242
20
52.6126478
40
0.1757509
50
12.9498199
51
48.7551375
0
ARC
8
DEFAULT_255_1_234
10
4.4404976
20
52.58774
40
0.2065134
50
49.5088623
51
72.1836453
0
ARC
8
DEFAULT_255_1_234
10
4.4047129
20
52.4815291
40
0.3185836
50
71.9010081
51
84.3554254
0
ARC
8
DEFAULT_255_1_234
10
4.3885761
20
52.3454326
40
0.4556151
50
84.0193428
51
89.333121
0
LINE
8
DEFAULT_255_1_234
10
5.9271378
20
53.4347211
11
5.9271378
21
52.2653
0
LINE
8
DEFAULT_255_1_234
10
5.9271378
20
52.2653
11
5.7721252
21
52.2653
0
LINE
8
DEFAULT_255_1_234
10
5.7721252
20
52.2653
11
5.1833988
21
53.166461
0
LINE
8
DEFAULT_255_1_234
10
5.1833988
20
53.166461
11
5.1833988
21
52.2653
0
LINE
8
DEFAULT_255_1_234
10
5.1833988
20
52.2653
11
5.0283863
21
52.2653
0
LINE
8
DEFAULT_255_1_234
10
5.0283863
20
52.2653
11
5.0283863
21
53.4347211
0
LINE
8
DEFAULT_255_1_234
10
5.0283863
20
53.4347211
11
5.1833988
21
53.4347211
0
LINE
8
DEFAULT_255_1_234
10
5.1833988
20
53.4347211
11
5.7737316
21
52.5295442
0
LINE
8
DEFAULT_255_1_234
10
5.7737316
20
52.5295442
11
5.7737316
21
53.4347211
0
LINE
8
DEFAULT_255_1_234
10
5.7737316
20
53.4347211
11
5.9271378
21
53.4347211
0
LINE
8
DEFAULT_255_1_234
10
4.7550674
20
58.7264211
11
4.7550674
21
58.642891
0
LINE
8
DEFAULT_255_1_234
10
4.7550674
20
58.642891
11
4.2707536
21
57.557
0
LINE
8
DEFAULT_255_1_234
10
4.2707536
20
57.557
11
4.1149379
21
57.557
0
LINE
8
DEFAULT_255_1_234
10
4.1149379
20
57.557
11
4.5976454
21
58.6043387
0
LINE
8
DEFAULT_255_1_234
10
4.5976454
20
58.6043387
11
3.9647444
21
58.6043387
0
LINE
8
DEFAULT_255_1_234
10
3.9647444
20
58.6043387
11
3.9647444
21
58.7264211
0
LINE
8
DEFAULT_255_1_234
10
3.9647444
20
58.7264211
11
4.7550674
21
58.7264211
0
LINE
8
DEFAULT_255_1_234
10
4.5566835
20
64.0189243
11
4.5831882
21
64.0189243
0
LINE
8
DEFAULT_255_1_234
10
4.5831882
20
64.0189243
11
4.5831882
21
63.892826
0
LINE
8
DEFAULT_255_1_234
10
4.5831882
20
63.892826
11
4.5558803
21
63.892826
0
LINE
8
DEFAULT_255_1_234
10
4.0089189
20
63.2936583
11
4.0089189
21
63.3506836
0
LINE
8
DEFAULT_255_1_234
10
4.1583093
20
63.3314075
11
4.1583093
21
63.2767917
0
ARC
8
DEFAULT_255_1_234
10
4.5611151
20
63.3930455
40
0.4998079
50
90.6001036
51
104.514704
0
ARC
8
DEFAULT_255_1_234
10
4.5222667
20
63.5375131
40
0.3502176
50
104.2855254
51
133.862935
0
ARC
8
DEFAULT_255_1_234
10
4.5386424
20
63.526683
40
0.3693984
50
134.5302688
51
161.6210873
0
ARC
8
DEFAULT_255_1_234
10
4.7039613
20
63.4683895
40
0.5446739
50
161.2849839
51
174.2076652
0
ARC
8
DEFAULT_255_1_234
10
4.844655
20
63.4489787
40
0.6866274
50
173.7810589
51
174.9254635
0
ARC
8
DEFAULT_255_1_234
10
4.3896382
20
63.3106839
40
0.3033419
50
95.8330959
51
138.9954921
0
ARC
8
DEFAULT_255_1_234
10
4.4119738
20
63.1828375
40
0.4328947
50
89.8753725
51
97.0544009
0
ARC
8
DEFAULT_255_1_234
10
4.4167204
20
63.2663748
40
0.3493769
50
71.6407809
51
90.6240094
0
ARC
8
DEFAULT_255_1_234
10
4.4317777
20
63.3218082
40
0.2920396
50
39.6367836
51
71.019018
0
ARC
8
DEFAULT_255_1_234
10
4.368125
20
63.2667998
40
0.3761538
50
10.658731
51
39.9043955
0
ARC
8
DEFAULT_255_1_234
10
4.2133333
20
63.2331686
40
0.5345136
50
359.682601
51
11.132623
0
ARC
8
DEFAULT_255_1_234
10
4.2093464
20
63.226101
40
0.5385081
50
347.2486944
51
0.4369317
0
ARC
8
DEFAULT_255_1_234
10
4.3760941
20
63.1859807
40
0.3670249
50
318.1409698
51
347.6118597
0
ARC
8
DEFAULT_255_1_234
10
4.4085934
20
63.1592702
40
0.3250007
50
275.6342139
51
317.8248465
0
ARC
8
DEFAULT_255_1_234
10
4.3865045
20
63.2892219
40
0.4565864
50
269.8874292
51
276.7917694
0
ARC
8
DEFAULT_255_1_234
10
4.3810116
20
63.1866743
40
0.3540676
50
246.9140195
51
270.7437342
0
ARC
8
DEFAULT_255_1_234
10
4.3816506
20
63.1724384
40
0.3412781
50
218.1665114
51
245.878116
0
ARC
8
DEFAULT_255_1_234
10
4.4695967
20
63.2460279
40
0.455911
50
191.4115814
51
218.6077802
0
ARC
8
DEFAULT_255_1_234
10
4.6634056
20
63.2894833
40
0.6545001
50
179.6345085
51
191.7836486
0
ARC
8
DEFAULT_255_1_234
10
5.2216393
20
63.3573697
40
1.2127388
50
171.4525249
51
180.3158839
0
ARC
8
DEFAULT_255_1_234
10
4.7821269
20
63.4257608
40
0.7679464
50
157.9802646
51
171.6246686
0
ARC
8
DEFAULT_255_1_234
10
4.560729
20
63.5140421
40
0.5296008
50
141.4298019
51
157.854097
0
ARC
8
DEFAULT_255_1_234
10
4.496561
20
63.5594381
40
0.4511509
50
102.8715806
51
140.8564722
0
ARC
8
DEFAULT_255_1_234
10
4.5613226
20
63.3154552
40
0.7034845
50
90.3778349
51
103.5869322
0
ARC
8
DEFAULT_255_1_234
10
4.3875002
20
63.254973
40
0.2370698
50
89.8751008
51
126.2071704
0
ARC
8
DEFAULT_255_1_234
10
4.3920792
20
63.2395303
40
0.2522934
50
124.9745049
51
144.895901
0
ARC
8
DEFAULT_255_1_234
10
4.3744982
20
63.253856
40
0.2296779
50
145.2974905
51
160.2660252
0
ARC
8
DEFAULT_255_1_234
10
4.6817521
20
63.2736071
40
0.5234525
50
179.6514266
51
190.2855912
0
ARC
8
DEFAULT_255_1_234
10
4.5123658
20
63.2416786
40
0.3510893
50
190.0945431
51
207.5098196
0
ARC
8
DEFAULT_255_1_234
10
4.4557928
20
63.2147623
40
0.288489
50
207.9583163
51
216.3251085
0
ARC
8
DEFAULT_255_1_234
10
4.4218036
20
63.1868105
40
0.2445587
50
215.7661442
51
232.5456785
0
ARC
8
DEFAULT_255_1_234
10
4.3835019
20
63.1381482
40
0.1826382
50
232.8005391
51
270.6605633
0
ARC
8
DEFAULT_255_1_234
10
4.388072
20
63.1745612
40
0.2190529
50
269.35537
51
288.4744281
0
ARC
8
DEFAULT_255_1_234
10
4.3973617
20
63.1396118
40
0.1829749
50
289.1833337
51
322.9683818
0
ARC
8
DEFAULT_255_1_234
10
4.3362139
20
63.1878391
40
0.2608399
50
322.6007884
51
346.5182367
0
ARC
8
DEFAULT_255_1_234
10
4.2204735
20
63.2173616
40
0.3802777
50
346.2582162
51
358.7741648
0
ARC
8
DEFAULT_255_1_234
10
4.1186404
20
63.2228965
40
0.4822176
50
358.3755224
51
0.0098023
0
ARC
8
DEFAULT_255_1_234
10
4.1942591
20
63.2256657
40
0.4066078
50
359.6214041
51
11.2839074
0
ARC
8
DEFAULT_255_1_234
10
4.3219738
20
63.2523066
40
0.2761514
50
11.0482309
51
31.8146458
0
ARC
8
DEFAULT_255_1_234
10
4.3528781
20
63.2690584
40
0.2410679
50
32.3035391
51
38.082671
0
ARC
8
DEFAULT_255_1_234
10
4.3949441
20
63.3071662
40
0.1844966
50
36.825067
51
85.7415724
0
ARC
8
DEFAULT_255_1_234
10
4.3882274
20
63.2571301
40
0.2349122
50
85.0140713
51
90.0513278
0
LINE
8
DEFAULT_255_1_234
10
4.1872235
20
68.6960963
11
4.0683538
21
68.7266169
0
LINE
8
DEFAULT_255_1_234
10
4.0683538
20
68.7266169
11
4.1277887
21
69.3097211
0
LINE
8
DEFAULT_255_1_234
10
4.1277887
20
69.3097211
11
4.7269563
21
69.3097211
0
LINE
8
DEFAULT_255_1_234
10
4.7269563
20
69.3097211
11
4.7269563
21
69.1723784
0
LINE
8
DEFAULT_255_1_234
10
4.7269563
20
69.1723784
11
4.253887
21
69.1723784
0
LINE
8
DEFAULT_255_1_234
10
4.253887
20
69.1723784
11
4.2185473
21
68.8535184
0
LINE
8
DEFAULT_255_1_234
10
4.0265888
20
68.4479156
11
4.1671442
21
68.4479156
0
LINE
8
DEFAULT_255_1_234
10
4.2265791
20
68.7282232
11
4.1872235
21
68.6960963
0
ARC
8
DEFAULT_255_1_234
10
4.4040257
20
68.535523
40
0.3681349
50
93.7182161
51
120.2538958
0
ARC
8
DEFAULT_255_1_234
10
4.413452
20
68.4547394
40
0.449379
50
89.9660152
51
94.2496022
0
ARC
8
DEFAULT_255_1_234
10
4.4175254
20
68.5136549
40
0.390482
50
73.8043271
51
90.5585896
0
ARC
8
DEFAULT_255_1_234
10
4.4410151
20
68.5994602
40
0.3015334
50
41.3071453
51
73.5430202
0
ARC
8
DEFAULT_255_1_234
10
4.3993978
20
68.5636324
40
0.3564457
50
13.5075983
51
41.2174222
0
ARC
8
DEFAULT_255_1_234
10
4.2352182
20
68.5206486
40
0.5261351
50
1.1331335
51
13.8829381
0
ARC
8
DEFAULT_255_1_234
10
4.0940551
20
68.5130665
40
0.6674378
50
359.9919444
51
1.544251
0
ARC
8
DEFAULT_255_1_234
10
4.2217377
20
68.508928
40
0.5397702
50
347.8572367
51
0.4293338
0
ARC
8
DEFAULT_255_1_234
10
4.3967695
20
68.4692736
40
0.3603188
50
323.673004
51
348.1672506
0
ARC
8
DEFAULT_255_1_234
10
4.4262203
20
68.4513168
40
0.3259678
50
316.8171152
51
323.1492751
0
ARC
8
DEFAULT_255_1_234
10
4.4323392
20
68.447646
40
0.3189975
50
281.8396411
51
316.5457803
0
ARC
8
DEFAULT_255_1_234
10
4.3947656
20
68.6031762
40
0.4789527
50
269.5770101
51
282.4214771
0
ARC
8
DEFAULT_255_1_234
10
4.3876467
20
68.5818125
40
0.45759
50
256.2427136
51
270.4486331
0
ARC
8
DEFAULT_255_1_234
10
4.357737
20
68.4618229
40
0.3339303
50
228.9023911
51
256.3314342
0
ARC
8
DEFAULT_255_1_234
10
4.3503602
20
68.4501746
40
0.32031
50
193.753695
51
228.5271154
0
ARC
8
DEFAULT_255_1_234
10
4.4741556
20
68.48648
40
0.4492253
50
184.924711
51
194.497588
0
ARC
8
DEFAULT_255_1_234
10
4.4934123
20
68.4900591
40
0.3289787
50
187.3600538
51
198.6732863
0
ARC
8
DEFAULT_255_1_234
10
4.3884417
20
68.4536674
40
0.217884
50
198.4451669
51
217.794479
0
ARC
8
DEFAULT_255_1_234
10
4.3588592
20
68.4327085
40
0.1816698
50
218.2887171
51
228.5612368
0
ARC
8
DEFAULT_255_1_234
10
4.3686379
20
68.4458963
40
0.1980329
50
228.9654866
51
258.1234728
0
ARC
8
DEFAULT_255_1_234
10
4.3892089
20
68.5339833
40
0.2884748
50
257.7258293
51
270.401361
0
ARC
8
DEFAULT_255_1_234
10
4.3936975
20
68.4894821
40
0.2439788
50
269.4204404
51
286.4209037
0
ARC
8
DEFAULT_255_1_234
10
4.4085463
20
68.4355657
40
0.1880666
50
286.7251356
51
320.600362
0
ARC
8
DEFAULT_255_1_234
10
4.3702288
20
68.4666595
40
0.2374121
50
320.6712579
51
344.5441685
0
ARC
8
DEFAULT_255_1_234
10
4.2545614
20
68.5006045
40
0.3579479
50
344.2412205
51
356.7357071
0
ARC
8
DEFAULT_255_1_234
10
4.1296763
20
68.5109444
40
0.4832297
50
356.3548756
51
0.0500261
0
ARC
8
DEFAULT_255_1_234
10
4.2633272
20
68.514065
40
0.3495889
50
359.5576869
51
12.953486
0
ARC
8
DEFAULT_255_1_234
10
4.3688169
20
68.5396434
40
0.2410532
50
12.6490276
51
41.6081334
0
ARC
8
DEFAULT_255_1_234
10
4.391854
20
68.5592321
40
0.2108218
50
41.7850273
51
85.9892764
0
ARC
8
DEFAULT_255_1_234
10
4.3795277
20
68.4779462
40
0.2928454
50
84.6957577
51
90.0676183
0
ARC
8
DEFAULT_255_1_234
10
4.3771761
20
68.4110716
40
0.3597255
50
89.6804936
51
99.1614436
0
ARC
8
DEFAULT_255_1_234
10
4.3566392
20
68.5338131
40
0.235281
50
98.9830931
51
113.8908934
0
ARC
8
DEFAULT_255_1_234
10
4.3336802
20
68.5879587
40
0.176479
50
114.1950727
51
127.3641004
0
LINE
8
DEFAULT_255_1_234
10
4.8389628
20
74.6014211
11
4.8389628
21
73.824752
0
LINE
8
DEFAULT_255_1_234
10
4.8389628
20
73.824752
11
5.0012039
21
73.824752
0
LINE
8
DEFAULT_255_1_234
10
5.0012039
20
73.824752
11
5.0012039
21
73.7034728
0
LINE
8
DEFAULT_255_1_234
10
5.0012039
20
73.7034728
11
4.8389628
21
73.7034728
0
LINE
8
DEFAULT_255_1_234
10
4.8389628
20
73.7034728
11
4.8389628
21
73.432
0
LINE
8
DEFAULT_255_1_234
10
4.8389628
20
73.432
11
4.6895725
21
73.432
0
LINE
8
DEFAULT_255_1_234
10
4.6895725
20
73.432
11
4.6895725
21
73.7034728
0
LINE
8
DEFAULT_255_1_234
10
4.6895725
20
73.7034728
11
4.1570682
21
73.7034728
0
LINE
8
DEFAULT_255_1_234
10
4.1570682
20
73.7034728
11
4.1570682
21
73.7910187
0
LINE
8
DEFAULT_255_1_234
10
4.1570682
20
73.7910187
11
4.6807375
21
74.6014211
0
LINE
8
DEFAULT_255_1_234
10
4.6807375
20
74.6014211
11
4.8389628
21
74.6014211
0
LINE
8
DEFAULT_255_1_234
10
4.6719026
20
74.3660912
11
4.3257347
21
73.824752
0
LINE
8
DEFAULT_255_1_234
10
4.3257347
20
73.824752
11
4.6895725
21
73.824752
0
LINE
8
DEFAULT_255_1_234
10
4.6895725
20
73.824752
11
4.6895725
21
74.3982181
0
LINE
8
DEFAULT_255_1_234
10
4.6895725
20
74.3982181
11
4.6719026
21
74.3660912
0
LINE
8
DEFAULT_255_1_234
10
4.2161378
20
79.2594169
11
4.2161378
21
79.3806962
0
LINE
8
DEFAULT_255_1_234
10
4.2161378
20
79.3806962
11
4.327779
21
79.3806962
0
LINE
8
DEFAULT_255_1_234
10
4.1374268
20
79.5863087
11
3.9888396
21
79.5863087
0
LINE
8
DEFAULT_255_1_234
10
3.9783983
20
79.0321188
11
4.1277887
21
79.0321188
0
LINE
8
DEFAULT_255_1_234
10
4.327779
20
79.2594169
11
4.2161378
21
79.2594169
0
ARC
8
DEFAULT_255_1_234
10
4.3248656
20
79.7199713
40
0.3392876
50
270.4919872
51
281.8951556
0
ARC
8
DEFAULT_255_1_234
10
4.3489918
20
79.6097702
40
0.2264817
50
281.6691735
51
301.2943132
0
ARC
8
DEFAULT_255_1_234
10
4.3660128
20
79.5786304
40
0.1910381
50
301.7833094
51
311.7545298
0
ARC
8
DEFAULT_255_1_234
10
4.3751704
20
79.5684748
40
0.1773635
50
311.7323931
51
354.2802411
0
ARC
8
DEFAULT_255_1_234
10
4.3025329
20
79.5809722
40
0.2509385
50
353.0937916
51
0.1181479
0
ARC
8
DEFAULT_255_1_234
10
4.2564114
20
79.5857386
40
0.2970898
50
359.1805295
51
15.0453146
0
ARC
8
DEFAULT_255_1_234
10
4.3909951
20
79.6249992
40
0.1569564
50
13.9577229
51
77.6713066
0
ARC
8
DEFAULT_255_1_234
10
4.352348
20
79.4864949
40
0.3006298
50
76.1116566
51
90.7026153
0
ARC
8
DEFAULT_255_1_234
10
4.3464318
20
79.5138545
40
0.2732568
50
89.5324876
51
103.531937
0
ARC
8
DEFAULT_255_1_234
10
4.3263762
20
79.5937884
40
0.1908508
50
103.2931773
51
133.5619022
0
ARC
8
DEFAULT_255_1_234
10
4.3219251
20
79.5997375
40
0.1834746
50
133.8349307
51
173.5344437
0
ARC
8
DEFAULT_255_1_234
10
4.3942294
20
79.5869213
40
0.2568033
50
172.5096846
51
180.1366907
0
ARC
8
DEFAULT_255_1_234
10
4.2991188
20
79.5903622
40
0.3103056
50
155.3484492
51
180.7484736
0
ARC
8
DEFAULT_255_1_234
10
4.2942277
20
79.5874846
40
0.3070957
50
131.5744599
51
154.4798489
0
ARC
8
DEFAULT_255_1_234
10
4.3255424
20
79.555831
40
0.3515643
50
96.9875458
51
131.9690667
0
ARC
8
DEFAULT_255_1_234
10
4.3474904
20
79.4312636
40
0.4779224
50
89.8596053
51
97.7825159
0
ARC
8
DEFAULT_255_1_234
10
4.3522967
20
79.4050616
40
0.5041361
50
78.3655447
51
90.4131539
0
ARC
8
DEFAULT_255_1_234
10
4.3880885
20
79.5709887
40
0.3344039
50
56.6229102
51
78.638727
0
ARC
8
DEFAULT_255_1_234
10
4.4095829
20
79.6085805
40
0.2912001
50
47.0253525
51
56.0854072
0
ARC
8
DEFAULT_255_1_234
10
4.4115609
20
79.6125223
40
0.2869704
50
10.9208013
51
46.7778124
0
ARC
8
DEFAULT_255_1_234
10
4.2751675
20
79.5809857
40
0.426899
50
359.6364486
51
11.6087304
0
ARC
8
DEFAULT_255_1_234
10
4.4586519
20
79.5794752
40
0.243409
50
332.3549906
51
359.7179418
0
ARC
8
DEFAULT_255_1_234
10
4.3936121
20
79.6103142
40
0.3153459
50
325.2333722
51
332.8745602
0
ARC
8
DEFAULT_255_1_234
10
4.4088744
20
79.5996828
40
0.2967456
50
292.9802137
51
325.2392345
0
ARC
8
DEFAULT_255_1_234
10
4.3814118
20
79.6530863
40
0.3566604
50
292.5402179
51
293.6924929
0
ARC
8
DEFAULT_255_1_234
10
4.4206714
20
79.0076091
40
0.3307468
50
57.6435486
51
72.8625112
0
ARC
8
DEFAULT_255_1_234
10
4.4561214
20
79.0650549
40
0.2632492
50
36.7248896
51
57.4697979
0
ARC
8
DEFAULT_255_1_234
10
4.4549847
20
79.066322
40
0.2634081
50
8.0545065
51
36.356114
0
ARC
8
DEFAULT_255_1_234
10
4.3687032
20
79.0508174
40
0.3510261
50
359.8320645
51
8.5869982
0
ARC
8
DEFAULT_255_1_234
10
4.3311808
20
79.0460101
40
0.3885653
50
343.9829931
51
0.5571613
0
ARC
8
DEFAULT_255_1_234
10
4.4198005
20
79.0217438
40
0.2966924
50
311.6359546
51
343.7651759
0
ARC
8
DEFAULT_255_1_234
10
4.3819574
20
79.0644102
40
0.3537231
50
279.7829875
51
311.6255694
0
ARC
8
DEFAULT_255_1_234
10
4.3518351
20
79.208128
40
0.5004971
50
269.7286406
51
280.3856417
0
ARC
8
DEFAULT_255_1_234
10
4.3456423
20
79.2039996
40
0.4963778
50
256.6828919
51
270.4412052
0
ARC
8
DEFAULT_255_1_234
10
4.3117719
20
79.0655394
40
0.3538406
50
229.4223008
51
256.8556159
0
ARC
8
DEFAULT_255_1_234
10
4.2703112
20
79.0188736
40
0.2914296
50
181.818294
51
229.6455059
0
ARC
8
DEFAULT_255_1_234
10
4.3743068
20
79.0319496
40
0.3959084
50
179.9755256
51
183.2323064
0
ARC
8
DEFAULT_255_1_234
10
4.3570814
20
79.0299037
40
0.2293034
50
179.4465117
51
196.2869258
0
ARC
8
DEFAULT_255_1_234
10
4.3083222
20
79.0165651
40
0.1787621
50
196.5661473
51
227.705904
0
ARC
8
DEFAULT_255_1_234
10
4.3247317
20
79.0349155
40
0.2033784
50
227.7652068
51
257.8762805
0
ARC
8
DEFAULT_255_1_234
10
4.3472287
20
79.1292156
40
0.3003081
50
257.4584385
51
270.426602
0
ARC
8
DEFAULT_255_1_234
10
4.3517853
20
79.1581996
40
0.329292
50
269.5962073
51
280.8789248
0
ARC
8
DEFAULT_255_1_234
10
4.3747382
20
79.0435685
40
0.2123908
50
280.6346389
51
299.8595945
0
ARC
8
DEFAULT_255_1_234
10
4.3938289
20
79.0073212
40
0.171457
50
300.3576302
51
314.5517981
0
ARC
8
DEFAULT_255_1_234
10
4.3855349
20
79.0133919
40
0.1816095
50
315.0728369
51
345.0431014
0
ARC
8
DEFAULT_255_1_234
10
4.2932163
20
79.0402841
40
0.2777492
50
344.5986631
51
357.9269593
0
ARC
8
DEFAULT_255_1_234
10
4.2036489
20
79.0464276
40
0.3674917
50
357.4748886
51
0.0231117
0
ARC
8
DEFAULT_255_1_234
10
4.3059599
20
79.0488679
40
0.2651907
50
359.5047933
51
13.4239635
0
ARC
8
DEFAULT_255_1_234
10
4.3926242
20
79.0710478
40
0.1757509
50
12.9498199
51
48.7551375
0
ARC
8
DEFAULT_255_1_234
10
4.3743976
20
79.04614
40
0.2065134
50
49.5088623
51
72.1836453
0
ARC
8
DEFAULT_255_1_234
10
4.3386129
20
78.9399291
40
0.3185836
50
71.9010081
51
84.3554254
0
ARC
8
DEFAULT_255_1_234
10
4.3224761
20
78.8038326
40
0.4556151
50
84.0193428
51
89.333121
0
LINE
8
DEFAULT_255_1_234
10
4.7663119
20
84.1365792
11
4.7663119
21
84.0153
0
LINE
8
DEFAULT_255_1_234
10
4.7663119
20
84.0153
11
4.000084
21
84.0153
0
LINE
8
DEFAULT_255_1_234
10
4.000084
20
84.0153
11
4.000084
21
84.1221221
0
LINE
8
DEFAULT_255_1_234
10
4.000084
20
84.1221221
11
4.4048836
21
84.5718995
0
LINE
8
DEFAULT_255_1_234
10
4.1261823
20
84.8401595
11
3.9775952
21
84.8401595
0
LINE
8
DEFAULT_255_1_234
10
4.4924296
20
84.4763218
11
4.1791918
21
84.1365792
0
LINE
8
DEFAULT_255_1_234
10
4.1791918
20
84.1365792
11
4.7663119
21
84.1365792
0
ARC
8
DEFAULT_255_1_234
10
3.055867
20
85.7648527
40
1.8008286
50
318.5132453
51
320.7828378
0
ARC
8
DEFAULT_255_1_234
10
3.5845644
20
85.3345426
40
1.1191493
50
320.7372736
51
323.9737074
0
ARC
8
DEFAULT_255_1_234
10
3.9765501
20
85.0505361
40
0.6350923
50
323.8961724
51
328.6421089
0
ARC
8
DEFAULT_255_1_234
10
4.1812096
20
84.9243031
40
0.3946393
50
328.8299013
51
331.789948
0
ARC
8
DEFAULT_255_1_234
10
4.2809274
20
84.8728509
40
0.2824501
50
331.4255242
51
352.9364833
0
ARC
8
DEFAULT_255_1_234
10
4.2945775
20
84.8697976
40
0.2685315
50
353.2248685
51
0.0169286
0
ARC
8
DEFAULT_255_1_234
10
4.3155652
20
84.872095
40
0.2475536
50
359.4866256
51
15.9339782
0
ARC
8
DEFAULT_255_1_234
10
4.3662637
20
84.8857286
40
0.1950618
50
16.1714718
51
43.5284424
0
ARC
8
DEFAULT_255_1_234
10
4.3739946
20
84.8934573
40
0.184134
50
43.4415429
51
83.1661404
0
ARC
8
DEFAULT_255_1_234
10
4.3605864
20
84.8197771
40
0.258926
50
82.160215
51
90.1505798
0
ARC
8
DEFAULT_255_1_234
10
4.3574291
20
84.7660865
40
0.3126255
50
89.5460705
51
102.5418777
0
ARC
8
DEFAULT_255_1_234
10
4.3331377
20
84.8691665
40
0.2067346
50
102.1739365
51
129.2061916
0
ARC
8
DEFAULT_255_1_234
10
4.3252449
20
84.8816094
40
0.1921118
50
129.7279328
51
135.7542026
0
ARC
8
DEFAULT_255_1_234
10
4.3373977
20
84.8719045
40
0.2075944
50
136.175737
51
166.3674722
0
ARC
8
DEFAULT_255_1_234
10
4.4380896
20
84.8449182
40
0.3118201
50
165.9092917
51
178.8683903
0
ARC
8
DEFAULT_255_1_234
10
4.5245757
20
84.8402179
40
0.3983935
50
178.438168
51
180.0083905
0
ARC
8
DEFAULT_255_1_234
10
4.3844359
20
84.8441231
40
0.4068601
50
163.2878735
51
180.5581814
0
ARC
8
DEFAULT_255_1_234
10
4.3042621
20
84.866184
40
0.3237344
50
133.454115
51
162.9470031
0
ARC
8
DEFAULT_255_1_234
10
4.3221162
20
84.8472
40
0.349795
50
100.7869394
51
133.4384016
0
ARC
8
DEFAULT_255_1_234
10
4.3568934
20
84.6923319
40
0.5084616
50
89.6605301
51
101.3704185
0
ARC
8
DEFAULT_255_1_234
10
4.3635273
20
84.6984496
40
0.502348
50
78.2171172
51
90.4130393
0
ARC
8
DEFAULT_255_1_234
10
4.3990351
20
84.8608637
40
0.3361092
50
55.9268222
51
78.4888551
0
ARC
8
DEFAULT_255_1_234
10
4.4186791
20
84.8947324
40
0.2970617
50
47.9292255
51
55.4054003
0
ARC
8
DEFAULT_255_1_234
10
4.4288352
20
84.9050502
40
0.2825983
50
4.3347696
51
48.0560701
0
ARC
8
DEFAULT_255_1_234
10
4.3192745
20
84.8880601
40
0.393225
50
359.925209
51
5.5967654
0
ARC
8
DEFAULT_255_1_234
10
4.3621637
20
84.8936816
40
0.3503892
50
337.8914096
51
358.9967724
0
ARC
8
DEFAULT_255_1_234
10
4.0908049
20
84.9983706
40
0.6412172
50
326.9135351
51
338.3505194
0
ARC
8
DEFAULT_255_1_234
10
3.6922353
20
85.2538284
40
1.1146189
50
319.6472867
51
327.095818
0
ARC
8
DEFAULT_255_1_234
10
3.3089356
20
85.57
40
1.6114559
50
317.2586784
51
319.9046139
0
LINE
8
DEFAULT_255_1_234
10
4.4801137
20
90.4820433
11
4.4801137
21
89.307
0
LINE
8
DEFAULT_255_1_234
10
4.4801137
20
89.307
11
4.3307234
21
89.307
0
LINE
8
DEFAULT_255_1_234
10
4.3307234
20
89.307
11
4.3307234
21
90.2973133
0
LINE
8
DEFAULT_255_1_234
10
4.3307234
20
90.2973133
11
4.0311396
21
90.1872785
0
LINE
8
DEFAULT_255_1_234
10
4.0311396
20
90.1872785
11
4.0311396
21
90.3222117
0
LINE
8
DEFAULT_255_1_234
10
4.0311396
20
90.3222117
11
4.4568217
21
90.4820433
0
LINE
8
DEFAULT_255_1_234
10
4.4568217
20
90.4820433
11
4.4801137
21
90.4820433
0
LINE
8
DEFAULT_255_1_234
10
4.7333817
20
95.2902327
11
4.7333817
21
95.0974709
0
LINE
8
DEFAULT_255_1_234
10
3.995265
20
95.0773916
11
3.995265
21
95.2757755
0
LINE
8
DEFAULT_255_1_234
10
4.5847946
20
95.0573123
11
4.5847946
21
95.3006739
0
LINE
8
DEFAULT_255_1_234
10
4.1438521
20
95.3119184
11
4.1438521
21
95.0741789
0
ARC
8
DEFAULT_255_1_234
10
3.5086707
20
95.0925805
40
1.2247208
50
353.8441951
51
0.2287902
0
ARC
8
DEFAULT_255_1_234
10
3.9726211
20
95.0407806
40
0.7578929
50
344.4934747
51
353.9765454
0
ARC
8
DEFAULT_255_1_234
10
4.2718801
20
94.9556981
40
0.4467846
50
329.2803592
51
344.7472793
0
ARC
8
DEFAULT_255_1_234
10
4.3711626
20
94.9012018
40
0.3336173
50
324.9352394
51
328.6160465
0
ARC
8
DEFAULT_255_1_234
10
4.4088734
20
94.8748427
40
0.2876076
50
280.580143
51
324.9173126
0
ARC
8
DEFAULT_255_1_234
10
4.3687527
20
95.0419099
40
0.4592847
50
269.5977311
51
281.6734359
0
ARC
8
DEFAULT_255_1_234
10
4.3615433
20
95.0299173
40
0.4472986
50
256.6228859
51
270.51044
0
ARC
8
DEFAULT_255_1_234
10
4.321341
20
94.8750877
40
0.2873874
50
215.8618325
51
257.2788573
0
ARC
8
DEFAULT_255_1_234
10
4.4234442
20
94.9435977
40
0.4102928
50
197.9693508
51
215.2623606
0
ARC
8
DEFAULT_255_1_234
10
4.6719558
20
95.0274709
40
0.6725652
50
187.8816417
51
198.2346507
0
ARC
8
DEFAULT_255_1_234
10
5.0677766
20
95.0846079
40
1.0724845
50
180.8976217
51
188.0055519
0
ARC
8
DEFAULT_255_1_234
10
5.3477954
20
95.0949777
40
1.3526448
50
180.7449369
51
181.1510016
0
ARC
8
DEFAULT_255_1_234
10
5.1900683
20
95.2806042
40
1.1948131
50
173.7675579
51
180.231553
0
ARC
8
DEFAULT_255_1_234
10
4.738283
20
95.3316666
40
0.7401564
50
164.3058563
51
173.9002247
0
ARC
8
DEFAULT_255_1_234
10
4.4470899
20
95.4155656
40
0.4371288
50
148.7922025
51
164.568378
0
ARC
8
DEFAULT_255_1_234
10
4.3519351
20
95.4686929
40
0.3282386
50
144.5883898
51
148.1176286
0
ARC
8
DEFAULT_255_1_234
10
4.3176249
20
95.4926315
40
0.2864044
50
101.6440918
51
144.514236
0
ARC
8
DEFAULT_255_1_234
10
4.3601315
20
95.3237069
40
0.4604934
50
89.5284041
51
102.5819763
0
ARC
8
DEFAULT_255_1_234
10
4.3680403
20
95.3198018
40
0.464401
50
77.0437873
51
90.5081339
0
ARC
8
DEFAULT_255_1_234
10
4.4082405
20
95.4840615
40
0.2953195
50
48.2778575
51
77.4994676
0
ARC
8
DEFAULT_255_1_234
10
4.4155036
20
95.4969746
40
0.2808655
50
36.3142134
51
47.6305865
0
ARC
8
DEFAULT_255_1_234
10
4.3286343
20
95.4384515
40
0.3855453
50
18.2931786
51
35.6769206
0
ARC
8
DEFAULT_255_1_234
10
4.0743102
20
95.3511593
40
0.654423
50
8.024666
51
18.5605216
0
ARC
8
DEFAULT_255_1_234
10
3.6580022
20
95.2896792
40
1.0752407
50
1.1274072
51
8.1718305
0
ARC
8
DEFAULT_255_1_234
10
3.3344213
20
95.2769885
40
1.3990231
50
0.5424119
51
1.3863029
0
ARC
8
DEFAULT_255_1_234
10
3.516559
20
95.3042342
40
1.0682415
50
359.8090433
51
4.9407866
0
ARC
8
DEFAULT_255_1_234
10
3.9375604
20
95.3418113
40
0.6455691
50
4.8362157
51
12.2904523
0
ARC
8
DEFAULT_255_1_234
10
4.2130719
20
95.4031965
40
0.3633074
50
12.0805627
51
23.8173984
0
ARC
8
DEFAULT_255_1_234
10
4.3304425
20
95.4528919
40
0.2358723
50
24.2871213
51
31.3935614
0
ARC
8
DEFAULT_255_1_234
10
4.3829122
20
95.4872233
40
0.1732111
50
30.7407893
51
82.4657128
0
ARC
8
DEFAULT_255_1_234
10
4.3649256
20
95.3988691
40
0.263235
50
81.1060089
51
90.2184952
0
ARC
8
DEFAULT_255_1_234
10
4.3613555
20
95.4246924
40
0.2374236
50
89.3806855
51
105.6762551
0
ARC
8
DEFAULT_255_1_234
10
4.3430186
20
95.4913567
40
0.1682847
50
105.7981136
51
149.7388061
0
ARC
8
DEFAULT_255_1_234
10
4.4494264
20
95.427395
40
0.2924306
50
149.4208916
51
163.6286378
0
ARC
8
DEFAULT_255_1_234
10
4.6585152
20
95.363625
40
0.5110213
50
163.3763315
51
172.1410975
0
ARC
8
DEFAULT_255_1_234
10
4.9885871
20
95.3163518
40
0.8444586
50
172.0259487
51
178.0703232
0
ARC
8
DEFAULT_255_1_234
10
5.291596
20
95.3019906
40
1.1477868
50
177.8631668
51
179.5044149
0
ARC
8
DEFAULT_255_1_234
10
5.1843365
20
95.0705389
40
1.0404907
50
179.7995573
51
185.2460446
0
ARC
8
DEFAULT_255_1_234
10
4.7800404
20
95.0322513
40
0.6343885
50
185.1411642
51
193.0079639
0
ARC
8
DEFAULT_255_1_234
10
4.5156877
20
94.9697641
40
0.3627568
50
192.7897626
51
205.2507664
0
ARC
8
DEFAULT_255_1_234
10
4.4110424
20
94.9230415
40
0.2481908
50
205.8005384
51
211.2537509
0
ARC
8
DEFAULT_255_1_234
10
4.3586864
20
94.887958
40
0.1852521
50
210.3789793
51
238.4008143
0
ARC
8
DEFAULT_255_1_234
10
4.3567386
20
94.8926376
40
0.1882621
50
239.6520629
51
265.9793761
0
ARC
8
DEFAULT_255_1_234
10
4.3652586
20
94.9598427
40
0.2559272
50
265.1315437
51
270.060332
0
ARC
8
DEFAULT_255_1_234
10
4.3681365
20
94.9274534
40
0.2235528
50
269.3314664
51
287.2178029
0
ARC
8
DEFAULT_255_1_234
10
4.3819217
20
94.8771279
40
0.1714108
50
287.7958004
51
329.080874
0
ARC
8
DEFAULT_255_1_234
10
4.2861674
20
94.936893
40
0.2842745
50
328.6634704
51
343.3325132
0
ARC
8
DEFAULT_255_1_234
10
4.0688694
20
95.0045863
40
0.5118644
50
343.0499468
51
351.9393422
0
ARC
8
DEFAULT_255_1_234
10
3.7221994
20
95.0556949
40
0.8622784
50
351.8069023
51
357.7959224
0
ARC
8
DEFAULT_255_1_234
10
3.398655
20
95.0724721
40
1.1862365
50
357.5871873
51
359.2677531
0
LINE
8
DEFAULT_255_1_234
10
4.8324119
20
100.0115792
11
4.8324119
21
99.8903
0
LINE
8
DEFAULT_255_1_234
10
4.8324119
20
99.8903
11
4.066184
21
99.8903
0
LINE
8
DEFAULT_255_1_234
10
4.066184
20
99.8903
11
4.066184
21
99.9971221
0
LINE
8
DEFAULT_255_1_234
10
4.066184
20
99.9971221
11
4.4709836
21
100.4468995
0
LINE
8
DEFAULT_255_1_234
10
4.1922823
20
100.7151595
11
4.0436952
21
100.7151595
0
LINE
8
DEFAULT_255_1_234
10
4.5585296
20
100.3513218
11
4.2452918
21
100.0115792
0
LINE
8
DEFAULT_255_1_234
10
4.2452918
20
100.0115792
11
4.8324119
21
100.0115792
0
ARC
8
DEFAULT_255_1_234
10
3.121967
20
101.6398527
40
1.8008286
50
318.5132453
51
320.7828378
0
ARC
8
DEFAULT_255_1_234
10
3.6506644
20
101.2095426
40
1.1191493
50
320.7372736
51
323.9737074
0
ARC
8
DEFAULT_255_1_234
10
4.0426501
20
100.9255361
40
0.6350923
50
323.8961724
51
328.6421089
0
ARC
8
DEFAULT_255_1_234
10
4.2473096
20
100.7993031
40
0.3946393
50
328.8299013
51
331.789948
0
ARC
8
DEFAULT_255_1_234
10
4.3470274
20
100.7478509
40
0.2824501
50
331.4255242
51
352.9364833
0
ARC
8
DEFAULT_255_1_234
10
4.3606775
20
100.7447976
40
0.2685315
50
353.2248685
51
0.0169286
0
ARC
8
DEFAULT_255_1_234
10
4.3816652
20
100.747095
40
0.2475536
50
359.4866256
51
15.9339782
0
ARC
8
DEFAULT_255_1_234
10
4.4323637
20
100.7607286
40
0.1950618
50
16.1714718
51
43.5284424
0
ARC
8
DEFAULT_255_1_234
10
4.4400946
20
100.7684573
40
0.184134
50
43.4415429
51
83.1661404
0
ARC
8
DEFAULT_255_1_234
10
4.4266864
20
100.6947771
40
0.258926
50
82.160215
51
90.1505798
0
ARC
8
DEFAULT_255_1_234
10
4.4235291
20
100.6410865
40
0.3126255
50
89.5460705
51
102.5418777
0
ARC
8
DEFAULT_255_1_234
10
4.3992377
20
100.7441665
40
0.2067346
50
102.1739365
51
129.2061916
0
ARC
8
DEFAULT_255_1_234
10
4.3913449
20
100.7566094
40
0.1921118
50
129.7279328
51
135.7542026
0
ARC
8
DEFAULT_255_1_234
10
4.4034977
20
100.7469045
40
0.2075944
50
136.175737
51
166.3674722
0
ARC
8
DEFAULT_255_1_234
10
4.5041896
20
100.7199182
40
0.3118201
50
165.9092917
51
178.8683903
0
ARC
8
DEFAULT_255_1_234
10
4.5906757
20
100.7152179
40
0.3983935
50
178.438168
51
180.0083905
0
ARC
8
DEFAULT_255_1_234
10
4.4505359
20
100.7191231
40
0.4068601
50
163.2878735
51
180.5581814
0
ARC
8
DEFAULT_255_1_234
10
4.3703621
20
100.741184
40
0.3237344
50
133.454115
51
162.9470031
0
ARC
8
DEFAULT_255_1_234
10
4.3882162
20
100.7222
40
0.349795
50
100.7869394
51
133.4384016
0
ARC
8
DEFAULT_255_1_234
10
4.4229934
20
100.5673319
40
0.5084616
50
89.6605301
51
101.3704185
0
ARC
8
DEFAULT_255_1_234
10
4.4296273
20
100.5734496
40
0.502348
50
78.2171172
51
90.4130393
0
ARC
8
DEFAULT_255_1_234
10
4.4651351
20
100.7358637
40
0.3361092
50
55.9268222
51
78.4888551
0
ARC
8
DEFAULT_255_1_234
10
4.4847791
20
100.7697324
40
0.2970617
50
47.9292255
51
55.4054003
0
ARC
8
DEFAULT_255_1_234
10
4.4949352
20
100.7800502
40
0.2825983
50
4.3347696
51
48.0560701
0
ARC
8
DEFAULT_255_1_234
10
4.3853745
20
100.7630601
40
0.393225
50
359.925209
51
5.5967654
0
ARC
8
DEFAULT_255_1_234
10
4.4282637
20
100.7686816
40
0.3503892
50
337.8914096
51
358.9967724
0
ARC
8
DEFAULT_255_1_234
10
4.1569049
20
100.8733706
40
0.6412172
50
326.9135351
51
338.3505194
0
ARC
8
DEFAULT_255_1_234
10
3.7583353
20
101.1288284
40
1.1146189
50
319.6472867
51
327.095818
0
ARC
8
DEFAULT_255_1_234
10
3.3750356
20
101.445
40
1.6114559
50
317.2586784
51
319.9046139
0
LINE
8
DEFAULT_255_1_234
10
5.9271378
20
101.0597211
11
5.9271378
21
99.8903
0
LINE
8
DEFAULT_255_1_234
10
5.9271378
20
99.8903
11
5.7721252
21
99.8903
0
LINE
8
DEFAULT_255_1_234
10
5.7721252
20
99.8903
11
5.1833988
21
100.791461
0
LINE
8
DEFAULT_255_1_234
10
5.1833988
20
100.791461
11
5.1833988
21
99.8903
0
LINE
8
DEFAULT_255_1_234
10
5.1833988
20
99.8903
11
5.0283863
21
99.8903
0
LINE
8
DEFAULT_255_1_234
10
5.0283863
20
99.8903
11
5.0283863
21
101.0597211
0
LINE
8
DEFAULT_255_1_234
10
5.0283863
20
101.0597211
11
5.1833988
21
101.0597211
0
LINE
8
DEFAULT_255_1_234
10
5.1833988
20
101.0597211
11
5.7737316
21
100.1545442
0
LINE
8
DEFAULT_255_1_234
10
5.7737316
20
100.1545442
11
5.7737316
21
101.0597211
0
LINE
8
DEFAULT_255_1_234
10
5.7737316
20
101.0597211
11
5.9271378
21
101.0597211
0
LINE
8
DEFAULT_255_1_234
10
4.7550674
20
106.3514211
11
4.7550674
21
106.267891
0
LINE
8
DEFAULT_255_1_234
10
4.7550674
20
106.267891
11
4.2707536
21
105.182
0
LINE
8
DEFAULT_255_1_234
10
4.2707536
20
105.182
11
4.1149379
21
105.182
0
LINE
8
DEFAULT_255_1_234
10
4.1149379
20
105.182
11
4.5976454
21
106.2293387
0
LINE
8
DEFAULT_255_1_234
10
4.5976454
20
106.2293387
11
3.9647444
21
106.2293387
0
LINE
8
DEFAULT_255_1_234
10
3.9647444
20
106.2293387
11
3.9647444
21
106.3514211
0
LINE
8
DEFAULT_255_1_234
10
3.9647444
20
106.3514211
11
4.7550674
21
106.3514211
0
LINE
8
DEFAULT_255_1_234
10
4.5566835
20
111.6439243
11
4.5831882
21
111.6439243
0
LINE
8
DEFAULT_255_1_234
10
4.5831882
20
111.6439243
11
4.5831882
21
111.517826
0
LINE
8
DEFAULT_255_1_234
10
4.5831882
20
111.517826
11
4.5558803
21
111.517826
0
LINE
8
DEFAULT_255_1_234
10
4.0089189
20
110.9186583
11
4.0089189
21
110.9756836
0
LINE
8
DEFAULT_255_1_234
10
4.1583093
20
110.9564075
11
4.1583093
21
110.9017917
0
ARC
8
DEFAULT_255_1_234
10
4.5611151
20
111.0180455
40
0.4998079
50
90.6001036
51
104.514704
0
ARC
8
DEFAULT_255_1_234
10
4.5222667
20
111.1625131
40
0.3502176
50
104.2855254
51
133.862935
0
ARC
8
DEFAULT_255_1_234
10
4.5386424
20
111.151683
40
0.3693984
50
134.5302688
51
161.6210873
0
ARC
8
DEFAULT_255_1_234
10
4.7039613
20
111.0933895
40
0.5446739
50
161.2849839
51
174.2076652
0
ARC
8
DEFAULT_255_1_234
10
4.844655
20
111.0739787
40
0.6866274
50
173.7810589
51
174.9254635
0
ARC
8
DEFAULT_255_1_234
10
4.3896382
20
110.9356839
40
0.3033419
50
95.8330959
51
138.9954921
0
ARC
8
DEFAULT_255_1_234
10
4.4119738
20
110.8078375
40
0.4328947
50
89.8753725
51
97.0544009
0
ARC
8
DEFAULT_255_1_234
10
4.4167204
20
110.8913748
40
0.3493769
50
71.6407809
51
90.6240094
0
ARC
8
DEFAULT_255_1_234
10
4.4317777
20
110.9468082
40
0.2920396
50
39.6367836
51
71.019018
0
ARC
8
DEFAULT_255_1_234
10
4.368125
20
110.8917998
40
0.3761538
50
10.658731
51
39.9043955
0
ARC
8
DEFAULT_255_1_234
10
4.2133333
20
110.8581686
40
0.5345136
50
359.682601
51
11.132623
0
ARC
8
DEFAULT_255_1_234
10
4.2093464
20
110.851101
40
0.5385081
50
347.2486944
51
0.4369317
0
ARC
8
DEFAULT_255_1_234
10
4.3760941
20
110.8109807
40
0.3670249
50
318.1409698
51
347.6118597
0
ARC
8
DEFAULT_255_1_234
10
4.4085934
20
110.7842702
40
0.3250007
50
275.6342139
51
317.8248465
0
ARC
8
DEFAULT_255_1_234
10
4.3865045
20
110.9142219
40
0.4565864
50
269.8874292
51
276.7917694
0
ARC
8
DEFAULT_255_1_234
10
4.3810116
20
110.8116743
40
0.3540676
50
246.9140195
51
270.7437342
0
ARC
8
DEFAULT_255_1_234
10
4.3816506
20
110.7974384
40
0.3412781
50
218.1665114
51
245.878116
0
ARC
8
DEFAULT_255_1_234
10
4.4695967
20
110.8710279
40
0.455911
50
191.4115814
51
218.6077802
0
ARC
8
DEFAULT_255_1_234
10
4.6634056
20
110.9144833
40
0.6545001
50
179.6345085
51
191.7836486
0
ARC
8
DEFAULT_255_1_234
10
5.2216393
20
110.9823697
40
1.2127388
50
171.4525249
51
180.3158839
0
ARC
8
DEFAULT_255_1_234
10
4.7821269
20
111.0507608
40
0.7679464
50
157.9802646
51
171.6246686
0
ARC
8
DEFAULT_255_1_234
10
4.560729
20
111.1390421
40
0.5296008
50
141.4298019
51
157.854097
0
ARC
8
DEFAULT_255_1_234
10
4.496561
20
111.1844381
40
0.4511509
50
102.8715806
51
140.8564722
0
ARC
8
DEFAULT_255_1_234
10
4.5613226
20
110.9404552
40
0.7034845
50
90.3778349
51
103.5869322
0
ARC
8
DEFAULT_255_1_234
10
4.3875002
20
110.879973
40
0.2370698
50
89.8751008
51
126.2071704
0
ARC
8
DEFAULT_255_1_234
10
4.3920792
20
110.8645303
40
0.2522934
50
124.9745049
51
144.895901
0
ARC
8
DEFAULT_255_1_234
10
4.3744982
20
110.878856
40
0.2296779
50
145.2974905
51
160.2660252
0
ARC
8
DEFAULT_255_1_234
10
4.6817521
20
110.8986071
40
0.5234525
50
179.6514266
51
190.2855912
0
ARC
8
DEFAULT_255_1_234
10
4.5123658
20
110.8666786
40
0.3510893
50
190.0945431
51
207.5098196
0
ARC
8
DEFAULT_255_1_234
10
4.4557928
20
110.8397623
40
0.288489
50
207.9583163
51
216.3251085
0
ARC
8
DEFAULT_255_1_234
10
4.4218036
20
110.8118105
40
0.2445587
50
215.7661442
51
232.5456785
0
ARC
8
DEFAULT_255_1_234
10
4.3835019
20
110.7631482
40
0.1826382
50
232.8005391
51
270.6605633
0
ARC
8
DEFAULT_255_1_234
10
4.388072
20
110.7995612
40
0.2190529
50
269.35537
51
288.4744281
0
ARC
8
DEFAULT_255_1_234
10
4.3973617
20
110.7646118
40
0.1829749
50
289.1833337
51
322.9683818
0
ARC
8
DEFAULT_255_1_234
10
4.3362139
20
110.8128391
40
0.2608399
50
322.6007884
51
346.5182367
0
ARC
8
DEFAULT_255_1_234
10
4.2204735
20
110.8423616
40
0.3802777
50
346.2582162
51
358.7741648
0
ARC
8
DEFAULT_255_1_234
10
4.1186404
20
110.8478965
40
0.4822176
50
358.3755224
51
0.0098023
0
ARC
8
DEFAULT_255_1_234
10
4.1942591
20
110.8506657
40
0.4066078
50
359.6214041
51
11.2839074
0
ARC
8
DEFAULT_255_1_234
10
4.3219738
20
110.8773066
40
0.2761514
50
11.0482309
51
31.8146458
0
ARC
8
DEFAULT_255_1_234
10
4.3528781
20
110.8940584
40
0.2410679
50
32.3035391
51
38.082671
0
ARC
8
DEFAULT_255_1_234
10
4.3949441
20
110.9321662
40
0.1844966
50
36.825067
51
85.7415724
0
ARC
8
DEFAULT_255_1_234
10
4.3882274
20
110.8821301
40
0.2349122
50
85.0140713
51
90.0513278
0
LINE
8
DEFAULT_255_1_234
10
4.1872235
20
116.3210963
11
4.0683538
21
116.3516169
0
LINE
8
DEFAULT_255_1_234
10
4.0683538
20
116.3516169
11
4.1277887
21
116.9347211
0
LINE
8
DEFAULT_255_1_234
10
4.1277887
20
116.9347211
11
4.7269563
21
116.9347211
0
LINE
8
DEFAULT_255_1_234
10
4.7269563
20
116.9347211
11
4.7269563
21
116.7973784
0
LINE
8
DEFAULT_255_1_234
10
4.7269563
20
116.7973784
11
4.253887
21
116.7973784
0
LINE
8
DEFAULT_255_1_234
10
4.253887
20
116.7973784
11
4.2185473
21
116.4785184
0
LINE
8
DEFAULT_255_1_234
10
4.0265888
20
116.0729156
11
4.1671442
21
116.0729156
0
LINE
8
DEFAULT_255_1_234
10
4.2265791
20
116.3532232
11
4.1872235
21
116.3210963
0
ARC
8
DEFAULT_255_1_234
10
4.4040257
20
116.160523
40
0.3681349
50
93.7182161
51
120.2538958
0
ARC
8
DEFAULT_255_1_234
10
4.413452
20
116.0797394
40
0.449379
50
89.9660152
51
94.2496022
0
ARC
8
DEFAULT_255_1_234
10
4.4175254
20
116.1386549
40
0.390482
50
73.8043271
51
90.5585896
0
ARC
8
DEFAULT_255_1_234
10
4.4410151
20
116.2244602
40
0.3015334
50
41.3071453
51
73.5430202
0
ARC
8
DEFAULT_255_1_234
10
4.3993978
20
116.1886324
40
0.3564457
50
13.5075983
51
41.2174222
0
ARC
8
DEFAULT_255_1_234
10
4.2352182
20
116.1456486
40
0.5261351
50
1.1331335
51
13.8829381
0
ARC
8
DEFAULT_255_1_234
10
4.0940551
20
116.1380665
40
0.6674378
50
359.9919444
51
1.544251
0
ARC
8
DEFAULT_255_1_234
10
4.2217377
20
116.133928
40
0.5397702
50
347.8572367
51
0.4293338
0
ARC
8
DEFAULT_255_1_234
10
4.3967695
20
116.0942736
40
0.3603188
50
323.673004
51
348.1672506
0
ARC
8
DEFAULT_255_1_234
10
4.4262203
20
116.0763168
40
0.3259678
50
316.8171152
51
323.1492751
0
ARC
8
DEFAULT_255_1_234
10
4.4323392
20
116.072646
40
0.3189975
50
281.8396411
51
316.5457803
0
ARC
8
DEFAULT_255_1_234
10
4.3947656
20
116.2281762
40
0.4789527
50
269.5770101
51
282.4214771
0
ARC
8
DEFAULT_255_1_234
10
4.3876467
20
116.2068125
40
0.45759
50
256.2427136
51
270.4486331
0
ARC
8
DEFAULT_255_1_234
10
4.357737
20
116.0868229
40
0.3339303
50
228.9023911
51
256.3314342
0
ARC
8
DEFAULT_255_1_234
10
4.3503602
20
116.0751746
40
0.32031
50
193.753695
51
228.5271154
0
ARC
8
DEFAULT_255_1_234
10
4.4741556
20
116.11148
40
0.4492253
50
184.924711
51
194.497588
0
ARC
8
DEFAULT_255_1_234
10
4.4934123
20
116.1150591
40
0.3289787
50
187.3600538
51
198.6732863
0
ARC
8
DEFAULT_255_1_234
10
4.3884417
20
116.0786674
40
0.217884
50
198.4451669
51
217.794479
0
ARC
8
DEFAULT_255_1_234
10
4.3588592
20
116.0577085
40
0.1816698
50
218.2887171
51
228.5612368
0
ARC
8
DEFAULT_255_1_234
10
4.3686379
20
116.0708963
40
0.1980329
50
228.9654866
51
258.1234728
0
ARC
8
DEFAULT_255_1_234
10
4.3892089
20
116.1589833
40
0.2884748
50
257.7258293
51
270.401361
0
ARC
8
DEFAULT_255_1_234
10
4.3936975
20
116.1144821
40
0.2439788
50
269.4204404
51
286.4209037
0
ARC
8
DEFAULT_255_1_234
10
4.4085463
20
116.0605657
40
0.1880666
50
286.7251356
51
320.600362
0
ARC
8
DEFAULT_255_1_234
10
4.3702288
20
116.0916595
40
0.2374121
50
320.6712579
51
344.5441685
0
ARC
8
DEFAULT_255_1_234
10
4.2545614
20
116.1256045
40
0.3579479
50
344.2412205
51
356.7357071
0
ARC
8
DEFAULT_255_1_234
10
4.1296763
20
116.1359444
40
0.4832297
50
356.3548756
51
0.0500261
0
ARC
8
DEFAULT_255_1_234
10
4.2633272
20
116.139065
40
0.3495889
50
359.5576869
51
12.953486
0
ARC
8
DEFAULT_255_1_234
10
4.3688169
20
116.1646434
40
0.2410532
50
12.6490276
51
41.6081334
0
ARC
8
DEFAULT_255_1_234
10
4.391854
20
116.1842321
40
0.2108218
50
41.7850273
51
85.9892764
0
ARC
8
DEFAULT_255_1_234
10
4.3795277
20
116.1029462
40
0.2928454
50
84.6957577
51
90.0676183
0
ARC
8
DEFAULT_255_1_234
10
4.3771761
20
116.0360716
40
0.3597255
50
89.6804936
51
99.1614436
0
ARC
8
DEFAULT_255_1_234
10
4.3566392
20
116.1588131
40
0.235281
50
98.9830931
51
113.8908934
0
ARC
8
DEFAULT_255_1_234
10
4.3336802
20
116.2129587
40
0.176479
50
114.1950727
51
127.3641004
0
LINE
8
DEFAULT_255_1_234
10
4.8389628
20
122.2264211
11
4.8389628
21
121.449752
0
LINE
8
DEFAULT_255_1_234
10
4.8389628
20
121.449752
11
5.0012039
21
121.449752
0
LINE
8
DEFAULT_255_1_234
10
5.0012039
20
121.449752
11
5.0012039
21
121.3284728
0
LINE
8
DEFAULT_255_1_234
10
5.0012039
20
121.3284728
11
4.8389628
21
121.3284728
0
LINE
8
DEFAULT_255_1_234
10
4.8389628
20
121.3284728
11
4.8389628
21
121.057
0
LINE
8
DEFAULT_255_1_234
10
4.8389628
20
121.057
11
4.6895725
21
121.057
0
LINE
8
DEFAULT_255_1_234
10
4.6895725
20
121.057
11
4.6895725
21
121.3284728
0
LINE
8
DEFAULT_255_1_234
10
4.6895725
20
121.3284728
11
4.1570682
21
121.3284728
0
LINE
8
DEFAULT_255_1_234
10
4.1570682
20
121.3284728
11
4.1570682
21
121.4160187
0
LINE
8
DEFAULT_255_1_234
10
4.1570682
20
121.4160187
11
4.6807375
21
122.2264211
0
LINE
8
DEFAULT_255_1_234
10
4.6807375
20
122.2264211
11
4.8389628
21
122.2264211
0
LINE
8
DEFAULT_255_1_234
10
4.6719026
20
121.9910912
11
4.3257347
21
121.449752
0
LINE
8
DEFAULT_255_1_234
10
4.3257347
20
121.449752
11
4.6895725
21
121.449752
0
LINE
8
DEFAULT_255_1_234
10
4.6895725
20
121.449752
11
4.6895725
21
122.0232181
0
LINE
8
DEFAULT_255_1_234
10
4.6895725
20
122.0232181
11
4.6719026
21
121.9910912
0
LINE
8
DEFAULT_255_1_234
10
4.2161378
20
126.8844169
11
4.2161378
21
127.0056962
0
LINE
8
DEFAULT_255_1_234
10
4.2161378
20
127.0056962
11
4.327779
21
127.0056962
0
LINE
8
DEFAULT_255_1_234
10
4.1374268
20
127.2113087
11
3.9888396
21
127.2113087
0
LINE
8
DEFAULT_255_1_234
10
3.9783983
20
126.6571188
11
4.1277887
21
126.6571188
0
LINE
8
DEFAULT_255_1_234
10
4.327779
20
126.8844169
11
4.2161378
21
126.8844169
0
ARC
8
DEFAULT_255_1_234
10
4.3248656
20
127.3449713
40
0.3392876
50
270.4919872
51
281.8951556
0
ARC
8
DEFAULT_255_1_234
10
4.3489918
20
127.2347702
40
0.2264817
50
281.6691735
51
301.2943132
0
ARC
8
DEFAULT_255_1_234
10
4.3660128
20
127.2036304
40
0.1910381
50
301.7833094
51
311.7545298
0
ARC
8
DEFAULT_255_1_234
10
4.3751704
20
127.1934748
40
0.1773635
50
311.7323931
51
354.2802411
0
ARC
8
DEFAULT_255_1_234
10
4.3025329
20
127.2059722
40
0.2509385
50
353.0937916
51
0.1181479
0
ARC
8
DEFAULT_255_1_234
10
4.2564114
20
127.2107386
40
0.2970898
50
359.1805295
51
15.0453146
0
ARC
8
DEFAULT_255_1_234
10
4.3909951
20
127.2499992
40
0.1569564
50
13.9577229
51
77.6713066
0
ARC
8
DEFAULT_255_1_234
10
4.352348
20
127.1114949
40
0.3006298
50
76.1116566
51
90.7026153
0
ARC
8
DEFAULT_255_1_234
10
4.3464318
20
127.1388545
40
0.2732568
50
89.5324876
51
103.531937
0
ARC
8
DEFAULT_255_1_234
10
4.3263762
20
127.2187884
40
0.1908508
50
103.2931773
51
133.5619022
0
ARC
8
DEFAULT_255_1_234
10
4.3219251
20
127.2247375
40
0.1834746
50
133.8349307
51
173.5344437
0
ARC
8
DEFAULT_255_1_234
10
4.3942294
20
127.2119213
40
0.2568033
50
172.5096846
51
180.1366907
0
ARC
8
DEFAULT_255_1_234
10
4.2991188
20
127.2153622
40
0.3103056
50
155.3484492
51
180.7484736
0
ARC
8
DEFAULT_255_1_234
10
4.2942277
20
127.2124846
40
0.3070957
50
131.5744599
51
154.4798489
0
ARC
8
DEFAULT_255_1_234
10
4.3255424
20
127.180831
40
0.3515643
50
96.9875458
51
131.9690667
0
ARC
8
DEFAULT_255_1_234
10
4.3474904
20
127.0562636
40
0.4779224
50
89.8596053
51
97.7825159
0
ARC
8
DEFAULT_255_1_234
10
4.3522967
20
127.0300616
40
0.5041361
50
78.3655447
51
90.4131539
0
ARC
8
DEFAULT_255_1_234
10
4.3880885
20
127.1959887
40
0.3344039
50
56.6229102
51
78.638727
0
ARC
8
DEFAULT_255_1_234
10
4.4095829
20
127.2335805
40
0.2912001
50
47.0253525
51
56.0854072
0
ARC
8
DEFAULT_255_1_234
10
4.4115609
20
127.2375223
40
0.2869704
50
10.9208013
51
46.7778124
0
ARC
8
DEFAULT_255_1_234
10
4.2751675
20
127.2059857
40
0.426899
50
359.6364486
51
11.6087304
0
ARC
8
DEFAULT_255_1_234
10
4.4586519
20
127.2044752
40
0.243409
50
332.3549906
51
359.7179418
0
ARC
8
DEFAULT_255_1_234
10
4.3936121
20
127.2353142
40
0.3153459
50
325.2333722
51
332.8745602
0
ARC
8
DEFAULT_255_1_234
10
4.4088744
20
127.2246828
40
0.2967456
50
292.9802137
51
325.2392345
0
ARC
8
DEFAULT_255_1_234
10
4.3814118
20
127.2780863
40
0.3566604
50
292.5402179
51
293.6924929
0
ARC
8
DEFAULT_255_1_234
10
4.4206714
20
126.6326091
40
0.3307468
50
57.6435486
51
72.8625112
0
ARC
8
DEFAULT_255_1_234
10
4.4561214
20
126.6900549
40
0.2632492
50
36.7248896
51
57.4697979
0
ARC
8
DEFAULT_255_1_234
10
4.4549847
20
126.691322
40
0.2634081
50
8.0545065
51
36.356114
0
ARC
8
DEFAULT_255_1_234
10
4.3687032
20
126.6758174
40
0.3510261
50
359.8320645
51
8.5869982
0
ARC
8
DEFAULT_255_1_234
10
4.3311808
20
126.6710101
40
0.3885653
50
343.9829931
51
0.5571613
0
ARC
8
DEFAULT_255_1_234
10
4.4198005
20
126.6467438
40
0.2966924
50
311.6359546
51
343.7651759
0
ARC
8
DEFAULT_255_1_234
10
4.3819574
20
126.6894102
40
0.3537231
50
279.7829875
51
311.6255694
0
ARC
8
DEFAULT_255_1_234
10
4.3518351
20
126.833128
40
0.5004971
50
269.7286406
51
280.3856417
0
ARC
8
DEFAULT_255_1_234
10
4.3456423
20
126.8289996
40
0.4963778
50
256.6828919
51
270.4412052
0
ARC
8
DEFAULT_255_1_234
10
4.3117719
20
126.6905394
40
0.3538406
50
229.4223008
51
256.8556159
0
ARC
8
DEFAULT_255_1_234
10
4.2703112
20
126.6438736
40
0.2914296
50
181.818294
51
229.6455059
0
ARC
8
DEFAULT_255_1_234
10
4.3743068
20
126.6569496
40
0.3959084
50
179.9755256
51
183.2323064
0
ARC
8
DEFAULT_255_1_234
10
4.3570814
20
126.6549037
40
0.2293034
50
179.4465117
51
196.2869258
0
ARC
8
DEFAULT_255_1_234
10
4.3083222
20
126.6415651
40
0.1787621
50
196.5661473
51
227.705904
0
ARC
8
DEFAULT_255_1_234
10
4.3247317
20
126.6599155
40
0.2033784
50
227.7652068
51
257.8762805
0
ARC
8
DEFAULT_255_1_234
10
4.3472287
20
126.7542156
40
0.3003081
50
257.4584385
51
270.426602
0
ARC
8
DEFAULT_255_1_234
10
4.3517853
20
126.7831996
40
0.329292
50
269.5962073
51
280.8789248
0
ARC
8
DEFAULT_255_1_234
10
4.3747382
20
126.6685685
40
0.2123908
50
280.6346389
51
299.8595945
0
ARC
8
DEFAULT_255_1_234
10
4.3938289
20
126.6323212
40
0.171457
50
300.3576302
51
314.5517981
0
ARC
8
DEFAULT_255_1_234
10
4.3855349
20
126.6383919
40
0.1816095
50
315.0728369
51
345.0431014
0
ARC
8
DEFAULT_255_1_234
10
4.2932163
20
126.6652841
40
0.2777492
50
344.5986631
51
357.9269593
0
ARC
8
DEFAULT_255_1_234
10
4.2036489
20
126.6714276
40
0.3674917
50
357.4748886
51
0.0231117
0
ARC
8
DEFAULT_255_1_234
10
4.3059599
20
126.6738679
40
0.2651907
50
359.5047933
51
13.4239635
0
ARC
8
DEFAULT_255_1_234
10
4.3926242
20
126.6960478
40
0.1757509
50
12.9498199
51
48.7551375
0
ARC
8
DEFAULT_255_1_234
10
4.3743976
20
126.67114
40
0.2065134
50
49.5088623
51
72.1836453
0
ARC
8
DEFAULT_255_1_234
10
4.3386129
20
126.5649291
40
0.3185836
50
71.9010081
51
84.3554254
0
ARC
8
DEFAULT_255_1_234
10
4.3224761
20
126.4288326
40
0.4556151
50
84.0193428
51
89.333121
0
LINE
8
DEFAULT_255_1_234
10
4.7663119
20
131.7615792
11
4.7663119
21
131.6403
0
LINE
8
DEFAULT_255_1_234
10
4.7663119
20
131.6403
11
4.000084
21
131.6403
0
LINE
8
DEFAULT_255_1_234
10
4.000084
20
131.6403
11
4.000084
21
131.7471221
0
LINE
8
DEFAULT_255_1_234
10
4.000084
20
131.7471221
11
4.4048836
21
132.1968995
0
LINE
8
DEFAULT_255_1_234
10
4.1261823
20
132.4651595
11
3.9775952
21
132.4651595
0
LINE
8
DEFAULT_255_1_234
10
4.4924296
20
132.1013218
11
4.1791918
21
131.7615792
0
LINE
8
DEFAULT_255_1_234
10
4.1791918
20
131.7615792
11
4.7663119
21
131.7615792
0
ARC
8
DEFAULT_255_1_234
10
3.055867
20
133.3898527
40
1.8008286
50
318.5132453
51
320.7828378
0
ARC
8
DEFAULT_255_1_234
10
3.5845644
20
132.9595426
40
1.1191493
50
320.7372736
51
323.9737074
0
ARC
8
DEFAULT_255_1_234
10
3.9765501
20
132.6755361
40
0.6350923
50
323.8961724
51
328.6421089
0
ARC
8
DEFAULT_255_1_234
10
4.1812096
20
132.5493031
40
0.3946393
50
328.8299013
51
331.789948
0
ARC
8
DEFAULT_255_1_234
10
4.2809274
20
132.4978509
40
0.2824501
50
331.4255242
51
352.9364833
0
ARC
8
DEFAULT_255_1_234
10
4.2945775
20
132.4947976
40
0.2685315
50
353.2248685
51
0.0169286
0
ARC
8
DEFAULT_255_1_234
10
4.3155652
20
132.497095
40
0.2475536
50
359.4866256
51
15.9339782
0
ARC
8
DEFAULT_255_1_234
10
4.3662637
20
132.5107286
40
0.1950618
50
16.1714718
51
43.5284424
0
ARC
8
DEFAULT_255_1_234
10
4.3739946
20
132.5184573
40
0.184134
50
43.4415429
51
83.1661404
0
ARC
8
DEFAULT_255_1_234
10
4.3605864
20
132.4447771
40
0.258926
50
82.160215
51
90.1505798
0
ARC
8
DEFAULT_255_1_234
10
4.3574291
20
132.3910865
40
0.3126255
50
89.5460705
51
102.5418777
0
ARC
8
DEFAULT_255_1_234
10
4.3331377
20
132.4941665
40
0.2067346
50
102.1739365
51
129.2061916
0
ARC
8
DEFAULT_255_1_234
10
4.3252449
20
132.5066094
40
0.1921118
50
129.7279328
51
135.7542026
0
ARC
8
DEFAULT_255_1_234
10
4.3373977
20
132.4969045
40
0.2075944
50
136.175737
51
166.3674722
0
ARC
8
DEFAULT_255_1_234
10
4.4380896
20
132.4699182
40
0.3118201
50
165.9092917
51
178.8683903
0
ARC
8
DEFAULT_255_1_234
10
4.5245757
20
132.4652179
40
0.3983935
50
178.438168
51
180.0083905
0
ARC
8
DEFAULT_255_1_234
10
4.3844359
20
132.4691231
40
0.4068601
50
163.2878735
51
180.5581814
0
ARC
8
DEFAULT_255_1_234
10
4.3042621
20
132.491184
40
0.3237344
50
133.454115
51
162.9470031
0
ARC
8
DEFAULT_255_1_234
10
4.3221162
20
132.4722
40
0.349795
50
100.7869394
51
133.4384016
0
ARC
8
DEFAULT_255_1_234
10
4.3568934
20
132.3173319
40
0.5084616
50
89.6605301
51
101.3704185
0
ARC
8
DEFAULT_255_1_234
10
4.3635273
20
132.3234496
40
0.502348
50
78.2171172
51
90.4130393
0
ARC
8
DEFAULT_255_1_234
10
4.3990351
20
132.4858637
40
0.3361092
50
55.9268222
51
78.4888551
0
ARC
8
DEFAULT_255_1_234
10
4.4186791
20
132.5197324
40
0.2970617
50
47.9292255
51
55.4054003
0
ARC
8
DEFAULT_255_1_234
10
4.4288352
20
132.5300502
40
0.2825983
50
4.3347696
51
48.0560701
0
ARC
8
DEFAULT_255_1_234
10
4.3192745
20
132.5130601
40
0.393225
50
359.925209
51
5.5967654
0
ARC
8
DEFAULT_255_1_234
10
4.3621637
20
132.5186816
40
0.3503892
50
337.8914096
51
358.9967724
0
ARC
8
DEFAULT_255_1_234
10
4.0908049
20
132.6233706
40
0.6412172
50
326.9135351
51
338.3505194
0
ARC
8
DEFAULT_255_1_234
10
3.6922353
20
132.8788284
40
1.1146189
50
319.6472867
51
327.095818
0
ARC
8
DEFAULT_255_1_234
10
3.3089356
20
133.195
40
1.6114559
50
317.2586784
51
319.9046139
0
LINE
8
DEFAULT_255_1_234
10
4.4801137
20
138.1070433
11
4.4801137
21
136.932
0
LINE
8
DEFAULT_255_1_234
10
4.4801137
20
136.932
11
4.3307234
21
136.932
0
LINE
8
DEFAULT_255_1_234
10
4.3307234
20
136.932
11
4.3307234
21
137.9223133
0
LINE
8
DEFAULT_255_1_234
10
4.3307234
20
137.9223133
11
4.0311396
21
137.8122785
0
LINE
8
DEFAULT_255_1_234
10
4.0311396
20
137.8122785
11
4.0311396
21
137.9472117
0
LINE
8
DEFAULT_255_1_234
10
4.0311396
20
137.9472117
11
4.4568217
21
138.1070433
0
LINE
8
DEFAULT_255_1_234
10
4.4568217
20
138.1070433
11
4.4801137
21
138.1070433
0
LINE
8
DEFAULT_255_1_234
10
4.7333817
20
142.9152327
11
4.7333817
21
142.7224709
0
LINE
8
DEFAULT_255_1_234
10
3.995265
20
142.7023916
11
3.995265
21
142.9007755
0
LINE
8
DEFAULT_255_1_234
10
4.5847946
20
142.6823123
11
4.5847946
21
142.9256739
0
LINE
8
DEFAULT_255_1_234
10
4.1438521
20
142.9369184
11
4.1438521
21
142.6991789
0
ARC
8
DEFAULT_255_1_234
10
3.5086707
20
142.7175805
40
1.2247208
50
353.8441951
51
0.2287902
0
ARC
8
DEFAULT_255_1_234
10
3.9726211
20
142.6657806
40
0.7578929
50
344.4934747
51
353.9765454
0
ARC
8
DEFAULT_255_1_234
10
4.2718801
20
142.5806981
40
0.4467846
50
329.2803592
51
344.7472793
0
ARC
8
DEFAULT_255_1_234
10
4.3711626
20
142.5262018
40
0.3336173
50
324.9352394
51
328.6160465
0
ARC
8
DEFAULT_255_1_234
10
4.4088734
20
142.4998427
40
0.2876076
50
280.580143
51
324.9173126
0
ARC
8
DEFAULT_255_1_234
10
4.3687527
20
142.6669099
40
0.4592847
50
269.5977311
51
281.6734359
0
ARC
8
DEFAULT_255_1_234
10
4.3615433
20
142.6549173
40
0.4472986
50
256.6228859
51
270.51044
0
ARC
8
DEFAULT_255_1_234
10
4.321341
20
142.5000877
40
0.2873874
50
215.8618325
51
257.2788573
0
ARC
8
DEFAULT_255_1_234
10
4.4234442
20
142.5685977
40
0.4102928
50
197.9693508
51
215.2623606
0
ARC
8
DEFAULT_255_1_234
10
4.6719558
20
142.6524709
40
0.6725652
50
187.8816417
51
198.2346507
0
ARC
8
DEFAULT_255_1_234
10
5.0677766
20
142.7096079
40
1.0724845
50
180.8976217
51
188.0055519
0
ARC
8
DEFAULT_255_1_234
10
5.3477954
20
142.7199777
40
1.3526448
50
180.7449369
51
181.1510016
0
ARC
8
DEFAULT_255_1_234
10
5.1900683
20
142.9056042
40
1.1948131
50
173.7675579
51
180.231553
0
ARC
8
DEFAULT_255_1_234
10
4.738283
20
142.9566666
40
0.7401564
50
164.3058563
51
173.9002247
0
ARC
8
DEFAULT_255_1_234
10
4.4470899
20
143.0405656
40
0.4371288
50
148.7922025
51
164.568378
0
ARC
8
DEFAULT_255_1_234
10
4.3519351
20
143.0936929
40
0.3282386
50
144.5883898
51
148.1176286
0
ARC
8
DEFAULT_255_1_234
10
4.3176249
20
143.1176315
40
0.2864044
50
101.6440918
51
144.514236
0
ARC
8
DEFAULT_255_1_234
10
4.3601315
20
142.9487069
40
0.4604934
50
89.5284041
51
102.5819763
0
ARC
8
DEFAULT_255_1_234
10
4.3680403
20
142.9448018
40
0.464401
50
77.0437873
51
90.5081339
0
ARC
8
DEFAULT_255_1_234
10
4.4082405
20
143.1090615
40
0.2953195
50
48.2778575
51
77.4994676
0
ARC
8
DEFAULT_255_1_234
10
4.4155036
20
143.1219746
40
0.2808655
50
36.3142134
51
47.6305865
0
ARC
8
DEFAULT_255_1_234
10
4.3286343
20
143.0634515
40
0.3855453
50
18.2931786
51
35.6769206
0
ARC
8
DEFAULT_255_1_234
10
4.0743102
20
142.9761593
40
0.654423
50
8.024666
51
18.5605216
0
ARC
8
DEFAULT_255_1_234
10
3.6580022
20
142.9146792
40
1.0752407
50
1.1274072
51
8.1718305
0
ARC
8
DEFAULT_255_1_234
10
3.3344213
20
142.9019885
40
1.3990231
50
0.5424119
51
1.3863029
0
ARC
8
DEFAULT_255_1_234
10
3.516559
20
142.9292342
40
1.0682415
50
359.8090433
51
4.9407866
0
ARC
8
DEFAULT_255_1_234
10
3.9375604
20
142.9668113
40
0.6455691
50
4.8362157
51
12.2904523
0
ARC
8
DEFAULT_255_1_234
10
4.2130719
20
143.0281965
40
0.3633074
50
12.0805627
51
23.8173984
0
ARC
8
DEFAULT_255_1_234
10
4.3304425
20
143.0778919
40
0.2358723
50
24.2871213
51
31.3935614
0
ARC
8
DEFAULT_255_1_234
10
4.3829122
20
143.1122233
40
0.1732111
50
30.7407893
51
82.4657128
0
ARC
8
DEFAULT_255_1_234
10
4.3649256
20
143.0238691
40
0.263235
50
81.1060089
51
90.2184952
0
ARC
8
DEFAULT_255_1_234
10
4.3613555
20
143.0496924
40
0.2374236
50
89.3806855
51
105.6762551
0
ARC
8
DEFAULT_255_1_234
10
4.3430186
20
143.1163567
40
0.1682847
50
105.7981136
51
149.7388061
0
ARC
8
DEFAULT_255_1_234
10
4.4494264
20
143.052395
40
0.2924306
50
149.4208916
51
163.6286378
0
ARC
8
DEFAULT_255_1_234
10
4.6585152
20
142.988625
40
0.5110213
50
163.3763315
51
172.1410975
0
ARC
8
DEFAULT_255_1_234
10
4.9885871
20
142.9413518
40
0.8444586
50
172.0259487
51
178.0703232
0
ARC
8
DEFAULT_255_1_234
10
5.291596
20
142.9269906
40
1.1477868
50
177.8631668
51
179.5044149
0
ARC
8
DEFAULT_255_1_234
10
5.1843365
20
142.6955389
40
1.0404907
50
179.7995573
51
185.2460446
0
ARC
8
DEFAULT_255_1_234
10
4.7800404
20
142.6572513
40
0.6343885
50
185.1411642
51
193.0079639
0
ARC
8
DEFAULT_255_1_234
10
4.5156877
20
142.5947641
40
0.3627568
50
192.7897626
51
205.2507664
0
ARC
8
DEFAULT_255_1_234
10
4.4110424
20
142.5480415
40
0.2481908
50
205.8005384
51
211.2537509
0
ARC
8
DEFAULT_255_1_234
10
4.3586864
20
142.512958
40
0.1852521
50
210.3789793
51
238.4008143
0
ARC
8
DEFAULT_255_1_234
10
4.3567386
20
142.5176376
40
0.1882621
50
239.6520629
51
265.9793761
0
ARC
8
DEFAULT_255_1_234
10
4.3652586
20
142.5848427
40
0.2559272
50
265.1315437
51
270.060332
0
ARC
8
DEFAULT_255_1_234
10
4.3681365
20
142.5524534
40
0.2235528
50
269.3314664
51
287.2178029
0
ARC
8
DEFAULT_255_1_234
10
4.3819217
20
142.5021279
40
0.1714108
50
287.7958004
51
329.080874
0
ARC
8
DEFAULT_255_1_234
10
4.2861674
20
142.561893
40
0.2842745
50
328.6634704
51
343.3325132
0
ARC
8
DEFAULT_255_1_234
10
4.0688694
20
142.6295863
40
0.5118644
50
343.0499468
51
351.9393422
0
ARC
8
DEFAULT_255_1_234
10
3.7221994
20
142.6806949
40
0.8622784
50
351.8069023
51
357.7959224
0
ARC
8
DEFAULT_255_1_234
10
3.398655
20
142.6974721
40
1.1862365
50
357.5871873
51
359.2677531
0
LINE
8
DEFAULT_255_1_234
10
4.5545137
20
148.6903433
11
4.5545137
21
147.5153
0
LINE
8
DEFAULT_255_1_234
10
4.5545137
20
147.5153
11
4.4051234
21
147.5153
0
LINE
8
DEFAULT_255_1_234
10
4.4051234
20
147.5153
11
4.4051234
21
148.5056133
0
LINE
8
DEFAULT_255_1_234
10
4.4051234
20
148.5056133
11
4.1055396
21
148.3955785
0
LINE
8
DEFAULT_255_1_234
10
4.1055396
20
148.3955785
11
4.1055396
21
148.5305117
0
LINE
8
DEFAULT_255_1_234
10
4.1055396
20
148.5305117
11
4.5312217
21
148.6903433
0
LINE
8
DEFAULT_255_1_234
10
4.5312217
20
148.6903433
11
4.5545137
21
148.6903433
0
LINE
8
DEFAULT_255_1_234
10
5.9271378
20
148.6847211
11
5.9271378
21
147.5153
0
LINE
8
DEFAULT_255_1_234
10
5.9271378
20
147.5153
11
5.7721252
21
147.5153
0
LINE
8
DEFAULT_255_1_234
10
5.7721252
20
147.5153
11
5.1833988
21
148.416461
0
LINE
8
DEFAULT_255_1_234
10
5.1833988
20
148.416461
11
5.1833988
21
147.5153
0
LINE
8
DEFAULT_255_1_234
10
5.1833988
20
147.5153
11
5.0283863
21
147.5153
0
LINE
8
DEFAULT_255_1_234
10
5.0283863
20
147.5153
11
5.0283863
21
148.6847211
0
LINE
8
DEFAULT_255_1_234
10
5.0283863
20
148.6847211
11
5.1833988
21
148.6847211
0
LINE
8
DEFAULT_255_1_234
10
5.1833988
20
148.6847211
11
5.7737316
21
147.7795442
0
LINE
8
DEFAULT_255_1_234
10
5.7737316
20
147.7795442
11
5.7737316
21
148.6847211
0
LINE
8
DEFAULT_255_1_234
10
5.7737316
20
148.6847211
11
5.9271378
21
148.6847211
0
LINE
8
DEFAULT_255_1_234
10
4.7550674
20
153.9764211
11
4.7550674
21
153.892891
0
LINE
8
DEFAULT_255_1_234
10
4.7550674
20
153.892891
11
4.2707536
21
152.807
0
LINE
8
DEFAULT_255_1_234
10
4.2707536
20
152.807
11
4.1149379
21
152.807
0
LINE
8
DEFAULT_255_1_234
10
4.1149379
20
152.807
11
4.5976454
21
153.8543387
0
LINE
8
DEFAULT_255_1_234
10
4.5976454
20
153.8543387
11
3.9647444
21
153.8543387
0
LINE
8
DEFAULT_255_1_234
10
3.9647444
20
153.8543387
11
3.9647444
21
153.9764211
0
LINE
8
DEFAULT_255_1_234
10
3.9647444
20
153.9764211
11
4.7550674
21
153.9764211
0
LINE
8
DEFAULT_255_1_234
10
4.5566835
20
159.2689243
11
4.5831882
21
159.2689243
0
LINE
8
DEFAULT_255_1_234
10
4.5831882
20
159.2689243
11
4.5831882
21
159.142826
0
LINE
8
DEFAULT_255_1_234
10
4.5831882
20
159.142826
11
4.5558803
21
159.142826
0
LINE
8
DEFAULT_255_1_234
10
4.0089189
20
158.5436583
11
4.0089189
21
158.6006836
0
LINE
8
DEFAULT_255_1_234
10
4.1583093
20
158.5814075
11
4.1583093
21
158.5267917
0
ARC
8
DEFAULT_255_1_234
10
4.5611151
20
158.6430455
40
0.4998079
50
90.6001036
51
104.514704
0
ARC
8
DEFAULT_255_1_234
10
4.5222667
20
158.7875131
40
0.3502176
50
104.2855254
51
133.862935
0
ARC
8
DEFAULT_255_1_234
10
4.5386424
20
158.776683
40
0.3693984
50
134.5302688
51
161.6210873
0
ARC
8
DEFAULT_255_1_234
10
4.7039613
20
158.7183895
40
0.5446739
50
161.2849839
51
174.2076652
0
ARC
8
DEFAULT_255_1_234
10
4.844655
20
158.6989787
40
0.6866274
50
173.7810589
51
174.9254635
0
ARC
8
DEFAULT_255_1_234
10
4.3896382
20
158.5606839
40
0.3033419
50
95.8330959
51
138.9954921
0
ARC
8
DEFAULT_255_1_234
10
4.4119738
20
158.4328375
40
0.4328947
50
89.8753725
51
97.0544009
0
ARC
8
DEFAULT_255_1_234
10
4.4167204
20
158.5163748
40
0.3493769
50
71.6407809
51
90.6240094
0
ARC
8
DEFAULT_255_1_234
10
4.4317777
20
158.5718082
40
0.2920396
50
39.6367836
51
71.019018
0
ARC
8
DEFAULT_255_1_234
10
4.368125
20
158.5167998
40
0.3761538
50
10.658731
51
39.9043955
0
ARC
8
DEFAULT_255_1_234
10
4.2133333
20
158.4831686
40
0.5345136
50
359.682601
51
11.132623
0
ARC
8
DEFAULT_255_1_234
10
4.2093464
20
158.476101
40
0.5385081
50
347.2486944
51
0.4369317
0
ARC
8
DEFAULT_255_1_234
10
4.3760941
20
158.4359807
40
0.3670249
50
318.1409698
51
347.6118597
0
ARC
8
DEFAULT_255_1_234
10
4.4085934
20
158.4092702
40
0.3250007
50
275.6342139
51
317.8248465
0
ARC
8
DEFAULT_255_1_234
10
4.3865045
20
158.5392219
40
0.4565864
50
269.8874292
51
276.7917694
0
ARC
8
DEFAULT_255_1_234
10
4.3810116
20
158.4366743
40
0.3540676
50
246.9140195
51
270.7437342
0
ARC
8
DEFAULT_255_1_234
10
4.3816506
20
158.4224384
40
0.3412781
50
218.1665114
51
245.878116
0
ARC
8
DEFAULT_255_1_234
10
4.4695967
20
158.4960279
40
0.455911
50
191.4115814
51
218.6077802
0
ARC
8
DEFAULT_255_1_234
10
4.6634056
20
158.5394833
40
0.6545001
50
179.6345085
51
191.7836486
0
ARC
8
DEFAULT_255_1_234
10
5.2216393
20
158.6073697
40
1.2127388
50
171.4525249
51
180.3158839
0
ARC
8
DEFAULT_255_1_234
10
4.7821269
20
158.6757608
40
0.7679464
50
157.9802646
51
171.6246686
0
ARC
8
DEFAULT_255_1_234
10
4.560729
20
158.7640421
40
0.5296008
50
141.4298019
51
157.854097
0
ARC
8
DEFAULT_255_1_234
10
4.496561
20
158.8094381
40
0.4511509
50
102.8715806
51
140.8564722
0
ARC
8
DEFAULT_255_1_234
10
4.5613226
20
158.5654552
40
0.7034845
50
90.3778349
51
103.5869322
0
ARC
8
DEFAULT_255_1_234
10
4.3875002
20
158.504973
40
0.2370698
50
89.8751008
51
126.2071704
0
ARC
8
DEFAULT_255_1_234
10
4.3920792
20
158.4895303
40
0.2522934
50
124.9745049
51
144.895901
0
ARC
8
DEFAULT_255_1_234
10
4.3744982
20
158.503856
40
0.2296779
50
145.2974905
51
160.2660252
0
ARC
8
DEFAULT_255_1_234
10
4.6817521
20
158.5236071
40
0.5234525
50
179.6514266
51
190.2855912
0
ARC
8
DEFAULT_255_1_234
10
4.5123658
20
158.4916786
40
0.3510893
50
190.0945431
51
207.5098196
0
ARC
8
DEFAULT_255_1_234
10
4.4557928
20
158.4647623
40
0.288489
50
207.9583163
51
216.3251085
0
ARC
8
DEFAULT_255_1_234
10
4.4218036
20
158.4368105
40
0.2445587
50
215.7661442
51
232.5456785
0
ARC
8
DEFAULT_255_1_234
10
4.3835019
20
158.3881482
40
0.1826382
50
232.8005391
51
270.6605633
0
ARC
8
DEFAULT_255_1_234
10
4.388072
20
158.4245612
40
0.2190529
50
269.35537
51
288.4744281
0
ARC
8
DEFAULT_255_1_234
10
4.3973617
20
158.3896118
40
0.1829749
50
289.1833337
51
322.9683818
0
ARC
8
DEFAULT_255_1_234
10
4.3362139
20
158.4378391
40
0.2608399
50
322.6007884
51
346.5182367
0
ARC
8
DEFAULT_255_1_234
10
4.2204735
20
158.4673616
40
0.3802777
50
346.2582162
51
358.7741648
0
ARC
8
DEFAULT_255_1_234
10
4.1186404
20
158.4728965
40
0.4822176
50
358.3755224
51
0.0098023
0
ARC
8
DEFAULT_255_1_234
10
4.1942591
20
158.4756657
40
0.4066078
50
359.6214041
51
11.2839074
0
ARC
8
DEFAULT_255_1_234
10
4.3219738
20
158.5023066
40
0.2761514
50
11.0482309
51
31.8146458
0
ARC
8
DEFAULT_255_1_234
10
4.3528781
20
158.5190584
40
0.2410679
50
32.3035391
51
38.082671
0
ARC
8
DEFAULT_255_1_234
10
4.3949441
20
158.5571662
40
0.1844966
50
36.825067
51
85.7415724
0
ARC
8
DEFAULT_255_1_234
10
4.3882274
20
158.5071301
40
0.2349122
50
85.0140713
51
90.0513278
0
LINE
8
DEFAULT_255_1_234
10
4.1872235
20
163.9460963
11
4.0683538
21
163.9766169
0
LINE
8
DEFAULT_255_1_234
10
4.0683538
20
163.9766169
11
4.1277887
21
164.5597211
0
LINE
8
DEFAULT_255_1_234
10
4.1277887
20
164.5597211
11
4.7269563
21
164.5597211
0
LINE
8
DEFAULT_255_1_234
10
4.7269563
20
164.5597211
11
4.7269563
21
164.4223784
0
LINE
8
DEFAULT_255_1_234
10
4.7269563
20
164.4223784
11
4.253887
21
164.4223784
0
LINE
8
DEFAULT_255_1_234
10
4.253887
20
164.4223784
11
4.2185473
21
164.1035184
0
LINE
8
DEFAULT_255_1_234
10
4.0265888
20
163.6979156
11
4.1671442
21
163.6979156
0
LINE
8
DEFAULT_255_1_234
10
4.2265791
20
163.9782232
11
4.1872235
21
163.9460963
0
ARC
8
DEFAULT_255_1_234
10
4.4040257
20
163.785523
40
0.3681349
50
93.7182161
51
120.2538958
0
ARC
8
DEFAULT_255_1_234
10
4.413452
20
163.7047394
40
0.449379
50
89.9660152
51
94.2496022
0
ARC
8
DEFAULT_255_1_234
10
4.4175254
20
163.7636549
40
0.390482
50
73.8043271
51
90.5585896
0
ARC
8
DEFAULT_255_1_234
10
4.4410151
20
163.8494602
40
0.3015334
50
41.3071453
51
73.5430202
0
ARC
8
DEFAULT_255_1_234
10
4.3993978
20
163.8136324
40
0.3564457
50
13.5075983
51
41.2174222
0
ARC
8
DEFAULT_255_1_234
10
4.2352182
20
163.7706486
40
0.5261351
50
1.1331335
51
13.8829381
0
ARC
8
DEFAULT_255_1_234
10
4.0940551
20
163.7630665
40
0.6674378
50
359.9919444
51
1.544251
0
ARC
8
DEFAULT_255_1_234
10
4.2217377
20
163.758928
40
0.5397702
50
347.8572367
51
0.4293338
0
ARC
8
DEFAULT_255_1_234
10
4.3967695
20
163.7192736
40
0.3603188
50
323.673004
51
348.1672506
0
ARC
8
DEFAULT_255_1_234
10
4.4262203
20
163.7013168
40
0.3259678
50
316.8171152
51
323.1492751
0
ARC
8
DEFAULT_255_1_234
10
4.4323392
20
163.697646
40
0.3189975
50
281.8396411
51
316.5457803
0
ARC
8
DEFAULT_255_1_234
10
4.3947656
20
163.8531762
40
0.4789527
50
269.5770101
51
282.4214771
0
ARC
8
DEFAULT_255_1_234
10
4.3876467
20
163.8318125
40
0.45759
50
256.2427136
51
270.4486331
0
ARC
8
DEFAULT_255_1_234
10
4.357737
20
163.7118229
40
0.3339303
50
228.9023911
51
256.3314342
0
ARC
8
DEFAULT_255_1_234
10
4.3503602
20
163.7001746
40
0.32031
50
193.753695
51
228.5271154
0
ARC
8
DEFAULT_255_1_234
10
4.4741556
20
163.73648
40
0.4492253
50
184.924711
51
194.497588
0
ARC
8
DEFAULT_255_1_234
10
4.4934123
20
163.7400591
40
0.3289787
50
187.3600538
51
198.6732863
0
ARC
8
DEFAULT_255_1_234
10
4.3884417
20
163.7036674
40
0.217884
50
198.4451669
51
217.794479
0
ARC
8
DEFAULT_255_1_234
10
4.3588592
20
163.6827085
40
0.1816698
50
218.2887171
51
228.5612368
0
ARC
8
DEFAULT_255_1_234
10
4.3686379
20
163.6958963
40
0.1980329
50
228.9654866
51
258.1234728
0
ARC
8
DEFAULT_255_1_234
10
4.3892089
20
163.7839833
40
0.2884748
50
257.7258293
51
270.401361
0
ARC
8
DEFAULT_255_1_234
10
4.3936975
20
163.7394821
40
0.2439788
50
269.4204404
51
286.4209037
0
ARC
8
DEFAULT_255_1_234
10
4.4085463
20
163.6855657
40
0.1880666
50
286.7251356
51
320.600362
0
ARC
8
DEFAULT_255_1_234
10
4.3702288
20
163.7166595
40
0.2374121
50
320.6712579
51
344.5441685
0
ARC
8
DEFAULT_255_1_234
10
4.2545614
20
163.7506045
40
0.3579479
50
344.2412205
51
356.7357071
0
ARC
8
DEFAULT_255_1_234
10
4.1296763
20
163.7609444
40
0.4832297
50
356.3548756
51
0.0500261
0
ARC
8
DEFAULT_255_1_234
10
4.2633272
20
163.764065
40
0.3495889
50
359.5576869
51
12.953486
0
ARC
8
DEFAULT_255_1_234
10
4.3688169
20
163.7896434
40
0.2410532
50
12.6490276
51
41.6081334
0
ARC
8
DEFAULT_255_1_234
10
4.391854
20
163.8092321
40
0.2108218
50
41.7850273
51
85.9892764
0
ARC
8
DEFAULT_255_1_234
10
4.3795277
20
163.7279462
40
0.2928454
50
84.6957577
51
90.0676183
0
ARC
8
DEFAULT_255_1_234
10
4.3771761
20
163.6610716
40
0.3597255
50
89.6804936
51
99.1614436
0
ARC
8
DEFAULT_255_1_234
10
4.3566392
20
163.7838131
40
0.235281
50
98.9830931
51
113.8908934
0
ARC
8
DEFAULT_255_1_234
10
4.3336802
20
163.8379587
40
0.176479
50
114.1950727
51
127.3641004
0
LINE
8
DEFAULT_255_1_234
10
4.8389628
20
169.8514211
11
4.8389628
21
169.074752
0
LINE
8
DEFAULT_255_1_234
10
4.8389628
20
169.074752
11
5.0012039
21
169.074752
0
LINE
8
DEFAULT_255_1_234
10
5.0012039
20
169.074752
11
5.0012039
21
168.9534728
0
LINE
8
DEFAULT_255_1_234
10
5.0012039
20
168.9534728
11
4.8389628
21
168.9534728
0
LINE
8
DEFAULT_255_1_234
10
4.8389628
20
168.9534728
11
4.8389628
21
168.682
0
LINE
8
DEFAULT_255_1_234
10
4.8389628
20
168.682
11
4.6895725
21
168.682
0
LINE
8
DEFAULT_255_1_234
10
4.6895725
20
168.682
11
4.6895725
21
168.9534728
0
LINE
8
DEFAULT_255_1_234
10
4.6895725
20
168.9534728
11
4.1570682
21
168.9534728
0
LINE
8
DEFAULT_255_1_234
10
4.1570682
20
168.9534728
11
4.1570682
21
169.0410187
0
LINE
8
DEFAULT_255_1_234
10
4.1570682
20
169.0410187
11
4.6807375
21
169.8514211
0
LINE
8
DEFAULT_255_1_234
10
4.6807375
20
169.8514211
11
4.8389628
21
169.8514211
0
LINE
8
DEFAULT_255_1_234
10
4.6719026
20
169.6160912
11
4.3257347
21
169.074752
0
LINE
8
DEFAULT_255_1_234
10
4.3257347
20
169.074752
11
4.6895725
21
169.074752
0
LINE
8
DEFAULT_255_1_234
10
4.6895725
20
169.074752
11
4.6895725
21
169.6482181
0
LINE
8
DEFAULT_255_1_234
10
4.6895725
20
169.6482181
11
4.6719026
21
169.6160912
0
LINE
8
DEFAULT_255_1_234
10
4.2161378
20
174.5094169
11
4.2161378
21
174.6306962
0
LINE
8
DEFAULT_255_1_234
10
4.2161378
20
174.6306962
11
4.327779
21
174.6306962
0
LINE
8
DEFAULT_255_1_234
10
4.1374268
20
174.8363087
11
3.9888396
21
174.8363087
0
LINE
8
DEFAULT_255_1_234
10
3.9783983
20
174.2821188
11
4.1277887
21
174.2821188
0
LINE
8
DEFAULT_255_1_234
10
4.327779
20
174.5094169
11
4.2161378
21
174.5094169
0
ARC
8
DEFAULT_255_1_234
10
4.3248656
20
174.9699713
40
0.3392876
50
270.4919872
51
281.8951556
0
ARC
8
DEFAULT_255_1_234
10
4.3489918
20
174.8597702
40
0.2264817
50
281.6691735
51
301.2943132
0
ARC
8
DEFAULT_255_1_234
10
4.3660128
20
174.8286304
40
0.1910381
50
301.7833094
51
311.7545298
0
ARC
8
DEFAULT_255_1_234
10
4.3751704
20
174.8184748
40
0.1773635
50
311.7323931
51
354.2802411
0
ARC
8
DEFAULT_255_1_234
10
4.3025329
20
174.8309722
40
0.2509385
50
353.0937916
51
0.1181479
0
ARC
8
DEFAULT_255_1_234
10
4.2564114
20
174.8357386
40
0.2970898
50
359.1805295
51
15.0453146
0
ARC
8
DEFAULT_255_1_234
10
4.3909951
20
174.8749992
40
0.1569564
50
13.9577229
51
77.6713066
0
ARC
8
DEFAULT_255_1_234
10
4.352348
20
174.7364949
40
0.3006298
50
76.1116566
51
90.7026153
0
ARC
8
DEFAULT_255_1_234
10
4.3464318
20
174.7638545
40
0.2732568
50
89.5324876
51
103.531937
0
ARC
8
DEFAULT_255_1_234
10
4.3263762
20
174.8437884
40
0.1908508
50
103.2931773
51
133.5619022
0
ARC
8
DEFAULT_255_1_234
10
4.3219251
20
174.8497375
40
0.1834746
50
133.8349307
51
173.5344437
0
ARC
8
DEFAULT_255_1_234
10
4.3942294
20
174.8369213
40
0.2568033
50
172.5096846
51
180.1366907
0
ARC
8
DEFAULT_255_1_234
10
4.2991188
20
174.8403622
40
0.3103056
50
155.3484492
51
180.7484736
0
ARC
8
DEFAULT_255_1_234
10
4.2942277
20
174.8374846
40
0.3070957
50
131.5744599
51
154.4798489
0
ARC
8
DEFAULT_255_1_234
10
4.3255424
20
174.805831
40
0.3515643
50
96.9875458
51
131.9690667
0
ARC
8
DEFAULT_255_1_234
10
4.3474904
20
174.6812636
40
0.4779224
50
89.8596053
51
97.7825159
0
ARC
8
DEFAULT_255_1_234
10
4.3522967
20
174.6550616
40
0.5041361
50
78.3655447
51
90.4131539
0
ARC
8
DEFAULT_255_1_234
10
4.3880885
20
174.8209887
40
0.3344039
50
56.6229102
51
78.638727
0
ARC
8
DEFAULT_255_1_234
10
4.4095829
20
174.8585805
40
0.2912001
50
47.0253525
51
56.0854072
0
ARC
8
DEFAULT_255_1_234
10
4.4115609
20
174.8625223
40
0.2869704
50
10.9208013
51
46.7778124
0
ARC
8
DEFAULT_255_1_234
10
4.2751675
20
174.8309857
40
0.426899
50
359.6364486
51
11.6087304
0
ARC
8
DEFAULT_255_1_234
10
4.4586519
20
174.8294752
40
0.243409
50
332.3549906
51
359.7179418
0
ARC
8
DEFAULT_255_1_234
10
4.3936121
20
174.8603142
40
0.3153459
50
325.2333722
51
332.8745602
0
ARC
8
DEFAULT_255_1_234
10
4.4088744
20
174.8496828
40
0.2967456
50
292.9802137
51
325.2392345
0
ARC
8
DEFAULT_255_1_234
10
4.3814118
20
174.9030863
40
0.3566604
50
292.5402179
51
293.6924929
0
ARC
8
DEFAULT_255_1_234
10
4.4206714
20
174.2576091
40
0.3307468
50
57.6435486
51
72.8625112
0
ARC
8
DEFAULT_255_1_234
10
4.4561214
20
174.3150549
40
0.2632492
50
36.7248896
51
57.4697979
0
ARC
8
DEFAULT_255_1_234
10
4.4549847
20
174.316322
40
0.2634081
50
8.0545065
51
36.356114
0
ARC
8
DEFAULT_255_1_234
10
4.3687032
20
174.3008174
40
0.3510261
50
359.8320645
51
8.5869982
0
ARC
8
DEFAULT_255_1_234
10
4.3311808
20
174.2960101
40
0.3885653
50
343.9829931
51
0.5571613
0
ARC
8
DEFAULT_255_1_234
10
4.4198005
20
174.2717438
40
0.2966924
50
311.6359546
51
343.7651759
0
ARC
8
DEFAULT_255_1_234
10
4.3819574
20
174.3144102
40
0.3537231
50
279.7829875
51
311.6255694
0
ARC
8
DEFAULT_255_1_234
10
4.3518351
20
174.458128
40
0.5004971
50
269.7286406
51
280.3856417
0
ARC
8
DEFAULT_255_1_234
10
4.3456423
20
174.4539996
40
0.4963778
50
256.6828919
51
270.4412052
0
ARC
8
DEFAULT_255_1_234
10
4.3117719
20
174.3155394
40
0.3538406
50
229.4223008
51
256.8556159
0
ARC
8
DEFAULT_255_1_234
10
4.2703112
20
174.2688736
40
0.2914296
50
181.818294
51
229.6455059
0
ARC
8
DEFAULT_255_1_234
10
4.3743068
20
174.2819496
40
0.3959084
50
179.9755256
51
183.2323064
0
ARC
8
DEFAULT_255_1_234
10
4.3570814
20
174.2799037
40
0.2293034
50
179.4465117
51
196.2869258
0
ARC
8
DEFAULT_255_1_234
10
4.3083222
20
174.2665651
40
0.1787621
50
196.5661473
51
227.705904
0
ARC
8
DEFAULT_255_1_234
10
4.3247317
20
174.2849155
40
0.2033784
50
227.7652068
51
257.8762805
0
ARC
8
DEFAULT_255_1_234
10
4.3472287
20
174.3792156
40
0.3003081
50
257.4584385
51
270.426602
0
ARC
8
DEFAULT_255_1_234
10
4.3517853
20
174.4081996
40
0.329292
50
269.5962073
51
280.8789248
0
ARC
8
DEFAULT_255_1_234
10
4.3747382
20
174.2935685
40
0.2123908
50
280.6346389
51
299.8595945
0
ARC
8
DEFAULT_255_1_234
10
4.3938289
20
174.2573212
40
0.171457
50
300.3576302
51
314.5517981
0
ARC
8
DEFAULT_255_1_234
10
4.3855349
20
174.2633919
40
0.1816095
50
315.0728369
51
345.0431014
0
ARC
8
DEFAULT_255_1_234
10
4.2932163
20
174.2902841
40
0.2777492
50
344.5986631
51
357.9269593
0
ARC
8
DEFAULT_255_1_234
10
4.2036489
20
174.2964276
40
0.3674917
50
357.4748886
51
0.0231117
0
ARC
8
DEFAULT_255_1_234
10
4.3059599
20
174.2988679
40
0.2651907
50
359.5047933
51
13.4239635
0
ARC
8
DEFAULT_255_1_234
10
4.3926242
20
174.3210478
40
0.1757509
50
12.9498199
51
48.7551375
0
ARC
8
DEFAULT_255_1_234
10
4.3743976
20
174.29614
40
0.2065134
50
49.5088623
51
72.1836453
0
ARC
8
DEFAULT_255_1_234
10
4.3386129
20
174.1899291
40
0.3185836
50
71.9010081
51
84.3554254
0
ARC
8
DEFAULT_255_1_234
10
4.3224761
20
174.0538326
40
0.4556151
50
84.0193428
51
89.333121
0
LINE
8
DEFAULT_255_1_234
10
4.7663119
20
179.3865792
11
4.7663119
21
179.2653
0
LINE
8
DEFAULT_255_1_234
10
4.7663119
20
179.2653
11
4.000084
21
179.2653
0
LINE
8
DEFAULT_255_1_234
10
4.000084
20
179.2653
11
4.000084
21
179.3721221
0
LINE
8
DEFAULT_255_1_234
10
4.000084
20
179.3721221
11
4.4048836
21
179.8218995
0
LINE
8
DEFAULT_255_1_234
10
4.1261823
20
180.0901595
11
3.9775952
21
180.0901595
0
LINE
8
DEFAULT_255_1_234
10
4.4924296
20
179.7263218
11
4.1791918
21
179.3865792
0
LINE
8
DEFAULT_255_1_234
10
4.1791918
20
179.3865792
11
4.7663119
21
179.3865792
0
ARC
8
DEFAULT_255_1_234
10
3.055867
20
181.0148527
40
1.8008286
50
318.5132453
51
320.7828378
0
ARC
8
DEFAULT_255_1_234
10
3.5845644
20
180.5845426
40
1.1191493
50
320.7372736
51
323.9737074
0
ARC
8
DEFAULT_255_1_234
10
3.9765501
20
180.3005361
40
0.6350923
50
323.8961724
51
328.6421089
0
ARC
8
DEFAULT_255_1_234
10
4.1812096
20
180.1743031
40
0.3946393
50
328.8299013
51
331.789948
0
ARC
8
DEFAULT_255_1_234
10
4.2809274
20
180.1228509
40
0.2824501
50
331.4255242
51
352.9364833
0
ARC
8
DEFAULT_255_1_234
10
4.2945775
20
180.1197976
40
0.2685315
50
353.2248685
51
0.0169286
0
ARC
8
DEFAULT_255_1_234
10
4.3155652
20
180.122095
40
0.2475536
50
359.4866256
51
15.9339782
0
ARC
8
DEFAULT_255_1_234
10
4.3662637
20
180.1357286
40
0.1950618
50
16.1714718
51
43.5284424
0
ARC
8
DEFAULT_255_1_234
10
4.3739946
20
180.1434573
40
0.184134
50
43.4415429
51
83.1661404
0
ARC
8
DEFAULT_255_1_234
10
4.3605864
20
180.0697771
40
0.258926
50
82.160215
51
90.1505798
0
ARC
8
DEFAULT_255_1_234
10
4.3574291
20
180.0160865
40
0.3126255
50
89.5460705
51
102.5418777
0
ARC
8
DEFAULT_255_1_234
10
4.3331377
20
180.1191665
40
0.2067346
50
102.1739365
51
129.2061916
0
ARC
8
DEFAULT_255_1_234
10
4.3252449
20
180.1316094
40
0.1921118
50
129.7279328
51
135.7542026
0
ARC
8
DEFAULT_255_1_234
10
4.3373977
20
180.1219045
40
0.2075944
50
136.175737
51
166.3674722
0
ARC
8
DEFAULT_255_1_234
10
4.4380896
20
180.0949182
40
0.3118201
50
165.9092917
51
178.8683903
0
ARC
8
DEFAULT_255_1_234
10
4.5245757
20
180.0902179
40
0.3983935
50
178.438168
51
180.0083905
0
ARC
8
DEFAULT_255_1_234
10
4.3844359
20
180.0941231
40
0.4068601
50
163.2878735
51
180.5581814
0
ARC
8
DEFAULT_255_1_234
10
4.3042621
20
180.116184
40
0.3237344
50
133.454115
51
162.9470031
0
ARC
8
DEFAULT_255_1_234
10
4.3221162
20
180.0972
40
0.349795
50
100.7869394
51
133.4384016
0
ARC
8
DEFAULT_255_1_234
10
4.3568934
20
179.9423319
40
0.5084616
50
89.6605301
51
101.3704185
0
ARC
8
DEFAULT_255_1_234
10
4.3635273
20
179.9484496
40
0.502348
50
78.2171172
51
90.4130393
0
ARC
8
DEFAULT_255_1_234
10
4.3990351
20
180.1108637
40
0.3361092
50
55.9268222
51
78.4888551
0
ARC
8
DEFAULT_255_1_234
10
4.4186791
20
180.1447324
40
0.2970617
50
47.9292255
51
55.4054003
0
ARC
8
DEFAULT_255_1_234
10
4.4288352
20
180.1550502
40
0.2825983
50
4.3347696
51
48.0560701
0
ARC
8
DEFAULT_255_1_234
10
4.3192745
20
180.1380601
40
0.393225
50
359.925209
51
5.5967654
0
ARC
8
DEFAULT_255_1_234
10
4.3621637
20
180.1436816
40
0.3503892
50
337.8914096
51
358.9967724
0
ARC
8
DEFAULT_255_1_234
10
4.0908049
20
180.2483706
40
0.6412172
50
326.9135351
51
338.3505194
0
ARC
8
DEFAULT_255_1_234
10
3.6922353
20
180.5038284
40
1.1146189
50
319.6472867
51
327.095818
0
ARC
8
DEFAULT_255_1_234
10
3.3089356
20
180.82
40
1.6114559
50
317.2586784
51
319.9046139
0
LINE
8
DEFAULT_255_1_234
10
4.4801137
20
185.7320433
11
4.4801137
21
184.557
0
LINE
8
DEFAULT_255_1_234
10
4.4801137
20
184.557
11
4.3307234
21
184.557
0
LINE
8
DEFAULT_255_1_234
10
4.3307234
20
184.557
11
4.3307234
21
185.5473133
0
LINE
8
DEFAULT_255_1_234
10
4.3307234
20
185.5473133
11
4.0311396
21
185.4372785
0
LINE
8
DEFAULT_255_1_234
10
4.0311396
20
185.4372785
11
4.0311396
21
185.5722117
0
LINE
8
DEFAULT_255_1_234
10
4.0311396
20
185.5722117
11
4.4568217
21
185.7320433
0
LINE
8
DEFAULT_255_1_234
10
4.4568217
20
185.7320433
11
4.4801137
21
185.7320433
0
ENDSEC
0
EOF