0
SECTION
2
HEADER
9
$MEASUREMENT
70
1
0
ENDSEC
0
SECTION
2
TABLES
0
TABLE
2
LTYPE
0
LTYPE
72
65
70
64
2
CONTINUOUS
3
______
73
0
40
0
0
ENDTAB
0
TABLE
2
LAYER
0
LAYER
2
DEFAULT_255_2_778
70
0
62
255
6
CONTINUOUS
0
LAYER
2
DEFAULT_255_1_234
70
0
62
255
6
CONTINUOUS
0
ENDTAB
0
ENDSEC
0
SECTION
2
ENTITIES
0
ARC
8
DEFAULT_255_2_778
10
3.5695693
20
194.8676514
40
0.7914215
50
129.1312896
51
180.1450914
0
ARC
8
DEFAULT_255_2_778
10
3.5698345
20
194.8681385
40
0.7912112
50
89.854026
51
129.1684493
0
ARC
8
DEFAULT_255_2_778
10
25.7988937
20
194.867825
40
0.7915249
50
39.4792447
51
90.147911
0
ARC
8
DEFAULT_255_2_778
10
25.7994935
20
194.8676717
40
0.7911595
50
359.8533901
51
39.5154338
0
ARC
8
DEFAULT_255_2_778
10
25.7991693
20
-1.9864009
40
0.7914836
50
309.4761667
51
0.1482649
0
ARC
8
DEFAULT_255_2_778
10
25.798898
20
-1.986832
40
0.7913235
50
269.8517415
51
309.511178
0
ARC
8
DEFAULT_255_2_778
10
3.569842
20
-1.9867738
40
0.7913815
50
219.1282118
51
270.1454017
0
ARC
8
DEFAULT_255_2_778
10
3.5695247
20
-1.9863913
40
0.7913769
50
179.8524075
51
219.1641908
0
LINE
8
DEFAULT_255_2_778
10
3.5718503
20
195.6593472
11
25.7968503
21
195.6593472
0
LINE
8
DEFAULT_255_2_778
10
26.5906503
20
194.8656472
11
26.5906503
21
-1.9843528
0
LINE
8
DEFAULT_255_2_778
10
25.7968503
20
-2.7781528
11
3.5718503
21
-2.7781528
0
LINE
8
DEFAULT_255_2_778
10
2.7781503
20
-1.9843528
11
2.7781503
21
194.8656472
0
LINE
8
DEFAULT_255_1_234
10
6.6763835
20
0.5189243
11
6.7028882
21
0.5189243
0
LINE
8
DEFAULT_255_1_234
10
6.7028882
20
0.5189243
11
6.7028882
21
0.392826
0
LINE
8
DEFAULT_255_1_234
10
6.7028882
20
0.392826
11
6.6755803
21
0.392826
0
LINE
8
DEFAULT_255_1_234
10
6.1286189
20
-0.2063417
11
6.1286189
21
-0.1493164
0
LINE
8
DEFAULT_255_1_234
10
6.2780093
20
-0.1685925
11
6.2780093
21
-0.2232083
0
ARC
8
DEFAULT_255_1_234
10
6.6808151
20
-0.1069545
40
0.4998079
50
90.6001036
51
104.514704
0
ARC
8
DEFAULT_255_1_234
10
6.6419667
20
0.0375131
40
0.3502176
50
104.2855254
51
133.862935
0
ARC
8
DEFAULT_255_1_234
10
6.6583424
20
0.026683
40
0.3693984
50
134.5302688
51
161.6210873
0
ARC
8
DEFAULT_255_1_234
10
6.8236613
20
-0.0316105
40
0.5446739
50
161.2849839
51
174.2076652
0
ARC
8
DEFAULT_255_1_234
10
6.964355
20
-0.0510213
40
0.6866274
50
173.7810589
51
174.9254635
0
ARC
8
DEFAULT_255_1_234
10
6.5093382
20
-0.1893161
40
0.3033419
50
95.8330959
51
138.9954921
0
ARC
8
DEFAULT_255_1_234
10
6.5316738
20
-0.3171625
40
0.4328947
50
89.8753725
51
97.0544009
0
ARC
8
DEFAULT_255_1_234
10
6.5364204
20
-0.2336252
40
0.3493769
50
71.6407809
51
90.6240094
0
ARC
8
DEFAULT_255_1_234
10
6.5514777
20
-0.1781918
40
0.2920396
50
39.6367836
51
71.019018
0
ARC
8
DEFAULT_255_1_234
10
6.487825
20
-0.2332002
40
0.3761538
50
10.658731
51
39.9043955
0
ARC
8
DEFAULT_255_1_234
10
6.3330333
20
-0.2668314
40
0.5345136
50
359.682601
51
11.132623
0
ARC
8
DEFAULT_255_1_234
10
6.3290464
20
-0.273899
40
0.5385081
50
347.2486944
51
0.4369317
0
ARC
8
DEFAULT_255_1_234
10
6.4957941
20
-0.3140193
40
0.3670249
50
318.1409698
51
347.6118597
0
ARC
8
DEFAULT_255_1_234
10
6.5282934
20
-0.3407298
40
0.3250007
50
275.6342139
51
317.8248465
0
ARC
8
DEFAULT_255_1_234
10
6.5062045
20
-0.2107781
40
0.4565864
50
269.8874292
51
276.7917694
0
ARC
8
DEFAULT_255_1_234
10
6.5007116
20
-0.3133257
40
0.3540676
50
246.9140195
51
270.7437342
0
ARC
8
DEFAULT_255_1_234
10
6.5013506
20
-0.3275616
40
0.3412781
50
218.1665114
51
245.878116
0
ARC
8
DEFAULT_255_1_234
10
6.5892967
20
-0.2539721
40
0.455911
50
191.4115814
51
218.6077802
0
ARC
8
DEFAULT_255_1_234
10
6.7831056
20
-0.2105167
40
0.6545001
50
179.6345085
51
191.7836486
0
ARC
8
DEFAULT_255_1_234
10
7.3413393
20
-0.1426303
40
1.2127388
50
171.4525249
51
180.3158839
0
ARC
8
DEFAULT_255_1_234
10
6.9018269
20
-0.0742392
40
0.7679464
50
157.9802646
51
171.6246686
0
ARC
8
DEFAULT_255_1_234
10
6.680429
20
0.0140421
40
0.5296008
50
141.4298019
51
157.854097
0
ARC
8
DEFAULT_255_1_234
10
6.616261
20
0.0594381
40
0.4511509
50
102.8715806
51
140.8564722
0
ARC
8
DEFAULT_255_1_234
10
6.6810226
20
-0.1845448
40
0.7034845
50
90.3778349
51
103.5869322
0
ARC
8
DEFAULT_255_1_234
10
6.5072002
20
-0.245027
40
0.2370698
50
89.8751008
51
126.2071704
0
ARC
8
DEFAULT_255_1_234
10
6.5117792
20
-0.2604697
40
0.2522934
50
124.9745049
51
144.895901
0
ARC
8
DEFAULT_255_1_234
10
6.4941982
20
-0.246144
40
0.2296779
50
145.2974905
51
160.2660252
0
ARC
8
DEFAULT_255_1_234
10
6.8014521
20
-0.2263929
40
0.5234525
50
179.6514266
51
190.2855912
0
ARC
8
DEFAULT_255_1_234
10
6.6320658
20
-0.2583214
40
0.3510893
50
190.0945431
51
207.5098196
0
ARC
8
DEFAULT_255_1_234
10
6.5754928
20
-0.2852377
40
0.288489
50
207.9583163
51
216.3251085
0
ARC
8
DEFAULT_255_1_234
10
6.5415036
20
-0.3131895
40
0.2445587
50
215.7661442
51
232.5456785
0
ARC
8
DEFAULT_255_1_234
10
6.5032019
20
-0.3618518
40
0.1826382
50
232.8005391
51
270.6605633
0
ARC
8
DEFAULT_255_1_234
10
6.507772
20
-0.3254388
40
0.2190529
50
269.35537
51
288.4744281
0
ARC
8
DEFAULT_255_1_234
10
6.5170617
20
-0.3603882
40
0.1829749
50
289.1833337
51
322.9683818
0
ARC
8
DEFAULT_255_1_234
10
6.4559139
20
-0.3121609
40
0.2608399
50
322.6007884
51
346.5182367
0
ARC
8
DEFAULT_255_1_234
10
6.3401735
20
-0.2826384
40
0.3802777
50
346.2582162
51
358.7741648
0
ARC
8
DEFAULT_255_1_234
10
6.2383404
20
-0.2771035
40
0.4822176
50
358.3755224
51
0.0098023
0
ARC
8
DEFAULT_255_1_234
10
6.3139591
20
-0.2743343
40
0.4066078
50
359.6214041
51
11.2839074
0
ARC
8
DEFAULT_255_1_234
10
6.4416738
20
-0.2476934
40
0.2761514
50
11.0482309
51
31.8146458
0
ARC
8
DEFAULT_255_1_234
10
6.4725781
20
-0.2309416
40
0.2410679
50
32.3035391
51
38.082671
0
ARC
8
DEFAULT_255_1_234
10
6.5146441
20
-0.1928338
40
0.1844966
50
36.825067
51
85.7415724
0
ARC
8
DEFAULT_255_1_234
10
6.5079274
20
-0.2428699
40
0.2349122
50
85.0140713
51
90.0513278
0
LINE
8
DEFAULT_255_1_234
10
7.7429983
20
0.0153343
11
7.7429983
21
-0.110764
0
LINE
8
DEFAULT_255_1_234
10
7.7429983
20
-0.110764
11
7.2361957
21
-0.110764
0
LINE
8
DEFAULT_255_1_234
10
7.2361957
20
-0.110764
11
7.2361957
21
-0.5252017
0
LINE
8
DEFAULT_255_1_234
10
7.2361957
20
-0.5252017
11
7.8249221
21
-0.5252017
0
LINE
8
DEFAULT_255_1_234
10
7.8249221
20
-0.5252017
11
7.8249221
21
-0.6513
0
LINE
8
DEFAULT_255_1_234
10
7.8249221
20
-0.6513
11
7.0819863
21
-0.6513
0
LINE
8
DEFAULT_255_1_234
10
7.0819863
20
-0.6513
11
7.0819863
21
0.5181211
0
LINE
8
DEFAULT_255_1_234
10
7.0819863
20
0.5181211
11
7.8168903
21
0.5181211
0
LINE
8
DEFAULT_255_1_234
10
7.8168903
20
0.5181211
11
7.8168903
21
0.3912196
0
LINE
8
DEFAULT_255_1_234
10
7.8168903
20
0.3912196
11
7.2361957
21
0.3912196
0
LINE
8
DEFAULT_255_1_234
10
7.2361957
20
0.3912196
11
7.2361957
21
0.0153343
0
LINE
8
DEFAULT_255_1_234
10
7.2361957
20
0.0153343
11
7.7429983
21
0.0153343
0
LINE
8
DEFAULT_255_1_234
10
8.7927465
20
0.1799849
11
8.637734
21
0.1799849
0
LINE
8
DEFAULT_255_1_234
10
7.9453981
20
-0.3123606
11
8.1004107
21
-0.3123606
0
ARC
8
DEFAULT_255_1_234
10
8.7036153
20
1.0746768
40
1.252368
50
248.9199003
51
254.1439814
0
ARC
8
DEFAULT_255_1_234
10
8.5355648
20
0.6420234
40
0.788226
50
241.633709
51
249.0064503
0
ARC
8
DEFAULT_255_1_234
10
8.3827042
20
0.3619317
40
0.4691427
50
230.498225
51
241.8087113
0
ARC
8
DEFAULT_255_1_234
10
8.3042616
20
0.2619906
40
0.3421437
50
227.4064532
51
229.9881192
0
ARC
8
DEFAULT_255_1_234
10
8.2555137
20
0.2144088
40
0.2741476
50
200.6781896
51
228.1763934
0
ARC
8
DEFAULT_255_1_234
10
8.2627447
20
0.2129077
40
0.2804109
50
179.5061581
51
199.8694617
0
ARC
8
DEFAULT_255_1_234
10
8.2618199
20
0.220321
40
0.2795204
50
132.4834203
51
181.0242172
0
ARC
8
DEFAULT_255_1_234
10
8.3213782
20
0.1640704
40
0.3612768
50
129.2532479
51
133.4242687
0
ARC
8
DEFAULT_255_1_234
10
8.3360231
20
0.1420965
40
0.3875675
50
101.98776
51
128.8742646
0
ARC
8
DEFAULT_255_1_234
10
8.3758842
20
-0.0300259
40
0.5642249
50
89.5906553
51
102.3169264
0
ARC
8
DEFAULT_255_1_234
10
8.3829334
20
0.0018148
40
0.5323783
50
77.2360837
51
90.3248275
0
ARC
8
DEFAULT_255_1_234
10
8.4036413
20
0.09854
40
0.4334697
50
63.837784
51
77.0809408
0
ARC
8
DEFAULT_255_1_234
10
8.4314175
20
0.1502911
40
0.3747796
50
45.9864267
51
64.1607727
0
ARC
8
DEFAULT_255_1_234
10
8.4575056
20
0.1800866
40
0.3352302
50
32.2747395
51
45.6547121
0
ARC
8
DEFAULT_255_1_234
10
8.4641497
20
0.181988
40
0.328603
50
359.6507365
51
32.6130309
0
ARC
8
DEFAULT_255_1_234
10
8.3698592
20
0.182466
40
0.2678863
50
359.469343
51
14.9832209
0
ARC
8
DEFAULT_255_1_234
10
8.4403654
20
0.2013539
40
0.1948938
50
14.9781179
51
48.2004265
0
ARC
8
DEFAULT_255_1_234
10
8.4239299
20
0.1806983
40
0.2212521
50
48.5927837
51
74.1241538
0
ARC
8
DEFAULT_255_1_234
10
8.3905788
20
0.0706248
40
0.3362561
50
73.7888341
51
86.6652678
0
ARC
8
DEFAULT_255_1_234
10
8.3803354
20
-0.0501119
40
0.4573953
50
86.2640471
51
90.0526343
0
ARC
8
DEFAULT_255_1_234
10
8.3775066
20
-0.0105808
40
0.4178709
50
89.6697524
51
99.2309573
0
ARC
8
DEFAULT_255_1_234
10
8.3532517
20
0.1338964
40
0.2713749
50
99.069534
51
113.7658566
0
ARC
8
DEFAULT_255_1_234
10
8.3258708
20
0.1984677
40
0.2012469
50
114.0401004
51
127.9850673
0
ARC
8
DEFAULT_255_1_234
10
8.3018272
20
0.228073
40
0.1631167
50
127.7287463
51
176.7105154
0
ARC
8
DEFAULT_255_1_234
10
8.369699
20
0.2179693
40
0.2315392
50
175.1779447
51
180.0581938
0
ARC
8
DEFAULT_255_1_234
10
8.2853836
20
0.2167428
40
0.1472271
50
179.6142195
51
228.1246017
0
ARC
8
DEFAULT_255_1_234
10
8.3295505
20
0.2576308
40
0.2072299
50
226.5779593
51
230.8800004
0
ARC
8
DEFAULT_255_1_234
10
8.3766584
20
0.3201636
40
0.2854818
50
231.4635071
51
241.9260842
0
ARC
8
DEFAULT_255_1_234
10
8.4963762
20
0.54048
40
0.53622
50
241.7178533
51
248.3259551
0
ARC
8
DEFAULT_255_1_234
10
8.6349134
20
0.8837064
40
0.9063478
50
248.2007737
51
252.4528373
0
ARC
8
DEFAULT_255_1_234
10
8.7552858
20
1.2558441
40
1.2974635
50
252.3391078
51
254.3469452
0
ARC
8
DEFAULT_255_1_234
10
8.0010561
20
-1.4418852
40
1.5037162
50
71.0197183
51
74.4087047
0
ARC
8
DEFAULT_255_1_234
10
8.1705246
20
-0.9526889
40
0.9859993
50
66.1847285
51
71.086374
0
ARC
8
DEFAULT_255_1_234
10
8.3261559
20
-0.60228
40
0.6025855
50
59.3536294
51
66.2691831
0
ARC
8
DEFAULT_255_1_234
10
8.4150211
20
-0.4519391
40
0.4279449
50
49.1020879
51
59.3293958
0
ARC
8
DEFAULT_255_1_234
10
8.4968951
20
-0.3586166
40
0.3038015
50
32.7919921
51
49.2505539
0
ARC
8
DEFAULT_255_1_234
10
8.5290041
20
-0.3357809
40
0.264448
50
31.1181161
51
32.4005348
0
ARC
8
DEFAULT_255_1_234
10
8.5201579
20
-0.3393221
40
0.2738556
50
8.1116974
51
30.7958831
0
ARC
8
DEFAULT_255_1_234
10
8.4391247
20
-0.3531247
40
0.3560327
50
359.8389159
51
8.4706516
0
ARC
8
DEFAULT_255_1_234
10
8.5017038
20
-0.3579863
40
0.2934776
50
337.4731098
51
0.7537279
0
ARC
8
DEFAULT_255_1_234
10
8.5195733
20
-0.3599613
40
0.2762607
50
307.5917067
51
336.4315538
0
ARC
8
DEFAULT_255_1_234
10
8.4735561
20
-0.3086898
40
0.3449979
50
307.6551545
51
308.4529766
0
ARC
8
DEFAULT_255_1_234
10
8.450528
20
-0.273175
40
0.3871988
50
284.3734338
51
307.1424381
0
ARC
8
DEFAULT_255_1_234
10
8.401011
20
-0.0910068
40
0.5759636
50
272.4382747
51
284.646547
0
ARC
8
DEFAULT_255_1_234
10
8.3883319
20
0.0889893
40
0.7563528
50
269.9708387
51
272.8178037
0
ARC
8
DEFAULT_255_1_234
10
8.3840358
20
-0.1148284
40
0.5525489
50
248.2707594
51
270.4055579
0
ARC
8
DEFAULT_255_1_234
10
8.37861
20
-0.1338808
40
0.5328452
50
246.1383403
51
248.0542782
0
ARC
8
DEFAULT_255_1_234
10
8.3367478
20
-0.2218157
40
0.4355005
50
233.1670131
51
246.4950969
0
ARC
8
DEFAULT_255_1_234
10
8.2813383
20
-0.2966188
40
0.3424126
50
215.3403242
51
233.0843104
0
ARC
8
DEFAULT_255_1_234
10
8.2540815
20
-0.3164451
40
0.3087104
50
179.2419209
51
215.2648451
0
ARC
8
DEFAULT_255_1_234
10
8.3308409
20
-0.3150334
40
0.2304457
50
179.335461
51
199.1045811
0
ARC
8
DEFAULT_255_1_234
10
8.2976085
20
-0.3237234
40
0.1962176
50
199.8828939
51
232.7063202
0
ARC
8
DEFAULT_255_1_234
10
8.3448353
20
-0.2643212
40
0.2720938
50
232.3738199
51
255.5136649
0
ARC
8
DEFAULT_255_1_234
10
8.378922
20
-0.1399165
40
0.4010747
50
255.2446292
51
267.5320849
0
ARC
8
DEFAULT_255_1_234
10
8.3876843
20
-0.0166298
40
0.5246356
50
267.1557994
51
270.0286766
0
ARC
8
DEFAULT_255_1_234
10
8.3904616
20
-0.061005
40
0.4802668
50
269.7000017
51
278.1660162
0
ARC
8
DEFAULT_255_1_234
10
8.416062
20
-0.2340485
40
0.3053425
50
278.0231263
51
290.625471
0
ARC
8
DEFAULT_255_1_234
10
8.4508308
20
-0.3267975
40
0.206291
50
290.6619762
51
307.0370976
0
ARC
8
DEFAULT_255_1_234
10
8.4808697
20
-0.3636496
40
0.1587906
50
306.3943566
51
355.3030547
0
ARC
8
DEFAULT_255_1_234
10
8.4296628
20
-0.3559887
40
0.2104809
50
354.3660432
51
0.0698737
0
ARC
8
DEFAULT_255_1_234
10
8.4438973
20
-0.3537383
40
0.1962563
50
359.417946
51
16.1971788
0
ARC
8
DEFAULT_255_1_234
10
8.4894284
20
-0.3412582
40
0.149053
50
16.4723299
51
52.6262157
0
ARC
8
DEFAULT_255_1_234
10
8.4073338
20
-0.4496567
40
0.2850296
50
52.7386432
51
62.4979148
0
ARC
8
DEFAULT_255_1_234
10
8.2688415
20
-0.7102717
40
0.5801521
50
62.2515216
51
68.1220564
0
ARC
8
DEFAULT_255_1_234
10
8.0968325
20
-1.1330128
40
1.0365451
50
68.0062803
51
71.8053402
0
ARC
8
DEFAULT_255_1_234
10
7.9172697
20
-1.6715242
40
1.6042013
50
71.7183119
51
73.9258742
0
LINE
8
DEFAULT_255_1_234
10
9.7091679
20
0.5181211
11
9.7091679
21
0.434591
0
LINE
8
DEFAULT_255_1_234
10
9.7091679
20
0.434591
11
9.2248541
21
-0.6513
0
LINE
8
DEFAULT_255_1_234
10
9.2248541
20
-0.6513
11
9.0690383
21
-0.6513
0
LINE
8
DEFAULT_255_1_234
10
9.0690383
20
-0.6513
11
9.5517458
21
0.3960387
0
LINE
8
DEFAULT_255_1_234
10
9.5517458
20
0.3960387
11
8.9188448
21
0.3960387
0
LINE
8
DEFAULT_255_1_234
10
8.9188448
20
0.3960387
11
8.9188448
21
0.5181211
0
LINE
8
DEFAULT_255_1_234
10
8.9188448
20
0.5181211
11
9.7091679
21
0.5181211
0
LINE
8
DEFAULT_255_1_234
10
10.5051131
20
0.5181211
11
10.5051131
21
-0.258548
0
LINE
8
DEFAULT_255_1_234
10
10.5051131
20
-0.258548
11
10.6673542
21
-0.258548
0
LINE
8
DEFAULT_255_1_234
10
10.6673542
20
-0.258548
11
10.6673542
21
-0.3798272
0
LINE
8
DEFAULT_255_1_234
10
10.6673542
20
-0.3798272
11
10.5051131
21
-0.3798272
0
LINE
8
DEFAULT_255_1_234
10
10.5051131
20
-0.3798272
11
10.5051131
21
-0.6513
0
LINE
8
DEFAULT_255_1_234
10
10.5051131
20
-0.6513
11
10.3557228
21
-0.6513
0
LINE
8
DEFAULT_255_1_234
10
10.3557228
20
-0.6513
11
10.3557228
21
-0.3798272
0
LINE
8
DEFAULT_255_1_234
10
10.3557228
20
-0.3798272
11
9.8232186
21
-0.3798272
0
LINE
8
DEFAULT_255_1_234
10
9.8232186
20
-0.3798272
11
9.8232186
21
-0.2922813
0
LINE
8
DEFAULT_255_1_234
10
9.8232186
20
-0.2922813
11
10.3468879
21
0.5181211
0
LINE
8
DEFAULT_255_1_234
10
10.3468879
20
0.5181211
11
10.5051131
21
0.5181211
0
LINE
8
DEFAULT_255_1_234
10
10.338053
20
0.2827912
11
9.9918851
21
-0.258548
0
LINE
8
DEFAULT_255_1_234
10
9.9918851
20
-0.258548
11
10.3557228
21
-0.258548
0
LINE
8
DEFAULT_255_1_234
10
10.3557228
20
-0.258548
11
10.3557228
21
0.3149181
0
LINE
8
DEFAULT_255_1_234
10
10.3557228
20
0.3149181
11
10.338053
21
0.2827912
0
LINE
8
DEFAULT_255_1_234
10
11.5677121
20
-0.5300208
11
11.5677121
21
-0.6513
0
LINE
8
DEFAULT_255_1_234
10
11.5677121
20
-0.6513
11
10.8014843
21
-0.6513
0
LINE
8
DEFAULT_255_1_234
10
10.8014843
20
-0.6513
11
10.8014843
21
-0.5444779
0
LINE
8
DEFAULT_255_1_234
10
10.8014843
20
-0.5444779
11
11.2062839
21
-0.0947005
0
LINE
8
DEFAULT_255_1_234
10
10.9275826
20
0.1735595
11
10.7789954
21
0.1735595
0
LINE
8
DEFAULT_255_1_234
10
11.2938298
20
-0.1902782
11
10.980592
21
-0.5300208
0
LINE
8
DEFAULT_255_1_234
10
10.980592
20
-0.5300208
11
11.5677121
21
-0.5300208
0
ARC
8
DEFAULT_255_1_234
10
9.8572672
20
1.0982527
40
1.8008286
50
318.5132453
51
320.7828378
0
ARC
8
DEFAULT_255_1_234
10
10.3859647
20
0.6679426
40
1.1191493
50
320.7372736
51
323.9737074
0
ARC
8
DEFAULT_255_1_234
10
10.7779503
20
0.3839361
40
0.6350923
50
323.8961724
51
328.6421089
0
ARC
8
DEFAULT_255_1_234
10
10.9826098
20
0.2577031
40
0.3946393
50
328.8299013
51
331.789948
0
ARC
8
DEFAULT_255_1_234
10
11.0823277
20
0.2062509
40
0.2824501
50
331.4255242
51
352.9364833
0
ARC
8
DEFAULT_255_1_234
10
11.0959778
20
0.2031976
40
0.2685315
50
353.2248685
51
0.0169286
0
ARC
8
DEFAULT_255_1_234
10
11.1169654
20
0.205495
40
0.2475536
50
359.4866256
51
15.9339782
0
ARC
8
DEFAULT_255_1_234
10
11.167664
20
0.2191286
40
0.1950618
50
16.1714718
51
43.5284424
0
ARC
8
DEFAULT_255_1_234
10
11.1753948
20
0.2268573
40
0.184134
50
43.4415429
51
83.1661404
0
ARC
8
DEFAULT_255_1_234
10
11.1619866
20
0.1531771
40
0.258926
50
82.160215
51
90.1505798
0
ARC
8
DEFAULT_255_1_234
10
11.1588294
20
0.0994865
40
0.3126255
50
89.5460705
51
102.5418777
0
ARC
8
DEFAULT_255_1_234
10
11.134538
20
0.2025665
40
0.2067346
50
102.1739365
51
129.2061916
0
ARC
8
DEFAULT_255_1_234
10
11.1266452
20
0.2150094
40
0.1921118
50
129.7279328
51
135.7542026
0
ARC
8
DEFAULT_255_1_234
10
11.1387979
20
0.2053045
40
0.2075944
50
136.175737
51
166.3674722
0
ARC
8
DEFAULT_255_1_234
10
11.2394899
20
0.1783182
40
0.3118201
50
165.9092917
51
178.8683903
0
ARC
8
DEFAULT_255_1_234
10
11.325976
20
0.1736179
40
0.3983935
50
178.438168
51
180.0083905
0
ARC
8
DEFAULT_255_1_234
10
11.1858362
20
0.1775231
40
0.4068601
50
163.2878735
51
180.5581814
0
ARC
8
DEFAULT_255_1_234
10
11.1056623
20
0.199584
40
0.3237344
50
133.454115
51
162.9470031
0
ARC
8
DEFAULT_255_1_234
10
11.1235165
20
0.1806
40
0.349795
50
100.7869394
51
133.4384016
0
ARC
8
DEFAULT_255_1_234
10
11.1582936
20
0.0257319
40
0.5084616
50
89.6605301
51
101.3704185
0
ARC
8
DEFAULT_255_1_234
10
11.1649275
20
0.0318496
40
0.502348
50
78.2171172
51
90.4130393
0
ARC
8
DEFAULT_255_1_234
10
11.2004353
20
0.1942637
40
0.3361092
50
55.9268222
51
78.4888551
0
ARC
8
DEFAULT_255_1_234
10
11.2200793
20
0.2281324
40
0.2970617
50
47.9292255
51
55.4054003
0
ARC
8
DEFAULT_255_1_234
10
11.2302354
20
0.2384502
40
0.2825983
50
4.3347696
51
48.0560701
0
ARC
8
DEFAULT_255_1_234
10
11.1206748
20
0.2214601
40
0.393225
50
359.925209
51
5.5967654
0
ARC
8
DEFAULT_255_1_234
10
11.1635639
20
0.2270816
40
0.3503892
50
337.8914096
51
358.9967724
0
ARC
8
DEFAULT_255_1_234
10
10.8922052
20
0.3317706
40
0.6412172
50
326.9135351
51
338.3505194
0
ARC
8
DEFAULT_255_1_234
10
10.4936355
20
0.5872284
40
1.1146189
50
319.6472867
51
327.095818
0
ARC
8
DEFAULT_255_1_234
10
10.1103358
20
0.9034
40
1.6114559
50
317.2586784
51
319.9046139
0
LINE
8
DEFAULT_255_1_234
10
12.491362
20
-0.5300208
11
12.491362
21
-0.6513
0
LINE
8
DEFAULT_255_1_234
10
12.491362
20
-0.6513
11
11.7251342
21
-0.6513
0
LINE
8
DEFAULT_255_1_234
10
11.7251342
20
-0.6513
11
11.7251342
21
-0.5444779
0
LINE
8
DEFAULT_255_1_234
10
11.7251342
20
-0.5444779
11
12.1299338
21
-0.0947005
0
LINE
8
DEFAULT_255_1_234
10
11.8512325
20
0.1735595
11
11.7026453
21
0.1735595
0
LINE
8
DEFAULT_255_1_234
10
12.2174797
20
-0.1902782
11
11.9042419
21
-0.5300208
0
LINE
8
DEFAULT_255_1_234
10
11.9042419
20
-0.5300208
11
12.491362
21
-0.5300208
0
ARC
8
DEFAULT_255_1_234
10
10.7809171
20
1.0982527
40
1.8008286
50
318.5132453
51
320.7828378
0
ARC
8
DEFAULT_255_1_234
10
11.3096146
20
0.6679426
40
1.1191493
50
320.7372736
51
323.9737074
0
ARC
8
DEFAULT_255_1_234
10
11.7016002
20
0.3839361
40
0.6350923
50
323.8961724
51
328.6421089
0
ARC
8
DEFAULT_255_1_234
10
11.9062597
20
0.2577031
40
0.3946393
50
328.8299013
51
331.789948
0
ARC
8
DEFAULT_255_1_234
10
12.0059776
20
0.2062509
40
0.2824501
50
331.4255242
51
352.9364833
0
ARC
8
DEFAULT_255_1_234
10
12.0196277
20
0.2031976
40
0.2685315
50
353.2248685
51
0.0169286
0
ARC
8
DEFAULT_255_1_234
10
12.0406153
20
0.205495
40
0.2475536
50
359.4866256
51
15.9339782
0
ARC
8
DEFAULT_255_1_234
10
12.0913139
20
0.2191286
40
0.1950618
50
16.1714718
51
43.5284424
0
ARC
8
DEFAULT_255_1_234
10
12.0990447
20
0.2268573
40
0.184134
50
43.4415429
51
83.1661404
0
ARC
8
DEFAULT_255_1_234
10
12.0856365
20
0.1531771
40
0.258926
50
82.160215
51
90.1505798
0
ARC
8
DEFAULT_255_1_234
10
12.0824793
20
0.0994865
40
0.3126255
50
89.5460705
51
102.5418777
0
ARC
8
DEFAULT_255_1_234
10
12.0581879
20
0.2025665
40
0.2067346
50
102.1739365
51
129.2061916
0
ARC
8
DEFAULT_255_1_234
10
12.0502951
20
0.2150094
40
0.1921118
50
129.7279328
51
135.7542026
0
ARC
8
DEFAULT_255_1_234
10
12.0624478
20
0.2053045
40
0.2075944
50
136.175737
51
166.3674722
0
ARC
8
DEFAULT_255_1_234
10
12.1631398
20
0.1783182
40
0.3118201
50
165.9092917
51
178.8683903
0
ARC
8
DEFAULT_255_1_234
10
12.2496259
20
0.1736179
40
0.3983935
50
178.438168
51
180.0083905
0
ARC
8
DEFAULT_255_1_234
10
12.1094861
20
0.1775231
40
0.4068601
50
163.2878735
51
180.5581814
0
ARC
8
DEFAULT_255_1_234
10
12.0293122
20
0.199584
40
0.3237344
50
133.454115
51
162.9470031
0
ARC
8
DEFAULT_255_1_234
10
12.0471664
20
0.1806
40
0.349795
50
100.7869394
51
133.4384016
0
ARC
8
DEFAULT_255_1_234
10
12.0819435
20
0.0257319
40
0.5084616
50
89.6605301
51
101.3704185
0
ARC
8
DEFAULT_255_1_234
10
12.0885774
20
0.0318496
40
0.502348
50
78.2171172
51
90.4130393
0
ARC
8
DEFAULT_255_1_234
10
12.1240852
20
0.1942637
40
0.3361092
50
55.9268222
51
78.4888551
0
ARC
8
DEFAULT_255_1_234
10
12.1437292
20
0.2281324
40
0.2970617
50
47.9292255
51
55.4054003
0
ARC
8
DEFAULT_255_1_234
10
12.1538853
20
0.2384502
40
0.2825983
50
4.3347696
51
48.0560701
0
ARC
8
DEFAULT_255_1_234
10
12.0443247
20
0.2214601
40
0.393225
50
359.925209
51
5.5967654
0
ARC
8
DEFAULT_255_1_234
10
12.0872138
20
0.2270816
40
0.3503892
50
337.8914096
51
358.9967724
0
ARC
8
DEFAULT_255_1_234
10
11.8158551
20
0.3317706
40
0.6412172
50
326.9135351
51
338.3505194
0
ARC
8
DEFAULT_255_1_234
10
11.4172854
20
0.5872284
40
1.1146189
50
319.6472867
51
327.095818
0
ARC
8
DEFAULT_255_1_234
10
11.0339857
20
0.9034
40
1.6114559
50
317.2586784
51
319.9046139
0
LINE
8
DEFAULT_255_1_234
10
12.9732663
20
-0.0938974
11
12.9732663
21
-0.2151766
0
LINE
8
DEFAULT_255_1_234
10
12.9732663
20
-0.2151766
11
12.5813175
21
-0.2151766
0
LINE
8
DEFAULT_255_1_234
10
12.5813175
20
-0.2151766
11
12.5813175
21
-0.0938974
0
LINE
8
DEFAULT_255_1_234
10
12.5813175
20
-0.0938974
11
12.9732663
21
-0.0938974
0
LINE
8
DEFAULT_255_1_234
10
13.590907
20
0.5237433
11
13.590907
21
-0.6513
0
LINE
8
DEFAULT_255_1_234
10
13.590907
20
-0.6513
11
13.4415167
21
-0.6513
0
LINE
8
DEFAULT_255_1_234
10
13.4415167
20
-0.6513
11
13.4415167
21
0.3390133
0
LINE
8
DEFAULT_255_1_234
10
13.4415167
20
0.3390133
11
13.1419328
21
0.2289785
0
LINE
8
DEFAULT_255_1_234
10
13.1419328
20
0.2289785
11
13.1419328
21
0.3639117
0
LINE
8
DEFAULT_255_1_234
10
13.1419328
20
0.3639117
11
13.5676149
21
0.5237433
0
LINE
8
DEFAULT_255_1_234
10
13.5676149
20
0.5237433
11
13.590907
21
0.5237433
0
LINE
8
DEFAULT_255_1_234
10
14.7097281
20
-0.0087609
11
14.7097281
21
-0.1348592
0
LINE
8
DEFAULT_255_1_234
10
14.7097281
20
-0.1348592
11
14.2189889
21
-0.1348592
0
LINE
8
DEFAULT_255_1_234
10
14.2189889
20
-0.1348592
11
14.2189889
21
-0.6513
0
LINE
8
DEFAULT_255_1_234
10
14.2189889
20
-0.6513
11
14.0647795
21
-0.6513
0
LINE
8
DEFAULT_255_1_234
10
14.0647795
20
-0.6513
11
14.0647795
21
0.5181211
0
LINE
8
DEFAULT_255_1_234
10
14.0647795
20
0.5181211
11
14.7892423
21
0.5181211
0
LINE
8
DEFAULT_255_1_234
10
14.7892423
20
0.5181211
11
14.7892423
21
0.3912196
0
LINE
8
DEFAULT_255_1_234
10
14.7892423
20
0.3912196
11
14.2189889
21
0.3912196
0
LINE
8
DEFAULT_255_1_234
10
14.2189889
20
0.3912196
11
14.2189889
21
-0.0087609
0
LINE
8
DEFAULT_255_1_234
10
14.2189889
20
-0.0087609
11
14.7097281
21
-0.0087609
0
LINE
8
DEFAULT_255_1_234
10
15.8727238
20
0.5181211
11
15.8727238
21
-0.6513
0
LINE
8
DEFAULT_255_1_234
10
15.8727238
20
-0.6513
11
15.7177113
21
-0.6513
0
LINE
8
DEFAULT_255_1_234
10
15.7177113
20
-0.6513
11
15.7177113
21
-0.110764
0
LINE
8
DEFAULT_255_1_234
10
15.7177113
20
-0.110764
11
15.1281817
21
-0.110764
0
LINE
8
DEFAULT_255_1_234
10
15.1281817
20
-0.110764
11
15.1281817
21
-0.6513
0
LINE
8
DEFAULT_255_1_234
10
15.1281817
20
-0.6513
11
14.9739723
21
-0.6513
0
LINE
8
DEFAULT_255_1_234
10
14.9739723
20
-0.6513
11
14.9739723
21
0.5181211
0
LINE
8
DEFAULT_255_1_234
10
14.9739723
20
0.5181211
11
15.1281817
21
0.5181211
0
LINE
8
DEFAULT_255_1_234
10
15.1281817
20
0.5181211
11
15.1281817
21
0.0153343
0
LINE
8
DEFAULT_255_1_234
10
15.1281817
20
0.0153343
11
15.7177113
21
0.0153343
0
LINE
8
DEFAULT_255_1_234
10
15.7177113
20
0.0153343
11
15.7177113
21
0.5181211
0
LINE
8
DEFAULT_255_1_234
10
15.7177113
20
0.5181211
11
15.8727238
21
0.5181211
0
LINE
8
DEFAULT_255_1_234
10
16.8413515
20
0.0402327
11
16.8413515
21
-0.1525291
0
LINE
8
DEFAULT_255_1_234
10
16.1032347
20
-0.1726084
11
16.1032347
21
0.0257755
0
LINE
8
DEFAULT_255_1_234
10
16.6927643
20
-0.1926877
11
16.6927643
21
0.0506739
0
LINE
8
DEFAULT_255_1_234
10
16.2518219
20
0.0619184
11
16.2518219
21
-0.1758211
0
ARC
8
DEFAULT_255_1_234
10
15.6166404
20
-0.1574195
40
1.2247208
50
353.8441951
51
0.2287902
0
ARC
8
DEFAULT_255_1_234
10
16.0805908
20
-0.2092194
40
0.7578929
50
344.4934747
51
353.9765454
0
ARC
8
DEFAULT_255_1_234
10
16.3798498
20
-0.2943019
40
0.4467846
50
329.2803592
51
344.7472793
0
ARC
8
DEFAULT_255_1_234
10
16.4791323
20
-0.3487982
40
0.3336173
50
324.9352394
51
328.6160465
0
ARC
8
DEFAULT_255_1_234
10
16.5168432
20
-0.3751573
40
0.2876076
50
280.580143
51
324.9173126
0
ARC
8
DEFAULT_255_1_234
10
16.4767224
20
-0.2080901
40
0.4592847
50
269.5977311
51
281.6734359
0
ARC
8
DEFAULT_255_1_234
10
16.469513
20
-0.2200827
40
0.4472986
50
256.6228859
51
270.51044
0
ARC
8
DEFAULT_255_1_234
10
16.4293108
20
-0.3749123
40
0.2873874
50
215.8618325
51
257.2788573
0
ARC
8
DEFAULT_255_1_234
10
16.5314139
20
-0.3064023
40
0.4102928
50
197.9693508
51
215.2623606
0
ARC
8
DEFAULT_255_1_234
10
16.7799255
20
-0.2225291
40
0.6725652
50
187.8816417
51
198.2346507
0
ARC
8
DEFAULT_255_1_234
10
17.1757463
20
-0.1653921
40
1.0724845
50
180.8976217
51
188.0055519
0
ARC
8
DEFAULT_255_1_234
10
17.4557651
20
-0.1550223
40
1.3526448
50
180.7449369
51
181.1510016
0
ARC
8
DEFAULT_255_1_234
10
17.298038
20
0.0306042
40
1.1948131
50
173.7675579
51
180.231553
0
ARC
8
DEFAULT_255_1_234
10
16.8462527
20
0.0816666
40
0.7401564
50
164.3058563
51
173.9002247
0
ARC
8
DEFAULT_255_1_234
10
16.5550596
20
0.1655656
40
0.4371288
50
148.7922025
51
164.568378
0
ARC
8
DEFAULT_255_1_234
10
16.4599048
20
0.2186929
40
0.3282386
50
144.5883898
51
148.1176286
0
ARC
8
DEFAULT_255_1_234
10
16.4255946
20
0.2426315
40
0.2864044
50
101.6440918
51
144.514236
0
ARC
8
DEFAULT_255_1_234
10
16.4681013
20
0.0737069
40
0.4604934
50
89.5284041
51
102.5819763
0
ARC
8
DEFAULT_255_1_234
10
16.47601
20
0.0698018
40
0.464401
50
77.0437873
51
90.5081339
0
ARC
8
DEFAULT_255_1_234
10
16.5162102
20
0.2340615
40
0.2953195
50
48.2778575
51
77.4994676
0
ARC
8
DEFAULT_255_1_234
10
16.5234733
20
0.2469746
40
0.2808655
50
36.3142134
51
47.6305865
0
ARC
8
DEFAULT_255_1_234
10
16.436604
20
0.1884515
40
0.3855453
50
18.2931786
51
35.6769206
0
ARC
8
DEFAULT_255_1_234
10
16.1822799
20
0.1011593
40
0.654423
50
8.024666
51
18.5605216
0
ARC
8
DEFAULT_255_1_234
10
15.7659719
20
0.0396792
40
1.0752407
50
1.1274072
51
8.1718305
0
ARC
8
DEFAULT_255_1_234
10
15.442391
20
0.0269885
40
1.3990231
50
0.5424119
51
1.3863029
0
ARC
8
DEFAULT_255_1_234
10
15.6245288
20
0.0542342
40
1.0682415
50
359.8090433
51
4.9407866
0
ARC
8
DEFAULT_255_1_234
10
16.0455302
20
0.0918113
40
0.6455691
50
4.8362157
51
12.2904523
0
ARC
8
DEFAULT_255_1_234
10
16.3210417
20
0.1531965
40
0.3633074
50
12.0805627
51
23.8173984
0
ARC
8
DEFAULT_255_1_234
10
16.4384122
20
0.2028919
40
0.2358723
50
24.2871213
51
31.3935614
0
ARC
8
DEFAULT_255_1_234
10
16.4908819
20
0.2372233
40
0.1732111
50
30.7407893
51
82.4657128
0
ARC
8
DEFAULT_255_1_234
10
16.4728953
20
0.1488691
40
0.263235
50
81.1060089
51
90.2184952
0
ARC
8
DEFAULT_255_1_234
10
16.4693252
20
0.1746924
40
0.2374236
50
89.3806855
51
105.6762551
0
ARC
8
DEFAULT_255_1_234
10
16.4509883
20
0.2413567
40
0.1682847
50
105.7981136
51
149.7388061
0
ARC
8
DEFAULT_255_1_234
10
16.5573961
20
0.177395
40
0.2924306
50
149.4208916
51
163.6286378
0
ARC
8
DEFAULT_255_1_234
10
16.7664849
20
0.113625
40
0.5110213
50
163.3763315
51
172.1410975
0
ARC
8
DEFAULT_255_1_234
10
17.0965568
20
0.0663518
40
0.8444586
50
172.0259487
51
178.0703232
0
ARC
8
DEFAULT_255_1_234
10
17.3995658
20
0.0519906
40
1.1477868
50
177.8631668
51
179.5044149
0
ARC
8
DEFAULT_255_1_234
10
17.2923062
20
-0.1794611
40
1.0404907
50
179.7995573
51
185.2460446
0
ARC
8
DEFAULT_255_1_234
10
16.8880102
20
-0.2177487
40
0.6343885
50
185.1411642
51
193.0079639
0
ARC
8
DEFAULT_255_1_234
10
16.6236574
20
-0.2802359
40
0.3627568
50
192.7897626
51
205.2507664
0
ARC
8
DEFAULT_255_1_234
10
16.5190121
20
-0.3269585
40
0.2481908
50
205.8005384
51
211.2537509
0
ARC
8
DEFAULT_255_1_234
10
16.4666562
20
-0.362042
40
0.1852521
50
210.3789793
51
238.4008143
0
ARC
8
DEFAULT_255_1_234
10
16.4647083
20
-0.3573624
40
0.1882621
50
239.6520629
51
265.9793761
0
ARC
8
DEFAULT_255_1_234
10
16.4732284
20
-0.2901573
40
0.2559272
50
265.1315437
51
270.060332
0
ARC
8
DEFAULT_255_1_234
10
16.4761062
20
-0.3225466
40
0.2235528
50
269.3314664
51
287.2178029
0
ARC
8
DEFAULT_255_1_234
10
16.4898914
20
-0.3728721
40
0.1714108
50
287.7958004
51
329.080874
0
ARC
8
DEFAULT_255_1_234
10
16.3941371
20
-0.313107
40
0.2842745
50
328.6634704
51
343.3325132
0
ARC
8
DEFAULT_255_1_234
10
16.1768391
20
-0.2454137
40
0.5118644
50
343.0499468
51
351.9393422
0
ARC
8
DEFAULT_255_1_234
10
15.8301691
20
-0.1943051
40
0.8622784
50
351.8069023
51
357.7959224
0
ARC
8
DEFAULT_255_1_234
10
15.5066247
20
-0.1775279
40
1.1862365
50
357.5871873
51
359.2677531
0
LINE
8
DEFAULT_255_1_234
10
17.7650014
20
0.0402327
11
17.7650014
21
-0.1525291
0
LINE
8
DEFAULT_255_1_234
10
17.0268846
20
-0.1726084
11
17.0268846
21
0.0257755
0
LINE
8
DEFAULT_255_1_234
10
17.6164142
20
-0.1926877
11
17.6164142
21
0.0506739
0
LINE
8
DEFAULT_255_1_234
10
17.1754718
20
0.0619184
11
17.1754718
21
-0.1758211
0
ARC
8
DEFAULT_255_1_234
10
16.5402903
20
-0.1574195
40
1.2247208
50
353.8441951
51
0.2287902
0
ARC
8
DEFAULT_255_1_234
10
17.0042407
20
-0.2092194
40
0.7578929
50
344.4934747
51
353.9765454
0
ARC
8
DEFAULT_255_1_234
10
17.3034997
20
-0.2943019
40
0.4467846
50
329.2803592
51
344.7472793
0
ARC
8
DEFAULT_255_1_234
10
17.4027822
20
-0.3487982
40
0.3336173
50
324.9352394
51
328.6160465
0
ARC
8
DEFAULT_255_1_234
10
17.4404931
20
-0.3751573
40
0.2876076
50
280.580143
51
324.9173126
0
ARC
8
DEFAULT_255_1_234
10
17.4003723
20
-0.2080901
40
0.4592847
50
269.5977311
51
281.6734359
0
ARC
8
DEFAULT_255_1_234
10
17.3931629
20
-0.2200827
40
0.4472986
50
256.6228859
51
270.51044
0
ARC
8
DEFAULT_255_1_234
10
17.3529607
20
-0.3749123
40
0.2873874
50
215.8618325
51
257.2788573
0
ARC
8
DEFAULT_255_1_234
10
17.4550638
20
-0.3064023
40
0.4102928
50
197.9693508
51
215.2623606
0
ARC
8
DEFAULT_255_1_234
10
17.7035754
20
-0.2225291
40
0.6725652
50
187.8816417
51
198.2346507
0
ARC
8
DEFAULT_255_1_234
10
18.0993962
20
-0.1653921
40
1.0724845
50
180.8976217
51
188.0055519
0
ARC
8
DEFAULT_255_1_234
10
18.379415
20
-0.1550223
40
1.3526448
50
180.7449369
51
181.1510016
0
ARC
8
DEFAULT_255_1_234
10
18.2216879
20
0.0306042
40
1.1948131
50
173.7675579
51
180.231553
0
ARC
8
DEFAULT_255_1_234
10
17.7699026
20
0.0816666
40
0.7401564
50
164.3058563
51
173.9002247
0
ARC
8
DEFAULT_255_1_234
10
17.4787095
20
0.1655656
40
0.4371288
50
148.7922025
51
164.568378
0
ARC
8
DEFAULT_255_1_234
10
17.3835547
20
0.2186929
40
0.3282386
50
144.5883898
51
148.1176286
0
ARC
8
DEFAULT_255_1_234
10
17.3492445
20
0.2426315
40
0.2864044
50
101.6440918
51
144.514236
0
ARC
8
DEFAULT_255_1_234
10
17.3917512
20
0.0737069
40
0.4604934
50
89.5284041
51
102.5819763
0
ARC
8
DEFAULT_255_1_234
10
17.3996599
20
0.0698018
40
0.464401
50
77.0437873
51
90.5081339
0
ARC
8
DEFAULT_255_1_234
10
17.4398601
20
0.2340615
40
0.2953195
50
48.2778575
51
77.4994676
0
ARC
8
DEFAULT_255_1_234
10
17.4471233
20
0.2469746
40
0.2808655
50
36.3142134
51
47.6305865
0
ARC
8
DEFAULT_255_1_234
10
17.3602539
20
0.1884515
40
0.3855453
50
18.2931786
51
35.6769206
0
ARC
8
DEFAULT_255_1_234
10
17.1059298
20
0.1011593
40
0.654423
50
8.024666
51
18.5605216
0
ARC
8
DEFAULT_255_1_234
10
16.6896218
20
0.0396792
40
1.0752407
50
1.1274072
51
8.1718305
0
ARC
8
DEFAULT_255_1_234
10
16.3660409
20
0.0269885
40
1.3990231
50
0.5424119
51
1.3863029
0
ARC
8
DEFAULT_255_1_234
10
16.5481787
20
0.0542342
40
1.0682415
50
359.8090433
51
4.9407866
0
ARC
8
DEFAULT_255_1_234
10
16.9691801
20
0.0918113
40
0.6455691
50
4.8362157
51
12.2904523
0
ARC
8
DEFAULT_255_1_234
10
17.2446916
20
0.1531965
40
0.3633074
50
12.0805627
51
23.8173984
0
ARC
8
DEFAULT_255_1_234
10
17.3620621
20
0.2028919
40
0.2358723
50
24.2871213
51
31.3935614
0
ARC
8
DEFAULT_255_1_234
10
17.4145318
20
0.2372233
40
0.1732111
50
30.7407893
51
82.4657128
0
ARC
8
DEFAULT_255_1_234
10
17.3965452
20
0.1488691
40
0.263235
50
81.1060089
51
90.2184952
0
ARC
8
DEFAULT_255_1_234
10
17.3929751
20
0.1746924
40
0.2374236
50
89.3806855
51
105.6762551
0
ARC
8
DEFAULT_255_1_234
10
17.3746382
20
0.2413567
40
0.1682847
50
105.7981136
51
149.7388061
0
ARC
8
DEFAULT_255_1_234
10
17.481046
20
0.177395
40
0.2924306
50
149.4208916
51
163.6286378
0
ARC
8
DEFAULT_255_1_234
10
17.6901348
20
0.113625
40
0.5110213
50
163.3763315
51
172.1410975
0
ARC
8
DEFAULT_255_1_234
10
18.0202067
20
0.0663518
40
0.8444586
50
172.0259487
51
178.0703232
0
ARC
8
DEFAULT_255_1_234
10
18.3232157
20
0.0519906
40
1.1477868
50
177.8631668
51
179.5044149
0
ARC
8
DEFAULT_255_1_234
10
18.2159561
20
-0.1794611
40
1.0404907
50
179.7995573
51
185.2460446
0
ARC
8
DEFAULT_255_1_234
10
17.8116601
20
-0.2177487
40
0.6343885
50
185.1411642
51
193.0079639
0
ARC
8
DEFAULT_255_1_234
10
17.5473073
20
-0.2802359
40
0.3627568
50
192.7897626
51
205.2507664
0
ARC
8
DEFAULT_255_1_234
10
17.442662
20
-0.3269585
40
0.2481908
50
205.8005384
51
211.2537509
0
ARC
8
DEFAULT_255_1_234
10
17.3903061
20
-0.362042
40
0.1852521
50
210.3789793
51
238.4008143
0
ARC
8
DEFAULT_255_1_234
10
17.3883582
20
-0.3573624
40
0.1882621
50
239.6520629
51
265.9793761
0
ARC
8
DEFAULT_255_1_234
10
17.3968783
20
-0.2901573
40
0.2559272
50
265.1315437
51
270.060332
0
ARC
8
DEFAULT_255_1_234
10
17.3997561
20
-0.3225466
40
0.2235528
50
269.3314664
51
287.2178029
0
ARC
8
DEFAULT_255_1_234
10
17.4135413
20
-0.3728721
40
0.1714108
50
287.7958004
51
329.080874
0
ARC
8
DEFAULT_255_1_234
10
17.317787
20
-0.313107
40
0.2842745
50
328.6634704
51
343.3325132
0
ARC
8
DEFAULT_255_1_234
10
17.100489
20
-0.2454137
40
0.5118644
50
343.0499468
51
351.9393422
0
ARC
8
DEFAULT_255_1_234
10
16.753819
20
-0.1943051
40
0.8622784
50
351.8069023
51
357.7959224
0
ARC
8
DEFAULT_255_1_234
10
16.4302746
20
-0.1775279
40
1.1862365
50
357.5871873
51
359.2677531
0
LINE
8
DEFAULT_255_1_234
10
18.2798358
20
-0.0938974
11
18.2798358
21
-0.2151766
0
LINE
8
DEFAULT_255_1_234
10
18.2798358
20
-0.2151766
11
17.887887
21
-0.2151766
0
LINE
8
DEFAULT_255_1_234
10
17.887887
20
-0.2151766
11
17.887887
21
-0.0938974
0
LINE
8
DEFAULT_255_1_234
10
17.887887
20
-0.0938974
11
18.2798358
21
-0.0938974
0
LINE
8
DEFAULT_255_1_234
10
19.1424445
20
0.0402327
11
19.1424445
21
-0.1525291
0
LINE
8
DEFAULT_255_1_234
10
18.4043277
20
-0.1726084
11
18.4043277
21
0.0257755
0
LINE
8
DEFAULT_255_1_234
10
18.9938573
20
-0.1926877
11
18.9938573
21
0.0506739
0
LINE
8
DEFAULT_255_1_234
10
18.5529149
20
0.0619184
11
18.5529149
21
-0.1758211
0
ARC
8
DEFAULT_255_1_234
10
17.9177334
20
-0.1574195
40
1.2247208
50
353.8441951
51
0.2287902
0
ARC
8
DEFAULT_255_1_234
10
18.3816838
20
-0.2092194
40
0.7578929
50
344.4934747
51
353.9765454
0
ARC
8
DEFAULT_255_1_234
10
18.6809428
20
-0.2943019
40
0.4467846
50
329.2803592
51
344.7472793
0
ARC
8
DEFAULT_255_1_234
10
18.7802253
20
-0.3487982
40
0.3336173
50
324.9352394
51
328.6160465
0
ARC
8
DEFAULT_255_1_234
10
18.8179362
20
-0.3751573
40
0.2876076
50
280.580143
51
324.9173126
0
ARC
8
DEFAULT_255_1_234
10
18.7778154
20
-0.2080901
40
0.4592847
50
269.5977311
51
281.6734359
0
ARC
8
DEFAULT_255_1_234
10
18.770606
20
-0.2200827
40
0.4472986
50
256.6228859
51
270.51044
0
ARC
8
DEFAULT_255_1_234
10
18.7304038
20
-0.3749123
40
0.2873874
50
215.8618325
51
257.2788573
0
ARC
8
DEFAULT_255_1_234
10
18.8325069
20
-0.3064023
40
0.4102928
50
197.9693508
51
215.2623606
0
ARC
8
DEFAULT_255_1_234
10
19.0810185
20
-0.2225291
40
0.6725652
50
187.8816417
51
198.2346507
0
ARC
8
DEFAULT_255_1_234
10
19.4768393
20
-0.1653921
40
1.0724845
50
180.8976217
51
188.0055519
0
ARC
8
DEFAULT_255_1_234
10
19.7568582
20
-0.1550223
40
1.3526448
50
180.7449369
51
181.1510016
0
ARC
8
DEFAULT_255_1_234
10
19.5991311
20
0.0306042
40
1.1948131
50
173.7675579
51
180.231553
0
ARC
8
DEFAULT_255_1_234
10
19.1473457
20
0.0816666
40
0.7401564
50
164.3058563
51
173.9002247
0
ARC
8
DEFAULT_255_1_234
10
18.8561526
20
0.1655656
40
0.4371288
50
148.7922025
51
164.568378
0
ARC
8
DEFAULT_255_1_234
10
18.7609978
20
0.2186929
40
0.3282386
50
144.5883898
51
148.1176286
0
ARC
8
DEFAULT_255_1_234
10
18.7266876
20
0.2426315
40
0.2864044
50
101.6440918
51
144.514236
0
ARC
8
DEFAULT_255_1_234
10
18.7691943
20
0.0737069
40
0.4604934
50
89.5284041
51
102.5819763
0
ARC
8
DEFAULT_255_1_234
10
18.7771031
20
0.0698018
40
0.464401
50
77.0437873
51
90.5081339
0
ARC
8
DEFAULT_255_1_234
10
18.8173032
20
0.2340615
40
0.2953195
50
48.2778575
51
77.4994676
0
ARC
8
DEFAULT_255_1_234
10
18.8245664
20
0.2469746
40
0.2808655
50
36.3142134
51
47.6305865
0
ARC
8
DEFAULT_255_1_234
10
18.7376971
20
0.1884515
40
0.3855453
50
18.2931786
51
35.6769206
0
ARC
8
DEFAULT_255_1_234
10
18.4833729
20
0.1011593
40
0.654423
50
8.024666
51
18.5605216
0
ARC
8
DEFAULT_255_1_234
10
18.0670649
20
0.0396792
40
1.0752407
50
1.1274072
51
8.1718305
0
ARC
8
DEFAULT_255_1_234
10
17.743484
20
0.0269885
40
1.3990231
50
0.5424119
51
1.3863029
0
ARC
8
DEFAULT_255_1_234
10
17.9256218
20
0.0542342
40
1.0682415
50
359.8090433
51
4.9407866
0
ARC
8
DEFAULT_255_1_234
10
18.3466232
20
0.0918113
40
0.6455691
50
4.8362157
51
12.2904523
0
ARC
8
DEFAULT_255_1_234
10
18.6221347
20
0.1531965
40
0.3633074
50
12.0805627
51
23.8173984
0
ARC
8
DEFAULT_255_1_234
10
18.7395052
20
0.2028919
40
0.2358723
50
24.2871213
51
31.3935614
0
ARC
8
DEFAULT_255_1_234
10
18.7919749
20
0.2372233
40
0.1732111
50
30.7407893
51
82.4657128
0
ARC
8
DEFAULT_255_1_234
10
18.7739884
20
0.1488691
40
0.263235
50
81.1060089
51
90.2184952
0
ARC
8
DEFAULT_255_1_234
10
18.7704182
20
0.1746924
40
0.2374236
50
89.3806855
51
105.6762551
0
ARC
8
DEFAULT_255_1_234
10
18.7520813
20
0.2413567
40
0.1682847
50
105.7981136
51
149.7388061
0
ARC
8
DEFAULT_255_1_234
10
18.8584891
20
0.177395
40
0.2924306
50
149.4208916
51
163.6286378
0
ARC
8
DEFAULT_255_1_234
10
19.0675779
20
0.113625
40
0.5110213
50
163.3763315
51
172.1410975
0
ARC
8
DEFAULT_255_1_234
10
19.3976498
20
0.0663518
40
0.8444586
50
172.0259487
51
178.0703232
0
ARC
8
DEFAULT_255_1_234
10
19.7006588
20
0.0519906
40
1.1477868
50
177.8631668
51
179.5044149
0
ARC
8
DEFAULT_255_1_234
10
19.5933992
20
-0.1794611
40
1.0404907
50
179.7995573
51
185.2460446
0
ARC
8
DEFAULT_255_1_234
10
19.1891032
20
-0.2177487
40
0.6343885
50
185.1411642
51
193.0079639
0
ARC
8
DEFAULT_255_1_234
10
18.9247504
20
-0.2802359
40
0.3627568
50
192.7897626
51
205.2507664
0
ARC
8
DEFAULT_255_1_234
10
18.8201051
20
-0.3269585
40
0.2481908
50
205.8005384
51
211.2537509
0
ARC
8
DEFAULT_255_1_234
10
18.7677492
20
-0.362042
40
0.1852521
50
210.3789793
51
238.4008143
0
ARC
8
DEFAULT_255_1_234
10
18.7658014
20
-0.3573624
40
0.1882621
50
239.6520629
51
265.9793761
0
ARC
8
DEFAULT_255_1_234
10
18.7743214
20
-0.2901573
40
0.2559272
50
265.1315437
51
270.060332
0
ARC
8
DEFAULT_255_1_234
10
18.7771992
20
-0.3225466
40
0.2235528
50
269.3314664
51
287.2178029
0
ARC
8
DEFAULT_255_1_234
10
18.7909844
20
-0.3728721
40
0.1714108
50
287.7958004
51
329.080874
0
ARC
8
DEFAULT_255_1_234
10
18.6952301
20
-0.313107
40
0.2842745
50
328.6634704
51
343.3325132
0
ARC
8
DEFAULT_255_1_234
10
18.4779321
20
-0.2454137
40
0.5118644
50
343.0499468
51
351.9393422
0
ARC
8
DEFAULT_255_1_234
10
18.1312621
20
-0.1943051
40
0.8622784
50
351.8069023
51
357.7959224
0
ARC
8
DEFAULT_255_1_234
10
17.8077177
20
-0.1775279
40
1.1862365
50
357.5871873
51
359.2677531
0
LINE
8
DEFAULT_255_1_234
10
20.1287419
20
-0.6513
11
20.0171008
21
-0.3460939
0
LINE
8
DEFAULT_255_1_234
10
20.0171008
20
-0.3460939
11
19.5271647
21
-0.3460939
0
LINE
8
DEFAULT_255_1_234
10
19.5271647
20
-0.3460939
11
19.4171299
21
-0.6513
0
LINE
8
DEFAULT_255_1_234
10
19.4171299
20
-0.6513
11
19.2581015
21
-0.6513
0
LINE
8
DEFAULT_255_1_234
10
19.2581015
20
-0.6513
11
19.7046662
21
0.5181211
0
LINE
8
DEFAULT_255_1_234
10
19.7046662
20
0.5181211
11
19.8395994
21
0.5181211
0
LINE
8
DEFAULT_255_1_234
10
19.8395994
20
0.5181211
11
20.2869672
21
-0.6513
0
LINE
8
DEFAULT_255_1_234
10
20.2869672
20
-0.6513
11
20.1287419
21
-0.6513
0
LINE
8
DEFAULT_255_1_234
10
19.7721328
20
0.3277689
11
19.5737488
21
-0.2191925
0
LINE
8
DEFAULT_255_1_234
10
19.5737488
20
-0.2191925
11
19.9713199
21
-0.2191925
0
LINE
8
DEFAULT_255_1_234
10
19.9713199
20
-0.2191925
11
19.7721328
21
0.3277689
0
LINE
8
DEFAULT_255_1_234
10
21.2017822
20
-0.6513
11
21.090141
21
-0.3460939
0
LINE
8
DEFAULT_255_1_234
10
21.090141
20
-0.3460939
11
20.600205
21
-0.3460939
0
LINE
8
DEFAULT_255_1_234
10
20.600205
20
-0.3460939
11
20.4901702
21
-0.6513
0
LINE
8
DEFAULT_255_1_234
10
20.4901702
20
-0.6513
11
20.3311417
21
-0.6513
0
LINE
8
DEFAULT_255_1_234
10
20.3311417
20
-0.6513
11
20.7777064
21
0.5181211
0
LINE
8
DEFAULT_255_1_234
10
20.7777064
20
0.5181211
11
20.9126396
21
0.5181211
0
LINE
8
DEFAULT_255_1_234
10
20.9126396
20
0.5181211
11
21.3600074
21
-0.6513
0
LINE
8
DEFAULT_255_1_234
10
21.3600074
20
-0.6513
11
21.2017822
21
-0.6513
0
LINE
8
DEFAULT_255_1_234
10
20.845173
20
0.3277689
11
20.6467891
21
-0.2191925
0
LINE
8
DEFAULT_255_1_234
10
20.6467891
20
-0.2191925
11
21.0443601
21
-0.2191925
0
LINE
8
DEFAULT_255_1_234
10
21.0443601
20
-0.2191925
11
20.845173
21
0.3277689
0
LINE
8
DEFAULT_255_1_234
10
22.2121749
20
0.0402327
11
22.2121749
21
-0.1525291
0
LINE
8
DEFAULT_255_1_234
10
21.4740581
20
-0.1726084
11
21.4740581
21
0.0257755
0
LINE
8
DEFAULT_255_1_234
10
22.0635877
20
-0.1926877
11
22.0635877
21
0.0506739
0
LINE
8
DEFAULT_255_1_234
10
21.6226453
20
0.0619184
11
21.6226453
21
-0.1758211
0
ARC
8
DEFAULT_255_1_234
10
20.9874638
20
-0.1574195
40
1.2247208
50
353.8441951
51
0.2287902
0
ARC
8
DEFAULT_255_1_234
10
21.4514142
20
-0.2092194
40
0.7578929
50
344.4934747
51
353.9765454
0
ARC
8
DEFAULT_255_1_234
10
21.7506732
20
-0.2943019
40
0.4467846
50
329.2803592
51
344.7472793
0
ARC
8
DEFAULT_255_1_234
10
21.8499557
20
-0.3487982
40
0.3336173
50
324.9352394
51
328.6160465
0
ARC
8
DEFAULT_255_1_234
10
21.8876666
20
-0.3751573
40
0.2876076
50
280.580143
51
324.9173126
0
ARC
8
DEFAULT_255_1_234
10
21.8475458
20
-0.2080901
40
0.4592847
50
269.5977311
51
281.6734359
0
ARC
8
DEFAULT_255_1_234
10
21.8403364
20
-0.2200827
40
0.4472986
50
256.6228859
51
270.51044
0
ARC
8
DEFAULT_255_1_234
10
21.8001342
20
-0.3749123
40
0.2873874
50
215.8618325
51
257.2788573
0
ARC
8
DEFAULT_255_1_234
10
21.9022373
20
-0.3064023
40
0.4102928
50
197.9693508
51
215.2623606
0
ARC
8
DEFAULT_255_1_234
10
22.1507489
20
-0.2225291
40
0.6725652
50
187.8816417
51
198.2346507
0
ARC
8
DEFAULT_255_1_234
10
22.5465697
20
-0.1653921
40
1.0724845
50
180.8976217
51
188.0055519
0
ARC
8
DEFAULT_255_1_234
10
22.8265885
20
-0.1550223
40
1.3526448
50
180.7449369
51
181.1510016
0
ARC
8
DEFAULT_255_1_234
10
22.6688614
20
0.0306042
40
1.1948131
50
173.7675579
51
180.231553
0
ARC
8
DEFAULT_255_1_234
10
22.2170761
20
0.0816666
40
0.7401564
50
164.3058563
51
173.9002247
0
ARC
8
DEFAULT_255_1_234
10
21.925883
20
0.1655656
40
0.4371288
50
148.7922025
51
164.568378
0
ARC
8
DEFAULT_255_1_234
10
21.8307282
20
0.2186929
40
0.3282386
50
144.5883898
51
148.1176286
0
ARC
8
DEFAULT_255_1_234
10
21.796418
20
0.2426315
40
0.2864044
50
101.6440918
51
144.514236
0
ARC
8
DEFAULT_255_1_234
10
21.8389247
20
0.0737069
40
0.4604934
50
89.5284041
51
102.5819763
0
ARC
8
DEFAULT_255_1_234
10
21.8468334
20
0.0698018
40
0.464401
50
77.0437873
51
90.5081339
0
ARC
8
DEFAULT_255_1_234
10
21.8870336
20
0.2340615
40
0.2953195
50
48.2778575
51
77.4994676
0
ARC
8
DEFAULT_255_1_234
10
21.8942967
20
0.2469746
40
0.2808655
50
36.3142134
51
47.6305865
0
ARC
8
DEFAULT_255_1_234
10
21.8074274
20
0.1884515
40
0.3855453
50
18.2931786
51
35.6769206
0
ARC
8
DEFAULT_255_1_234
10
21.5531033
20
0.1011593
40
0.654423
50
8.024666
51
18.5605216
0
ARC
8
DEFAULT_255_1_234
10
21.1367953
20
0.0396792
40
1.0752407
50
1.1274072
51
8.1718305
0
ARC
8
DEFAULT_255_1_234
10
20.8132144
20
0.0269885
40
1.3990231
50
0.5424119
51
1.3863029
0
ARC
8
DEFAULT_255_1_234
10
20.9953522
20
0.0542342
40
1.0682415
50
359.8090433
51
4.9407866
0
ARC
8
DEFAULT_255_1_234
10
21.4163536
20
0.0918113
40
0.6455691
50
4.8362157
51
12.2904523
0
ARC
8
DEFAULT_255_1_234
10
21.691865
20
0.1531965
40
0.3633074
50
12.0805627
51
23.8173984
0
ARC
8
DEFAULT_255_1_234
10
21.8092356
20
0.2028919
40
0.2358723
50
24.2871213
51
31.3935614
0
ARC
8
DEFAULT_255_1_234
10
21.8617053
20
0.2372233
40
0.1732111
50
30.7407893
51
82.4657128
0
ARC
8
DEFAULT_255_1_234
10
21.8437187
20
0.1488691
40
0.263235
50
81.1060089
51
90.2184952
0
ARC
8
DEFAULT_255_1_234
10
21.8401486
20
0.1746924
40
0.2374236
50
89.3806855
51
105.6762551
0
ARC
8
DEFAULT_255_1_234
10
21.8218117
20
0.2413567
40
0.1682847
50
105.7981136
51
149.7388061
0
ARC
8
DEFAULT_255_1_234
10
21.9282195
20
0.177395
40
0.2924306
50
149.4208916
51
163.6286378
0
ARC
8
DEFAULT_255_1_234
10
22.1373083
20
0.113625
40
0.5110213
50
163.3763315
51
172.1410975
0
ARC
8
DEFAULT_255_1_234
10
22.4673802
20
0.0663518
40
0.8444586
50
172.0259487
51
178.0703232
0
ARC
8
DEFAULT_255_1_234
10
22.7703892
20
0.0519906
40
1.1477868
50
177.8631668
51
179.5044149
0
ARC
8
DEFAULT_255_1_234
10
22.6631296
20
-0.1794611
40
1.0404907
50
179.7995573
51
185.2460446
0
ARC
8
DEFAULT_255_1_234
10
22.2588335
20
-0.2177487
40
0.6343885
50
185.1411642
51
193.0079639
0
ARC
8
DEFAULT_255_1_234
10
21.9944808
20
-0.2802359
40
0.3627568
50
192.7897626
51
205.2507664
0
ARC
8
DEFAULT_255_1_234
10
21.8898355
20
-0.3269585
40
0.2481908
50
205.8005384
51
211.2537509
0
ARC
8
DEFAULT_255_1_234
10
21.8374795
20
-0.362042
40
0.1852521
50
210.3789793
51
238.4008143
0
ARC
8
DEFAULT_255_1_234
10
21.8355317
20
-0.3573624
40
0.1882621
50
239.6520629
51
265.9793761
0
ARC
8
DEFAULT_255_1_234
10
21.8440518
20
-0.2901573
40
0.2559272
50
265.1315437
51
270.060332
0
ARC
8
DEFAULT_255_1_234
10
21.8469296
20
-0.3225466
40
0.2235528
50
269.3314664
51
287.2178029
0
ARC
8
DEFAULT_255_1_234
10
21.8607148
20
-0.3728721
40
0.1714108
50
287.7958004
51
329.080874
0
ARC
8
DEFAULT_255_1_234
10
21.7649605
20
-0.313107
40
0.2842745
50
328.6634704
51
343.3325132
0
ARC
8
DEFAULT_255_1_234
10
21.5476625
20
-0.2454137
40
0.5118644
50
343.0499468
51
351.9393422
0
ARC
8
DEFAULT_255_1_234
10
21.2009925
20
-0.1943051
40
0.8622784
50
351.8069023
51
357.7959224
0
ARC
8
DEFAULT_255_1_234
10
20.8774481
20
-0.1775279
40
1.1862365
50
357.5871873
51
359.2677531
0
ARC
8
DEFAULT_255_2_778
10
7.7537338
20
195.2137992
40
3.0484709
50
251.6854144
51
258.6071955
0
ARC
8
DEFAULT_255_2_778
10
7.539521
20
194.1321738
40
1.9458471
50
258.4992492
51
268.3986479
0
ARC
8
DEFAULT_255_2_778
10
7.5172314
20
193.7019206
40
1.5151737
50
268.7865272
51
269.9950384
0
ARC
8
DEFAULT_255_2_778
10
7.5277432
20
193.2507355
40
1.0640417
50
269.426895
51
279.6711067
0
ARC
8
DEFAULT_255_2_778
10
7.6417753
20
192.6211746
40
0.4243233
50
278.7731084
51
300.3324923
0
ARC
8
DEFAULT_255_2_778
10
7.760746
20
192.4185552
40
0.1893587
50
300.2240287
51
1.9041213
0
ARC
8
DEFAULT_255_2_778
10
7.7452705
20
192.4277089
40
0.2047497
50
359.1991369
51
359.99965
0
ARC
8
DEFAULT_255_2_778
10
7.7523233
20
192.4285378
40
0.1976988
50
359.7594145
51
47.1793976
0
ARC
8
DEFAULT_255_2_778
10
7.6187277
20
192.279931
40
0.3975169
50
47.6144502
51
60.8366176
0
ARC
8
DEFAULT_255_2_778
10
7.0190958
20
191.2639865
40
1.5771337
50
59.799464
51
64.8885807
0
ARC
8
DEFAULT_255_2_778
10
6.0948833
20
189.3349682
40
3.7160912
50
64.6076081
51
66.8386974
0
ARC
8
DEFAULT_255_2_778
10
9.6419609
20
197.6980052
40
5.368109
50
244.3032309
51
247.1393781
0
ARC
8
DEFAULT_255_2_778
10
8.5507088
20
195.438018
40
2.8584574
50
240.2323579
51
244.3709759
0
ARC
8
DEFAULT_255_2_778
10
7.7800475
20
194.1011591
40
1.315392
50
233.2209971
51
240.4606284
0
ARC
8
DEFAULT_255_2_778
10
7.3561477
20
193.5300187
40
0.6041399
50
225.6990744
51
232.9899679
0
ARC
8
DEFAULT_255_2_778
10
7.3965073
20
193.5544214
40
0.6499005
50
178.2783416
51
224.6550883
0
ARC
8
DEFAULT_255_2_778
10
7.5059624
20
193.5877974
40
0.7591885
50
157.033673
51
181.0453383
0
ARC
8
DEFAULT_255_2_778
10
7.378439
20
193.6286396
40
0.6259551
50
124.9113017
51
155.9211516
0
ARC
8
DEFAULT_255_2_778
10
7.5960466
20
193.3200681
40
1.0035357
50
100.4079723
51
125.0168617
0
ARC
8
DEFAULT_255_2_778
10
7.6991199
20
192.8260046
40
1.5081396
50
89.6483922
51
100.8684975
0
ARC
8
DEFAULT_255_2_778
10
7.7083242
20
192.4737988
40
1.8603169
50
89.5079487
51
89.9984402
0
ARC
8
DEFAULT_255_2_778
10
7.7099573
20
192.4085694
40
1.9255311
50
83.9170631
51
89.5732113
0
ARC
8
DEFAULT_255_2_778
10
7.5071517
20
190.4009957
40
3.9433074
50
80.7325723
51
84.0779772
0
ARC
8
DEFAULT_255_2_778
10
7.0208457
20
187.378082
40
7.0050837
50
78.5086351
51
80.7886813
0
ARC
8
DEFAULT_255_2_778
10
7.6620177
20
191.9775544
40
1.9415426
50
67.135818
51
78.0934208
0
ARC
8
DEFAULT_255_2_778
10
7.7851814
20
192.5479809
40
1.3579807
50
78.2126325
51
89.7333975
0
ARC
8
DEFAULT_255_2_778
10
7.7793853
20
192.9631211
40
0.9429038
50
89.2638155
51
100.5666868
0
ARC
8
DEFAULT_255_2_778
10
7.6660949
20
193.5329419
40
0.362036
50
99.4784875
51
124.329414
0
ARC
8
DEFAULT_255_2_778
10
7.5705593
20
193.681051
40
0.1859067
50
125.7571195
51
182.2824883
0
ARC
8
DEFAULT_255_2_778
10
7.5493239
20
193.6743629
40
0.1645253
50
180.2492993
51
239.8144161
0
ARC
8
DEFAULT_255_2_778
10
7.932718
20
194.2744128
40
0.876484
50
237.8725734
51
242.8068846
0
ARC
8
DEFAULT_255_2_778
10
9.4175857
20
197.0909958
40
4.0604642
50
242.3328458
51
244.031083
0
ARC
8
DEFAULT_255_2_778
10
12.3804066
20
203.1394314
40
10.7955807
50
243.950624
51
244.8024316
0
ARC
8
DEFAULT_255_2_778
10
15.4009918
20
209.5234175
40
17.8580926
50
244.7535425
51
244.9563234
0
ARC
8
DEFAULT_255_2_778
10
5.8652927
20
189.0218264
40
4.7527588
50
62.2505456
51
65.4301556
0
ARC
8
DEFAULT_255_2_778
10
6.9275435
20
191.0299172
40
2.4810291
50
57.2951304
51
62.3684211
0
ARC
8
DEFAULT_255_2_778
10
7.6807233
20
192.1932235
40
1.0952081
50
48.7345704
51
57.5685367
0
ARC
8
DEFAULT_255_2_778
10
8.0117486
20
192.5807722
40
0.5856147
50
44.3236031
51
48.0704418
0
ARC
8
DEFAULT_255_2_778
10
7.9783002
20
192.5607468
40
0.6236013
50
1.3523843
51
43.4925744
0
ARC
8
DEFAULT_255_2_778
10
7.7103531
20
192.5278151
40
0.8926473
50
359.9763756
51
3.0599076
0
ARC
8
DEFAULT_255_2_778
10
7.8645343
20
192.5127407
40
0.7386124
50
333.0361889
51
1.1408766
0
ARC
8
DEFAULT_255_2_778
10
7.8947908
20
192.5196919
40
0.7150741
50
300.8430083
51
331.4403095
0
ARC
8
DEFAULT_255_2_778
10
7.694568
20
192.8332162
40
1.0869673
50
281.4258583
51
301.4316118
0
ARC
8
DEFAULT_255_2_778
10
7.5632666
20
193.4414414
40
1.7091691
50
270.2273513
51
281.7010805
0
ARC
8
DEFAULT_255_2_778
10
7.5453797
20
193.9181043
40
2.1859577
50
269.9983113
51
270.6466065
0
LINE
8
DEFAULT_255_2_778
10
7.5453153
20
191.7321465
11
7.5438002
21
191.732147
0
ARC
8
DEFAULT_255_2_778
10
7.5509161
20
194.9150969
40
3.1829579
50
256.2431122
51
269.871909
0
ARC
8
DEFAULT_255_2_778
10
21.7538511
20
195.1396629
40
2.9720345
50
251.5709223
51
258.7508181
0
ARC
8
DEFAULT_255_2_778
10
21.5538128
20
194.1164385
40
1.9294488
50
258.6495077
51
268.8281511
0
ARC
8
DEFAULT_255_2_778
10
21.5355488
20
193.7216193
40
1.5343723
50
269.2085037
51
269.9981866
0
ARC
8
DEFAULT_255_2_778
10
21.5473849
20
193.2532184
40
1.0660376
50
269.3612297
51
279.5899087
0
ARC
8
DEFAULT_255_2_778
10
21.6608439
20
192.6217324
40
0.424527
50
278.6895227
51
300.2363944
0
ARC
8
DEFAULT_255_2_778
10
21.7799083
20
192.4182793
40
0.188796
50
300.1108484
51
1.9024905
0
ARC
8
DEFAULT_255_2_778
10
21.7439577
20
192.4289221
40
0.2246851
50
358.8842611
51
0.0019649
0
ARC
8
DEFAULT_255_2_778
10
21.7769791
20
192.4328385
40
0.1917038
50
358.831716
51
47.0900458
0
ARC
8
DEFAULT_255_2_778
10
21.6364654
20
192.273484
40
0.4041259
50
47.8812665
51
61.174665
0
ARC
8
DEFAULT_255_2_778
10
21.0418848
20
191.2535117
40
1.5846568
50
60.1210877
51
65.1917015
0
ARC
8
DEFAULT_255_2_778
10
20.1415278
20
189.3479122
40
3.6922188
50
64.9168629
51
67.1565628
0
ARC
8
DEFAULT_255_2_778
10
23.6275467
20
197.6194888
40
5.2839333
50
244.2656926
51
247.1407051
0
ARC
8
DEFAULT_255_2_778
10
22.5594997
20
195.411265
40
2.8309849
50
240.1545061
51
244.3326325
0
ARC
8
DEFAULT_255_2_778
10
21.7856548
20
194.0752346
40
1.2870531
50
232.697515
51
240.4357497
0
ARC
8
DEFAULT_255_2_778
10
21.3705506
20
193.5242218
40
0.5972006
50
225.5850892
51
232.3393736
0
ARC
8
DEFAULT_255_2_778
10
21.4133941
20
193.5537933
40
0.6483829
50
178.7795739
51
224.7095916
0
ARC
8
DEFAULT_255_2_778
10
21.6669319
20
193.5778135
40
0.9018316
50
179.997867
51
180.6487041
0
ARC
8
DEFAULT_255_2_778
10
21.5167738
20
193.5916249
40
0.7517998
50
156.9195758
51
181.050088
0
ARC
8
DEFAULT_255_2_778
10
21.3928482
20
193.6310712
40
0.6224513
50
124.7111133
51
155.7879672
0
ARC
8
DEFAULT_255_2_778
10
21.6055459
20
193.3391942
40
0.9835402
50
101.7934503
51
125.2143527
0
ARC
8
DEFAULT_255_2_778
10
21.729848
20
192.7866326
40
1.5498677
50
89.5248728
51
102.1166783
0
ARC
8
DEFAULT_255_2_778
10
21.7283109
20
192.2330834
40
2.1034129
50
83.2889725
51
89.6080411
0
ARC
8
DEFAULT_255_2_778
10
21.529975
20
190.4652668
40
3.8823067
50
79.4764054
51
83.4308492
0
ARC
8
DEFAULT_255_2_778
10
21.2186357
20
188.7120673
40
5.6628977
50
78.2224868
51
79.6190915
0
ARC
8
DEFAULT_255_2_778
10
21.6838473
20
191.9895715
40
1.9311543
50
67.1323814
51
78.3148813
0
ARC
8
DEFAULT_255_2_778
10
21.801359
20
192.5410614
40
1.3672981
50
78.4565774
51
89.7552271
0
ARC
8
DEFAULT_255_2_778
10
21.7951366
20
192.971947
40
0.9364778
50
89.2619009
51
100.5950934
0
ARC
8
DEFAULT_255_2_778
10
21.6824182
20
193.5374169
40
0.3599879
50
99.5087086
51
124.406715
0
ARC
8
DEFAULT_255_2_778
10
21.5878565
20
193.683843
40
0.1858061
50
125.8630185
51
182.2986975
0
ARC
8
DEFAULT_255_2_778
10
21.5497296
20
193.6763047
40
0.1475296
50
179.9666559
51
180.100057
0
ARC
8
DEFAULT_255_2_778
10
21.566185
20
193.676293
40
0.163985
50
180.0859454
51
239.8819968
0
ARC
8
DEFAULT_255_2_778
10
21.9379018
20
194.2630619
40
0.8584853
50
238.072871
51
243.0442008
0
ARC
8
DEFAULT_255_2_778
10
23.4872034
20
197.2280845
40
4.2038426
50
242.5409111
51
244.1884903
0
ARC
8
DEFAULT_255_2_778
10
26.6463384
20
203.722696
40
11.4260319
50
244.1076525
51
244.9219574
0
ARC
8
DEFAULT_255_2_778
10
29.9038827
20
210.646355
40
19.0777309
50
244.8743531
51
245.066969
0
ARC
8
DEFAULT_255_2_778
10
19.8865272
20
189.0541274
40
4.7250654
50
62.0340028
51
65.293009
0
ARC
8
DEFAULT_255_2_778
10
20.9507744
20
191.0490758
40
2.464003
50
57.1127289
51
62.13736
0
ARC
8
DEFAULT_255_2_778
10
21.7037139
20
192.2027906
40
1.0863604
50
48.3695509
51
57.4197129
0
ARC
8
DEFAULT_255_2_778
10
22.0286268
20
192.5795419
40
0.5889589
50
44.472493
51
47.6467012
0
ARC
8
DEFAULT_255_2_778
10
21.9979457
20
192.5624032
40
0.6229283
50
1.2061613
51
43.6203607
0
ARC
8
DEFAULT_255_2_778
10
21.7312413
20
192.5299903
40
0.890659
50
359.9779196
51
2.9299178
0
ARC
8
DEFAULT_255_2_778
10
21.8802547
20
192.5148837
40
0.7417924
50
333.172934
51
1.140392
0
ARC
8
DEFAULT_255_2_778
10
21.9146167
20
192.5195736
40
0.7135172
50
300.9808035
51
331.5913995
0
ARC
8
DEFAULT_255_2_778
10
21.7182603
20
192.8294862
40
1.0803281
50
281.9040909
51
301.4483918
0
ARC
8
DEFAULT_255_2_778
10
21.5848425
20
193.4280518
40
1.6935565
50
270.5796874
51
282.1436175
0
ARC
8
DEFAULT_255_2_778
10
21.5636722
20
193.9229735
40
2.1887267
50
269.9959074
51
271.0027751
0
LINE
8
DEFAULT_255_2_778
10
21.5635158
20
191.7342468
11
21.5625002
21
191.734247
0
ARC
8
DEFAULT_255_2_778
10
21.5700221
20
194.9230174
40
3.1887792
50
256.2556596
51
269.8648469
0
LINE
8
DEFAULT_255_2_778
10
6.7958002
20
191.825047
11
6.7958002
21
192.319747
0
LINE
8
DEFAULT_255_2_778
10
8.4164002
20
194.242747
11
8.4164002
21
193.766547
0
LINE
8
DEFAULT_255_2_778
10
6.7940002
20
191.823447
11
6.7958002
21
191.825047
0
LINE
8
DEFAULT_255_2_778
10
8.9866002
20
194.292247
11
9.6629002
21
194.292247
0
LINE
8
DEFAULT_255_2_778
10
9.6629002
20
194.292247
11
9.6629002
21
191.784847
0
LINE
8
DEFAULT_255_2_778
10
9.6629002
20
191.784847
11
8.9866002
21
191.784847
0
LINE
8
DEFAULT_255_2_778
10
8.9866002
20
191.784847
11
8.9866002
21
194.292247
0
LINE
8
DEFAULT_255_2_778
10
10.2809002
20
191.784847
11
10.2809002
21
194.292247
0
LINE
8
DEFAULT_255_2_778
10
10.2809002
20
194.292247
11
12.0132002
21
194.292247
0
LINE
8
DEFAULT_255_2_778
10
12.0132002
20
194.292247
11
12.0132002
21
193.838547
0
LINE
8
DEFAULT_255_2_778
10
12.0132002
20
193.838547
11
10.9321002
21
193.838547
0
LINE
8
DEFAULT_255_2_778
10
10.9321002
20
193.838547
11
10.9321002
21
193.272247
0
LINE
8
DEFAULT_255_2_778
10
10.9321002
20
193.272247
11
11.8735002
21
193.272247
0
LINE
8
DEFAULT_255_2_778
10
11.8735002
20
193.272247
11
11.8735002
21
192.858747
0
LINE
8
DEFAULT_255_2_778
10
11.8735002
20
192.858747
11
10.9321002
21
192.858747
0
LINE
8
DEFAULT_255_2_778
10
10.9321002
20
192.858747
11
10.9321002
21
192.263447
0
LINE
8
DEFAULT_255_2_778
10
10.9321002
20
192.263447
11
12.0412002
21
192.263447
0
LINE
8
DEFAULT_255_2_778
10
12.0412002
20
192.263447
11
12.0412002
21
191.783247
0
LINE
8
DEFAULT_255_2_778
10
12.0412002
20
191.783247
11
10.2809002
21
191.784847
0
LINE
8
DEFAULT_255_2_778
10
12.4817002
20
191.784847
11
12.4817002
21
194.292247
0
LINE
8
DEFAULT_255_2_778
10
12.4817002
20
194.292247
11
13.3575002
21
194.292247
0
LINE
8
DEFAULT_255_2_778
10
13.3575002
20
194.292247
11
13.9671002
21
192.689947
0
LINE
8
DEFAULT_255_2_778
10
13.9671002
20
192.689947
11
14.5897002
21
194.292247
0
LINE
8
DEFAULT_255_2_778
10
14.5897002
20
194.292247
11
15.4215002
21
194.292247
0
LINE
8
DEFAULT_255_2_778
10
15.4215002
20
194.292247
11
15.4215002
21
191.784847
0
LINE
8
DEFAULT_255_2_778
10
15.4215002
20
191.784847
11
14.7812002
21
191.784847
0
LINE
8
DEFAULT_255_2_778
10
14.7812002
20
191.784847
11
14.7812002
21
193.560647
0
LINE
8
DEFAULT_255_2_778
10
14.7812002
20
193.560647
11
14.0724002
21
191.760447
0
LINE
8
DEFAULT_255_2_778
10
14.0724002
20
191.760447
11
13.6515002
21
191.760447
0
LINE
8
DEFAULT_255_2_778
10
13.6515002
20
191.760447
11
12.9559002
21
193.560647
0
LINE
8
DEFAULT_255_2_778
10
12.9559002
20
193.560647
11
12.9559002
21
191.784547
0
LINE
8
DEFAULT_255_2_778
10
12.9559002
20
191.784547
11
12.4817002
21
191.784847
0
LINE
8
DEFAULT_255_2_778
10
16.0409002
20
191.784847
11
16.0409002
21
194.292247
0
LINE
8
DEFAULT_255_2_778
10
16.0409002
20
194.292247
11
17.7731002
21
194.292247
0
LINE
8
DEFAULT_255_2_778
10
17.7731002
20
194.292247
11
17.7731002
21
193.838547
0
LINE
8
DEFAULT_255_2_778
10
17.7731002
20
193.838547
11
16.6921002
21
193.838547
0
LINE
8
DEFAULT_255_2_778
10
16.6921002
20
193.838547
11
16.6921002
21
193.272247
0
LINE
8
DEFAULT_255_2_778
10
16.6921002
20
193.272247
11
17.6334002
21
193.272247
0
LINE
8
DEFAULT_255_2_778
10
17.6334002
20
193.272247
11
17.6334002
21
192.858747
0
LINE
8
DEFAULT_255_2_778
10
17.6334002
20
192.858747
11
16.6921002
21
192.858747
0
LINE
8
DEFAULT_255_2_778
10
16.6921002
20
192.858747
11
16.6921002
21
192.263447
0
LINE
8
DEFAULT_255_2_778
10
16.6921002
20
192.263447
11
17.8030002
21
192.263447
0
LINE
8
DEFAULT_255_2_778
10
17.8030002
20
192.263447
11
17.8030002
21
191.783247
0
LINE
8
DEFAULT_255_2_778
10
17.8030002
20
191.783247
11
16.0409002
21
191.784847
0
LINE
8
DEFAULT_255_2_778
10
18.2454002
20
191.784847
11
18.2454002
21
194.292247
0
LINE
8
DEFAULT_255_2_778
10
18.2454002
20
194.292247
11
19.0283002
21
194.292247
0
LINE
8
DEFAULT_255_2_778
10
19.0283002
20
194.292247
11
19.8586002
21
192.613447
0
LINE
8
DEFAULT_255_2_778
10
19.8586002
20
192.613447
11
19.8586002
21
194.292247
0
LINE
8
DEFAULT_255_2_778
10
19.8586002
20
194.292247
11
20.3343002
21
194.292247
0
LINE
8
DEFAULT_255_2_778
10
20.3343002
20
194.292247
11
20.3343002
21
191.784847
0
LINE
8
DEFAULT_255_2_778
10
20.3343002
20
191.784847
11
19.5739002
21
191.784847
0
LINE
8
DEFAULT_255_2_778
10
19.5739002
20
191.784847
11
18.7214002
21
193.486047
0
LINE
8
DEFAULT_255_2_778
10
18.7214002
20
193.486047
11
18.7214002
21
191.784847
0
LINE
8
DEFAULT_255_2_778
10
18.7214002
20
191.784847
11
18.2454002
21
191.784847
0
LINE
8
DEFAULT_255_2_778
10
20.8143002
20
191.825247
11
20.8143002
21
192.320047
0
LINE
8
DEFAULT_255_2_778
10
22.3745002
20
194.255747
11
22.4343002
21
194.245147
0
LINE
8
DEFAULT_255_2_778
10
22.4343002
20
194.245147
11
22.4343002
21
193.768947
0
LINE
8
DEFAULT_255_2_778
10
20.8124002
20
191.825547
11
20.8143002
21
191.825247
0
LINE
8
DEFAULT_255_1_234
10
9.1368023
20
190.0184849
11
8.9817897
21
190.0184849
0
LINE
8
DEFAULT_255_1_234
10
8.2894539
20
189.5261394
11
8.4444665
21
189.5261394
0
ARC
8
DEFAULT_255_1_234
10
9.047671
20
190.9131768
40
1.252368
50
248.9199003
51
254.1439814
0
ARC
8
DEFAULT_255_1_234
10
8.8796205
20
190.4805234
40
0.788226
50
241.633709
51
249.0064503
0
ARC
8
DEFAULT_255_1_234
10
8.72676
20
190.2004317
40
0.4691427
50
230.498225
51
241.8087113
0
ARC
8
DEFAULT_255_1_234
10
8.6483174
20
190.1004906
40
0.3421437
50
227.4064532
51
229.9881192
0
ARC
8
DEFAULT_255_1_234
10
8.5995694
20
190.0529088
40
0.2741476
50
200.6781896
51
228.1763934
0
ARC
8
DEFAULT_255_1_234
10
8.6068005
20
190.0514077
40
0.2804109
50
179.5061581
51
199.8694617
0
ARC
8
DEFAULT_255_1_234
10
8.6058757
20
190.058821
40
0.2795204
50
132.4834203
51
181.0242172
0
ARC
8
DEFAULT_255_1_234
10
8.6654339
20
190.0025704
40
0.3612768
50
129.2532479
51
133.4242687
0
ARC
8
DEFAULT_255_1_234
10
8.6800789
20
189.9805965
40
0.3875675
50
101.98776
51
128.8742646
0
ARC
8
DEFAULT_255_1_234
10
8.7199399
20
189.8084741
40
0.5642249
50
89.5906553
51
102.3169264
0
ARC
8
DEFAULT_255_1_234
10
8.7269891
20
189.8403148
40
0.5323783
50
77.2360837
51
90.3248275
0
ARC
8
DEFAULT_255_1_234
10
8.7476971
20
189.93704
40
0.4334697
50
63.837784
51
77.0809408
0
ARC
8
DEFAULT_255_1_234
10
8.7754732
20
189.9887911
40
0.3747796
50
45.9864267
51
64.1607727
0
ARC
8
DEFAULT_255_1_234
10
8.8015614
20
190.0185866
40
0.3352302
50
32.2747395
51
45.6547121
0
ARC
8
DEFAULT_255_1_234
10
8.8082054
20
190.020488
40
0.328603
50
359.6507365
51
32.6130309
0
ARC
8
DEFAULT_255_1_234
10
8.713915
20
190.020966
40
0.2678863
50
359.469343
51
14.9832209
0
ARC
8
DEFAULT_255_1_234
10
8.7844212
20
190.0398539
40
0.1948938
50
14.9781179
51
48.2004265
0
ARC
8
DEFAULT_255_1_234
10
8.7679856
20
190.0191983
40
0.2212521
50
48.5927837
51
74.1241538
0
ARC
8
DEFAULT_255_1_234
10
8.7346346
20
189.9091248
40
0.3362561
50
73.7888341
51
86.6652678
0
ARC
8
DEFAULT_255_1_234
10
8.7243911
20
189.7883881
40
0.4573953
50
86.2640471
51
90.0526343
0
ARC
8
DEFAULT_255_1_234
10
8.7215624
20
189.8279192
40
0.4178709
50
89.6697524
51
99.2309573
0
ARC
8
DEFAULT_255_1_234
10
8.6973075
20
189.9723964
40
0.2713749
50
99.069534
51
113.7658566
0
ARC
8
DEFAULT_255_1_234
10
8.6699266
20
190.0369677
40
0.2012469
50
114.0401004
51
127.9850673
0
ARC
8
DEFAULT_255_1_234
10
8.645883
20
190.066573
40
0.1631167
50
127.7287463
51
176.7105154
0
ARC
8
DEFAULT_255_1_234
10
8.7137547
20
190.0564693
40
0.2315392
50
175.1779447
51
180.0581938
0
ARC
8
DEFAULT_255_1_234
10
8.6294394
20
190.0552428
40
0.1472271
50
179.6142195
51
228.1246017
0
ARC
8
DEFAULT_255_1_234
10
8.6736063
20
190.0961308
40
0.2072299
50
226.5779593
51
230.8800004
0
ARC
8
DEFAULT_255_1_234
10
8.7207141
20
190.1586636
40
0.2854818
50
231.4635071
51
241.9260842
0
ARC
8
DEFAULT_255_1_234
10
8.8404319
20
190.37898
40
0.53622
50
241.7178533
51
248.3259551
0
ARC
8
DEFAULT_255_1_234
10
8.9789691
20
190.7222064
40
0.9063478
50
248.2007737
51
252.4528373
0
ARC
8
DEFAULT_255_1_234
10
9.0993416
20
191.0943441
40
1.2974635
50
252.3391078
51
254.3469452
0
ARC
8
DEFAULT_255_1_234
10
8.3451119
20
188.3966148
40
1.5037162
50
71.0197183
51
74.4087047
0
ARC
8
DEFAULT_255_1_234
10
8.5145804
20
188.8858111
40
0.9859993
50
66.1847285
51
71.086374
0
ARC
8
DEFAULT_255_1_234
10
8.6702116
20
189.23622
40
0.6025855
50
59.3536294
51
66.2691831
0
ARC
8
DEFAULT_255_1_234
10
8.7590769
20
189.3865609
40
0.4279449
50
49.1020879
51
59.3293958
0
ARC
8
DEFAULT_255_1_234
10
8.8409509
20
189.4798834
40
0.3038015
50
32.7919921
51
49.2505539
0
ARC
8
DEFAULT_255_1_234
10
8.8730599
20
189.5027191
40
0.264448
50
31.1181161
51
32.4005348
0
ARC
8
DEFAULT_255_1_234
10
8.8642136
20
189.4991779
40
0.2738556
50
8.1116974
51
30.7958831
0
ARC
8
DEFAULT_255_1_234
10
8.7831804
20
189.4853753
40
0.3560327
50
359.8389159
51
8.4706516
0
ARC
8
DEFAULT_255_1_234
10
8.8457596
20
189.4805137
40
0.2934776
50
337.4731098
51
0.7537279
0
ARC
8
DEFAULT_255_1_234
10
8.8636291
20
189.4785387
40
0.2762607
50
307.5917067
51
336.4315538
0
ARC
8
DEFAULT_255_1_234
10
8.8176119
20
189.5298102
40
0.3449979
50
307.6551545
51
308.4529766
0
ARC
8
DEFAULT_255_1_234
10
8.7945838
20
189.565325
40
0.3871988
50
284.3734338
51
307.1424381
0
ARC
8
DEFAULT_255_1_234
10
8.7450668
20
189.7474932
40
0.5759636
50
272.4382747
51
284.646547
0
ARC
8
DEFAULT_255_1_234
10
8.7323876
20
189.9274893
40
0.7563528
50
269.9708387
51
272.8178037
0
ARC
8
DEFAULT_255_1_234
10
8.7280916
20
189.7236716
40
0.5525489
50
248.2707594
51
270.4055579
0
ARC
8
DEFAULT_255_1_234
10
8.7226657
20
189.7046192
40
0.5328452
50
246.1383403
51
248.0542782
0
ARC
8
DEFAULT_255_1_234
10
8.6808036
20
189.6166843
40
0.4355005
50
233.1670131
51
246.4950969
0
ARC
8
DEFAULT_255_1_234
10
8.6253941
20
189.5418812
40
0.3424126
50
215.3403242
51
233.0843104
0
ARC
8
DEFAULT_255_1_234
10
8.5981372
20
189.5220549
40
0.3087104
50
179.2419209
51
215.2648451
0
ARC
8
DEFAULT_255_1_234
10
8.6748966
20
189.5234666
40
0.2304457
50
179.335461
51
199.1045811
0
ARC
8
DEFAULT_255_1_234
10
8.6416643
20
189.5147766
40
0.1962176
50
199.8828939
51
232.7063202
0
ARC
8
DEFAULT_255_1_234
10
8.6888911
20
189.5741788
40
0.2720938
50
232.3738199
51
255.5136649
0
ARC
8
DEFAULT_255_1_234
10
8.7229778
20
189.6985835
40
0.4010747
50
255.2446292
51
267.5320849
0
ARC
8
DEFAULT_255_1_234
10
8.7317401
20
189.8218702
40
0.5246356
50
267.1557994
51
270.0286766
0
ARC
8
DEFAULT_255_1_234
10
8.7345173
20
189.777495
40
0.4802668
50
269.7000017
51
278.1660162
0
ARC
8
DEFAULT_255_1_234
10
8.7601178
20
189.6044515
40
0.3053425
50
278.0231263
51
290.625471
0
ARC
8
DEFAULT_255_1_234
10
8.7948865
20
189.5117025
40
0.206291
50
290.6619762
51
307.0370976
0
ARC
8
DEFAULT_255_1_234
10
8.8249254
20
189.4748504
40
0.1587906
50
306.3943566
51
355.3030547
0
ARC
8
DEFAULT_255_1_234
10
8.7737186
20
189.4825113
40
0.2104809
50
354.3660432
51
0.0698737
0
ARC
8
DEFAULT_255_1_234
10
8.7879531
20
189.4847617
40
0.1962563
50
359.417946
51
16.1971788
0
ARC
8
DEFAULT_255_1_234
10
8.8334841
20
189.4972418
40
0.149053
50
16.4723299
51
52.6262157
0
ARC
8
DEFAULT_255_1_234
10
8.7513895
20
189.3888433
40
0.2850296
50
52.7386432
51
62.4979148
0
ARC
8
DEFAULT_255_1_234
10
8.6128972
20
189.1282283
40
0.5801521
50
62.2515216
51
68.1220564
0
ARC
8
DEFAULT_255_1_234
10
8.4408883
20
188.7054872
40
1.0365451
50
68.0062803
51
71.8053402
0
ARC
8
DEFAULT_255_1_234
10
8.2613255
20
188.1669758
40
1.6042013
50
71.7183119
51
73.9258742
0
LINE
8
DEFAULT_255_1_234
10
9.5022464
20
190.3566211
11
9.5022464
21
189.1872
0
LINE
8
DEFAULT_255_1_234
10
9.5022464
20
189.1872
11
9.348037
21
189.1872
0
LINE
8
DEFAULT_255_1_234
10
9.348037
20
189.1872
11
9.348037
21
190.3566211
0
LINE
8
DEFAULT_255_1_234
10
9.348037
20
190.3566211
11
9.5022464
21
190.3566211
0
LINE
8
DEFAULT_255_1_234
10
9.7841604
20
190.3566211
11
9.9833475
21
190.3566211
0
LINE
8
DEFAULT_255_1_234
10
9.9833475
20
190.3566211
11
10.3656583
21
189.4024506
0
LINE
8
DEFAULT_255_1_234
10
10.3656583
20
189.4024506
11
10.747969
21
190.3566211
0
LINE
8
DEFAULT_255_1_234
10
10.747969
20
190.3566211
11
10.9479593
21
190.3566211
0
LINE
8
DEFAULT_255_1_234
10
10.9479593
20
190.3566211
11
10.9479593
21
189.1872
0
LINE
8
DEFAULT_255_1_234
10
10.9479593
20
189.1872
11
10.7937499
21
189.1872
0
LINE
8
DEFAULT_255_1_234
10
10.7937499
20
189.1872
11
10.7937499
21
189.6425996
0
LINE
8
DEFAULT_255_1_234
10
10.7937499
20
189.6425996
11
10.808207
21
190.1341419
0
LINE
8
DEFAULT_255_1_234
10
10.808207
20
190.1341419
11
10.4242899
21
189.1872
0
LINE
8
DEFAULT_255_1_234
10
10.4242899
20
189.1872
11
10.3062234
21
189.1872
0
LINE
8
DEFAULT_255_1_234
10
10.3062234
20
189.1872
11
9.9231095
21
190.1317324
0
LINE
8
DEFAULT_255_1_234
10
9.9231095
20
190.1317324
11
9.9383698
21
189.6425996
0
LINE
8
DEFAULT_255_1_234
10
9.9383698
20
189.6425996
11
9.9383698
21
189.1872
0
LINE
8
DEFAULT_255_1_234
10
9.9383698
20
189.1872
11
9.7841604
21
189.1872
0
LINE
8
DEFAULT_255_1_234
10
9.7841604
20
189.1872
11
9.7841604
21
190.3566211
0
LINE
8
DEFAULT_255_1_234
10
11.9920853
20
189.1872
11
11.8804441
21
189.4924061
0
LINE
8
DEFAULT_255_1_234
10
11.8804441
20
189.4924061
11
11.3905081
21
189.4924061
0
LINE
8
DEFAULT_255_1_234
10
11.3905081
20
189.4924061
11
11.2804732
21
189.1872
0
LINE
8
DEFAULT_255_1_234
10
11.2804732
20
189.1872
11
11.1214448
21
189.1872
0
LINE
8
DEFAULT_255_1_234
10
11.1214448
20
189.1872
11
11.5680095
21
190.3566211
0
LINE
8
DEFAULT_255_1_234
10
11.5680095
20
190.3566211
11
11.7029427
21
190.3566211
0
LINE
8
DEFAULT_255_1_234
10
11.7029427
20
190.3566211
11
12.1503105
21
189.1872
0
LINE
8
DEFAULT_255_1_234
10
12.1503105
20
189.1872
11
11.9920853
21
189.1872
0
LINE
8
DEFAULT_255_1_234
10
11.6354761
20
190.1662689
11
11.4370921
21
189.6193075
0
LINE
8
DEFAULT_255_1_234
10
11.4370921
20
189.6193075
11
11.8346632
21
189.6193075
0
LINE
8
DEFAULT_255_1_234
10
11.8346632
20
189.6193075
11
11.6354761
21
190.1662689
0
LINE
8
DEFAULT_255_1_234
10
13.012116
20
190.3566211
11
13.012116
21
190.2297196
0
LINE
8
DEFAULT_255_1_234
10
13.012116
20
190.2297196
11
12.6362307
21
190.2297196
0
LINE
8
DEFAULT_255_1_234
10
12.6362307
20
190.2297196
11
12.6362307
21
189.1872
0
LINE
8
DEFAULT_255_1_234
10
12.6362307
20
189.1872
11
12.4828245
21
189.1872
0
LINE
8
DEFAULT_255_1_234
10
12.4828245
20
189.1872
11
12.4828245
21
190.2297196
0
LINE
8
DEFAULT_255_1_234
10
12.4828245
20
190.2297196
11
12.1077423
21
190.2297196
0
LINE
8
DEFAULT_255_1_234
10
12.1077423
20
190.2297196
11
12.1077423
21
190.3566211
0
LINE
8
DEFAULT_255_1_234
10
12.1077423
20
190.3566211
11
13.012116
21
190.3566211
0
LINE
8
DEFAULT_255_1_234
10
13.3510554
20
190.3566211
11
13.3510554
21
189.1872
0
LINE
8
DEFAULT_255_1_234
10
13.3510554
20
189.1872
11
13.196846
21
189.1872
0
LINE
8
DEFAULT_255_1_234
10
13.196846
20
189.1872
11
13.196846
21
190.3566211
0
LINE
8
DEFAULT_255_1_234
10
13.196846
20
190.3566211
11
13.3510554
21
190.3566211
0
LINE
8
DEFAULT_255_1_234
10
14.338156
20
189.5582663
11
14.4931686
21
189.5582663
0
LINE
8
DEFAULT_255_1_234
10
13.5928107
20
189.7172947
11
13.5928107
21
189.8297391
0
LINE
8
DEFAULT_255_1_234
10
14.4931686
20
189.9807357
11
14.338156
21
189.9807357
0
LINE
8
DEFAULT_255_1_234
10
13.7478232
20
189.8257232
11
13.7478232
21
189.7124757
0
ARC
8
DEFAULT_255_1_234
10
13.9451072
20
189.6179846
40
0.5513052
50
340.1774281
51
353.7814284
0
ARC
8
DEFAULT_255_1_234
10
14.1022425
20
189.5594582
40
0.3836379
50
311.4558989
51
340.4421614
0
ARC
8
DEFAULT_255_1_234
10
14.0989093
20
189.5705528
40
0.3941894
50
282.4333181
51
310.7513653
0
ARC
8
DEFAULT_255_1_234
10
14.0549832
20
189.7520679
40
0.5809175
50
269.9358511
51
282.809604
0
ARC
8
DEFAULT_255_1_234
10
14.0497899
20
189.8978212
40
0.7266847
50
270.0021091
51
270.3581957
0
ARC
8
DEFAULT_255_1_234
10
14.0445315
20
189.6377585
40
0.4666519
50
250.7884749
51
270.6489167
0
ARC
8
DEFAULT_255_1_234
10
14.027715
20
189.5740319
40
0.4009729
50
219.3627325
51
250.0611886
0
ARC
8
DEFAULT_255_1_234
10
14.1106361
20
189.6445042
40
0.5097822
50
193.5479632
51
219.5756669
0
ARC
8
DEFAULT_255_1_234
10
14.3477982
20
189.7060919
40
0.7547848
50
181.1218675
51
193.87563
0
ARC
8
DEFAULT_255_1_234
10
14.5548163
20
189.717158
40
0.9620055
50
179.9918545
51
181.5394234
0
ARC
8
DEFAULT_255_1_234
10
14.3697265
20
189.8334788
40
0.7769248
50
169.5837241
51
180.2757934
0
ARC
8
DEFAULT_255_1_234
10
14.1860203
20
189.8674229
40
0.590109
50
155.0365899
51
169.6003176
0
ARC
8
DEFAULT_255_1_234
10
14.0724667
20
189.9221677
40
0.4640625
50
136.783148
51
155.2472683
0
ARC
8
DEFAULT_255_1_234
10
14.0335144
20
189.9552562
40
0.4130255
50
121.7633186
51
136.428115
0
ARC
8
DEFAULT_255_1_234
10
14.0470106
20
189.9303227
40
0.4413323
50
95.6459699
51
121.5490577
0
ARC
8
DEFAULT_255_1_234
10
14.0627388
20
189.8194949
40
0.55319
50
89.924208
51
96.1377933
0
ARC
8
DEFAULT_255_1_234
10
14.0677821
20
189.8313542
40
0.5413475
50
76.6779277
51
90.4563316
0
ARC
8
DEFAULT_255_1_234
10
14.1071444
20
189.9904114
40
0.3775041
50
47.485847
51
76.9287264
0
ARC
8
DEFAULT_255_1_234
10
14.0924417
20
189.9804159
40
0.3948286
50
16.5424086
51
46.8933463
0
ARC
8
DEFAULT_255_1_234
10
13.9316574
20
189.9275861
40
0.564021
50
5.4072051
51
17.0365086
0
ARC
8
DEFAULT_255_1_234
10
13.7877591
20
189.9044679
40
0.5556559
50
7.8891745
51
15.9239216
0
ARC
8
DEFAULT_255_1_234
10
13.9864605
20
189.9621631
40
0.3487515
50
15.7653144
51
27.9410532
0
ARC
8
DEFAULT_255_1_234
10
14.0968822
20
190.021279
40
0.2235026
50
27.8166557
51
46.4008329
0
ARC
8
DEFAULT_255_1_234
10
14.1018465
20
190.0207082
40
0.2205286
50
47.4371857
51
75.0698205
0
ARC
8
DEFAULT_255_1_234
10
14.070986
20
189.9132765
40
0.3322915
50
74.7008593
51
87.8124495
0
ARC
8
DEFAULT_255_1_234
10
14.0636547
20
189.8076844
40
0.4380987
50
87.3814673
51
90.0240855
0
ARC
8
DEFAULT_255_1_234
10
14.0598091
20
189.9254291
40
0.3203749
50
89.3451631
51
108.5745436
0
ARC
8
DEFAULT_255_1_234
10
14.0461196
20
189.9767908
40
0.2673494
50
109.2998449
51
143.3037509
0
ARC
8
DEFAULT_255_1_234
10
14.1223268
20
189.9181881
40
0.3634757
50
143.0753173
51
163.1916937
0
ARC
8
DEFAULT_255_1_234
10
14.3174996
20
189.8565967
40
0.5681262
50
162.9373603
51
174.6208611
0
ARC
8
DEFAULT_255_1_234
10
14.5801038
20
189.827801
40
0.8322832
50
174.3419979
51
180.1430411
0
ARC
8
DEFAULT_255_1_234
10
14.4870194
20
189.7083698
40
0.7392076
50
179.6817502
51
189.150529
0
ARC
8
DEFAULT_255_1_234
10
14.2369443
20
189.666719
40
0.4856932
50
188.9910863
51
203.5773039
0
ARC
8
DEFAULT_255_1_234
10
14.1289775
20
189.6219211
40
0.3688271
50
203.9077269
51
215.1312379
0
ARC
8
DEFAULT_255_1_234
10
14.0366869
20
189.5503941
40
0.2522457
50
213.9071664
51
263.8849284
0
ARC
8
DEFAULT_255_1_234
10
14.0492198
20
189.6288518
40
0.3316174
50
263.1758525
51
270.1031083
0
ARC
8
DEFAULT_255_1_234
10
14.052429
20
189.7535365
40
0.4563091
50
269.6719807
51
279.0609165
0
ARC
8
DEFAULT_255_1_234
10
14.0791058
20
189.5922907
40
0.2928759
50
278.8750225
51
293.6346586
0
ARC
8
DEFAULT_255_1_234
10
14.1111266
20
189.51709
40
0.2111472
50
293.8553404
51
310.0518804
0
ARC
8
DEFAULT_255_1_234
10
14.111612
20
189.5108516
40
0.2060917
50
311.0646779
51
332.0108348
0
ARC
8
DEFAULT_255_1_234
10
13.9923847
20
189.5765978
40
0.3422352
50
331.6588543
51
343.2878891
0
ARC
8
DEFAULT_255_1_234
10
13.7861362
20
189.6399798
40
0.5580003
50
343.1446044
51
351.010618
0
ARC
8
DEFAULT_255_1_234
10
13.6320008
20
189.6680871
40
0.7146438
50
350.7157277
51
351.1602153
0
LINE
8
DEFAULT_255_1_234
10
15.8866751
20
190.0184849
11
15.7316626
21
190.0184849
0
LINE
8
DEFAULT_255_1_234
10
15.0393268
20
189.5261394
11
15.1943393
21
189.5261394
0
ARC
8
DEFAULT_255_1_234
10
15.7975439
20
190.9131768
40
1.252368
50
248.9199003
51
254.1439814
0
ARC
8
DEFAULT_255_1_234
10
15.6294934
20
190.4805234
40
0.788226
50
241.633709
51
249.0064503
0
ARC
8
DEFAULT_255_1_234
10
15.4766328
20
190.2004317
40
0.4691427
50
230.498225
51
241.8087113
0
ARC
8
DEFAULT_255_1_234
10
15.3981902
20
190.1004906
40
0.3421437
50
227.4064532
51
229.9881192
0
ARC
8
DEFAULT_255_1_234
10
15.3494423
20
190.0529088
40
0.2741476
50
200.6781896
51
228.1763934
0
ARC
8
DEFAULT_255_1_234
10
15.3566734
20
190.0514077
40
0.2804109
50
179.5061581
51
199.8694617
0
ARC
8
DEFAULT_255_1_234
10
15.3557485
20
190.058821
40
0.2795204
50
132.4834203
51
181.0242172
0
ARC
8
DEFAULT_255_1_234
10
15.4153068
20
190.0025704
40
0.3612768
50
129.2532479
51
133.4242687
0
ARC
8
DEFAULT_255_1_234
10
15.4299517
20
189.9805965
40
0.3875675
50
101.98776
51
128.8742646
0
ARC
8
DEFAULT_255_1_234
10
15.4698128
20
189.8084741
40
0.5642249
50
89.5906553
51
102.3169264
0
ARC
8
DEFAULT_255_1_234
10
15.476862
20
189.8403148
40
0.5323783
50
77.2360837
51
90.3248275
0
ARC
8
DEFAULT_255_1_234
10
15.4975699
20
189.93704
40
0.4334697
50
63.837784
51
77.0809408
0
ARC
8
DEFAULT_255_1_234
10
15.5253461
20
189.9887911
40
0.3747796
50
45.9864267
51
64.1607727
0
ARC
8
DEFAULT_255_1_234
10
15.5514342
20
190.0185866
40
0.3352302
50
32.2747395
51
45.6547121
0
ARC
8
DEFAULT_255_1_234
10
15.5580783
20
190.020488
40
0.328603
50
359.6507365
51
32.6130309
0
ARC
8
DEFAULT_255_1_234
10
15.4637878
20
190.020966
40
0.2678863
50
359.469343
51
14.9832209
0
ARC
8
DEFAULT_255_1_234
10
15.5342941
20
190.0398539
40
0.1948938
50
14.9781179
51
48.2004265
0
ARC
8
DEFAULT_255_1_234
10
15.5178585
20
190.0191983
40
0.2212521
50
48.5927837
51
74.1241538
0
ARC
8
DEFAULT_255_1_234
10
15.4845074
20
189.9091248
40
0.3362561
50
73.7888341
51
86.6652678
0
ARC
8
DEFAULT_255_1_234
10
15.474264
20
189.7883881
40
0.4573953
50
86.2640471
51
90.0526343
0
ARC
8
DEFAULT_255_1_234
10
15.4714352
20
189.8279192
40
0.4178709
50
89.6697524
51
99.2309573
0
ARC
8
DEFAULT_255_1_234
10
15.4471803
20
189.9723964
40
0.2713749
50
99.069534
51
113.7658566
0
ARC
8
DEFAULT_255_1_234
10
15.4197994
20
190.0369677
40
0.2012469
50
114.0401004
51
127.9850673
0
ARC
8
DEFAULT_255_1_234
10
15.3957558
20
190.066573
40
0.1631167
50
127.7287463
51
176.7105154
0
ARC
8
DEFAULT_255_1_234
10
15.4636276
20
190.0564693
40
0.2315392
50
175.1779447
51
180.0581938
0
ARC
8
DEFAULT_255_1_234
10
15.3793123
20
190.0552428
40
0.1472271
50
179.6142195
51
228.1246017
0
ARC
8
DEFAULT_255_1_234
10
15.4234791
20
190.0961308
40
0.2072299
50
226.5779593
51
230.8800004
0
ARC
8
DEFAULT_255_1_234
10
15.470587
20
190.1586636
40
0.2854818
50
231.4635071
51
241.9260842
0
ARC
8
DEFAULT_255_1_234
10
15.5903048
20
190.37898
40
0.53622
50
241.7178533
51
248.3259551
0
ARC
8
DEFAULT_255_1_234
10
15.728842
20
190.7222064
40
0.9063478
50
248.2007737
51
252.4528373
0
ARC
8
DEFAULT_255_1_234
10
15.8492145
20
191.0943441
40
1.2974635
50
252.3391078
51
254.3469452
0
ARC
8
DEFAULT_255_1_234
10
15.0949847
20
188.3966148
40
1.5037162
50
71.0197183
51
74.4087047
0
ARC
8
DEFAULT_255_1_234
10
15.2644532
20
188.8858111
40
0.9859993
50
66.1847285
51
71.086374
0
ARC
8
DEFAULT_255_1_234
10
15.4200845
20
189.23622
40
0.6025855
50
59.3536294
51
66.2691831
0
ARC
8
DEFAULT_255_1_234
10
15.5089497
20
189.3865609
40
0.4279449
50
49.1020879
51
59.3293958
0
ARC
8
DEFAULT_255_1_234
10
15.5908237
20
189.4798834
40
0.3038015
50
32.7919921
51
49.2505539
0
ARC
8
DEFAULT_255_1_234
10
15.6229327
20
189.5027191
40
0.264448
50
31.1181161
51
32.4005348
0
ARC
8
DEFAULT_255_1_234
10
15.6140865
20
189.4991779
40
0.2738556
50
8.1116974
51
30.7958831
0
ARC
8
DEFAULT_255_1_234
10
15.5330533
20
189.4853753
40
0.3560327
50
359.8389159
51
8.4706516
0
ARC
8
DEFAULT_255_1_234
10
15.5956324
20
189.4805137
40
0.2934776
50
337.4731098
51
0.7537279
0
ARC
8
DEFAULT_255_1_234
10
15.6135019
20
189.4785387
40
0.2762607
50
307.5917067
51
336.4315538
0
ARC
8
DEFAULT_255_1_234
10
15.5674847
20
189.5298102
40
0.3449979
50
307.6551545
51
308.4529766
0
ARC
8
DEFAULT_255_1_234
10
15.5444566
20
189.565325
40
0.3871988
50
284.3734338
51
307.1424381
0
ARC
8
DEFAULT_255_1_234
10
15.4949396
20
189.7474932
40
0.5759636
50
272.4382747
51
284.646547
0
ARC
8
DEFAULT_255_1_234
10
15.4822605
20
189.9274893
40
0.7563528
50
269.9708387
51
272.8178037
0
ARC
8
DEFAULT_255_1_234
10
15.4779645
20
189.7236716
40
0.5525489
50
248.2707594
51
270.4055579
0
ARC
8
DEFAULT_255_1_234
10
15.4725386
20
189.7046192
40
0.5328452
50
246.1383403
51
248.0542782
0
ARC
8
DEFAULT_255_1_234
10
15.4306765
20
189.6166843
40
0.4355005
50
233.1670131
51
246.4950969
0
ARC
8
DEFAULT_255_1_234
10
15.375267
20
189.5418812
40
0.3424126
50
215.3403242
51
233.0843104
0
ARC
8
DEFAULT_255_1_234
10
15.3480101
20
189.5220549
40
0.3087104
50
179.2419209
51
215.2648451
0
ARC
8
DEFAULT_255_1_234
10
15.4247695
20
189.5234666
40
0.2304457
50
179.335461
51
199.1045811
0
ARC
8
DEFAULT_255_1_234
10
15.3915371
20
189.5147766
40
0.1962176
50
199.8828939
51
232.7063202
0
ARC
8
DEFAULT_255_1_234
10
15.438764
20
189.5741788
40
0.2720938
50
232.3738199
51
255.5136649
0
ARC
8
DEFAULT_255_1_234
10
15.4728506
20
189.6985835
40
0.4010747
50
255.2446292
51
267.5320849
0
ARC
8
DEFAULT_255_1_234
10
15.481613
20
189.8218702
40
0.5246356
50
267.1557994
51
270.0286766
0
ARC
8
DEFAULT_255_1_234
10
15.4843902
20
189.777495
40
0.4802668
50
269.7000017
51
278.1660162
0
ARC
8
DEFAULT_255_1_234
10
15.5099907
20
189.6044515
40
0.3053425
50
278.0231263
51
290.625471
0
ARC
8
DEFAULT_255_1_234
10
15.5447594
20
189.5117025
40
0.206291
50
290.6619762
51
307.0370976
0
ARC
8
DEFAULT_255_1_234
10
15.5747983
20
189.4748504
40
0.1587906
50
306.3943566
51
355.3030547
0
ARC
8
DEFAULT_255_1_234
10
15.5235914
20
189.4825113
40
0.2104809
50
354.3660432
51
0.0698737
0
ARC
8
DEFAULT_255_1_234
10
15.537826
20
189.4847617
40
0.1962563
50
359.417946
51
16.1971788
0
ARC
8
DEFAULT_255_1_234
10
15.583357
20
189.4972418
40
0.149053
50
16.4723299
51
52.6262157
0
ARC
8
DEFAULT_255_1_234
10
15.5012624
20
189.3888433
40
0.2850296
50
52.7386432
51
62.4979148
0
ARC
8
DEFAULT_255_1_234
10
15.3627701
20
189.1282283
40
0.5801521
50
62.2515216
51
68.1220564
0
ARC
8
DEFAULT_255_1_234
10
15.1907612
20
188.7054872
40
1.0365451
50
68.0062803
51
71.8053402
0
ARC
8
DEFAULT_255_1_234
10
15.0111983
20
188.1669758
40
1.6042013
50
71.7183119
51
73.9258742
0
LINE
8
DEFAULT_255_1_234
10
16.8030965
20
190.3566211
11
16.8030965
21
190.273091
0
LINE
8
DEFAULT_255_1_234
10
16.8030965
20
190.273091
11
16.3187827
21
189.1872
0
LINE
8
DEFAULT_255_1_234
10
16.3187827
20
189.1872
11
16.1629669
21
189.1872
0
LINE
8
DEFAULT_255_1_234
10
16.1629669
20
189.1872
11
16.6456744
21
190.2345387
0
LINE
8
DEFAULT_255_1_234
10
16.6456744
20
190.2345387
11
16.0127734
21
190.2345387
0
LINE
8
DEFAULT_255_1_234
10
16.0127734
20
190.2345387
11
16.0127734
21
190.3566211
0
LINE
8
DEFAULT_255_1_234
10
16.0127734
20
190.3566211
11
16.8030965
21
190.3566211
0
LINE
8
DEFAULT_255_1_234
10
17.2962452
20
189.7446026
11
17.2962452
21
189.6233234
0
LINE
8
DEFAULT_255_1_234
10
17.2962452
20
189.6233234
11
16.9042964
21
189.6233234
0
LINE
8
DEFAULT_255_1_234
10
16.9042964
20
189.6233234
11
16.9042964
21
189.7446026
0
LINE
8
DEFAULT_255_1_234
10
16.9042964
20
189.7446026
11
17.2962452
21
189.7446026
0
LINE
8
DEFAULT_255_1_234
10
18.052835
20
190.3566211
11
18.052835
21
189.579952
0
LINE
8
DEFAULT_255_1_234
10
18.052835
20
189.579952
11
18.2150761
21
189.579952
0
LINE
8
DEFAULT_255_1_234
10
18.2150761
20
189.579952
11
18.2150761
21
189.4586728
0
LINE
8
DEFAULT_255_1_234
10
18.2150761
20
189.4586728
11
18.052835
21
189.4586728
0
LINE
8
DEFAULT_255_1_234
10
18.052835
20
189.4586728
11
18.052835
21
189.1872
0
LINE
8
DEFAULT_255_1_234
10
18.052835
20
189.1872
11
17.9034446
21
189.1872
0
LINE
8
DEFAULT_255_1_234
10
17.9034446
20
189.1872
11
17.9034446
21
189.4586728
0
LINE
8
DEFAULT_255_1_234
10
17.9034446
20
189.4586728
11
17.3709404
21
189.4586728
0
LINE
8
DEFAULT_255_1_234
10
17.3709404
20
189.4586728
11
17.3709404
21
189.5462187
0
LINE
8
DEFAULT_255_1_234
10
17.3709404
20
189.5462187
11
17.8946097
21
190.3566211
0
LINE
8
DEFAULT_255_1_234
10
17.8946097
20
190.3566211
11
18.052835
21
190.3566211
0
LINE
8
DEFAULT_255_1_234
10
17.8857748
20
190.1212912
11
17.5396069
21
189.579952
0
LINE
8
DEFAULT_255_1_234
10
17.5396069
20
189.579952
11
17.9034446
21
189.579952
0
LINE
8
DEFAULT_255_1_234
10
17.9034446
20
189.579952
11
17.9034446
21
190.1534181
0
LINE
8
DEFAULT_255_1_234
10
17.9034446
20
190.1534181
11
17.8857748
21
190.1212912
0
LINE
8
DEFAULT_255_1_234
10
19.0825038
20
189.8787327
11
19.0825038
21
189.6859709
0
LINE
8
DEFAULT_255_1_234
10
18.3443871
20
189.6658916
11
18.3443871
21
189.8642755
0
LINE
8
DEFAULT_255_1_234
10
18.9339167
20
189.6458123
11
18.9339167
21
189.8891739
0
LINE
8
DEFAULT_255_1_234
10
18.4929742
20
189.9004184
11
18.4929742
21
189.6626789
0
ARC
8
DEFAULT_255_1_234
10
17.8577928
20
189.6810805
40
1.2247208
50
353.8441951
51
0.2287902
0
ARC
8
DEFAULT_255_1_234
10
18.3217431
20
189.6292806
40
0.7578929
50
344.4934747
51
353.9765454
0
ARC
8
DEFAULT_255_1_234
10
18.6210022
20
189.5441981
40
0.4467846
50
329.2803592
51
344.7472793
0
ARC
8
DEFAULT_255_1_234
10
18.7202846
20
189.4897018
40
0.3336173
50
324.9352394
51
328.6160465
0
ARC
8
DEFAULT_255_1_234
10
18.7579955
20
189.4633427
40
0.2876076
50
280.580143
51
324.9173126
0
ARC
8
DEFAULT_255_1_234
10
18.7178748
20
189.6304099
40
0.4592847
50
269.5977311
51
281.6734359
0
ARC
8
DEFAULT_255_1_234
10
18.7106653
20
189.6184173
40
0.4472986
50
256.6228859
51
270.51044
0
ARC
8
DEFAULT_255_1_234
10
18.6704631
20
189.4635877
40
0.2873874
50
215.8618325
51
257.2788573
0
ARC
8
DEFAULT_255_1_234
10
18.7725663
20
189.5320977
40
0.4102928
50
197.9693508
51
215.2623606
0
ARC
8
DEFAULT_255_1_234
10
19.0210778
20
189.6159709
40
0.6725652
50
187.8816417
51
198.2346507
0
ARC
8
DEFAULT_255_1_234
10
19.4168987
20
189.6731079
40
1.0724845
50
180.8976217
51
188.0055519
0
ARC
8
DEFAULT_255_1_234
10
19.6969175
20
189.6834777
40
1.3526448
50
180.7449369
51
181.1510016
0
ARC
8
DEFAULT_255_1_234
10
19.5391904
20
189.8691042
40
1.1948131
50
173.7675579
51
180.231553
0
ARC
8
DEFAULT_255_1_234
10
19.087405
20
189.9201666
40
0.7401564
50
164.3058563
51
173.9002247
0
ARC
8
DEFAULT_255_1_234
10
18.7962119
20
190.0040656
40
0.4371288
50
148.7922025
51
164.568378
0
ARC
8
DEFAULT_255_1_234
10
18.7010571
20
190.0571929
40
0.3282386
50
144.5883898
51
148.1176286
0
ARC
8
DEFAULT_255_1_234
10
18.6667469
20
190.0811315
40
0.2864044
50
101.6440918
51
144.514236
0
ARC
8
DEFAULT_255_1_234
10
18.7092536
20
189.9122069
40
0.4604934
50
89.5284041
51
102.5819763
0
ARC
8
DEFAULT_255_1_234
10
18.7171624
20
189.9083018
40
0.464401
50
77.0437873
51
90.5081339
0
ARC
8
DEFAULT_255_1_234
10
18.7573626
20
190.0725615
40
0.2953195
50
48.2778575
51
77.4994676
0
ARC
8
DEFAULT_255_1_234
10
18.7646257
20
190.0854746
40
0.2808655
50
36.3142134
51
47.6305865
0
ARC
8
DEFAULT_255_1_234
10
18.6777564
20
190.0269515
40
0.3855453
50
18.2931786
51
35.6769206
0
ARC
8
DEFAULT_255_1_234
10
18.4234323
20
189.9396593
40
0.654423
50
8.024666
51
18.5605216
0
ARC
8
DEFAULT_255_1_234
10
18.0071243
20
189.8781792
40
1.0752407
50
1.1274072
51
8.1718305
0
ARC
8
DEFAULT_255_1_234
10
17.6835433
20
189.8654885
40
1.3990231
50
0.5424119
51
1.3863029
0
ARC
8
DEFAULT_255_1_234
10
17.8656811
20
189.8927342
40
1.0682415
50
359.8090433
51
4.9407866
0
ARC
8
DEFAULT_255_1_234
10
18.2866825
20
189.9303113
40
0.6455691
50
4.8362157
51
12.2904523
0
ARC
8
DEFAULT_255_1_234
10
18.562194
20
189.9916965
40
0.3633074
50
12.0805627
51
23.8173984
0
ARC
8
DEFAULT_255_1_234
10
18.6795645
20
190.0413919
40
0.2358723
50
24.2871213
51
31.3935614
0
ARC
8
DEFAULT_255_1_234
10
18.7320342
20
190.0757233
40
0.1732111
50
30.7407893
51
82.4657128
0
ARC
8
DEFAULT_255_1_234
10
18.7140477
20
189.9873691
40
0.263235
50
81.1060089
51
90.2184952
0
ARC
8
DEFAULT_255_1_234
10
18.7104776
20
190.0131924
40
0.2374236
50
89.3806855
51
105.6762551
0
ARC
8
DEFAULT_255_1_234
10
18.6921406
20
190.0798567
40
0.1682847
50
105.7981136
51
149.7388061
0
ARC
8
DEFAULT_255_1_234
10
18.7985485
20
190.015895
40
0.2924306
50
149.4208916
51
163.6286378
0
ARC
8
DEFAULT_255_1_234
10
19.0076373
20
189.952125
40
0.5110213
50
163.3763315
51
172.1410975
0
ARC
8
DEFAULT_255_1_234
10
19.3377092
20
189.9048518
40
0.8444586
50
172.0259487
51
178.0703232
0
ARC
8
DEFAULT_255_1_234
10
19.6407181
20
189.8904906
40
1.1477868
50
177.8631668
51
179.5044149
0
ARC
8
DEFAULT_255_1_234
10
19.5334586
20
189.6590389
40
1.0404907
50
179.7995573
51
185.2460446
0
ARC
8
DEFAULT_255_1_234
10
19.1291625
20
189.6207513
40
0.6343885
50
185.1411642
51
193.0079639
0
ARC
8
DEFAULT_255_1_234
10
18.8648097
20
189.5582641
40
0.3627568
50
192.7897626
51
205.2507664
0
ARC
8
DEFAULT_255_1_234
10
18.7601644
20
189.5115415
40
0.2481908
50
205.8005384
51
211.2537509
0
ARC
8
DEFAULT_255_1_234
10
18.7078085
20
189.476458
40
0.1852521
50
210.3789793
51
238.4008143
0
ARC
8
DEFAULT_255_1_234
10
18.7058607
20
189.4811376
40
0.1882621
50
239.6520629
51
265.9793761
0
ARC
8
DEFAULT_255_1_234
10
18.7143807
20
189.5483427
40
0.2559272
50
265.1315437
51
270.060332
0
ARC
8
DEFAULT_255_1_234
10
18.7172586
20
189.5159534
40
0.2235528
50
269.3314664
51
287.2178029
0
ARC
8
DEFAULT_255_1_234
10
18.7310438
20
189.4656279
40
0.1714108
50
287.7958004
51
329.080874
0
ARC
8
DEFAULT_255_1_234
10
18.6352894
20
189.525393
40
0.2842745
50
328.6634704
51
343.3325132
0
ARC
8
DEFAULT_255_1_234
10
18.4179915
20
189.5930863
40
0.5118644
50
343.0499468
51
351.9393422
0
ARC
8
DEFAULT_255_1_234
10
18.0713215
20
189.6441949
40
0.8622784
50
351.8069023
51
357.7959224
0
ARC
8
DEFAULT_255_1_234
10
17.7477771
20
189.6609721
40
1.1862365
50
357.5871873
51
359.2677531
0
LINE
8
DEFAULT_255_1_234
10
20.0061537
20
189.8787327
11
20.0061537
21
189.6859709
0
LINE
8
DEFAULT_255_1_234
10
19.268037
20
189.6658916
11
19.268037
21
189.8642755
0
LINE
8
DEFAULT_255_1_234
10
19.8575666
20
189.6458123
11
19.8575666
21
189.8891739
0
LINE
8
DEFAULT_255_1_234
10
19.4166241
20
189.9004184
11
19.4166241
21
189.6626789
0
ARC
8
DEFAULT_255_1_234
10
18.7814427
20
189.6810805
40
1.2247208
50
353.8441951
51
0.2287902
0
ARC
8
DEFAULT_255_1_234
10
19.245393
20
189.6292806
40
0.7578929
50
344.4934747
51
353.9765454
0
ARC
8
DEFAULT_255_1_234
10
19.5446521
20
189.5441981
40
0.4467846
50
329.2803592
51
344.7472793
0
ARC
8
DEFAULT_255_1_234
10
19.6439345
20
189.4897018
40
0.3336173
50
324.9352394
51
328.6160465
0
ARC
8
DEFAULT_255_1_234
10
19.6816454
20
189.4633427
40
0.2876076
50
280.580143
51
324.9173126
0
ARC
8
DEFAULT_255_1_234
10
19.6415247
20
189.6304099
40
0.4592847
50
269.5977311
51
281.6734359
0
ARC
8
DEFAULT_255_1_234
10
19.6343152
20
189.6184173
40
0.4472986
50
256.6228859
51
270.51044
0
ARC
8
DEFAULT_255_1_234
10
19.594113
20
189.4635877
40
0.2873874
50
215.8618325
51
257.2788573
0
ARC
8
DEFAULT_255_1_234
10
19.6962162
20
189.5320977
40
0.4102928
50
197.9693508
51
215.2623606
0
ARC
8
DEFAULT_255_1_234
10
19.9447277
20
189.6159709
40
0.6725652
50
187.8816417
51
198.2346507
0
ARC
8
DEFAULT_255_1_234
10
20.3405486
20
189.6731079
40
1.0724845
50
180.8976217
51
188.0055519
0
ARC
8
DEFAULT_255_1_234
10
20.6205674
20
189.6834777
40
1.3526448
50
180.7449369
51
181.1510016
0
ARC
8
DEFAULT_255_1_234
10
20.4628403
20
189.8691042
40
1.1948131
50
173.7675579
51
180.231553
0
ARC
8
DEFAULT_255_1_234
10
20.0110549
20
189.9201666
40
0.7401564
50
164.3058563
51
173.9002247
0
ARC
8
DEFAULT_255_1_234
10
19.7198618
20
190.0040656
40
0.4371288
50
148.7922025
51
164.568378
0
ARC
8
DEFAULT_255_1_234
10
19.624707
20
190.0571929
40
0.3282386
50
144.5883898
51
148.1176286
0
ARC
8
DEFAULT_255_1_234
10
19.5903968
20
190.0811315
40
0.2864044
50
101.6440918
51
144.514236
0
ARC
8
DEFAULT_255_1_234
10
19.6329035
20
189.9122069
40
0.4604934
50
89.5284041
51
102.5819763
0
ARC
8
DEFAULT_255_1_234
10
19.6408123
20
189.9083018
40
0.464401
50
77.0437873
51
90.5081339
0
ARC
8
DEFAULT_255_1_234
10
19.6810125
20
190.0725615
40
0.2953195
50
48.2778575
51
77.4994676
0
ARC
8
DEFAULT_255_1_234
10
19.6882756
20
190.0854746
40
0.2808655
50
36.3142134
51
47.6305865
0
ARC
8
DEFAULT_255_1_234
10
19.6014063
20
190.0269515
40
0.3855453
50
18.2931786
51
35.6769206
0
ARC
8
DEFAULT_255_1_234
10
19.3470822
20
189.9396593
40
0.654423
50
8.024666
51
18.5605216
0
ARC
8
DEFAULT_255_1_234
10
18.9307742
20
189.8781792
40
1.0752407
50
1.1274072
51
8.1718305
0
ARC
8
DEFAULT_255_1_234
10
18.6071932
20
189.8654885
40
1.3990231
50
0.5424119
51
1.3863029
0
ARC
8
DEFAULT_255_1_234
10
18.789331
20
189.8927342
40
1.0682415
50
359.8090433
51
4.9407866
0
ARC
8
DEFAULT_255_1_234
10
19.2103324
20
189.9303113
40
0.6455691
50
4.8362157
51
12.2904523
0
ARC
8
DEFAULT_255_1_234
10
19.4858439
20
189.9916965
40
0.3633074
50
12.0805627
51
23.8173984
0
ARC
8
DEFAULT_255_1_234
10
19.6032144
20
190.0413919
40
0.2358723
50
24.2871213
51
31.3935614
0
ARC
8
DEFAULT_255_1_234
10
19.6556841
20
190.0757233
40
0.1732111
50
30.7407893
51
82.4657128
0
ARC
8
DEFAULT_255_1_234
10
19.6376976
20
189.9873691
40
0.263235
50
81.1060089
51
90.2184952
0
ARC
8
DEFAULT_255_1_234
10
19.6341275
20
190.0131924
40
0.2374236
50
89.3806855
51
105.6762551
0
ARC
8
DEFAULT_255_1_234
10
19.6157905
20
190.0798567
40
0.1682847
50
105.7981136
51
149.7388061
0
ARC
8
DEFAULT_255_1_234
10
19.7221984
20
190.015895
40
0.2924306
50
149.4208916
51
163.6286378
0
ARC
8
DEFAULT_255_1_234
10
19.9312872
20
189.952125
40
0.5110213
50
163.3763315
51
172.1410975
0
ARC
8
DEFAULT_255_1_234
10
20.2613591
20
189.9048518
40
0.8444586
50
172.0259487
51
178.0703232
0
ARC
8
DEFAULT_255_1_234
10
20.564368
20
189.8904906
40
1.1477868
50
177.8631668
51
179.5044149
0
ARC
8
DEFAULT_255_1_234
10
20.4571085
20
189.6590389
40
1.0404907
50
179.7995573
51
185.2460446
0
ARC
8
DEFAULT_255_1_234
10
20.0528124
20
189.6207513
40
0.6343885
50
185.1411642
51
193.0079639
0
ARC
8
DEFAULT_255_1_234
10
19.7884596
20
189.5582641
40
0.3627568
50
192.7897626
51
205.2507664
0
ARC
8
DEFAULT_255_1_234
10
19.6838143
20
189.5115415
40
0.2481908
50
205.8005384
51
211.2537509
0
ARC
8
DEFAULT_255_1_234
10
19.6314584
20
189.476458
40
0.1852521
50
210.3789793
51
238.4008143
0
ARC
8
DEFAULT_255_1_234
10
19.6295106
20
189.4811376
40
0.1882621
50
239.6520629
51
265.9793761
0
ARC
8
DEFAULT_255_1_234
10
19.6380306
20
189.5483427
40
0.2559272
50
265.1315437
51
270.060332
0
ARC
8
DEFAULT_255_1_234
10
19.6409085
20
189.5159534
40
0.2235528
50
269.3314664
51
287.2178029
0
ARC
8
DEFAULT_255_1_234
10
19.6546937
20
189.4656279
40
0.1714108
50
287.7958004
51
329.080874
0
ARC
8
DEFAULT_255_1_234
10
19.5589394
20
189.525393
40
0.2842745
50
328.6634704
51
343.3325132
0
ARC
8
DEFAULT_255_1_234
10
19.3416414
20
189.5930863
40
0.5118644
50
343.0499468
51
351.9393422
0
ARC
8
DEFAULT_255_1_234
10
18.9949714
20
189.6441949
40
0.8622784
50
351.8069023
51
357.7959224
0
ARC
8
DEFAULT_255_1_234
10
18.671427
20
189.6609721
40
1.1862365
50
357.5871873
51
359.2677531
0
LINE
8
DEFAULT_255_2_778
10
19.9760417
20
187.7218499
11
18.6531417
21
187.7218499
0
LINE
8
DEFAULT_255_2_778
10
18.6531417
20
187.7218499
11
18.6531417
21
186.0682499
0
LINE
8
DEFAULT_255_2_778
10
18.6531417
20
181.4379499
11
18.6531417
21
179.7843499
0
LINE
8
DEFAULT_255_2_778
10
18.6531417
20
179.7843499
11
19.9760417
21
179.7843499
0
LINE
8
DEFAULT_255_2_778
10
17.3301834
20
186.0682041
11
19.9759834
21
186.0682041
0
LINE
8
DEFAULT_255_2_778
10
19.9759834
20
186.0682041
11
19.9759834
21
181.4380041
0
LINE
8
DEFAULT_255_2_778
10
19.9759834
20
181.4380041
11
17.3301834
21
181.4380041
0
LINE
8
DEFAULT_255_2_778
10
17.3301834
20
181.4380041
11
17.3301834
21
186.0682041
0
LINE
8
DEFAULT_255_2_778
10
18.124
20
181.9009833
11
18.124
21
185.6051833
0
LINE
8
DEFAULT_255_2_778
10
17.8594167
20
184.9106656
11
18.1240167
21
185.6051656
0
LINE
8
DEFAULT_255_2_778
10
18.1240167
20
185.6051656
11
18.3886167
21
184.9106656
0
LINE
8
DEFAULT_255_2_778
10
18.3886167
20
184.9106656
11
17.8594167
21
184.9106656
0
LINE
8
DEFAULT_255_2_778
10
19.1823
20
185.6051833
11
19.1823
21
181.9009833
0
LINE
8
DEFAULT_255_2_778
10
18.9177167
20
182.5955656
11
19.1823167
21
181.9010656
0
LINE
8
DEFAULT_255_2_778
10
19.1823167
20
181.9010656
11
19.4469167
21
182.5955656
0
LINE
8
DEFAULT_255_2_778
10
19.4469167
20
182.5955656
11
18.9177167
21
182.5955656
0
LINE
8
DEFAULT_255_2_778
10
19.9760417
20
163.9093499
11
18.6531417
21
163.9093499
0
LINE
8
DEFAULT_255_2_778
10
18.6531417
20
163.9093499
11
18.6531417
21
162.2557499
0
LINE
8
DEFAULT_255_2_778
10
18.6531417
20
157.6254499
11
18.6531417
21
155.9718499
0
LINE
8
DEFAULT_255_2_778
10
18.6531417
20
155.9718499
11
19.9760417
21
155.9718499
0
LINE
8
DEFAULT_255_2_778
10
17.3301834
20
162.2557041
11
19.9759834
21
162.2557041
0
LINE
8
DEFAULT_255_2_778
10
19.9759834
20
162.2557041
11
19.9759834
21
157.6255041
0
LINE
8
DEFAULT_255_2_778
10
19.9759834
20
157.6255041
11
17.3301834
21
157.6255041
0
LINE
8
DEFAULT_255_2_778
10
17.3301834
20
157.6255041
11
17.3301834
21
162.2557041
0
LINE
8
DEFAULT_255_2_778
10
18.124
20
158.0884833
11
18.124
21
161.7926833
0
LINE
8
DEFAULT_255_2_778
10
17.8594167
20
161.0981656
11
18.1240167
21
161.7926656
0
LINE
8
DEFAULT_255_2_778
10
18.1240167
20
161.7926656
11
18.3886167
21
161.0981656
0
LINE
8
DEFAULT_255_2_778
10
18.3886167
20
161.0981656
11
17.8594167
21
161.0981656
0
LINE
8
DEFAULT_255_2_778
10
19.1823
20
161.7926833
11
19.1823
21
158.0884833
0
LINE
8
DEFAULT_255_2_778
10
18.9177167
20
158.7830656
11
19.1823167
21
158.0885656
0
LINE
8
DEFAULT_255_2_778
10
19.1823167
20
158.0885656
11
19.4469167
21
158.7830656
0
LINE
8
DEFAULT_255_2_778
10
19.4469167
20
158.7830656
11
18.9177167
21
158.7830656
0
LINE
8
DEFAULT_255_2_778
10
19.9760417
20
140.0968499
11
18.6531417
21
140.0968499
0
LINE
8
DEFAULT_255_2_778
10
18.6531417
20
140.0968499
11
18.6531417
21
138.4432499
0
LINE
8
DEFAULT_255_2_778
10
18.6531417
20
133.8129499
11
18.6531417
21
132.1593499
0
LINE
8
DEFAULT_255_2_778
10
18.6531417
20
132.1593499
11
19.9760417
21
132.1593499
0
LINE
8
DEFAULT_255_2_778
10
17.3301834
20
138.4432041
11
19.9759834
21
138.4432041
0
LINE
8
DEFAULT_255_2_778
10
19.9759834
20
138.4432041
11
19.9759834
21
133.8130041
0
LINE
8
DEFAULT_255_2_778
10
19.9759834
20
133.8130041
11
17.3301834
21
133.8130041
0
LINE
8
DEFAULT_255_2_778
10
17.3301834
20
133.8130041
11
17.3301834
21
138.4432041
0
LINE
8
DEFAULT_255_2_778
10
18.124
20
134.2759833
11
18.124
21
137.9801833
0
LINE
8
DEFAULT_255_2_778
10
17.8594167
20
137.2856656
11
18.1240167
21
137.9801656
0
LINE
8
DEFAULT_255_2_778
10
18.1240167
20
137.9801656
11
18.3886167
21
137.2856656
0
LINE
8
DEFAULT_255_2_778
10
18.3886167
20
137.2856656
11
17.8594167
21
137.2856656
0
LINE
8
DEFAULT_255_2_778
10
19.1823
20
137.9801833
11
19.1823
21
134.2759833
0
LINE
8
DEFAULT_255_2_778
10
18.9177167
20
134.9705656
11
19.1823167
21
134.2760656
0
LINE
8
DEFAULT_255_2_778
10
19.1823167
20
134.2760656
11
19.4469167
21
134.9705656
0
LINE
8
DEFAULT_255_2_778
10
19.4469167
20
134.9705656
11
18.9177167
21
134.9705656
0
LINE
8
DEFAULT_255_2_778
10
19.9760417
20
116.2843499
11
18.6531417
21
116.2843499
0
LINE
8
DEFAULT_255_2_778
10
18.6531417
20
116.2843499
11
18.6531417
21
114.6307499
0
LINE
8
DEFAULT_255_2_778
10
18.6531417
20
110.0004499
11
18.6531417
21
108.3468499
0
LINE
8
DEFAULT_255_2_778
10
18.6531417
20
108.3468499
11
19.9760417
21
108.3468499
0
LINE
8
DEFAULT_255_2_778
10
17.3301834
20
114.6307041
11
19.9759834
21
114.6307041
0
LINE
8
DEFAULT_255_2_778
10
19.9759834
20
114.6307041
11
19.9759834
21
110.0005041
0
LINE
8
DEFAULT_255_2_778
10
19.9759834
20
110.0005041
11
17.3301834
21
110.0005041
0
LINE
8
DEFAULT_255_2_778
10
17.3301834
20
110.0005041
11
17.3301834
21
114.6307041
0
LINE
8
DEFAULT_255_2_778
10
18.124
20
110.4634833
11
18.124
21
114.1676833
0
LINE
8
DEFAULT_255_2_778
10
17.8594167
20
113.4731656
11
18.1240167
21
114.1676656
0
LINE
8
DEFAULT_255_2_778
10
18.1240167
20
114.1676656
11
18.3886167
21
113.4731656
0
LINE
8
DEFAULT_255_2_778
10
18.3886167
20
113.4731656
11
17.8594167
21
113.4731656
0
LINE
8
DEFAULT_255_2_778
10
19.1823
20
114.1676833
11
19.1823
21
110.4634833
0
LINE
8
DEFAULT_255_2_778
10
18.9177167
20
111.1580656
11
19.1823167
21
110.4635656
0
LINE
8
DEFAULT_255_2_778
10
19.1823167
20
110.4635656
11
19.4469167
21
111.1580656
0
LINE
8
DEFAULT_255_2_778
10
19.4469167
20
111.1580656
11
18.9177167
21
111.1580656
0
LINE
8
DEFAULT_255_2_778
10
19.9760417
20
92.4718499
11
18.6531417
21
92.4718499
0
LINE
8
DEFAULT_255_2_778
10
18.6531417
20
92.4718499
11
18.6531417
21
90.8182499
0
LINE
8
DEFAULT_255_2_778
10
18.6531417
20
86.1879499
11
18.6531417
21
84.5343499
0
LINE
8
DEFAULT_255_2_778
10
18.6531417
20
84.5343499
11
19.9760417
21
84.5343499
0
LINE
8
DEFAULT_255_2_778
10
17.3301834
20
90.8182041
11
19.9759834
21
90.8182041
0
LINE
8
DEFAULT_255_2_778
10
19.9759834
20
90.8182041
11
19.9759834
21
86.1880041
0
LINE
8
DEFAULT_255_2_778
10
19.9759834
20
86.1880041
11
17.3301834
21
86.1880041
0
LINE
8
DEFAULT_255_2_778
10
17.3301834
20
86.1880041
11
17.3301834
21
90.8182041
0
LINE
8
DEFAULT_255_2_778
10
18.124
20
86.6509833
11
18.124
21
90.3551833
0
LINE
8
DEFAULT_255_2_778
10
17.8594167
20
89.6606656
11
18.1240167
21
90.3551656
0
LINE
8
DEFAULT_255_2_778
10
18.1240167
20
90.3551656
11
18.3886167
21
89.6606656
0
LINE
8
DEFAULT_255_2_778
10
18.3886167
20
89.6606656
11
17.8594167
21
89.6606656
0
LINE
8
DEFAULT_255_2_778
10
19.1823
20
90.3551833
11
19.1823
21
86.6509833
0
LINE
8
DEFAULT_255_2_778
10
18.9177167
20
87.3455656
11
19.1823167
21
86.6510656
0
LINE
8
DEFAULT_255_2_778
10
19.1823167
20
86.6510656
11
19.4469167
21
87.3455656
0
LINE
8
DEFAULT_255_2_778
10
19.4469167
20
87.3455656
11
18.9177167
21
87.3455656
0
LINE
8
DEFAULT_255_2_778
10
19.9760417
20
68.6593499
11
18.6531417
21
68.6593499
0
LINE
8
DEFAULT_255_2_778
10
18.6531417
20
68.6593499
11
18.6531417
21
67.0057499
0
LINE
8
DEFAULT_255_2_778
10
18.6531417
20
62.3754499
11
18.6531417
21
60.7218499
0
LINE
8
DEFAULT_255_2_778
10
18.6531417
20
60.7218499
11
19.9760417
21
60.7218499
0
LINE
8
DEFAULT_255_2_778
10
17.3301834
20
67.0057041
11
19.9759834
21
67.0057041
0
LINE
8
DEFAULT_255_2_778
10
19.9759834
20
67.0057041
11
19.9759834
21
62.3755041
0
LINE
8
DEFAULT_255_2_778
10
19.9759834
20
62.3755041
11
17.3301834
21
62.3755041
0
LINE
8
DEFAULT_255_2_778
10
17.3301834
20
62.3755041
11
17.3301834
21
67.0057041
0
LINE
8
DEFAULT_255_2_778
10
18.124
20
62.8384833
11
18.124
21
66.5426833
0
LINE
8
DEFAULT_255_2_778
10
17.8594167
20
65.8481656
11
18.1240167
21
66.5426656
0
LINE
8
DEFAULT_255_2_778
10
18.1240167
20
66.5426656
11
18.3886167
21
65.8481656
0
LINE
8
DEFAULT_255_2_778
10
18.3886167
20
65.8481656
11
17.8594167
21
65.8481656
0
LINE
8
DEFAULT_255_2_778
10
19.1823
20
66.5426833
11
19.1823
21
62.8384833
0
LINE
8
DEFAULT_255_2_778
10
18.9177167
20
63.5330656
11
19.1823167
21
62.8385656
0
LINE
8
DEFAULT_255_2_778
10
19.1823167
20
62.8385656
11
19.4469167
21
63.5330656
0
LINE
8
DEFAULT_255_2_778
10
19.4469167
20
63.5330656
11
18.9177167
21
63.5330656
0
LINE
8
DEFAULT_255_2_778
10
19.9760417
20
44.8468499
11
18.6531417
21
44.8468499
0
LINE
8
DEFAULT_255_2_778
10
18.6531417
20
44.8468499
11
18.6531417
21
43.1932499
0
LINE
8
DEFAULT_255_2_778
10
18.6531417
20
38.5629499
11
18.6531417
21
36.9093499
0
LINE
8
DEFAULT_255_2_778
10
18.6531417
20
36.9093499
11
19.9760417
21
36.9093499
0
LINE
8
DEFAULT_255_2_778
10
17.3301834
20
43.1932041
11
19.9759834
21
43.1932041
0
LINE
8
DEFAULT_255_2_778
10
19.9759834
20
43.1932041
11
19.9759834
21
38.5630041
0
LINE
8
DEFAULT_255_2_778
10
19.9759834
20
38.5630041
11
17.3301834
21
38.5630041
0
LINE
8
DEFAULT_255_2_778
10
17.3301834
20
38.5630041
11
17.3301834
21
43.1932041
0
LINE
8
DEFAULT_255_2_778
10
18.124
20
39.0259833
11
18.124
21
42.7301833
0
LINE
8
DEFAULT_255_2_778
10
17.8594167
20
42.0356656
11
18.1240167
21
42.7301656
0
LINE
8
DEFAULT_255_2_778
10
18.1240167
20
42.7301656
11
18.3886167
21
42.0356656
0
LINE
8
DEFAULT_255_2_778
10
18.3886167
20
42.0356656
11
17.8594167
21
42.0356656
0
LINE
8
DEFAULT_255_2_778
10
19.1823
20
42.7301833
11
19.1823
21
39.0259833
0
LINE
8
DEFAULT_255_2_778
10
18.9177167
20
39.7205656
11
19.1823167
21
39.0260656
0
LINE
8
DEFAULT_255_2_778
10
19.1823167
20
39.0260656
11
19.4469167
21
39.7205656
0
LINE
8
DEFAULT_255_2_778
10
19.4469167
20
39.7205656
11
18.9177167
21
39.7205656
0
LINE
8
DEFAULT_255_2_778
10
19.9760417
20
21.0343499
11
18.6531417
21
21.0343499
0
LINE
8
DEFAULT_255_2_778
10
18.6531417
20
21.0343499
11
18.6531417
21
19.3807499
0
LINE
8
DEFAULT_255_2_778
10
18.6531417
20
14.7504499
11
18.6531417
21
13.0968499
0
LINE
8
DEFAULT_255_2_778
10
18.6531417
20
13.0968499
11
19.9760417
21
13.0968499
0
LINE
8
DEFAULT_255_2_778
10
17.3301834
20
19.3807041
11
19.9759834
21
19.3807041
0
LINE
8
DEFAULT_255_2_778
10
19.9759834
20
19.3807041
11
19.9759834
21
14.7505041
0
LINE
8
DEFAULT_255_2_778
10
19.9759834
20
14.7505041
11
17.3301834
21
14.7505041
0
LINE
8
DEFAULT_255_2_778
10
17.3301834
20
14.7505041
11
17.3301834
21
19.3807041
0
LINE
8
DEFAULT_255_2_778
10
18.124
20
15.2134833
11
18.124
21
18.9176833
0
LINE
8
DEFAULT_255_2_778
10
17.8594167
20
18.2231656
11
18.1240167
21
18.9176656
0
LINE
8
DEFAULT_255_2_778
10
18.1240167
20
18.9176656
11
18.3886167
21
18.2231656
0
LINE
8
DEFAULT_255_2_778
10
18.3886167
20
18.2231656
11
17.8594167
21
18.2231656
0
LINE
8
DEFAULT_255_2_778
10
19.1823
20
18.9176833
11
19.1823
21
15.2134833
0
LINE
8
DEFAULT_255_2_778
10
18.9177167
20
15.9080656
11
19.1823167
21
15.2135656
0
LINE
8
DEFAULT_255_2_778
10
19.1823167
20
15.2135656
11
19.4469167
21
15.9080656
0
LINE
8
DEFAULT_255_2_778
10
19.4469167
20
15.9080656
11
18.9177167
21
15.9080656
0
LINE
8
DEFAULT_255_1_234
10
24.3119817
20
187.8944327
11
24.3119817
21
187.7016709
0
LINE
8
DEFAULT_255_1_234
10
23.573865
20
187.6815916
11
23.573865
21
187.8799755
0
LINE
8
DEFAULT_255_1_234
10
24.1633946
20
187.6615123
11
24.1633946
21
187.9048739
0
LINE
8
DEFAULT_255_1_234
10
23.7224521
20
187.9161184
11
23.7224521
21
187.6783789
0
ARC
8
DEFAULT_255_1_234
10
23.0872707
20
187.6967805
40
1.2247208
50
353.8441951
51
0.2287902
0
ARC
8
DEFAULT_255_1_234
10
23.5512211
20
187.6449806
40
0.7578929
50
344.4934747
51
353.9765454
0
ARC
8
DEFAULT_255_1_234
10
23.8504801
20
187.5598981
40
0.4467846
50
329.2803592
51
344.7472793
0
ARC
8
DEFAULT_255_1_234
10
23.9497626
20
187.5054018
40
0.3336173
50
324.9352394
51
328.6160465
0
ARC
8
DEFAULT_255_1_234
10
23.9874734
20
187.4790427
40
0.2876076
50
280.580143
51
324.9173126
0
ARC
8
DEFAULT_255_1_234
10
23.9473527
20
187.6461099
40
0.4592847
50
269.5977311
51
281.6734359
0
ARC
8
DEFAULT_255_1_234
10
23.9401433
20
187.6341173
40
0.4472986
50
256.6228859
51
270.51044
0
ARC
8
DEFAULT_255_1_234
10
23.899941
20
187.4792877
40
0.2873874
50
215.8618325
51
257.2788573
0
ARC
8
DEFAULT_255_1_234
10
24.0020442
20
187.5477977
40
0.4102928
50
197.9693508
51
215.2623606
0
ARC
8
DEFAULT_255_1_234
10
24.2505558
20
187.6316709
40
0.6725652
50
187.8816417
51
198.2346507
0
ARC
8
DEFAULT_255_1_234
10
24.6463766
20
187.6888079
40
1.0724845
50
180.8976217
51
188.0055519
0
ARC
8
DEFAULT_255_1_234
10
24.9263954
20
187.6991777
40
1.3526448
50
180.7449369
51
181.1510016
0
ARC
8
DEFAULT_255_1_234
10
24.7686683
20
187.8848042
40
1.1948131
50
173.7675579
51
180.231553
0
ARC
8
DEFAULT_255_1_234
10
24.316883
20
187.9358666
40
0.7401564
50
164.3058563
51
173.9002247
0
ARC
8
DEFAULT_255_1_234
10
24.0256899
20
188.0197656
40
0.4371288
50
148.7922025
51
164.568378
0
ARC
8
DEFAULT_255_1_234
10
23.9305351
20
188.0728929
40
0.3282386
50
144.5883898
51
148.1176286
0
ARC
8
DEFAULT_255_1_234
10
23.8962249
20
188.0968315
40
0.2864044
50
101.6440918
51
144.514236
0
ARC
8
DEFAULT_255_1_234
10
23.9387315
20
187.9279069
40
0.4604934
50
89.5284041
51
102.5819763
0
ARC
8
DEFAULT_255_1_234
10
23.9466403
20
187.9240018
40
0.464401
50
77.0437873
51
90.5081339
0
ARC
8
DEFAULT_255_1_234
10
23.9868405
20
188.0882615
40
0.2953195
50
48.2778575
51
77.4994676
0
ARC
8
DEFAULT_255_1_234
10
23.9941036
20
188.1011746
40
0.2808655
50
36.3142134
51
47.6305865
0
ARC
8
DEFAULT_255_1_234
10
23.9072343
20
188.0426515
40
0.3855453
50
18.2931786
51
35.6769206
0
ARC
8
DEFAULT_255_1_234
10
23.6529102
20
187.9553593
40
0.654423
50
8.024666
51
18.5605216
0
ARC
8
DEFAULT_255_1_234
10
23.2366022
20
187.8938792
40
1.0752407
50
1.1274072
51
8.1718305
0
ARC
8
DEFAULT_255_1_234
10
22.9130213
20
187.8811885
40
1.3990231
50
0.5424119
51
1.3863029
0
ARC
8
DEFAULT_255_1_234
10
23.095159
20
187.9084342
40
1.0682415
50
359.8090433
51
4.9407866
0
ARC
8
DEFAULT_255_1_234
10
23.5161604
20
187.9460113
40
0.6455691
50
4.8362157
51
12.2904523
0
ARC
8
DEFAULT_255_1_234
10
23.7916719
20
188.0073965
40
0.3633074
50
12.0805627
51
23.8173984
0
ARC
8
DEFAULT_255_1_234
10
23.9090425
20
188.0570919
40
0.2358723
50
24.2871213
51
31.3935614
0
ARC
8
DEFAULT_255_1_234
10
23.9615122
20
188.0914233
40
0.1732111
50
30.7407893
51
82.4657128
0
ARC
8
DEFAULT_255_1_234
10
23.9435256
20
188.0030691
40
0.263235
50
81.1060089
51
90.2184952
0
ARC
8
DEFAULT_255_1_234
10
23.9399555
20
188.0288924
40
0.2374236
50
89.3806855
51
105.6762551
0
ARC
8
DEFAULT_255_1_234
10
23.9216186
20
188.0955567
40
0.1682847
50
105.7981136
51
149.7388061
0
ARC
8
DEFAULT_255_1_234
10
24.0280264
20
188.031595
40
0.2924306
50
149.4208916
51
163.6286378
0
ARC
8
DEFAULT_255_1_234
10
24.2371152
20
187.967825
40
0.5110213
50
163.3763315
51
172.1410975
0
ARC
8
DEFAULT_255_1_234
10
24.5671871
20
187.9205518
40
0.8444586
50
172.0259487
51
178.0703232
0
ARC
8
DEFAULT_255_1_234
10
24.870196
20
187.9061906
40
1.1477868
50
177.8631668
51
179.5044149
0
ARC
8
DEFAULT_255_1_234
10
24.7629365
20
187.6747389
40
1.0404907
50
179.7995573
51
185.2460446
0
ARC
8
DEFAULT_255_1_234
10
24.3586404
20
187.6364513
40
0.6343885
50
185.1411642
51
193.0079639
0
ARC
8
DEFAULT_255_1_234
10
24.0942877
20
187.5739641
40
0.3627568
50
192.7897626
51
205.2507664
0
ARC
8
DEFAULT_255_1_234
10
23.9896424
20
187.5272415
40
0.2481908
50
205.8005384
51
211.2537509
0
ARC
8
DEFAULT_255_1_234
10
23.9372864
20
187.492158
40
0.1852521
50
210.3789793
51
238.4008143
0
ARC
8
DEFAULT_255_1_234
10
23.9353386
20
187.4968376
40
0.1882621
50
239.6520629
51
265.9793761
0
ARC
8
DEFAULT_255_1_234
10
23.9438586
20
187.5640427
40
0.2559272
50
265.1315437
51
270.060332
0
ARC
8
DEFAULT_255_1_234
10
23.9467365
20
187.5316534
40
0.2235528
50
269.3314664
51
287.2178029
0
ARC
8
DEFAULT_255_1_234
10
23.9605217
20
187.4813279
40
0.1714108
50
287.7958004
51
329.080874
0
ARC
8
DEFAULT_255_1_234
10
23.8647674
20
187.541093
40
0.2842745
50
328.6634704
51
343.3325132
0
ARC
8
DEFAULT_255_1_234
10
23.6474694
20
187.6087863
40
0.5118644
50
343.0499468
51
351.9393422
0
ARC
8
DEFAULT_255_1_234
10
23.3007994
20
187.6598949
40
0.8622784
50
351.8069023
51
357.7959224
0
ARC
8
DEFAULT_255_1_234
10
22.977255
20
187.6766721
40
1.1862365
50
357.5871873
51
359.2677531
0
ARC
8
DEFAULT_255_1_234
10
23.0424624
20
5.5020703
40
0.2822356
50
338.8763615
51
0.5166041
0
ARC
8
DEFAULT_255_1_234
10
23.0593278
20
5.4975208
40
0.2648703
50
325.8412414
51
338.4795939
0
ARC
8
DEFAULT_255_1_234
10
23.0202646
20
5.5246042
40
0.3124019
50
296.7586019
51
325.753654
0
ARC
8
DEFAULT_255_1_234
10
22.9914754
20
5.5730789
40
0.368668
50
296.0902311
51
297.3618122
0
ARC
8
DEFAULT_255_1_234
10
23.0172212
20
4.9176041
40
0.3518806
50
47.9009248
51
67.1946869
0
ARC
8
DEFAULT_255_1_234
10
23.0368454
20
4.9422395
40
0.320451
50
35.236241
51
47.551371
0
ARC
8
DEFAULT_255_1_234
10
23.0630072
20
4.9596993
40
0.2890103
50
359.2759738
51
35.4014081
0
ARC
8
DEFAULT_255_1_234
10
22.9885103
20
4.9523826
40
0.3635026
50
343.1294516
51
0.5776525
0
ARC
8
DEFAULT_255_1_234
10
23.0609648
20
4.932433
40
0.2883832
50
310.8497458
51
342.744803
0
ARC
8
DEFAULT_255_1_234
10
23.0191761
20
4.9801294
40
0.3517954
50
281.5473923
51
310.9169905
0
ARC
8
DEFAULT_255_1_234
10
22.983521
20
5.1354084
40
0.5110832
50
269.6192722
51
281.9789957
0
ARC
8
DEFAULT_255_1_234
10
22.9763
20
5.1354828
40
0.5111606
50
257.4584469
51
270.4287458
0
ARC
8
DEFAULT_255_1_234
10
22.9382143
20
4.9751344
40
0.3463762
50
228.7553743
51
257.8484423
0
ARC
8
DEFAULT_255_1_234
10
22.9072341
20
4.9378442
40
0.297916
50
184.0104442
51
228.5071787
0
ARC
8
DEFAULT_255_1_234
10
23.0235285
20
4.9555512
40
0.4152734
50
179.9315461
51
185.3254504
0
ARC
8
DEFAULT_255_1_234
10
22.9058931
20
4.9592992
40
0.2976554
50
145.6795913
51
180.6259649
0
ARC
8
DEFAULT_255_1_234
10
22.922228
20
4.9478929
40
0.3175776
50
115.5537925
51
145.6416199
0
ARC
8
DEFAULT_255_1_234
10
22.956321
20
4.8868028
40
0.3874232
50
113.2437915
51
116.2054627
0
ARC
8
DEFAULT_255_1_234
10
22.9410423
20
5.526658
40
0.3154751
50
222.9548379
51
244.1372485
0
ARC
8
DEFAULT_255_1_234
10
22.9288498
20
5.5129834
40
0.2972382
50
213.3439227
51
222.6271327
0
ARC
8
DEFAULT_255_1_234
10
22.9096433
20
5.4999308
40
0.274019
50
180.4316517
51
213.2713999
0
ARC
8
DEFAULT_255_1_234
10
22.9671434
20
5.504611
40
0.33158
50
179.9992944
51
181.1655061
0
ARC
8
DEFAULT_255_1_234
10
23.0080851
20
5.5080561
40
0.3725376
50
164.6186108
51
180.5292368
0
ARC
8
DEFAULT_255_1_234
10
22.9182714
20
5.5322101
40
0.2795349
50
132.2454369
51
164.5092287
0
ARC
8
DEFAULT_255_1_234
10
22.9469818
20
5.4997028
40
0.3229019
50
100.7052766
51
132.1387266
0
ARC
8
DEFAULT_255_1_234
10
22.977479
20
5.3619086
40
0.4639835
50
89.6732617
51
101.2449487
0
ARC
8
DEFAULT_255_1_234
10
22.9836988
20
5.379399
40
0.4464999
50
76.2876631
51
90.4586123
0
ARC
8
DEFAULT_255_1_234
10
23.014322
20
5.501622
40
0.3205023
50
47.8240157
51
76.4266918
0
ARC
8
DEFAULT_255_1_234
10
23.036577
20
5.527659
40
0.2862661
50
6.9168658
51
47.6261438
0
ARC
8
DEFAULT_255_1_234
10
22.9179173
20
5.505737
40
0.4067708
50
359.8419705
51
7.9694496
0
ARC
8
DEFAULT_255_1_234
10
22.952107
20
4.9616925
40
0.2513121
50
359.4454068
51
16.9256425
0
ARC
8
DEFAULT_255_1_234
10
22.9989881
20
4.9746033
40
0.2027071
50
17.292259
51
45.462717
0
ARC
8
DEFAULT_255_1_234
10
22.9935817
20
4.9699434
40
0.2098212
50
45.3028762
51
83.1921472
0
ARC
8
DEFAULT_255_1_234
10
22.9792501
20
4.8897895
40
0.2911472
50
82.2614531
51
90.143954
0
ARC
8
DEFAULT_255_1_234
10
22.9761621
20
4.913095
40
0.2678513
50
89.4959189
51
104.8579811
0
ARC
8
DEFAULT_255_1_234
10
22.958488
20
4.980089
40
0.1985654
50
104.8855873
51
135.2448349
0
ARC
8
DEFAULT_255_1_234
10
22.9634653
20
4.9756336
40
0.2052373
50
135.3398955
51
172.104394
0
ARC
8
DEFAULT_255_1_234
10
23.0441711
20
4.9601925
40
0.2873299
50
171.2651929
51
180.1859362
0
ARC
8
DEFAULT_255_1_234
10
23.0272412
20
4.9569733
40
0.2704083
50
179.515471
51
193.6466734
0
ARC
8
DEFAULT_255_1_234
10
22.9456181
20
4.9361777
40
0.1861855
50
193.3540587
51
225.8256931
0
ARC
8
DEFAULT_255_1_234
10
22.9496938
20
4.9432524
40
0.1941102
50
226.418029
51
255.8553723
0
ARC
8
DEFAULT_255_1_234
10
22.9753371
20
5.0368998
40
0.2911917
50
255.4655572
51
268.7985967
0
ARC
8
DEFAULT_255_1_234
10
22.9800563
20
5.1207491
40
0.3751331
50
268.3464808
51
270.0104874
0
ARC
8
DEFAULT_255_1_234
10
22.9823951
20
5.0523138
40
0.3067064
50
269.575914
51
282.0823146
0
ARC
8
DEFAULT_255_1_234
10
23.004886
20
4.9528803
40
0.2047712
50
281.7522535
51
306.6056425
0
ARC
8
DEFAULT_255_1_234
10
23.0147286
20
4.9367487
40
0.1859604
50
307.1350025
51
314.0277951
0
ARC
8
DEFAULT_255_1_234
10
23.011137
20
4.9393766
40
0.1903475
50
314.2553419
51
350.169324
0
ARC
8
DEFAULT_255_1_234
10
22.9259839
20
4.9578409
40
0.2774269
50
349.4145679
51
0.2930737
0
ARC
8
DEFAULT_255_1_234
10
22.9780272
20
5.4737353
40
0.2300764
50
89.477591
51
105.729794
0
ARC
8
DEFAULT_255_1_234
10
22.9644185
20
5.5242637
40
0.1777519
50
105.922966
51
135.1662921
0
ARC
8
DEFAULT_255_1_234
10
22.9664688
20
5.5228419
40
0.1802087
50
135.3053131
51
168.9882338
0
ARC
8
DEFAULT_255_1_234
10
23.049226
20
5.5038721
40
0.2650806
50
168.3802067
51
180.3602358
0
ARC
8
DEFAULT_255_1_234
10
23.026384
20
5.5001041
40
0.2422425
50
179.5029707
51
194.9126783
0
ARC
8
DEFAULT_255_1_234
10
22.9678501
20
5.484711
40
0.1817188
50
194.9722181
51
224.1943972
0
ARC
8
DEFAULT_255_1_234
10
22.9650368
20
5.4824169
40
0.1781027
50
224.2961434
51
262.0157375
0
ARC
8
DEFAULT_255_1_234
10
22.9792611
20
5.5555661
40
0.2525492
50
261.1250369
51
270.1959853
0
ARC
8
DEFAULT_255_1_234
10
22.9822366
20
5.5368339
40
0.233825
50
269.4825617
51
285.0988277
0
ARC
8
DEFAULT_255_1_234
10
22.9976525
20
5.478999
40
0.1739712
50
285.1585659
51
315.9484648
0
ARC
8
DEFAULT_255_1_234
10
22.9887537
20
5.4871886
40
0.1860616
50
316.0412958
51
351.9162715
0
ARC
8
DEFAULT_255_1_234
10
22.9154492
20
5.5013245
40
0.2606517
50
351.1056823
51
0.1936567
0
ARC
8
DEFAULT_255_1_234
10
22.9417321
20
5.5043369
40
0.234377
50
359.4789506
51
16.0679113
0
ARC
8
DEFAULT_255_1_234
10
22.989328
20
5.517181
40
0.1850875
50
16.3251951
51
44.791304
0
ARC
8
DEFAULT_255_1_234
10
22.9875561
20
5.5172339
40
0.186312
50
44.3958661
51
88.2498933
0
ARC
8
DEFAULT_255_1_234
10
22.9802115
20
5.4561154
40
0.2476868
50
86.9833827
51
90.0200148
0
LINE
8
DEFAULT_255_1_234
10
23.7326988
20
5.8098211
11
23.7326988
21
4.7664983
0
LINE
8
DEFAULT_255_1_234
10
23.7326988
20
4.7664983
11
24.2868888
21
4.7664983
0
LINE
8
DEFAULT_255_1_234
10
24.2868888
20
4.7664983
11
24.2868888
21
4.6404
0
LINE
8
DEFAULT_255_1_234
10
24.2868888
20
4.6404
11
23.5776863
21
4.6404
0
LINE
8
DEFAULT_255_1_234
10
23.5776863
20
4.6404
11
23.5776863
21
5.8098211
0
LINE
8
DEFAULT_255_1_234
10
23.5776863
20
5.8098211
11
23.7326988
21
5.8098211
0
LINE
8
DEFAULT_255_1_234
10
24.3336674
20
13.7473211
11
24.3336674
21
13.663791
0
LINE
8
DEFAULT_255_1_234
10
24.3336674
20
13.663791
11
23.8493536
21
12.5779
0
LINE
8
DEFAULT_255_1_234
10
23.8493536
20
12.5779
11
23.6935379
21
12.5779
0
LINE
8
DEFAULT_255_1_234
10
23.6935379
20
12.5779
11
24.1762454
21
13.6252387
0
LINE
8
DEFAULT_255_1_234
10
24.1762454
20
13.6252387
11
23.5433444
21
13.6252387
0
LINE
8
DEFAULT_255_1_234
10
23.5433444
20
13.6252387
11
23.5433444
21
13.7473211
0
LINE
8
DEFAULT_255_1_234
10
23.5433444
20
13.7473211
11
24.3336674
21
13.7473211
0
LINE
8
DEFAULT_255_1_234
10
24.1352835
20
21.6856243
11
24.1617882
21
21.6856243
0
LINE
8
DEFAULT_255_1_234
10
24.1617882
20
21.6856243
11
24.1617882
21
21.559526
0
LINE
8
DEFAULT_255_1_234
10
24.1617882
20
21.559526
11
24.1344803
21
21.559526
0
LINE
8
DEFAULT_255_1_234
10
23.5875189
20
20.9603583
11
23.5875189
21
21.0173836
0
LINE
8
DEFAULT_255_1_234
10
23.7369093
20
20.9981075
11
23.7369093
21
20.9434917
0
ARC
8
DEFAULT_255_1_234
10
24.1397151
20
21.0597455
40
0.4998079
50
90.6001036
51
104.514704
0
ARC
8
DEFAULT_255_1_234
10
24.1008667
20
21.2042131
40
0.3502176
50
104.2855254
51
133.862935
0
ARC
8
DEFAULT_255_1_234
10
24.1172424
20
21.193383
40
0.3693984
50
134.5302688
51
161.6210873
0
ARC
8
DEFAULT_255_1_234
10
24.2825613
20
21.1350895
40
0.5446739
50
161.2849839
51
174.2076652
0
ARC
8
DEFAULT_255_1_234
10
24.423255
20
21.1156787
40
0.6866274
50
173.7810589
51
174.9254635
0
ARC
8
DEFAULT_255_1_234
10
23.9682382
20
20.9773839
40
0.3033419
50
95.8330959
51
138.9954921
0
ARC
8
DEFAULT_255_1_234
10
23.9905738
20
20.8495375
40
0.4328947
50
89.8753725
51
97.0544009
0
ARC
8
DEFAULT_255_1_234
10
23.9953204
20
20.9330748
40
0.3493769
50
71.6407809
51
90.6240094
0
ARC
8
DEFAULT_255_1_234
10
24.0103777
20
20.9885082
40
0.2920396
50
39.6367836
51
71.019018
0
ARC
8
DEFAULT_255_1_234
10
23.946725
20
20.9334998
40
0.3761538
50
10.658731
51
39.9043955
0
ARC
8
DEFAULT_255_1_234
10
23.7919333
20
20.8998686
40
0.5345136
50
359.682601
51
11.132623
0
ARC
8
DEFAULT_255_1_234
10
23.7879464
20
20.892801
40
0.5385081
50
347.2486944
51
0.4369317
0
ARC
8
DEFAULT_255_1_234
10
23.9546941
20
20.8526807
40
0.3670249
50
318.1409698
51
347.6118597
0
ARC
8
DEFAULT_255_1_234
10
23.9871934
20
20.8259702
40
0.3250007
50
275.6342139
51
317.8248465
0
ARC
8
DEFAULT_255_1_234
10
23.9651045
20
20.9559219
40
0.4565864
50
269.8874292
51
276.7917694
0
ARC
8
DEFAULT_255_1_234
10
23.9596116
20
20.8533743
40
0.3540676
50
246.9140195
51
270.7437342
0
ARC
8
DEFAULT_255_1_234
10
23.9602506
20
20.8391384
40
0.3412781
50
218.1665114
51
245.878116
0
ARC
8
DEFAULT_255_1_234
10
24.0481967
20
20.9127279
40
0.455911
50
191.4115814
51
218.6077802
0
ARC
8
DEFAULT_255_1_234
10
24.2420056
20
20.9561833
40
0.6545001
50
179.6345085
51
191.7836486
0
ARC
8
DEFAULT_255_1_234
10
24.8002393
20
21.0240697
40
1.2127388
50
171.4525249
51
180.3158839
0
ARC
8
DEFAULT_255_1_234
10
24.3607269
20
21.0924608
40
0.7679464
50
157.9802646
51
171.6246686
0
ARC
8
DEFAULT_255_1_234
10
24.139329
20
21.1807421
40
0.5296008
50
141.4298019
51
157.854097
0
ARC
8
DEFAULT_255_1_234
10
24.075161
20
21.2261381
40
0.4511509
50
102.8715806
51
140.8564722
0
ARC
8
DEFAULT_255_1_234
10
24.1399226
20
20.9821552
40
0.7034845
50
90.3778349
51
103.5869322
0
ARC
8
DEFAULT_255_1_234
10
23.9661002
20
20.921673
40
0.2370698
50
89.8751008
51
126.2071704
0
ARC
8
DEFAULT_255_1_234
10
23.9706792
20
20.9062303
40
0.2522934
50
124.9745049
51
144.895901
0
ARC
8
DEFAULT_255_1_234
10
23.9530982
20
20.920556
40
0.2296779
50
145.2974905
51
160.2660252
0
ARC
8
DEFAULT_255_1_234
10
24.2603521
20
20.9403071
40
0.5234525
50
179.6514266
51
190.2855912
0
ARC
8
DEFAULT_255_1_234
10
24.0909658
20
20.9083786
40
0.3510893
50
190.0945431
51
207.5098196
0
ARC
8
DEFAULT_255_1_234
10
24.0343928
20
20.8814623
40
0.288489
50
207.9583163
51
216.3251085
0
ARC
8
DEFAULT_255_1_234
10
24.0004036
20
20.8535105
40
0.2445587
50
215.7661442
51
232.5456785
0
ARC
8
DEFAULT_255_1_234
10
23.9621019
20
20.8048482
40
0.1826382
50
232.8005391
51
270.6605633
0
ARC
8
DEFAULT_255_1_234
10
23.966672
20
20.8412612
40
0.2190529
50
269.35537
51
288.4744281
0
ARC
8
DEFAULT_255_1_234
10
23.9759617
20
20.8063118
40
0.1829749
50
289.1833337
51
322.9683818
0
ARC
8
DEFAULT_255_1_234
10
23.9148139
20
20.8545391
40
0.2608399
50
322.6007884
51
346.5182367
0
ARC
8
DEFAULT_255_1_234
10
23.7990735
20
20.8840616
40
0.3802777
50
346.2582162
51
358.7741648
0
ARC
8
DEFAULT_255_1_234
10
23.6972404
20
20.8895965
40
0.4822176
50
358.3755224
51
0.0098023
0
ARC
8
DEFAULT_255_1_234
10
23.7728591
20
20.8923657
40
0.4066078
50
359.6214041
51
11.2839074
0
ARC
8
DEFAULT_255_1_234
10
23.9005738
20
20.9190066
40
0.2761514
50
11.0482309
51
31.8146458
0
ARC
8
DEFAULT_255_1_234
10
23.9314781
20
20.9357584
40
0.2410679
50
32.3035391
51
38.082671
0
ARC
8
DEFAULT_255_1_234
10
23.9735441
20
20.9738662
40
0.1844966
50
36.825067
51
85.7415724
0
ARC
8
DEFAULT_255_1_234
10
23.9668274
20
20.9238301
40
0.2349122
50
85.0140713
51
90.0513278
0
LINE
8
DEFAULT_255_1_234
10
23.3704674
20
29.6223211
11
23.3704674
21
29.538791
0
LINE
8
DEFAULT_255_1_234
10
23.3704674
20
29.538791
11
22.8861536
21
28.4529
0
LINE
8
DEFAULT_255_1_234
10
22.8861536
20
28.4529
11
22.7303379
21
28.4529
0
LINE
8
DEFAULT_255_1_234
10
22.7303379
20
28.4529
11
23.2130454
21
29.5002387
0
LINE
8
DEFAULT_255_1_234
10
23.2130454
20
29.5002387
11
22.5801444
21
29.5002387
0
LINE
8
DEFAULT_255_1_234
10
22.5801444
20
29.5002387
11
22.5801444
21
29.6223211
0
LINE
8
DEFAULT_255_1_234
10
22.5801444
20
29.6223211
11
23.3704674
21
29.6223211
0
LINE
8
DEFAULT_255_1_234
10
23.7326988
20
29.6223211
11
23.7326988
21
28.5789983
0
LINE
8
DEFAULT_255_1_234
10
23.7326988
20
28.5789983
11
24.2868888
21
28.5789983
0
LINE
8
DEFAULT_255_1_234
10
24.2868888
20
28.5789983
11
24.2868888
21
28.4529
0
LINE
8
DEFAULT_255_1_234
10
24.2868888
20
28.4529
11
23.5776863
21
28.4529
0
LINE
8
DEFAULT_255_1_234
10
23.5776863
20
28.4529
11
23.5776863
21
29.6223211
0
LINE
8
DEFAULT_255_1_234
10
23.5776863
20
29.6223211
11
23.7326988
21
29.6223211
0
LINE
8
DEFAULT_255_1_234
10
23.7658235
20
36.9461963
11
23.6469538
21
36.9767169
0
LINE
8
DEFAULT_255_1_234
10
23.6469538
20
36.9767169
11
23.7063887
21
37.5598211
0
LINE
8
DEFAULT_255_1_234
10
23.7063887
20
37.5598211
11
24.3055563
21
37.5598211
0
LINE
8
DEFAULT_255_1_234
10
24.3055563
20
37.5598211
11
24.3055563
21
37.4224784
0
LINE
8
DEFAULT_255_1_234
10
24.3055563
20
37.4224784
11
23.832487
21
37.4224784
0
LINE
8
DEFAULT_255_1_234
10
23.832487
20
37.4224784
11
23.7971473
21
37.1036184
0
LINE
8
DEFAULT_255_1_234
10
23.6051888
20
36.6980156
11
23.7457442
21
36.6980156
0
LINE
8
DEFAULT_255_1_234
10
23.8051791
20
36.9783232
11
23.7658235
21
36.9461963
0
ARC
8
DEFAULT_255_1_234
10
23.9826257
20
36.785623
40
0.3681349
50
93.7182161
51
120.2538958
0
ARC
8
DEFAULT_255_1_234
10
23.992052
20
36.7048394
40
0.449379
50
89.9660152
51
94.2496022
0
ARC
8
DEFAULT_255_1_234
10
23.9961254
20
36.7637549
40
0.390482
50
73.8043271
51
90.5585896
0
ARC
8
DEFAULT_255_1_234
10
24.0196151
20
36.8495602
40
0.3015334
50
41.3071453
51
73.5430202
0
ARC
8
DEFAULT_255_1_234
10
23.9779978
20
36.8137324
40
0.3564457
50
13.5075983
51
41.2174222
0
ARC
8
DEFAULT_255_1_234
10
23.8138182
20
36.7707486
40
0.5261351
50
1.1331335
51
13.8829381
0
ARC
8
DEFAULT_255_1_234
10
23.6726551
20
36.7631665
40
0.6674378
50
359.9919444
51
1.544251
0
ARC
8
DEFAULT_255_1_234
10
23.8003377
20
36.759028
40
0.5397702
50
347.8572367
51
0.4293338
0
ARC
8
DEFAULT_255_1_234
10
23.9753695
20
36.7193736
40
0.3603188
50
323.673004
51
348.1672506
0
ARC
8
DEFAULT_255_1_234
10
24.0048203
20
36.7014168
40
0.3259678
50
316.8171152
51
323.1492751
0
ARC
8
DEFAULT_255_1_234
10
24.0109392
20
36.697746
40
0.3189975
50
281.8396411
51
316.5457803
0
ARC
8
DEFAULT_255_1_234
10
23.9733656
20
36.8532762
40
0.4789527
50
269.5770101
51
282.4214771
0
ARC
8
DEFAULT_255_1_234
10
23.9662467
20
36.8319125
40
0.45759
50
256.2427136
51
270.4486331
0
ARC
8
DEFAULT_255_1_234
10
23.936337
20
36.7119229
40
0.3339303
50
228.9023911
51
256.3314342
0
ARC
8
DEFAULT_255_1_234
10
23.9289602
20
36.7002746
40
0.32031
50
193.753695
51
228.5271154
0
ARC
8
DEFAULT_255_1_234
10
24.0527556
20
36.73658
40
0.4492253
50
184.924711
51
194.497588
0
ARC
8
DEFAULT_255_1_234
10
24.0720123
20
36.7401591
40
0.3289787
50
187.3600538
51
198.6732863
0
ARC
8
DEFAULT_255_1_234
10
23.9670417
20
36.7037674
40
0.217884
50
198.4451669
51
217.794479
0
ARC
8
DEFAULT_255_1_234
10
23.9374592
20
36.6828085
40
0.1816698
50
218.2887171
51
228.5612368
0
ARC
8
DEFAULT_255_1_234
10
23.9472379
20
36.6959963
40
0.1980329
50
228.9654866
51
258.1234728
0
ARC
8
DEFAULT_255_1_234
10
23.9678089
20
36.7840833
40
0.2884748
50
257.7258293
51
270.401361
0
ARC
8
DEFAULT_255_1_234
10
23.9722975
20
36.7395821
40
0.2439788
50
269.4204404
51
286.4209037
0
ARC
8
DEFAULT_255_1_234
10
23.9871463
20
36.6856657
40
0.1880666
50
286.7251356
51
320.600362
0
ARC
8
DEFAULT_255_1_234
10
23.9488288
20
36.7167595
40
0.2374121
50
320.6712579
51
344.5441685
0
ARC
8
DEFAULT_255_1_234
10
23.8331614
20
36.7507045
40
0.3579479
50
344.2412205
51
356.7357071
0
ARC
8
DEFAULT_255_1_234
10
23.7082763
20
36.7610444
40
0.4832297
50
356.3548756
51
0.0500261
0
ARC
8
DEFAULT_255_1_234
10
23.8419272
20
36.764165
40
0.3495889
50
359.5576869
51
12.953486
0
ARC
8
DEFAULT_255_1_234
10
23.9474169
20
36.7897434
40
0.2410532
50
12.6490276
51
41.6081334
0
ARC
8
DEFAULT_255_1_234
10
23.970454
20
36.8093321
40
0.2108218
50
41.7850273
51
85.9892764
0
ARC
8
DEFAULT_255_1_234
10
23.9581277
20
36.7280462
40
0.2928454
50
84.6957577
51
90.0676183
0
ARC
8
DEFAULT_255_1_234
10
23.9557761
20
36.6611716
40
0.3597255
50
89.6804936
51
99.1614436
0
ARC
8
DEFAULT_255_1_234
10
23.9352392
20
36.7839131
40
0.235281
50
98.9830931
51
113.8908934
0
ARC
8
DEFAULT_255_1_234
10
23.9122802
20
36.8380587
40
0.176479
50
114.1950727
51
127.3641004
0
LINE
8
DEFAULT_255_1_234
10
23.9942628
20
45.4973211
11
23.9942628
21
44.720652
0
LINE
8
DEFAULT_255_1_234
10
23.9942628
20
44.720652
11
24.1565039
21
44.720652
0
LINE
8
DEFAULT_255_1_234
10
24.1565039
20
44.720652
11
24.1565039
21
44.5993728
0
LINE
8
DEFAULT_255_1_234
10
24.1565039
20
44.5993728
11
23.9942628
21
44.5993728
0
LINE
8
DEFAULT_255_1_234
10
23.9942628
20
44.5993728
11
23.9942628
21
44.3279
0
LINE
8
DEFAULT_255_1_234
10
23.9942628
20
44.3279
11
23.8448725
21
44.3279
0
LINE
8
DEFAULT_255_1_234
10
23.8448725
20
44.3279
11
23.8448725
21
44.5993728
0
LINE
8
DEFAULT_255_1_234
10
23.8448725
20
44.5993728
11
23.3123682
21
44.5993728
0
LINE
8
DEFAULT_255_1_234
10
23.3123682
20
44.5993728
11
23.3123682
21
44.6869187
0
LINE
8
DEFAULT_255_1_234
10
23.3123682
20
44.6869187
11
23.8360375
21
45.4973211
0
LINE
8
DEFAULT_255_1_234
10
23.8360375
20
45.4973211
11
23.9942628
21
45.4973211
0
LINE
8
DEFAULT_255_1_234
10
23.8272026
20
45.2619912
11
23.4810347
21
44.720652
0
LINE
8
DEFAULT_255_1_234
10
23.4810347
20
44.720652
11
23.8448725
21
44.720652
0
LINE
8
DEFAULT_255_1_234
10
23.8448725
20
44.720652
11
23.8448725
21
45.2941181
0
LINE
8
DEFAULT_255_1_234
10
23.8448725
20
45.2941181
11
23.8272026
21
45.2619912
0
LINE
8
DEFAULT_255_1_234
10
23.1720835
20
53.4356243
11
23.1985882
21
53.4356243
0
LINE
8
DEFAULT_255_1_234
10
23.1985882
20
53.4356243
11
23.1985882
21
53.309526
0
LINE
8
DEFAULT_255_1_234
10
23.1985882
20
53.309526
11
23.1712803
21
53.309526
0
LINE
8
DEFAULT_255_1_234
10
22.6243189
20
52.7103583
11
22.6243189
21
52.7673836
0
LINE
8
DEFAULT_255_1_234
10
22.7737093
20
52.7481075
11
22.7737093
21
52.6934917
0
ARC
8
DEFAULT_255_1_234
10
23.1765151
20
52.8097455
40
0.4998079
50
90.6001036
51
104.514704
0
ARC
8
DEFAULT_255_1_234
10
23.1376667
20
52.9542131
40
0.3502176
50
104.2855254
51
133.862935
0
ARC
8
DEFAULT_255_1_234
10
23.1540424
20
52.943383
40
0.3693984
50
134.5302688
51
161.6210873
0
ARC
8
DEFAULT_255_1_234
10
23.3193613
20
52.8850895
40
0.5446739
50
161.2849839
51
174.2076652
0
ARC
8
DEFAULT_255_1_234
10
23.460055
20
52.8656787
40
0.6866274
50
173.7810589
51
174.9254635
0
ARC
8
DEFAULT_255_1_234
10
23.0050382
20
52.7273839
40
0.3033419
50
95.8330959
51
138.9954921
0
ARC
8
DEFAULT_255_1_234
10
23.0273738
20
52.5995375
40
0.4328947
50
89.8753725
51
97.0544009
0
ARC
8
DEFAULT_255_1_234
10
23.0321204
20
52.6830748
40
0.3493769
50
71.6407809
51
90.6240094
0
ARC
8
DEFAULT_255_1_234
10
23.0471777
20
52.7385082
40
0.2920396
50
39.6367836
51
71.019018
0
ARC
8
DEFAULT_255_1_234
10
22.983525
20
52.6834998
40
0.3761538
50
10.658731
51
39.9043955
0
ARC
8
DEFAULT_255_1_234
10
22.8287333
20
52.6498686
40
0.5345136
50
359.682601
51
11.132623
0
ARC
8
DEFAULT_255_1_234
10
22.8247464
20
52.642801
40
0.5385081
50
347.2486944
51
0.4369317
0
ARC
8
DEFAULT_255_1_234
10
22.9914941
20
52.6026807
40
0.3670249
50
318.1409698
51
347.6118597
0
ARC
8
DEFAULT_255_1_234
10
23.0239934
20
52.5759702
40
0.3250007
50
275.6342139
51
317.8248465
0
ARC
8
DEFAULT_255_1_234
10
23.0019045
20
52.7059219
40
0.4565864
50
269.8874292
51
276.7917694
0
ARC
8
DEFAULT_255_1_234
10
22.9964116
20
52.6033743
40
0.3540676
50
246.9140195
51
270.7437342
0
ARC
8
DEFAULT_255_1_234
10
22.9970506
20
52.5891384
40
0.3412781
50
218.1665114
51
245.878116
0
ARC
8
DEFAULT_255_1_234
10
23.0849967
20
52.6627279
40
0.455911
50
191.4115814
51
218.6077802
0
ARC
8
DEFAULT_255_1_234
10
23.2788056
20
52.7061833
40
0.6545001
50
179.6345085
51
191.7836486
0
ARC
8
DEFAULT_255_1_234
10
23.8370393
20
52.7740697
40
1.2127388
50
171.4525249
51
180.3158839
0
ARC
8
DEFAULT_255_1_234
10
23.3975269
20
52.8424608
40
0.7679464
50
157.9802646
51
171.6246686
0
ARC
8
DEFAULT_255_1_234
10
23.176129
20
52.9307421
40
0.5296008
50
141.4298019
51
157.854097
0
ARC
8
DEFAULT_255_1_234
10
23.111961
20
52.9761381
40
0.4511509
50
102.8715806
51
140.8564722
0
ARC
8
DEFAULT_255_1_234
10
23.1767226
20
52.7321552
40
0.7034845
50
90.3778349
51
103.5869322
0
ARC
8
DEFAULT_255_1_234
10
23.0029002
20
52.671673
40
0.2370698
50
89.8751008
51
126.2071704
0
ARC
8
DEFAULT_255_1_234
10
23.0074792
20
52.6562303
40
0.2522934
50
124.9745049
51
144.895901
0
ARC
8
DEFAULT_255_1_234
10
22.9898982
20
52.670556
40
0.2296779
50
145.2974905
51
160.2660252
0
ARC
8
DEFAULT_255_1_234
10
23.2971521
20
52.6903071
40
0.5234525
50
179.6514266
51
190.2855912
0
ARC
8
DEFAULT_255_1_234
10
23.1277658
20
52.6583786
40
0.3510893
50
190.0945431
51
207.5098196
0
ARC
8
DEFAULT_255_1_234
10
23.0711928
20
52.6314623
40
0.288489
50
207.9583163
51
216.3251085
0
ARC
8
DEFAULT_255_1_234
10
23.0372036
20
52.6035105
40
0.2445587
50
215.7661442
51
232.5456785
0
ARC
8
DEFAULT_255_1_234
10
22.9989019
20
52.5548482
40
0.1826382
50
232.8005391
51
270.6605633
0
ARC
8
DEFAULT_255_1_234
10
23.003472
20
52.5912612
40
0.2190529
50
269.35537
51
288.4744281
0
ARC
8
DEFAULT_255_1_234
10
23.0127617
20
52.5563118
40
0.1829749
50
289.1833337
51
322.9683818
0
ARC
8
DEFAULT_255_1_234
10
22.9516139
20
52.6045391
40
0.2608399
50
322.6007884
51
346.5182367
0
ARC
8
DEFAULT_255_1_234
10
22.8358735
20
52.6340616
40
0.3802777
50
346.2582162
51
358.7741648
0
ARC
8
DEFAULT_255_1_234
10
22.7340404
20
52.6395965
40
0.4822176
50
358.3755224
51
0.0098023
0
ARC
8
DEFAULT_255_1_234
10
22.8096591
20
52.6423657
40
0.4066078
50
359.6214041
51
11.2839074
0
ARC
8
DEFAULT_255_1_234
10
22.9373738
20
52.6690066
40
0.2761514
50
11.0482309
51
31.8146458
0
ARC
8
DEFAULT_255_1_234
10
22.9682781
20
52.6857584
40
0.2410679
50
32.3035391
51
38.082671
0
ARC
8
DEFAULT_255_1_234
10
23.0103441
20
52.7238662
40
0.1844966
50
36.825067
51
85.7415724
0
ARC
8
DEFAULT_255_1_234
10
23.0036274
20
52.6738301
40
0.2349122
50
85.0140713
51
90.0513278
0
LINE
8
DEFAULT_255_1_234
10
23.7326988
20
53.4348211
11
23.7326988
21
52.3914983
0
LINE
8
DEFAULT_255_1_234
10
23.7326988
20
52.3914983
11
24.2868888
21
52.3914983
0
LINE
8
DEFAULT_255_1_234
10
24.2868888
20
52.3914983
11
24.2868888
21
52.2654
0
LINE
8
DEFAULT_255_1_234
10
24.2868888
20
52.2654
11
23.5776863
21
52.2654
0
LINE
8
DEFAULT_255_1_234
10
23.5776863
20
52.2654
11
23.5776863
21
53.4348211
0
LINE
8
DEFAULT_255_1_234
10
23.5776863
20
53.4348211
11
23.7326988
21
53.4348211
0
LINE
8
DEFAULT_255_1_234
10
23.7947378
20
60.7386169
11
23.7947378
21
60.8598962
0
LINE
8
DEFAULT_255_1_234
10
23.7947378
20
60.8598962
11
23.906379
21
60.8598962
0
LINE
8
DEFAULT_255_1_234
10
23.7160268
20
61.0655087
11
23.5674396
21
61.0655087
0
LINE
8
DEFAULT_255_1_234
10
23.5569983
20
60.5113188
11
23.7063887
21
60.5113188
0
LINE
8
DEFAULT_255_1_234
10
23.906379
20
60.7386169
11
23.7947378
21
60.7386169
0
ARC
8
DEFAULT_255_1_234
10
23.9034656
20
61.1991713
40
0.3392876
50
270.4919872
51
281.8951556
0
ARC
8
DEFAULT_255_1_234
10
23.9275918
20
61.0889702
40
0.2264817
50
281.6691735
51
301.2943132
0
ARC
8
DEFAULT_255_1_234
10
23.9446128
20
61.0578304
40
0.1910381
50
301.7833094
51
311.7545298
0
ARC
8
DEFAULT_255_1_234
10
23.9537704
20
61.0476748
40
0.1773635
50
311.7323931
51
354.2802411
0
ARC
8
DEFAULT_255_1_234
10
23.8811329
20
61.0601722
40
0.2509385
50
353.0937916
51
0.1181479
0
ARC
8
DEFAULT_255_1_234
10
23.8350114
20
61.0649386
40
0.2970898
50
359.1805295
51
15.0453146
0
ARC
8
DEFAULT_255_1_234
10
23.9695951
20
61.1041992
40
0.1569564
50
13.9577229
51
77.6713066
0
ARC
8
DEFAULT_255_1_234
10
23.930948
20
60.9656949
40
0.3006298
50
76.1116566
51
90.7026153
0
ARC
8
DEFAULT_255_1_234
10
23.9250318
20
60.9930545
40
0.2732568
50
89.5324876
51
103.531937
0
ARC
8
DEFAULT_255_1_234
10
23.9049762
20
61.0729884
40
0.1908508
50
103.2931773
51
133.5619022
0
ARC
8
DEFAULT_255_1_234
10
23.9005251
20
61.0789375
40
0.1834746
50
133.8349307
51
173.5344437
0
ARC
8
DEFAULT_255_1_234
10
23.9728294
20
61.0661213
40
0.2568033
50
172.5096846
51
180.1366907
0
ARC
8
DEFAULT_255_1_234
10
23.8777188
20
61.0695622
40
0.3103056
50
155.3484492
51
180.7484736
0
ARC
8
DEFAULT_255_1_234
10
23.8728277
20
61.0666846
40
0.3070957
50
131.5744599
51
154.4798489
0
ARC
8
DEFAULT_255_1_234
10
23.9041424
20
61.035031
40
0.3515643
50
96.9875458
51
131.9690667
0
ARC
8
DEFAULT_255_1_234
10
23.9260904
20
60.9104636
40
0.4779224
50
89.8596053
51
97.7825159
0
ARC
8
DEFAULT_255_1_234
10
23.9308967
20
60.8842616
40
0.5041361
50
78.3655447
51
90.4131539
0
ARC
8
DEFAULT_255_1_234
10
23.9666885
20
61.0501887
40
0.3344039
50
56.6229102
51
78.638727
0
ARC
8
DEFAULT_255_1_234
10
23.9881829
20
61.0877805
40
0.2912001
50
47.0253525
51
56.0854072
0
ARC
8
DEFAULT_255_1_234
10
23.9901609
20
61.0917223
40
0.2869704
50
10.9208013
51
46.7778124
0
ARC
8
DEFAULT_255_1_234
10
23.8537675
20
61.0601857
40
0.426899
50
359.6364486
51
11.6087304
0
ARC
8
DEFAULT_255_1_234
10
24.0372519
20
61.0586752
40
0.243409
50
332.3549906
51
359.7179418
0
ARC
8
DEFAULT_255_1_234
10
23.9722121
20
61.0895142
40
0.3153459
50
325.2333722
51
332.8745602
0
ARC
8
DEFAULT_255_1_234
10
23.9874744
20
61.0788828
40
0.2967456
50
292.9802137
51
325.2392345
0
ARC
8
DEFAULT_255_1_234
10
23.9600118
20
61.1322863
40
0.3566604
50
292.5402179
51
293.6924929
0
ARC
8
DEFAULT_255_1_234
10
23.9992714
20
60.4868091
40
0.3307468
50
57.6435486
51
72.8625112
0
ARC
8
DEFAULT_255_1_234
10
24.0347214
20
60.5442549
40
0.2632492
50
36.7248896
51
57.4697979
0
ARC
8
DEFAULT_255_1_234
10
24.0335847
20
60.545522
40
0.2634081
50
8.0545065
51
36.356114
0
ARC
8
DEFAULT_255_1_234
10
23.9473032
20
60.5300174
40
0.3510261
50
359.8320645
51
8.5869982
0
ARC
8
DEFAULT_255_1_234
10
23.9097808
20
60.5252101
40
0.3885653
50
343.9829931
51
0.5571613
0
ARC
8
DEFAULT_255_1_234
10
23.9984005
20
60.5009438
40
0.2966924
50
311.6359546
51
343.7651759
0
ARC
8
DEFAULT_255_1_234
10
23.9605574
20
60.5436102
40
0.3537231
50
279.7829875
51
311.6255694
0
ARC
8
DEFAULT_255_1_234
10
23.9304351
20
60.687328
40
0.5004971
50
269.7286406
51
280.3856417
0
ARC
8
DEFAULT_255_1_234
10
23.9242423
20
60.6831996
40
0.4963778
50
256.6828919
51
270.4412052
0
ARC
8
DEFAULT_255_1_234
10
23.8903719
20
60.5447394
40
0.3538406
50
229.4223008
51
256.8556159
0
ARC
8
DEFAULT_255_1_234
10
23.8489112
20
60.4980736
40
0.2914296
50
181.818294
51
229.6455059
0
ARC
8
DEFAULT_255_1_234
10
23.9529068
20
60.5111496
40
0.3959084
50
179.9755256
51
183.2323064
0
ARC
8
DEFAULT_255_1_234
10
23.9356814
20
60.5091037
40
0.2293034
50
179.4465117
51
196.2869258
0
ARC
8
DEFAULT_255_1_234
10
23.8869222
20
60.4957651
40
0.1787621
50
196.5661473
51
227.705904
0
ARC
8
DEFAULT_255_1_234
10
23.9033317
20
60.5141155
40
0.2033784
50
227.7652068
51
257.8762805
0
ARC
8
DEFAULT_255_1_234
10
23.9258287
20
60.6084156
40
0.3003081
50
257.4584385
51
270.426602
0
ARC
8
DEFAULT_255_1_234
10
23.9303853
20
60.6373996
40
0.329292
50
269.5962073
51
280.8789248
0
ARC
8
DEFAULT_255_1_234
10
23.9533382
20
60.5227685
40
0.2123908
50
280.6346389
51
299.8595945
0
ARC
8
DEFAULT_255_1_234
10
23.9724289
20
60.4865212
40
0.171457
50
300.3576302
51
314.5517981
0
ARC
8
DEFAULT_255_1_234
10
23.9641349
20
60.4925919
40
0.1816095
50
315.0728369
51
345.0431014
0
ARC
8
DEFAULT_255_1_234
10
23.8718163
20
60.5194841
40
0.2777492
50
344.5986631
51
357.9269593
0
ARC
8
DEFAULT_255_1_234
10
23.7822489
20
60.5256276
40
0.3674917
50
357.4748886
51
0.0231117
0
ARC
8
DEFAULT_255_1_234
10
23.8845599
20
60.5280679
40
0.2651907
50
359.5047933
51
13.4239635
0
ARC
8
DEFAULT_255_1_234
10
23.9712242
20
60.5502478
40
0.1757509
50
12.9498199
51
48.7551375
0
ARC
8
DEFAULT_255_1_234
10
23.9529976
20
60.52534
40
0.2065134
50
49.5088623
51
72.1836453
0
ARC
8
DEFAULT_255_1_234
10
23.9172129
20
60.4191291
40
0.3185836
50
71.9010081
51
84.3554254
0
ARC
8
DEFAULT_255_1_234
10
23.9010761
20
60.2830326
40
0.4556151
50
84.0193428
51
89.333121
0
LINE
8
DEFAULT_255_1_234
10
24.3449119
20
68.2616792
11
24.3449119
21
68.1404
0
LINE
8
DEFAULT_255_1_234
10
24.3449119
20
68.1404
11
23.578684
21
68.1404
0
LINE
8
DEFAULT_255_1_234
10
23.578684
20
68.1404
11
23.578684
21
68.2472221
0
LINE
8
DEFAULT_255_1_234
10
23.578684
20
68.2472221
11
23.9834836
21
68.6969995
0
LINE
8
DEFAULT_255_1_234
10
23.7047823
20
68.9652595
11
23.5561952
21
68.9652595
0
LINE
8
DEFAULT_255_1_234
10
24.0710296
20
68.6014218
11
23.7577918
21
68.2616792
0
LINE
8
DEFAULT_255_1_234
10
23.7577918
20
68.2616792
11
24.3449119
21
68.2616792
0
ARC
8
DEFAULT_255_1_234
10
22.634467
20
69.8899527
40
1.8008286
50
318.5132453
51
320.7828378
0
ARC
8
DEFAULT_255_1_234
10
23.1631644
20
69.4596426
40
1.1191493
50
320.7372736
51
323.9737074
0
ARC
8
DEFAULT_255_1_234
10
23.5551501
20
69.1756361
40
0.6350923
50
323.8961724
51
328.6421089
0
ARC
8
DEFAULT_255_1_234
10
23.7598096
20
69.0494031
40
0.3946393
50
328.8299013
51
331.789948
0
ARC
8
DEFAULT_255_1_234
10
23.8595274
20
68.9979509
40
0.2824501
50
331.4255242
51
352.9364833
0
ARC
8
DEFAULT_255_1_234
10
23.8731775
20
68.9948976
40
0.2685315
50
353.2248685
51
0.0169286
0
ARC
8
DEFAULT_255_1_234
10
23.8941652
20
68.997195
40
0.2475536
50
359.4866256
51
15.9339782
0
ARC
8
DEFAULT_255_1_234
10
23.9448637
20
69.0108286
40
0.1950618
50
16.1714718
51
43.5284424
0
ARC
8
DEFAULT_255_1_234
10
23.9525946
20
69.0185573
40
0.184134
50
43.4415429
51
83.1661404
0
ARC
8
DEFAULT_255_1_234
10
23.9391864
20
68.9448771
40
0.258926
50
82.160215
51
90.1505798
0
ARC
8
DEFAULT_255_1_234
10
23.9360291
20
68.8911865
40
0.3126255
50
89.5460705
51
102.5418777
0
ARC
8
DEFAULT_255_1_234
10
23.9117377
20
68.9942665
40
0.2067346
50
102.1739365
51
129.2061916
0
ARC
8
DEFAULT_255_1_234
10
23.9038449
20
69.0067094
40
0.1921118
50
129.7279328
51
135.7542026
0
ARC
8
DEFAULT_255_1_234
10
23.9159977
20
68.9970045
40
0.2075944
50
136.175737
51
166.3674722
0
ARC
8
DEFAULT_255_1_234
10
24.0166896
20
68.9700182
40
0.3118201
50
165.9092917
51
178.8683903
0
ARC
8
DEFAULT_255_1_234
10
24.1031757
20
68.9653179
40
0.3983935
50
178.438168
51
180.0083905
0
ARC
8
DEFAULT_255_1_234
10
23.9630359
20
68.9692231
40
0.4068601
50
163.2878735
51
180.5581814
0
ARC
8
DEFAULT_255_1_234
10
23.8828621
20
68.991284
40
0.3237344
50
133.454115
51
162.9470031
0
ARC
8
DEFAULT_255_1_234
10
23.9007162
20
68.9723
40
0.349795
50
100.7869394
51
133.4384016
0
ARC
8
DEFAULT_255_1_234
10
23.9354934
20
68.8174319
40
0.5084616
50
89.6605301
51
101.3704185
0
ARC
8
DEFAULT_255_1_234
10
23.9421273
20
68.8235496
40
0.502348
50
78.2171172
51
90.4130393
0
ARC
8
DEFAULT_255_1_234
10
23.9776351
20
68.9859637
40
0.3361092
50
55.9268222
51
78.4888551
0
ARC
8
DEFAULT_255_1_234
10
23.9972791
20
69.0198324
40
0.2970617
50
47.9292255
51
55.4054003
0
ARC
8
DEFAULT_255_1_234
10
24.0074352
20
69.0301502
40
0.2825983
50
4.3347696
51
48.0560701
0
ARC
8
DEFAULT_255_1_234
10
23.8978745
20
69.0131601
40
0.393225
50
359.925209
51
5.5967654
0
ARC
8
DEFAULT_255_1_234
10
23.9407637
20
69.0187816
40
0.3503892
50
337.8914096
51
358.9967724
0
ARC
8
DEFAULT_255_1_234
10
23.6694049
20
69.1234706
40
0.6412172
50
326.9135351
51
338.3505194
0
ARC
8
DEFAULT_255_1_234
10
23.2708353
20
69.3789284
40
1.1146189
50
319.6472867
51
327.095818
0
ARC
8
DEFAULT_255_1_234
10
22.8875356
20
69.6951
40
1.6114559
50
317.2586784
51
319.9046139
0
LINE
8
DEFAULT_255_1_234
10
22.8026235
20
76.6336963
11
22.6837538
21
76.6642169
0
LINE
8
DEFAULT_255_1_234
10
22.6837538
20
76.6642169
11
22.7431887
21
77.2473211
0
LINE
8
DEFAULT_255_1_234
10
22.7431887
20
77.2473211
11
23.3423563
21
77.2473211
0
LINE
8
DEFAULT_255_1_234
10
23.3423563
20
77.2473211
11
23.3423563
21
77.1099784
0
LINE
8
DEFAULT_255_1_234
10
23.3423563
20
77.1099784
11
22.869287
21
77.1099784
0
LINE
8
DEFAULT_255_1_234
10
22.869287
20
77.1099784
11
22.8339473
21
76.7911184
0
LINE
8
DEFAULT_255_1_234
10
22.6419888
20
76.3855156
11
22.7825442
21
76.3855156
0
LINE
8
DEFAULT_255_1_234
10
22.8419791
20
76.6658232
11
22.8026235
21
76.6336963
0
ARC
8
DEFAULT_255_1_234
10
23.0194257
20
76.473123
40
0.3681349
50
93.7182161
51
120.2538958
0
ARC
8
DEFAULT_255_1_234
10
23.028852
20
76.3923394
40
0.449379
50
89.9660152
51
94.2496022
0
ARC
8
DEFAULT_255_1_234
10
23.0329254
20
76.4512549
40
0.390482
50
73.8043271
51
90.5585896
0
ARC
8
DEFAULT_255_1_234
10
23.0564151
20
76.5370602
40
0.3015334
50
41.3071453
51
73.5430202
0
ARC
8
DEFAULT_255_1_234
10
23.0147978
20
76.5012324
40
0.3564457
50
13.5075983
51
41.2174222
0
ARC
8
DEFAULT_255_1_234
10
22.8506182
20
76.4582486
40
0.5261351
50
1.1331335
51
13.8829381
0
ARC
8
DEFAULT_255_1_234
10
22.7094551
20
76.4506665
40
0.6674378
50
359.9919444
51
1.544251
0
ARC
8
DEFAULT_255_1_234
10
22.8371377
20
76.446528
40
0.5397702
50
347.8572367
51
0.4293338
0
ARC
8
DEFAULT_255_1_234
10
23.0121695
20
76.4068736
40
0.3603188
50
323.673004
51
348.1672506
0
ARC
8
DEFAULT_255_1_234
10
23.0416203
20
76.3889168
40
0.3259678
50
316.8171152
51
323.1492751
0
ARC
8
DEFAULT_255_1_234
10
23.0477392
20
76.385246
40
0.3189975
50
281.8396411
51
316.5457803
0
ARC
8
DEFAULT_255_1_234
10
23.0101656
20
76.5407762
40
0.4789527
50
269.5770101
51
282.4214771
0
ARC
8
DEFAULT_255_1_234
10
23.0030467
20
76.5194125
40
0.45759
50
256.2427136
51
270.4486331
0
ARC
8
DEFAULT_255_1_234
10
22.973137
20
76.3994229
40
0.3339303
50
228.9023911
51
256.3314342
0
ARC
8
DEFAULT_255_1_234
10
22.9657602
20
76.3877746
40
0.32031
50
193.753695
51
228.5271154
0
ARC
8
DEFAULT_255_1_234
10
23.0895556
20
76.42408
40
0.4492253
50
184.924711
51
194.497588
0
ARC
8
DEFAULT_255_1_234
10
23.1088123
20
76.4276591
40
0.3289787
50
187.3600538
51
198.6732863
0
ARC
8
DEFAULT_255_1_234
10
23.0038417
20
76.3912674
40
0.217884
50
198.4451669
51
217.794479
0
ARC
8
DEFAULT_255_1_234
10
22.9742592
20
76.3703085
40
0.1816698
50
218.2887171
51
228.5612368
0
ARC
8
DEFAULT_255_1_234
10
22.9840379
20
76.3834963
40
0.1980329
50
228.9654866
51
258.1234728
0
ARC
8
DEFAULT_255_1_234
10
23.0046089
20
76.4715833
40
0.2884748
50
257.7258293
51
270.401361
0
ARC
8
DEFAULT_255_1_234
10
23.0090975
20
76.4270821
40
0.2439788
50
269.4204404
51
286.4209037
0
ARC
8
DEFAULT_255_1_234
10
23.0239463
20
76.3731657
40
0.1880666
50
286.7251356
51
320.600362
0
ARC
8
DEFAULT_255_1_234
10
22.9856288
20
76.4042595
40
0.2374121
50
320.6712579
51
344.5441685
0
ARC
8
DEFAULT_255_1_234
10
22.8699614
20
76.4382045
40
0.3579479
50
344.2412205
51
356.7357071
0
ARC
8
DEFAULT_255_1_234
10
22.7450763
20
76.4485444
40
0.4832297
50
356.3548756
51
0.0500261
0
ARC
8
DEFAULT_255_1_234
10
22.8787272
20
76.451665
40
0.3495889
50
359.5576869
51
12.953486
0
ARC
8
DEFAULT_255_1_234
10
22.9842169
20
76.4772434
40
0.2410532
50
12.6490276
51
41.6081334
0
ARC
8
DEFAULT_255_1_234
10
23.007254
20
76.4968321
40
0.2108218
50
41.7850273
51
85.9892764
0
ARC
8
DEFAULT_255_1_234
10
22.9949277
20
76.4155462
40
0.2928454
50
84.6957577
51
90.0676183
0
ARC
8
DEFAULT_255_1_234
10
22.9925761
20
76.3486716
40
0.3597255
50
89.6804936
51
99.1614436
0
ARC
8
DEFAULT_255_1_234
10
22.9720392
20
76.4714131
40
0.235281
50
98.9830931
51
113.8908934
0
ARC
8
DEFAULT_255_1_234
10
22.9490802
20
76.5255587
40
0.176479
50
114.1950727
51
127.3641004
0
LINE
8
DEFAULT_255_1_234
10
23.7326988
20
77.2473211
11
23.7326988
21
76.2039983
0
LINE
8
DEFAULT_255_1_234
10
23.7326988
20
76.2039983
11
24.2868888
21
76.2039983
0
LINE
8
DEFAULT_255_1_234
10
24.2868888
20
76.2039983
11
24.2868888
21
76.0779
0
LINE
8
DEFAULT_255_1_234
10
24.2868888
20
76.0779
11
23.5776863
21
76.0779
0
LINE
8
DEFAULT_255_1_234
10
23.5776863
20
76.0779
11
23.5776863
21
77.2473211
0
LINE
8
DEFAULT_255_1_234
10
23.5776863
20
77.2473211
11
23.7326988
21
77.2473211
0
LINE
8
DEFAULT_255_1_234
10
24.0753137
20
85.1904433
11
24.0753137
21
84.0154
0
LINE
8
DEFAULT_255_1_234
10
24.0753137
20
84.0154
11
23.9259234
21
84.0154
0
LINE
8
DEFAULT_255_1_234
10
23.9259234
20
84.0154
11
23.9259234
21
85.0057133
0
LINE
8
DEFAULT_255_1_234
10
23.9259234
20
85.0057133
11
23.6263396
21
84.8956785
0
LINE
8
DEFAULT_255_1_234
10
23.6263396
20
84.8956785
11
23.6263396
21
85.0306117
0
LINE
8
DEFAULT_255_1_234
10
23.6263396
20
85.0306117
11
24.0520217
21
85.1904433
0
LINE
8
DEFAULT_255_1_234
10
24.0520217
20
85.1904433
11
24.0753137
21
85.1904433
0
LINE
8
DEFAULT_255_1_234
10
24.3119817
20
92.6444327
11
24.3119817
21
92.4516709
0
LINE
8
DEFAULT_255_1_234
10
23.573865
20
92.4315916
11
23.573865
21
92.6299755
0
LINE
8
DEFAULT_255_1_234
10
24.1633946
20
92.4115123
11
24.1633946
21
92.6548739
0
LINE
8
DEFAULT_255_1_234
10
23.7224521
20
92.6661184
11
23.7224521
21
92.4283789
0
ARC
8
DEFAULT_255_1_234
10
23.0872707
20
92.4467805
40
1.2247208
50
353.8441951
51
0.2287902
0
ARC
8
DEFAULT_255_1_234
10
23.5512211
20
92.3949806
40
0.7578929
50
344.4934747
51
353.9765454
0
ARC
8
DEFAULT_255_1_234
10
23.8504801
20
92.3098981
40
0.4467846
50
329.2803592
51
344.7472793
0
ARC
8
DEFAULT_255_1_234
10
23.9497626
20
92.2554018
40
0.3336173
50
324.9352394
51
328.6160465
0
ARC
8
DEFAULT_255_1_234
10
23.9874734
20
92.2290427
40
0.2876076
50
280.580143
51
324.9173126
0
ARC
8
DEFAULT_255_1_234
10
23.9473527
20
92.3961099
40
0.4592847
50
269.5977311
51
281.6734359
0
ARC
8
DEFAULT_255_1_234
10
23.9401433
20
92.3841173
40
0.4472986
50
256.6228859
51
270.51044
0
ARC
8
DEFAULT_255_1_234
10
23.899941
20
92.2292877
40
0.2873874
50
215.8618325
51
257.2788573
0
ARC
8
DEFAULT_255_1_234
10
24.0020442
20
92.2977977
40
0.4102928
50
197.9693508
51
215.2623606
0
ARC
8
DEFAULT_255_1_234
10
24.2505558
20
92.3816709
40
0.6725652
50
187.8816417
51
198.2346507
0
ARC
8
DEFAULT_255_1_234
10
24.6463766
20
92.4388079
40
1.0724845
50
180.8976217
51
188.0055519
0
ARC
8
DEFAULT_255_1_234
10
24.9263954
20
92.4491777
40
1.3526448
50
180.7449369
51
181.1510016
0
ARC
8
DEFAULT_255_1_234
10
24.7686683
20
92.6348042
40
1.1948131
50
173.7675579
51
180.231553
0
ARC
8
DEFAULT_255_1_234
10
24.316883
20
92.6858666
40
0.7401564
50
164.3058563
51
173.9002247
0
ARC
8
DEFAULT_255_1_234
10
24.0256899
20
92.7697656
40
0.4371288
50
148.7922025
51
164.568378
0
ARC
8
DEFAULT_255_1_234
10
23.9305351
20
92.8228929
40
0.3282386
50
144.5883898
51
148.1176286
0
ARC
8
DEFAULT_255_1_234
10
23.8962249
20
92.8468315
40
0.2864044
50
101.6440918
51
144.514236
0
ARC
8
DEFAULT_255_1_234
10
23.9387315
20
92.6779069
40
0.4604934
50
89.5284041
51
102.5819763
0
ARC
8
DEFAULT_255_1_234
10
23.9466403
20
92.6740018
40
0.464401
50
77.0437873
51
90.5081339
0
ARC
8
DEFAULT_255_1_234
10
23.9868405
20
92.8382615
40
0.2953195
50
48.2778575
51
77.4994676
0
ARC
8
DEFAULT_255_1_234
10
23.9941036
20
92.8511746
40
0.2808655
50
36.3142134
51
47.6305865
0
ARC
8
DEFAULT_255_1_234
10
23.9072343
20
92.7926515
40
0.3855453
50
18.2931786
51
35.6769206
0
ARC
8
DEFAULT_255_1_234
10
23.6529102
20
92.7053593
40
0.654423
50
8.024666
51
18.5605216
0
ARC
8
DEFAULT_255_1_234
10
23.2366022
20
92.6438792
40
1.0752407
50
1.1274072
51
8.1718305
0
ARC
8
DEFAULT_255_1_234
10
22.9130213
20
92.6311885
40
1.3990231
50
0.5424119
51
1.3863029
0
ARC
8
DEFAULT_255_1_234
10
23.095159
20
92.6584342
40
1.0682415
50
359.8090433
51
4.9407866
0
ARC
8
DEFAULT_255_1_234
10
23.5161604
20
92.6960113
40
0.6455691
50
4.8362157
51
12.2904523
0
ARC
8
DEFAULT_255_1_234
10
23.7916719
20
92.7573965
40
0.3633074
50
12.0805627
51
23.8173984
0
ARC
8
DEFAULT_255_1_234
10
23.9090425
20
92.8070919
40
0.2358723
50
24.2871213
51
31.3935614
0
ARC
8
DEFAULT_255_1_234
10
23.9615122
20
92.8414233
40
0.1732111
50
30.7407893
51
82.4657128
0
ARC
8
DEFAULT_255_1_234
10
23.9435256
20
92.7530691
40
0.263235
50
81.1060089
51
90.2184952
0
ARC
8
DEFAULT_255_1_234
10
23.9399555
20
92.7788924
40
0.2374236
50
89.3806855
51
105.6762551
0
ARC
8
DEFAULT_255_1_234
10
23.9216186
20
92.8455567
40
0.1682847
50
105.7981136
51
149.7388061
0
ARC
8
DEFAULT_255_1_234
10
24.0280264
20
92.781595
40
0.2924306
50
149.4208916
51
163.6286378
0
ARC
8
DEFAULT_255_1_234
10
24.2371152
20
92.717825
40
0.5110213
50
163.3763315
51
172.1410975
0
ARC
8
DEFAULT_255_1_234
10
24.5671871
20
92.6705518
40
0.8444586
50
172.0259487
51
178.0703232
0
ARC
8
DEFAULT_255_1_234
10
24.870196
20
92.6561906
40
1.1477868
50
177.8631668
51
179.5044149
0
ARC
8
DEFAULT_255_1_234
10
24.7629365
20
92.4247389
40
1.0404907
50
179.7995573
51
185.2460446
0
ARC
8
DEFAULT_255_1_234
10
24.3586404
20
92.3864513
40
0.6343885
50
185.1411642
51
193.0079639
0
ARC
8
DEFAULT_255_1_234
10
24.0942877
20
92.3239641
40
0.3627568
50
192.7897626
51
205.2507664
0
ARC
8
DEFAULT_255_1_234
10
23.9896424
20
92.2772415
40
0.2481908
50
205.8005384
51
211.2537509
0
ARC
8
DEFAULT_255_1_234
10
23.9372864
20
92.242158
40
0.1852521
50
210.3789793
51
238.4008143
0
ARC
8
DEFAULT_255_1_234
10
23.9353386
20
92.2468376
40
0.1882621
50
239.6520629
51
265.9793761
0
ARC
8
DEFAULT_255_1_234
10
23.9438586
20
92.3140427
40
0.2559272
50
265.1315437
51
270.060332
0
ARC
8
DEFAULT_255_1_234
10
23.9467365
20
92.2816534
40
0.2235528
50
269.3314664
51
287.2178029
0
ARC
8
DEFAULT_255_1_234
10
23.9605217
20
92.2313279
40
0.1714108
50
287.7958004
51
329.080874
0
ARC
8
DEFAULT_255_1_234
10
23.8647674
20
92.291093
40
0.2842745
50
328.6634704
51
343.3325132
0
ARC
8
DEFAULT_255_1_234
10
23.6474694
20
92.3587863
40
0.5118644
50
343.0499468
51
351.9393422
0
ARC
8
DEFAULT_255_1_234
10
23.3007994
20
92.4098949
40
0.8622784
50
351.8069023
51
357.7959224
0
ARC
8
DEFAULT_255_1_234
10
22.977255
20
92.4266721
40
1.1862365
50
357.5871873
51
359.2677531
0
LINE
8
DEFAULT_255_1_234
10
23.1369628
20
101.0598211
11
23.1369628
21
100.283152
0
LINE
8
DEFAULT_255_1_234
10
23.1369628
20
100.283152
11
23.2992039
21
100.283152
0
LINE
8
DEFAULT_255_1_234
10
23.2992039
20
100.283152
11
23.2992039
21
100.1618728
0
LINE
8
DEFAULT_255_1_234
10
23.2992039
20
100.1618728
11
23.1369628
21
100.1618728
0
LINE
8
DEFAULT_255_1_234
10
23.1369628
20
100.1618728
11
23.1369628
21
99.8904
0
LINE
8
DEFAULT_255_1_234
10
23.1369628
20
99.8904
11
22.9875725
21
99.8904
0
LINE
8
DEFAULT_255_1_234
10
22.9875725
20
99.8904
11
22.9875725
21
100.1618728
0
LINE
8
DEFAULT_255_1_234
10
22.9875725
20
100.1618728
11
22.4550682
21
100.1618728
0
LINE
8
DEFAULT_255_1_234
10
22.4550682
20
100.1618728
11
22.4550682
21
100.2494187
0
LINE
8
DEFAULT_255_1_234
10
22.4550682
20
100.2494187
11
22.9787375
21
101.0598211
0
LINE
8
DEFAULT_255_1_234
10
22.9787375
20
101.0598211
11
23.1369628
21
101.0598211
0
LINE
8
DEFAULT_255_1_234
10
22.9699026
20
100.8244912
11
22.6237347
21
100.283152
0
LINE
8
DEFAULT_255_1_234
10
22.6237347
20
100.283152
11
22.9875725
21
100.283152
0
LINE
8
DEFAULT_255_1_234
10
22.9875725
20
100.283152
11
22.9875725
21
100.8566181
0
LINE
8
DEFAULT_255_1_234
10
22.9875725
20
100.8566181
11
22.9699026
21
100.8244912
0
LINE
8
DEFAULT_255_1_234
10
23.6268988
20
101.0598211
11
23.6268988
21
100.0164983
0
LINE
8
DEFAULT_255_1_234
10
23.6268988
20
100.0164983
11
24.1810888
21
100.0164983
0
LINE
8
DEFAULT_255_1_234
10
24.1810888
20
100.0164983
11
24.1810888
21
99.8904
0
LINE
8
DEFAULT_255_1_234
10
24.1810888
20
99.8904
11
23.4718863
21
99.8904
0
LINE
8
DEFAULT_255_1_234
10
23.4718863
20
99.8904
11
23.4718863
21
101.0598211
0
LINE
8
DEFAULT_255_1_234
10
23.4718863
20
101.0598211
11
23.6268988
21
101.0598211
0
LINE
8
DEFAULT_255_1_234
10
24.3336674
20
108.9973211
11
24.3336674
21
108.913791
0
LINE
8
DEFAULT_255_1_234
10
24.3336674
20
108.913791
11
23.8493536
21
107.8279
0
LINE
8
DEFAULT_255_1_234
10
23.8493536
20
107.8279
11
23.6935379
21
107.8279
0
LINE
8
DEFAULT_255_1_234
10
23.6935379
20
107.8279
11
24.1762454
21
108.8752387
0
LINE
8
DEFAULT_255_1_234
10
24.1762454
20
108.8752387
11
23.5433444
21
108.8752387
0
LINE
8
DEFAULT_255_1_234
10
23.5433444
20
108.8752387
11
23.5433444
21
108.9973211
0
LINE
8
DEFAULT_255_1_234
10
23.5433444
20
108.9973211
11
24.3336674
21
108.9973211
0
LINE
8
DEFAULT_255_1_234
10
24.1352835
20
116.9356243
11
24.1617882
21
116.9356243
0
LINE
8
DEFAULT_255_1_234
10
24.1617882
20
116.9356243
11
24.1617882
21
116.809526
0
LINE
8
DEFAULT_255_1_234
10
24.1617882
20
116.809526
11
24.1344803
21
116.809526
0
LINE
8
DEFAULT_255_1_234
10
23.5875189
20
116.2103583
11
23.5875189
21
116.2673836
0
LINE
8
DEFAULT_255_1_234
10
23.7369093
20
116.2481075
11
23.7369093
21
116.1934917
0
ARC
8
DEFAULT_255_1_234
10
24.1397151
20
116.3097455
40
0.4998079
50
90.6001036
51
104.514704
0
ARC
8
DEFAULT_255_1_234
10
24.1008667
20
116.4542131
40
0.3502176
50
104.2855254
51
133.862935
0
ARC
8
DEFAULT_255_1_234
10
24.1172424
20
116.443383
40
0.3693984
50
134.5302688
51
161.6210873
0
ARC
8
DEFAULT_255_1_234
10
24.2825613
20
116.3850895
40
0.5446739
50
161.2849839
51
174.2076652
0
ARC
8
DEFAULT_255_1_234
10
24.423255
20
116.3656787
40
0.6866274
50
173.7810589
51
174.9254635
0
ARC
8
DEFAULT_255_1_234
10
23.9682382
20
116.2273839
40
0.3033419
50
95.8330959
51
138.9954921
0
ARC
8
DEFAULT_255_1_234
10
23.9905738
20
116.0995375
40
0.4328947
50
89.8753725
51
97.0544009
0
ARC
8
DEFAULT_255_1_234
10
23.9953204
20
116.1830748
40
0.3493769
50
71.6407809
51
90.6240094
0
ARC
8
DEFAULT_255_1_234
10
24.0103777
20
116.2385082
40
0.2920396
50
39.6367836
51
71.019018
0
ARC
8
DEFAULT_255_1_234
10
23.946725
20
116.1834998
40
0.3761538
50
10.658731
51
39.9043955
0
ARC
8
DEFAULT_255_1_234
10
23.7919333
20
116.1498686
40
0.5345136
50
359.682601
51
11.132623
0
ARC
8
DEFAULT_255_1_234
10
23.7879464
20
116.142801
40
0.5385081
50
347.2486944
51
0.4369317
0
ARC
8
DEFAULT_255_1_234
10
23.9546941
20
116.1026807
40
0.3670249
50
318.1409698
51
347.6118597
0
ARC
8
DEFAULT_255_1_234
10
23.9871934
20
116.0759702
40
0.3250007
50
275.6342139
51
317.8248465
0
ARC
8
DEFAULT_255_1_234
10
23.9651045
20
116.2059219
40
0.4565864
50
269.8874292
51
276.7917694
0
ARC
8
DEFAULT_255_1_234
10
23.9596116
20
116.1033743
40
0.3540676
50
246.9140195
51
270.7437342
0
ARC
8
DEFAULT_255_1_234
10
23.9602506
20
116.0891384
40
0.3412781
50
218.1665114
51
245.878116
0
ARC
8
DEFAULT_255_1_234
10
24.0481967
20
116.1627279
40
0.455911
50
191.4115814
51
218.6077802
0
ARC
8
DEFAULT_255_1_234
10
24.2420056
20
116.2061833
40
0.6545001
50
179.6345085
51
191.7836486
0
ARC
8
DEFAULT_255_1_234
10
24.8002393
20
116.2740697
40
1.2127388
50
171.4525249
51
180.3158839
0
ARC
8
DEFAULT_255_1_234
10
24.3607269
20
116.3424608
40
0.7679464
50
157.9802646
51
171.6246686
0
ARC
8
DEFAULT_255_1_234
10
24.139329
20
116.4307421
40
0.5296008
50
141.4298019
51
157.854097
0
ARC
8
DEFAULT_255_1_234
10
24.075161
20
116.4761381
40
0.4511509
50
102.8715806
51
140.8564722
0
ARC
8
DEFAULT_255_1_234
10
24.1399226
20
116.2321552
40
0.7034845
50
90.3778349
51
103.5869322
0
ARC
8
DEFAULT_255_1_234
10
23.9661002
20
116.171673
40
0.2370698
50
89.8751008
51
126.2071704
0
ARC
8
DEFAULT_255_1_234
10
23.9706792
20
116.1562303
40
0.2522934
50
124.9745049
51
144.895901
0
ARC
8
DEFAULT_255_1_234
10
23.9530982
20
116.170556
40
0.2296779
50
145.2974905
51
160.2660252
0
ARC
8
DEFAULT_255_1_234
10
24.2603521
20
116.1903071
40
0.5234525
50
179.6514266
51
190.2855912
0
ARC
8
DEFAULT_255_1_234
10
24.0909658
20
116.1583786
40
0.3510893
50
190.0945431
51
207.5098196
0
ARC
8
DEFAULT_255_1_234
10
24.0343928
20
116.1314623
40
0.288489
50
207.9583163
51
216.3251085
0
ARC
8
DEFAULT_255_1_234
10
24.0004036
20
116.1035105
40
0.2445587
50
215.7661442
51
232.5456785
0
ARC
8
DEFAULT_255_1_234
10
23.9621019
20
116.0548482
40
0.1826382
50
232.8005391
51
270.6605633
0
ARC
8
DEFAULT_255_1_234
10
23.966672
20
116.0912612
40
0.2190529
50
269.35537
51
288.4744281
0
ARC
8
DEFAULT_255_1_234
10
23.9759617
20
116.0563118
40
0.1829749
50
289.1833337
51
322.9683818
0
ARC
8
DEFAULT_255_1_234
10
23.9148139
20
116.1045391
40
0.2608399
50
322.6007884
51
346.5182367
0
ARC
8
DEFAULT_255_1_234
10
23.7990735
20
116.1340616
40
0.3802777
50
346.2582162
51
358.7741648
0
ARC
8
DEFAULT_255_1_234
10
23.6972404
20
116.1395965
40
0.4822176
50
358.3755224
51
0.0098023
0
ARC
8
DEFAULT_255_1_234
10
23.7728591
20
116.1423657
40
0.4066078
50
359.6214041
51
11.2839074
0
ARC
8
DEFAULT_255_1_234
10
23.9005738
20
116.1690066
40
0.2761514
50
11.0482309
51
31.8146458
0
ARC
8
DEFAULT_255_1_234
10
23.9314781
20
116.1857584
40
0.2410679
50
32.3035391
51
38.082671
0
ARC
8
DEFAULT_255_1_234
10
23.9735441
20
116.2238662
40
0.1844966
50
36.825067
51
85.7415724
0
ARC
8
DEFAULT_255_1_234
10
23.9668274
20
116.1738301
40
0.2349122
50
85.0140713
51
90.0513278
0
LINE
8
DEFAULT_255_1_234
10
22.8315378
20
124.2386169
11
22.8315378
21
124.3598962
0
LINE
8
DEFAULT_255_1_234
10
22.8315378
20
124.3598962
11
22.943179
21
124.3598962
0
LINE
8
DEFAULT_255_1_234
10
22.7528268
20
124.5655087
11
22.6042396
21
124.5655087
0
LINE
8
DEFAULT_255_1_234
10
22.5937983
20
124.0113188
11
22.7431887
21
124.0113188
0
LINE
8
DEFAULT_255_1_234
10
22.943179
20
124.2386169
11
22.8315378
21
124.2386169
0
ARC
8
DEFAULT_255_1_234
10
22.9402656
20
124.6991713
40
0.3392876
50
270.4919872
51
281.8951556
0
ARC
8
DEFAULT_255_1_234
10
22.9643918
20
124.5889702
40
0.2264817
50
281.6691735
51
301.2943132
0
ARC
8
DEFAULT_255_1_234
10
22.9814128
20
124.5578304
40
0.1910381
50
301.7833094
51
311.7545298
0
ARC
8
DEFAULT_255_1_234
10
22.9905704
20
124.5476748
40
0.1773635
50
311.7323931
51
354.2802411
0
ARC
8
DEFAULT_255_1_234
10
22.9179329
20
124.5601722
40
0.2509385
50
353.0937916
51
0.1181479
0
ARC
8
DEFAULT_255_1_234
10
22.8718114
20
124.5649386
40
0.2970898
50
359.1805295
51
15.0453146
0
ARC
8
DEFAULT_255_1_234
10
23.0063951
20
124.6041992
40
0.1569564
50
13.9577229
51
77.6713066
0
ARC
8
DEFAULT_255_1_234
10
22.967748
20
124.4656949
40
0.3006298
50
76.1116566
51
90.7026153
0
ARC
8
DEFAULT_255_1_234
10
22.9618318
20
124.4930545
40
0.2732568
50
89.5324876
51
103.531937
0
ARC
8
DEFAULT_255_1_234
10
22.9417762
20
124.5729884
40
0.1908508
50
103.2931773
51
133.5619022
0
ARC
8
DEFAULT_255_1_234
10
22.9373251
20
124.5789375
40
0.1834746
50
133.8349307
51
173.5344437
0
ARC
8
DEFAULT_255_1_234
10
23.0096294
20
124.5661213
40
0.2568033
50
172.5096846
51
180.1366907
0
ARC
8
DEFAULT_255_1_234
10
22.9145188
20
124.5695622
40
0.3103056
50
155.3484492
51
180.7484736
0
ARC
8
DEFAULT_255_1_234
10
22.9096277
20
124.5666846
40
0.3070957
50
131.5744599
51
154.4798489
0
ARC
8
DEFAULT_255_1_234
10
22.9409424
20
124.535031
40
0.3515643
50
96.9875458
51
131.9690667
0
ARC
8
DEFAULT_255_1_234
10
22.9628904
20
124.4104636
40
0.4779224
50
89.8596053
51
97.7825159
0
ARC
8
DEFAULT_255_1_234
10
22.9676967
20
124.3842616
40
0.5041361
50
78.3655447
51
90.4131539
0
ARC
8
DEFAULT_255_1_234
10
23.0034885
20
124.5501887
40
0.3344039
50
56.6229102
51
78.638727
0
ARC
8
DEFAULT_255_1_234
10
23.0249829
20
124.5877805
40
0.2912001
50
47.0253525
51
56.0854072
0
ARC
8
DEFAULT_255_1_234
10
23.0269609
20
124.5917223
40
0.2869704
50
10.9208013
51
46.7778124
0
ARC
8
DEFAULT_255_1_234
10
22.8905675
20
124.5601857
40
0.426899
50
359.6364486
51
11.6087304
0
ARC
8
DEFAULT_255_1_234
10
23.0740519
20
124.5586752
40
0.243409
50
332.3549906
51
359.7179418
0
ARC
8
DEFAULT_255_1_234
10
23.0090121
20
124.5895142
40
0.3153459
50
325.2333722
51
332.8745602
0
ARC
8
DEFAULT_255_1_234
10
23.0242744
20
124.5788828
40
0.2967456
50
292.9802137
51
325.2392345
0
ARC
8
DEFAULT_255_1_234
10
22.9968118
20
124.6322863
40
0.3566604
50
292.5402179
51
293.6924929
0
ARC
8
DEFAULT_255_1_234
10
23.0360714
20
123.9868091
40
0.3307468
50
57.6435486
51
72.8625112
0
ARC
8
DEFAULT_255_1_234
10
23.0715214
20
124.0442549
40
0.2632492
50
36.7248896
51
57.4697979
0
ARC
8
DEFAULT_255_1_234
10
23.0703847
20
124.045522
40
0.2634081
50
8.0545065
51
36.356114
0
ARC
8
DEFAULT_255_1_234
10
22.9841032
20
124.0300174
40
0.3510261
50
359.8320645
51
8.5869982
0
ARC
8
DEFAULT_255_1_234
10
22.9465808
20
124.0252101
40
0.3885653
50
343.9829931
51
0.5571613
0
ARC
8
DEFAULT_255_1_234
10
23.0352005
20
124.0009438
40
0.2966924
50
311.6359546
51
343.7651759
0
ARC
8
DEFAULT_255_1_234
10
22.9973574
20
124.0436102
40
0.3537231
50
279.7829875
51
311.6255694
0
ARC
8
DEFAULT_255_1_234
10
22.9672351
20
124.187328
40
0.5004971
50
269.7286406
51
280.3856417
0
ARC
8
DEFAULT_255_1_234
10
22.9610423
20
124.1831996
40
0.4963778
50
256.6828919
51
270.4412052
0
ARC
8
DEFAULT_255_1_234
10
22.9271719
20
124.0447394
40
0.3538406
50
229.4223008
51
256.8556159
0
ARC
8
DEFAULT_255_1_234
10
22.8857112
20
123.9980736
40
0.2914296
50
181.818294
51
229.6455059
0
ARC
8
DEFAULT_255_1_234
10
22.9897068
20
124.0111496
40
0.3959084
50
179.9755256
51
183.2323064
0
ARC
8
DEFAULT_255_1_234
10
22.9724814
20
124.0091037
40
0.2293034
50
179.4465117
51
196.2869258
0
ARC
8
DEFAULT_255_1_234
10
22.9237222
20
123.9957651
40
0.1787621
50
196.5661473
51
227.705904
0
ARC
8
DEFAULT_255_1_234
10
22.9401317
20
124.0141155
40
0.2033784
50
227.7652068
51
257.8762805
0
ARC
8
DEFAULT_255_1_234
10
22.9626287
20
124.1084156
40
0.3003081
50
257.4584385
51
270.426602
0
ARC
8
DEFAULT_255_1_234
10
22.9671853
20
124.1373996
40
0.329292
50
269.5962073
51
280.8789248
0
ARC
8
DEFAULT_255_1_234
10
22.9901382
20
124.0227685
40
0.2123908
50
280.6346389
51
299.8595945
0
ARC
8
DEFAULT_255_1_234
10
23.0092289
20
123.9865212
40
0.171457
50
300.3576302
51
314.5517981
0
ARC
8
DEFAULT_255_1_234
10
23.0009349
20
123.9925919
40
0.1816095
50
315.0728369
51
345.0431014
0
ARC
8
DEFAULT_255_1_234
10
22.9086163
20
124.0194841
40
0.2777492
50
344.5986631
51
357.9269593
0
ARC
8
DEFAULT_255_1_234
10
22.8190489
20
124.0256276
40
0.3674917
50
357.4748886
51
0.0231117
0
ARC
8
DEFAULT_255_1_234
10
22.9213599
20
124.0280679
40
0.2651907
50
359.5047933
51
13.4239635
0
ARC
8
DEFAULT_255_1_234
10
23.0080242
20
124.0502478
40
0.1757509
50
12.9498199
51
48.7551375
0
ARC
8
DEFAULT_255_1_234
10
22.9897976
20
124.02534
40
0.2065134
50
49.5088623
51
72.1836453
0
ARC
8
DEFAULT_255_1_234
10
22.9540129
20
123.9191291
40
0.3185836
50
71.9010081
51
84.3554254
0
ARC
8
DEFAULT_255_1_234
10
22.9378761
20
123.7830326
40
0.4556151
50
84.0193428
51
89.333121
0
LINE
8
DEFAULT_255_1_234
10
23.7326988
20
124.8723211
11
23.7326988
21
123.8289983
0
LINE
8
DEFAULT_255_1_234
10
23.7326988
20
123.8289983
11
24.2868888
21
123.8289983
0
LINE
8
DEFAULT_255_1_234
10
24.2868888
20
123.8289983
11
24.2868888
21
123.7029
0
LINE
8
DEFAULT_255_1_234
10
24.2868888
20
123.7029
11
23.5776863
21
123.7029
0
LINE
8
DEFAULT_255_1_234
10
23.5776863
20
123.7029
11
23.5776863
21
124.8723211
0
LINE
8
DEFAULT_255_1_234
10
23.5776863
20
124.8723211
11
23.7326988
21
124.8723211
0
LINE
8
DEFAULT_255_1_234
10
23.7658235
20
132.1961963
11
23.6469538
21
132.2267169
0
LINE
8
DEFAULT_255_1_234
10
23.6469538
20
132.2267169
11
23.7063887
21
132.8098211
0
LINE
8
DEFAULT_255_1_234
10
23.7063887
20
132.8098211
11
24.3055563
21
132.8098211
0
LINE
8
DEFAULT_255_1_234
10
24.3055563
20
132.8098211
11
24.3055563
21
132.6724784
0
LINE
8
DEFAULT_255_1_234
10
24.3055563
20
132.6724784
11
23.832487
21
132.6724784
0
LINE
8
DEFAULT_255_1_234
10
23.832487
20
132.6724784
11
23.7971473
21
132.3536184
0
LINE
8
DEFAULT_255_1_234
10
23.6051888
20
131.9480156
11
23.7457442
21
131.9480156
0
LINE
8
DEFAULT_255_1_234
10
23.8051791
20
132.2283232
11
23.7658235
21
132.1961963
0
ARC
8
DEFAULT_255_1_234
10
23.9826257
20
132.035623
40
0.3681349
50
93.7182161
51
120.2538958
0
ARC
8
DEFAULT_255_1_234
10
23.992052
20
131.9548394
40
0.449379
50
89.9660152
51
94.2496022
0
ARC
8
DEFAULT_255_1_234
10
23.9961254
20
132.0137549
40
0.390482
50
73.8043271
51
90.5585896
0
ARC
8
DEFAULT_255_1_234
10
24.0196151
20
132.0995602
40
0.3015334
50
41.3071453
51
73.5430202
0
ARC
8
DEFAULT_255_1_234
10
23.9779978
20
132.0637324
40
0.3564457
50
13.5075983
51
41.2174222
0
ARC
8
DEFAULT_255_1_234
10
23.8138182
20
132.0207486
40
0.5261351
50
1.1331335
51
13.8829381
0
ARC
8
DEFAULT_255_1_234
10
23.6726551
20
132.0131665
40
0.6674378
50
359.9919444
51
1.544251
0
ARC
8
DEFAULT_255_1_234
10
23.8003377
20
132.009028
40
0.5397702
50
347.8572367
51
0.4293338
0
ARC
8
DEFAULT_255_1_234
10
23.9753695
20
131.9693736
40
0.3603188
50
323.673004
51
348.1672506
0
ARC
8
DEFAULT_255_1_234
10
24.0048203
20
131.9514168
40
0.3259678
50
316.8171152
51
323.1492751
0
ARC
8
DEFAULT_255_1_234
10
24.0109392
20
131.947746
40
0.3189975
50
281.8396411
51
316.5457803
0
ARC
8
DEFAULT_255_1_234
10
23.9733656
20
132.1032762
40
0.4789527
50
269.5770101
51
282.4214771
0
ARC
8
DEFAULT_255_1_234
10
23.9662467
20
132.0819125
40
0.45759
50
256.2427136
51
270.4486331
0
ARC
8
DEFAULT_255_1_234
10
23.936337
20
131.9619229
40
0.3339303
50
228.9023911
51
256.3314342
0
ARC
8
DEFAULT_255_1_234
10
23.9289602
20
131.9502746
40
0.32031
50
193.753695
51
228.5271154
0
ARC
8
DEFAULT_255_1_234
10
24.0527556
20
131.98658
40
0.4492253
50
184.924711
51
194.497588
0
ARC
8
DEFAULT_255_1_234
10
24.0720123
20
131.9901591
40
0.3289787
50
187.3600538
51
198.6732863
0
ARC
8
DEFAULT_255_1_234
10
23.9670417
20
131.9537674
40
0.217884
50
198.4451669
51
217.794479
0
ARC
8
DEFAULT_255_1_234
10
23.9374592
20
131.9328085
40
0.1816698
50
218.2887171
51
228.5612368
0
ARC
8
DEFAULT_255_1_234
10
23.9472379
20
131.9459963
40
0.1980329
50
228.9654866
51
258.1234728
0
ARC
8
DEFAULT_255_1_234
10
23.9678089
20
132.0340833
40
0.2884748
50
257.7258293
51
270.401361
0
ARC
8
DEFAULT_255_1_234
10
23.9722975
20
131.9895821
40
0.2439788
50
269.4204404
51
286.4209037
0
ARC
8
DEFAULT_255_1_234
10
23.9871463
20
131.9356657
40
0.1880666
50
286.7251356
51
320.600362
0
ARC
8
DEFAULT_255_1_234
10
23.9488288
20
131.9667595
40
0.2374121
50
320.6712579
51
344.5441685
0
ARC
8
DEFAULT_255_1_234
10
23.8331614
20
132.0007045
40
0.3579479
50
344.2412205
51
356.7357071
0
ARC
8
DEFAULT_255_1_234
10
23.7082763
20
132.0110444
40
0.4832297
50
356.3548756
51
0.0500261
0
ARC
8
DEFAULT_255_1_234
10
23.8419272
20
132.014165
40
0.3495889
50
359.5576869
51
12.953486
0
ARC
8
DEFAULT_255_1_234
10
23.9474169
20
132.0397434
40
0.2410532
50
12.6490276
51
41.6081334
0
ARC
8
DEFAULT_255_1_234
10
23.970454
20
132.0593321
40
0.2108218
50
41.7850273
51
85.9892764
0
ARC
8
DEFAULT_255_1_234
10
23.9581277
20
131.9780462
40
0.2928454
50
84.6957577
51
90.0676183
0
ARC
8
DEFAULT_255_1_234
10
23.9557761
20
131.9111716
40
0.3597255
50
89.6804936
51
99.1614436
0
ARC
8
DEFAULT_255_1_234
10
23.9352392
20
132.0339131
40
0.235281
50
98.9830931
51
113.8908934
0
ARC
8
DEFAULT_255_1_234
10
23.9122802
20
132.0880587
40
0.176479
50
114.1950727
51
127.3641004
0
LINE
8
DEFAULT_255_1_234
10
23.9942628
20
140.7473211
11
23.9942628
21
139.970652
0
LINE
8
DEFAULT_255_1_234
10
23.9942628
20
139.970652
11
24.1565039
21
139.970652
0
LINE
8
DEFAULT_255_1_234
10
24.1565039
20
139.970652
11
24.1565039
21
139.8493728
0
LINE
8
DEFAULT_255_1_234
10
24.1565039
20
139.8493728
11
23.9942628
21
139.8493728
0
LINE
8
DEFAULT_255_1_234
10
23.9942628
20
139.8493728
11
23.9942628
21
139.5779
0
LINE
8
DEFAULT_255_1_234
10
23.9942628
20
139.5779
11
23.8448725
21
139.5779
0
LINE
8
DEFAULT_255_1_234
10
23.8448725
20
139.5779
11
23.8448725
21
139.8493728
0
LINE
8
DEFAULT_255_1_234
10
23.8448725
20
139.8493728
11
23.3123682
21
139.8493728
0
LINE
8
DEFAULT_255_1_234
10
23.3123682
20
139.8493728
11
23.3123682
21
139.9369187
0
LINE
8
DEFAULT_255_1_234
10
23.3123682
20
139.9369187
11
23.8360375
21
140.7473211
0
LINE
8
DEFAULT_255_1_234
10
23.8360375
20
140.7473211
11
23.9942628
21
140.7473211
0
LINE
8
DEFAULT_255_1_234
10
23.8272026
20
140.5119912
11
23.4810347
21
139.970652
0
LINE
8
DEFAULT_255_1_234
10
23.4810347
20
139.970652
11
23.8448725
21
139.970652
0
LINE
8
DEFAULT_255_1_234
10
23.8448725
20
139.970652
11
23.8448725
21
140.5441181
0
LINE
8
DEFAULT_255_1_234
10
23.8448725
20
140.5441181
11
23.8272026
21
140.5119912
0
LINE
8
DEFAULT_255_1_234
10
23.3817119
20
147.6366792
11
23.3817119
21
147.5154
0
LINE
8
DEFAULT_255_1_234
10
23.3817119
20
147.5154
11
22.615484
21
147.5154
0
LINE
8
DEFAULT_255_1_234
10
22.615484
20
147.5154
11
22.615484
21
147.6222221
0
LINE
8
DEFAULT_255_1_234
10
22.615484
20
147.6222221
11
23.0202836
21
148.0719995
0
LINE
8
DEFAULT_255_1_234
10
22.7415823
20
148.3402595
11
22.5929952
21
148.3402595
0
LINE
8
DEFAULT_255_1_234
10
23.1078296
20
147.9764218
11
22.7945918
21
147.6366792
0
LINE
8
DEFAULT_255_1_234
10
22.7945918
20
147.6366792
11
23.3817119
21
147.6366792
0
ARC
8
DEFAULT_255_1_234
10
21.671267
20
149.2649527
40
1.8008286
50
318.5132453
51
320.7828378
0
ARC
8
DEFAULT_255_1_234
10
22.1999644
20
148.8346426
40
1.1191493
50
320.7372736
51
323.9737074
0
ARC
8
DEFAULT_255_1_234
10
22.5919501
20
148.5506361
40
0.6350923
50
323.8961724
51
328.6421089
0
ARC
8
DEFAULT_255_1_234
10
22.7966096
20
148.4244031
40
0.3946393
50
328.8299013
51
331.789948
0
ARC
8
DEFAULT_255_1_234
10
22.8963274
20
148.3729509
40
0.2824501
50
331.4255242
51
352.9364833
0
ARC
8
DEFAULT_255_1_234
10
22.9099775
20
148.3698976
40
0.2685315
50
353.2248685
51
0.0169286
0
ARC
8
DEFAULT_255_1_234
10
22.9309652
20
148.372195
40
0.2475536
50
359.4866256
51
15.9339782
0
ARC
8
DEFAULT_255_1_234
10
22.9816637
20
148.3858286
40
0.1950618
50
16.1714718
51
43.5284424
0
ARC
8
DEFAULT_255_1_234
10
22.9893946
20
148.3935573
40
0.184134
50
43.4415429
51
83.1661404
0
ARC
8
DEFAULT_255_1_234
10
22.9759864
20
148.3198771
40
0.258926
50
82.160215
51
90.1505798
0
ARC
8
DEFAULT_255_1_234
10
22.9728291
20
148.2661865
40
0.3126255
50
89.5460705
51
102.5418777
0
ARC
8
DEFAULT_255_1_234
10
22.9485377
20
148.3692665
40
0.2067346
50
102.1739365
51
129.2061916
0
ARC
8
DEFAULT_255_1_234
10
22.9406449
20
148.3817094
40
0.1921118
50
129.7279328
51
135.7542026
0
ARC
8
DEFAULT_255_1_234
10
22.9527977
20
148.3720045
40
0.2075944
50
136.175737
51
166.3674722
0
ARC
8
DEFAULT_255_1_234
10
23.0534896
20
148.3450182
40
0.3118201
50
165.9092917
51
178.8683903
0
ARC
8
DEFAULT_255_1_234
10
23.1399757
20
148.3403179
40
0.3983935
50
178.438168
51
180.0083905
0
ARC
8
DEFAULT_255_1_234
10
22.9998359
20
148.3442231
40
0.4068601
50
163.2878735
51
180.5581814
0
ARC
8
DEFAULT_255_1_234
10
22.9196621
20
148.366284
40
0.3237344
50
133.454115
51
162.9470031
0
ARC
8
DEFAULT_255_1_234
10
22.9375162
20
148.3473
40
0.349795
50
100.7869394
51
133.4384016
0
ARC
8
DEFAULT_255_1_234
10
22.9722934
20
148.1924319
40
0.5084616
50
89.6605301
51
101.3704185
0
ARC
8
DEFAULT_255_1_234
10
22.9789273
20
148.1985496
40
0.502348
50
78.2171172
51
90.4130393
0
ARC
8
DEFAULT_255_1_234
10
23.0144351
20
148.3609637
40
0.3361092
50
55.9268222
51
78.4888551
0
ARC
8
DEFAULT_255_1_234
10
23.0340791
20
148.3948324
40
0.2970617
50
47.9292255
51
55.4054003
0
ARC
8
DEFAULT_255_1_234
10
23.0442352
20
148.4051502
40
0.2825983
50
4.3347696
51
48.0560701
0
ARC
8
DEFAULT_255_1_234
10
22.9346745
20
148.3881601
40
0.393225
50
359.925209
51
5.5967654
0
ARC
8
DEFAULT_255_1_234
10
22.9775637
20
148.3937816
40
0.3503892
50
337.8914096
51
358.9967724
0
ARC
8
DEFAULT_255_1_234
10
22.7062049
20
148.4984706
40
0.6412172
50
326.9135351
51
338.3505194
0
ARC
8
DEFAULT_255_1_234
10
22.3076353
20
148.7539284
40
1.1146189
50
319.6472867
51
327.095818
0
ARC
8
DEFAULT_255_1_234
10
21.9243356
20
149.0701
40
1.6114559
50
317.2586784
51
319.9046139
0
LINE
8
DEFAULT_255_1_234
10
23.7326988
20
148.6848211
11
23.7326988
21
147.6414983
0
LINE
8
DEFAULT_255_1_234
10
23.7326988
20
147.6414983
11
24.2868888
21
147.6414983
0
LINE
8
DEFAULT_255_1_234
10
24.2868888
20
147.6414983
11
24.2868888
21
147.5154
0
LINE
8
DEFAULT_255_1_234
10
24.2868888
20
147.5154
11
23.5776863
21
147.5154
0
LINE
8
DEFAULT_255_1_234
10
23.5776863
20
147.5154
11
23.5776863
21
148.6848211
0
LINE
8
DEFAULT_255_1_234
10
23.5776863
20
148.6848211
11
23.7326988
21
148.6848211
0
LINE
8
DEFAULT_255_1_234
10
23.7947378
20
155.9886169
11
23.7947378
21
156.1098962
0
LINE
8
DEFAULT_255_1_234
10
23.7947378
20
156.1098962
11
23.906379
21
156.1098962
0
LINE
8
DEFAULT_255_1_234
10
23.7160268
20
156.3155087
11
23.5674396
21
156.3155087
0
LINE
8
DEFAULT_255_1_234
10
23.5569983
20
155.7613188
11
23.7063887
21
155.7613188
0
LINE
8
DEFAULT_255_1_234
10
23.906379
20
155.9886169
11
23.7947378
21
155.9886169
0
ARC
8
DEFAULT_255_1_234
10
23.9034656
20
156.4491713
40
0.3392876
50
270.4919872
51
281.8951556
0
ARC
8
DEFAULT_255_1_234
10
23.9275918
20
156.3389702
40
0.2264817
50
281.6691735
51
301.2943132
0
ARC
8
DEFAULT_255_1_234
10
23.9446128
20
156.3078304
40
0.1910381
50
301.7833094
51
311.7545298
0
ARC
8
DEFAULT_255_1_234
10
23.9537704
20
156.2976748
40
0.1773635
50
311.7323931
51
354.2802411
0
ARC
8
DEFAULT_255_1_234
10
23.8811329
20
156.3101722
40
0.2509385
50
353.0937916
51
0.1181479
0
ARC
8
DEFAULT_255_1_234
10
23.8350114
20
156.3149386
40
0.2970898
50
359.1805295
51
15.0453146
0
ARC
8
DEFAULT_255_1_234
10
23.9695951
20
156.3541992
40
0.1569564
50
13.9577229
51
77.6713066
0
ARC
8
DEFAULT_255_1_234
10
23.930948
20
156.2156949
40
0.3006298
50
76.1116566
51
90.7026153
0
ARC
8
DEFAULT_255_1_234
10
23.9250318
20
156.2430545
40
0.2732568
50
89.5324876
51
103.531937
0
ARC
8
DEFAULT_255_1_234
10
23.9049762
20
156.3229884
40
0.1908508
50
103.2931773
51
133.5619022
0
ARC
8
DEFAULT_255_1_234
10
23.9005251
20
156.3289375
40
0.1834746
50
133.8349307
51
173.5344437
0
ARC
8
DEFAULT_255_1_234
10
23.9728294
20
156.3161213
40
0.2568033
50
172.5096846
51
180.1366907
0
ARC
8
DEFAULT_255_1_234
10
23.8777188
20
156.3195622
40
0.3103056
50
155.3484492
51
180.7484736
0
ARC
8
DEFAULT_255_1_234
10
23.8728277
20
156.3166846
40
0.3070957
50
131.5744599
51
154.4798489
0
ARC
8
DEFAULT_255_1_234
10
23.9041424
20
156.285031
40
0.3515643
50
96.9875458
51
131.9690667
0
ARC
8
DEFAULT_255_1_234
10
23.9260904
20
156.1604636
40
0.4779224
50
89.8596053
51
97.7825159
0
ARC
8
DEFAULT_255_1_234
10
23.9308967
20
156.1342616
40
0.5041361
50
78.3655447
51
90.4131539
0
ARC
8
DEFAULT_255_1_234
10
23.9666885
20
156.3001887
40
0.3344039
50
56.6229102
51
78.638727
0
ARC
8
DEFAULT_255_1_234
10
23.9881829
20
156.3377805
40
0.2912001
50
47.0253525
51
56.0854072
0
ARC
8
DEFAULT_255_1_234
10
23.9901609
20
156.3417223
40
0.2869704
50
10.9208013
51
46.7778124
0
ARC
8
DEFAULT_255_1_234
10
23.8537675
20
156.3101857
40
0.426899
50
359.6364486
51
11.6087304
0
ARC
8
DEFAULT_255_1_234
10
24.0372519
20
156.3086752
40
0.243409
50
332.3549906
51
359.7179418
0
ARC
8
DEFAULT_255_1_234
10
23.9722121
20
156.3395142
40
0.3153459
50
325.2333722
51
332.8745602
0
ARC
8
DEFAULT_255_1_234
10
23.9874744
20
156.3288828
40
0.2967456
50
292.9802137
51
325.2392345
0
ARC
8
DEFAULT_255_1_234
10
23.9600118
20
156.3822863
40
0.3566604
50
292.5402179
51
293.6924929
0
ARC
8
DEFAULT_255_1_234
10
23.9992714
20
155.7368091
40
0.3307468
50
57.6435486
51
72.8625112
0
ARC
8
DEFAULT_255_1_234
10
24.0347214
20
155.7942549
40
0.2632492
50
36.7248896
51
57.4697979
0
ARC
8
DEFAULT_255_1_234
10
24.0335847
20
155.795522
40
0.2634081
50
8.0545065
51
36.356114
0
ARC
8
DEFAULT_255_1_234
10
23.9473032
20
155.7800174
40
0.3510261
50
359.8320645
51
8.5869982
0
ARC
8
DEFAULT_255_1_234
10
23.9097808
20
155.7752101
40
0.3885653
50
343.9829931
51
0.5571613
0
ARC
8
DEFAULT_255_1_234
10
23.9984005
20
155.7509438
40
0.2966924
50
311.6359546
51
343.7651759
0
ARC
8
DEFAULT_255_1_234
10
23.9605574
20
155.7936102
40
0.3537231
50
279.7829875
51
311.6255694
0
ARC
8
DEFAULT_255_1_234
10
23.9304351
20
155.937328
40
0.5004971
50
269.7286406
51
280.3856417
0
ARC
8
DEFAULT_255_1_234
10
23.9242423
20
155.9331996
40
0.4963778
50
256.6828919
51
270.4412052
0
ARC
8
DEFAULT_255_1_234
10
23.8903719
20
155.7947394
40
0.3538406
50
229.4223008
51
256.8556159
0
ARC
8
DEFAULT_255_1_234
10
23.8489112
20
155.7480736
40
0.2914296
50
181.818294
51
229.6455059
0
ARC
8
DEFAULT_255_1_234
10
23.9529068
20
155.7611496
40
0.3959084
50
179.9755256
51
183.2323064
0
ARC
8
DEFAULT_255_1_234
10
23.9356814
20
155.7591037
40
0.2293034
50
179.4465117
51
196.2869258
0
ARC
8
DEFAULT_255_1_234
10
23.8869222
20
155.7457651
40
0.1787621
50
196.5661473
51
227.705904
0
ARC
8
DEFAULT_255_1_234
10
23.9033317
20
155.7641155
40
0.2033784
50
227.7652068
51
257.8762805
0
ARC
8
DEFAULT_255_1_234
10
23.9258287
20
155.8584156
40
0.3003081
50
257.4584385
51
270.426602
0
ARC
8
DEFAULT_255_1_234
10
23.9303853
20
155.8873996
40
0.329292
50
269.5962073
51
280.8789248
0
ARC
8
DEFAULT_255_1_234
10
23.9533382
20
155.7727685
40
0.2123908
50
280.6346389
51
299.8595945
0
ARC
8
DEFAULT_255_1_234
10
23.9724289
20
155.7365212
40
0.171457
50
300.3576302
51
314.5517981
0
ARC
8
DEFAULT_255_1_234
10
23.9641349
20
155.7425919
40
0.1816095
50
315.0728369
51
345.0431014
0
ARC
8
DEFAULT_255_1_234
10
23.8718163
20
155.7694841
40
0.2777492
50
344.5986631
51
357.9269593
0
ARC
8
DEFAULT_255_1_234
10
23.7822489
20
155.7756276
40
0.3674917
50
357.4748886
51
0.0231117
0
ARC
8
DEFAULT_255_1_234
10
23.8845599
20
155.7780679
40
0.2651907
50
359.5047933
51
13.4239635
0
ARC
8
DEFAULT_255_1_234
10
23.9712242
20
155.8002478
40
0.1757509
50
12.9498199
51
48.7551375
0
ARC
8
DEFAULT_255_1_234
10
23.9529976
20
155.77534
40
0.2065134
50
49.5088623
51
72.1836453
0
ARC
8
DEFAULT_255_1_234
10
23.9172129
20
155.6691291
40
0.3185836
50
71.9010081
51
84.3554254
0
ARC
8
DEFAULT_255_1_234
10
23.9010761
20
155.5330326
40
0.4556151
50
84.0193428
51
89.333121
0
LINE
8
DEFAULT_255_1_234
10
24.3449119
20
163.5116792
11
24.3449119
21
163.3904
0
LINE
8
DEFAULT_255_1_234
10
24.3449119
20
163.3904
11
23.578684
21
163.3904
0
LINE
8
DEFAULT_255_1_234
10
23.578684
20
163.3904
11
23.578684
21
163.4972221
0
LINE
8
DEFAULT_255_1_234
10
23.578684
20
163.4972221
11
23.9834836
21
163.9469995
0
LINE
8
DEFAULT_255_1_234
10
23.7047823
20
164.2152595
11
23.5561952
21
164.2152595
0
LINE
8
DEFAULT_255_1_234
10
24.0710296
20
163.8514218
11
23.7577918
21
163.5116792
0
LINE
8
DEFAULT_255_1_234
10
23.7577918
20
163.5116792
11
24.3449119
21
163.5116792
0
ARC
8
DEFAULT_255_1_234
10
22.634467
20
165.1399527
40
1.8008286
50
318.5132453
51
320.7828378
0
ARC
8
DEFAULT_255_1_234
10
23.1631644
20
164.7096426
40
1.1191493
50
320.7372736
51
323.9737074
0
ARC
8
DEFAULT_255_1_234
10
23.5551501
20
164.4256361
40
0.6350923
50
323.8961724
51
328.6421089
0
ARC
8
DEFAULT_255_1_234
10
23.7598096
20
164.2994031
40
0.3946393
50
328.8299013
51
331.789948
0
ARC
8
DEFAULT_255_1_234
10
23.8595274
20
164.2479509
40
0.2824501
50
331.4255242
51
352.9364833
0
ARC
8
DEFAULT_255_1_234
10
23.8731775
20
164.2448976
40
0.2685315
50
353.2248685
51
0.0169286
0
ARC
8
DEFAULT_255_1_234
10
23.8941652
20
164.247195
40
0.2475536
50
359.4866256
51
15.9339782
0
ARC
8
DEFAULT_255_1_234
10
23.9448637
20
164.2608286
40
0.1950618
50
16.1714718
51
43.5284424
0
ARC
8
DEFAULT_255_1_234
10
23.9525946
20
164.2685573
40
0.184134
50
43.4415429
51
83.1661404
0
ARC
8
DEFAULT_255_1_234
10
23.9391864
20
164.1948771
40
0.258926
50
82.160215
51
90.1505798
0
ARC
8
DEFAULT_255_1_234
10
23.9360291
20
164.1411865
40
0.3126255
50
89.5460705
51
102.5418777
0
ARC
8
DEFAULT_255_1_234
10
23.9117377
20
164.2442665
40
0.2067346
50
102.1739365
51
129.2061916
0
ARC
8
DEFAULT_255_1_234
10
23.9038449
20
164.2567094
40
0.1921118
50
129.7279328
51
135.7542026
0
ARC
8
DEFAULT_255_1_234
10
23.9159977
20
164.2470045
40
0.2075944
50
136.175737
51
166.3674722
0
ARC
8
DEFAULT_255_1_234
10
24.0166896
20
164.2200182
40
0.3118201
50
165.9092917
51
178.8683903
0
ARC
8
DEFAULT_255_1_234
10
24.1031757
20
164.2153179
40
0.3983935
50
178.438168
51
180.0083905
0
ARC
8
DEFAULT_255_1_234
10
23.9630359
20
164.2192231
40
0.4068601
50
163.2878735
51
180.5581814
0
ARC
8
DEFAULT_255_1_234
10
23.8828621
20
164.241284
40
0.3237344
50
133.454115
51
162.9470031
0
ARC
8
DEFAULT_255_1_234
10
23.9007162
20
164.2223
40
0.349795
50
100.7869394
51
133.4384016
0
ARC
8
DEFAULT_255_1_234
10
23.9354934
20
164.0674319
40
0.5084616
50
89.6605301
51
101.3704185
0
ARC
8
DEFAULT_255_1_234
10
23.9421273
20
164.0735496
40
0.502348
50
78.2171172
51
90.4130393
0
ARC
8
DEFAULT_255_1_234
10
23.9776351
20
164.2359637
40
0.3361092
50
55.9268222
51
78.4888551
0
ARC
8
DEFAULT_255_1_234
10
23.9972791
20
164.2698324
40
0.2970617
50
47.9292255
51
55.4054003
0
ARC
8
DEFAULT_255_1_234
10
24.0074352
20
164.2801502
40
0.2825983
50
4.3347696
51
48.0560701
0
ARC
8
DEFAULT_255_1_234
10
23.8978745
20
164.2631601
40
0.393225
50
359.925209
51
5.5967654
0
ARC
8
DEFAULT_255_1_234
10
23.9407637
20
164.2687816
40
0.3503892
50
337.8914096
51
358.9967724
0
ARC
8
DEFAULT_255_1_234
10
23.6694049
20
164.3734706
40
0.6412172
50
326.9135351
51
338.3505194
0
ARC
8
DEFAULT_255_1_234
10
23.2708353
20
164.6289284
40
1.1146189
50
319.6472867
51
327.095818
0
ARC
8
DEFAULT_255_1_234
10
22.8875356
20
164.9451
40
1.6114559
50
317.2586784
51
319.9046139
0
LINE
8
DEFAULT_255_1_234
10
23.1038137
20
172.5029433
11
23.1038137
21
171.3279
0
LINE
8
DEFAULT_255_1_234
10
23.1038137
20
171.3279
11
22.9544234
21
171.3279
0
LINE
8
DEFAULT_255_1_234
10
22.9544234
20
171.3279
11
22.9544234
21
172.3182133
0
LINE
8
DEFAULT_255_1_234
10
22.9544234
20
172.3182133
11
22.6548396
21
172.2081785
0
LINE
8
DEFAULT_255_1_234
10
22.6548396
20
172.2081785
11
22.6548396
21
172.3431117
0
LINE
8
DEFAULT_255_1_234
10
22.6548396
20
172.3431117
11
23.0805217
21
172.5029433
0
LINE
8
DEFAULT_255_1_234
10
23.0805217
20
172.5029433
11
23.1038137
21
172.5029433
0
LINE
8
DEFAULT_255_1_234
10
23.7326988
20
172.4973211
11
23.7326988
21
171.4539983
0
LINE
8
DEFAULT_255_1_234
10
23.7326988
20
171.4539983
11
24.2868888
21
171.4539983
0
LINE
8
DEFAULT_255_1_234
10
24.2868888
20
171.4539983
11
24.2868888
21
171.3279
0
LINE
8
DEFAULT_255_1_234
10
24.2868888
20
171.3279
11
23.5776863
21
171.3279
0
LINE
8
DEFAULT_255_1_234
10
23.5776863
20
171.3279
11
23.5776863
21
172.4973211
0
LINE
8
DEFAULT_255_1_234
10
23.5776863
20
172.4973211
11
23.7326988
21
172.4973211
0
LINE
8
DEFAULT_255_1_234
10
24.0753137
20
180.4404433
11
24.0753137
21
179.2654
0
LINE
8
DEFAULT_255_1_234
10
24.0753137
20
179.2654
11
23.9259234
21
179.2654
0
LINE
8
DEFAULT_255_1_234
10
23.9259234
20
179.2654
11
23.9259234
21
180.2557133
0
LINE
8
DEFAULT_255_1_234
10
23.9259234
20
180.2557133
11
23.6263396
21
180.1456785
0
LINE
8
DEFAULT_255_1_234
10
23.6263396
20
180.1456785
11
23.6263396
21
180.2806117
0
LINE
8
DEFAULT_255_1_234
10
23.6263396
20
180.2806117
11
24.0520217
21
180.4404433
0
LINE
8
DEFAULT_255_1_234
10
24.0520217
20
180.4404433
11
24.0753137
21
180.4404433
0
ENDSEC
0
EOF