0
SECTION
2
HEADER
9
$MEASUREMENT
70
1
0
ENDSEC
0
SECTION
2
TABLES
0
TABLE
2
LTYPE
0
LTYPE
72
65
70
64
2
CONTINUOUS
3
______
73
0
40
0
0
ENDTAB
0
TABLE
2
LAYER
0
LAYER
2
DEFAULT_255_1_234
70
0
62
255
6
CONTINUOUS
0
LAYER
2
DEFAULT_255_2_778
70
0
62
255
6
CONTINUOUS
0
ENDTAB
0
ENDSEC
0
SECTION
2
ENTITIES
0
LINE
8
DEFAULT_255_1_234
10
2.6732154
20
287.1374
11
2.3495364
21
287.1374
0
LINE
8
DEFAULT_255_1_234
10
2.3495364
20
287.1374
11
2.3495364
21
288.3068211
0
LINE
8
DEFAULT_255_1_234
10
2.3495364
20
288.3068211
11
2.6796408
21
288.3068211
0
LINE
8
DEFAULT_255_1_234
10
3.1952784
20
287.7614661
11
3.1952784
21
287.6867709
0
LINE
8
DEFAULT_255_1_234
10
2.6836567
20
288.1799196
11
2.5037458
21
288.1799196
0
LINE
8
DEFAULT_255_1_234
10
2.5037458
20
288.1799196
11
2.5037458
21
287.2634983
0
LINE
8
DEFAULT_255_1_234
10
2.5037458
20
287.2634983
11
2.6659869
21
287.2634983
0
LINE
8
DEFAULT_255_1_234
10
3.0426754
20
287.6899836
11
3.0426754
21
287.7582534
0
ARC
8
DEFAULT_255_1_234
10
2.6835351
20
287.7202894
40
0.5865446
50
75.4101064
51
90.3804066
0
ARC
8
DEFAULT_255_1_234
10
2.7064864
20
287.8159492
40
0.4881916
50
60.145586
51
75.1888407
0
ARC
8
DEFAULT_255_1_234
10
2.722364
20
287.8436199
40
0.4562893
50
26.5253612
51
60.1450928
0
ARC
8
DEFAULT_255_1_234
10
2.6103389
20
287.7842158
40
0.5830602
50
7.4030428
51
26.8320788
0
ARC
8
DEFAULT_255_1_234
10
2.4509146
20
287.7593804
40
0.7443669
50
0.1605367
51
7.7176192
0
ARC
8
DEFAULT_255_1_234
10
2.467305
20
287.6829434
40
0.7279835
50
348.7289388
51
0.3012466
0
ARC
8
DEFAULT_255_1_234
10
2.6329481
20
287.6500386
40
0.559104
50
333.0706509
51
348.7181832
0
ARC
8
DEFAULT_255_1_234
10
2.7296238
20
287.5975319
40
0.4491417
50
299.2531685
51
333.4571258
0
ARC
8
DEFAULT_255_1_234
10
2.6935378
20
287.6660828
40
0.5265881
50
278.107187
51
299.0339503
0
ARC
8
DEFAULT_255_1_234
10
2.6679457
20
287.8168216
40
0.679442
50
270.4443897
51
278.4511052
0
ARC
8
DEFAULT_255_1_234
10
2.6700287
20
287.7239213
40
0.4604407
50
269.4970433
51
284.0205042
0
ARC
8
DEFAULT_255_1_234
10
2.7055588
20
287.5873978
40
0.3193797
50
283.7700273
51
318.1555492
0
ARC
8
DEFAULT_255_1_234
10
2.6718346
20
287.6126367
40
0.3613588
50
318.7415601
51
343.6873628
0
ARC
8
DEFAULT_255_1_234
10
2.4914369
20
287.6689832
40
0.5503313
50
343.3325091
51
355.8548958
0
ARC
8
DEFAULT_255_1_234
10
2.2816054
20
287.6889319
40
0.7610708
50
355.4988528
51
0.0791727
0
ARC
8
DEFAULT_255_1_234
10
2.3598676
20
287.762478
40
0.6828208
50
359.6455037
51
9.8607896
0
ARC
8
DEFAULT_255_1_234
10
2.5959374
20
287.8051099
40
0.4429406
50
9.6571907
51
26.1932807
0
ARC
8
DEFAULT_255_1_234
10
2.6887363
20
287.8482118
40
0.3406537
50
26.5777228
51
40.1532208
0
ARC
8
DEFAULT_255_1_234
10
2.7143089
20
287.8681619
40
0.308246
50
40.3840491
51
80.1431104
0
ARC
8
DEFAULT_255_1_234
10
2.6816207
20
287.7232333
40
0.4566909
50
79.2152159
51
89.7445637
0
LINE
8
DEFAULT_255_1_234
10
3.5936526
20
288.3068211
11
3.5936526
21
287.1374
0
LINE
8
DEFAULT_255_1_234
10
3.5936526
20
287.1374
11
3.4394433
21
287.1374
0
LINE
8
DEFAULT_255_1_234
10
3.4394433
20
287.1374
11
3.4394433
21
288.3068211
0
LINE
8
DEFAULT_255_1_234
10
3.4394433
20
288.3068211
11
3.5936526
21
288.3068211
0
LINE
8
DEFAULT_255_1_234
10
4.7325531
20
288.3124433
11
4.7325531
21
287.1374
0
LINE
8
DEFAULT_255_1_234
10
4.7325531
20
287.1374
11
4.5831628
21
287.1374
0
LINE
8
DEFAULT_255_1_234
10
4.5831628
20
287.1374
11
4.5831628
21
288.1277133
0
LINE
8
DEFAULT_255_1_234
10
4.5831628
20
288.1277133
11
4.283579
21
288.0176785
0
LINE
8
DEFAULT_255_1_234
10
4.283579
20
288.0176785
11
4.283579
21
288.1526117
0
LINE
8
DEFAULT_255_1_234
10
4.283579
20
288.1526117
11
4.7092611
21
288.3124433
0
LINE
8
DEFAULT_255_1_234
10
4.7092611
20
288.3124433
11
4.7325531
21
288.3124433
0
LINE
8
DEFAULT_255_1_234
10
5.7244728
20
288.3076243
11
5.7509775
21
288.3076243
0
LINE
8
DEFAULT_255_1_234
10
5.7509775
20
288.3076243
11
5.7509775
21
288.181526
0
LINE
8
DEFAULT_255_1_234
10
5.7509775
20
288.181526
11
5.7236696
21
288.181526
0
LINE
8
DEFAULT_255_1_234
10
5.1767083
20
287.5823583
11
5.1767083
21
287.6393836
0
LINE
8
DEFAULT_255_1_234
10
5.3260986
20
287.6201075
11
5.3260986
21
287.5654917
0
ARC
8
DEFAULT_255_1_234
10
5.7289044
20
287.6817455
40
0.4998079
50
90.6001036
51
104.514704
0
ARC
8
DEFAULT_255_1_234
10
5.690056
20
287.8262131
40
0.3502176
50
104.2855254
51
133.862935
0
ARC
8
DEFAULT_255_1_234
10
5.7064317
20
287.815383
40
0.3693984
50
134.5302688
51
161.6210873
0
ARC
8
DEFAULT_255_1_234
10
5.8717506
20
287.7570895
40
0.5446739
50
161.2849839
51
174.2076652
0
ARC
8
DEFAULT_255_1_234
10
6.0124443
20
287.7376787
40
0.6866274
50
173.7810589
51
174.9254635
0
ARC
8
DEFAULT_255_1_234
10
5.5574275
20
287.5993839
40
0.3033419
50
95.8330959
51
138.9954921
0
ARC
8
DEFAULT_255_1_234
10
5.5797631
20
287.4715375
40
0.4328947
50
89.8753725
51
97.0544009
0
ARC
8
DEFAULT_255_1_234
10
5.5845097
20
287.5550748
40
0.3493769
50
71.6407809
51
90.6240094
0
ARC
8
DEFAULT_255_1_234
10
5.599567
20
287.6105082
40
0.2920396
50
39.6367836
51
71.019018
0
ARC
8
DEFAULT_255_1_234
10
5.5359143
20
287.5554998
40
0.3761538
50
10.658731
51
39.9043955
0
ARC
8
DEFAULT_255_1_234
10
5.3811226
20
287.5218686
40
0.5345136
50
359.682601
51
11.132623
0
ARC
8
DEFAULT_255_1_234
10
5.3771357
20
287.514801
40
0.5385081
50
347.2486944
51
0.4369317
0
ARC
8
DEFAULT_255_1_234
10
5.5438834
20
287.4746807
40
0.3670249
50
318.1409698
51
347.6118597
0
ARC
8
DEFAULT_255_1_234
10
5.5763827
20
287.4479702
40
0.3250007
50
275.6342139
51
317.8248465
0
ARC
8
DEFAULT_255_1_234
10
5.5542938
20
287.5779219
40
0.4565864
50
269.8874292
51
276.7917694
0
ARC
8
DEFAULT_255_1_234
10
5.5488009
20
287.4753743
40
0.3540676
50
246.9140195
51
270.7437342
0
ARC
8
DEFAULT_255_1_234
10
5.5494399
20
287.4611384
40
0.3412781
50
218.1665114
51
245.878116
0
ARC
8
DEFAULT_255_1_234
10
5.637386
20
287.5347279
40
0.455911
50
191.4115814
51
218.6077802
0
ARC
8
DEFAULT_255_1_234
10
5.8311949
20
287.5781833
40
0.6545001
50
179.6345085
51
191.7836486
0
ARC
8
DEFAULT_255_1_234
10
6.3894286
20
287.6460697
40
1.2127388
50
171.4525249
51
180.3158839
0
ARC
8
DEFAULT_255_1_234
10
5.9499162
20
287.7144608
40
0.7679464
50
157.9802646
51
171.6246686
0
ARC
8
DEFAULT_255_1_234
10
5.7285183
20
287.8027421
40
0.5296008
50
141.4298019
51
157.854097
0
ARC
8
DEFAULT_255_1_234
10
5.6643504
20
287.8481381
40
0.4511509
50
102.8715806
51
140.8564722
0
ARC
8
DEFAULT_255_1_234
10
5.7291119
20
287.6041552
40
0.7034845
50
90.3778349
51
103.5869322
0
ARC
8
DEFAULT_255_1_234
10
5.5552895
20
287.543673
40
0.2370698
50
89.8751008
51
126.2071704
0
ARC
8
DEFAULT_255_1_234
10
5.5598685
20
287.5282303
40
0.2522934
50
124.9745049
51
144.895901
0
ARC
8
DEFAULT_255_1_234
10
5.5422875
20
287.542556
40
0.2296779
50
145.2974905
51
160.2660252
0
ARC
8
DEFAULT_255_1_234
10
5.8495414
20
287.5623071
40
0.5234525
50
179.6514266
51
190.2855912
0
ARC
8
DEFAULT_255_1_234
10
5.6801551
20
287.5303786
40
0.3510893
50
190.0945431
51
207.5098196
0
ARC
8
DEFAULT_255_1_234
10
5.6235821
20
287.5034623
40
0.288489
50
207.9583163
51
216.3251085
0
ARC
8
DEFAULT_255_1_234
10
5.5895929
20
287.4755105
40
0.2445587
50
215.7661442
51
232.5456785
0
ARC
8
DEFAULT_255_1_234
10
5.5512912
20
287.4268482
40
0.1826382
50
232.8005391
51
270.6605633
0
ARC
8
DEFAULT_255_1_234
10
5.5558613
20
287.4632612
40
0.2190529
50
269.35537
51
288.4744281
0
ARC
8
DEFAULT_255_1_234
10
5.565151
20
287.4283118
40
0.1829749
50
289.1833337
51
322.9683818
0
ARC
8
DEFAULT_255_1_234
10
5.5040032
20
287.4765391
40
0.2608399
50
322.6007884
51
346.5182367
0
ARC
8
DEFAULT_255_1_234
10
5.3882628
20
287.5060616
40
0.3802777
50
346.2582162
51
358.7741648
0
ARC
8
DEFAULT_255_1_234
10
5.2864297
20
287.5115965
40
0.4822176
50
358.3755224
51
0.0098023
0
ARC
8
DEFAULT_255_1_234
10
5.3620484
20
287.5143657
40
0.4066078
50
359.6214041
51
11.2839074
0
ARC
8
DEFAULT_255_1_234
10
5.4897631
20
287.5410066
40
0.2761514
50
11.0482309
51
31.8146458
0
ARC
8
DEFAULT_255_1_234
10
5.5206674
20
287.5577584
40
0.2410679
50
32.3035391
51
38.082671
0
ARC
8
DEFAULT_255_1_234
10
5.5627334
20
287.5958662
40
0.1844966
50
36.825067
51
85.7415724
0
ARC
8
DEFAULT_255_1_234
10
5.5560167
20
287.5458301
40
0.2349122
50
85.0140713
51
90.0513278
0
LINE
8
DEFAULT_255_1_234
10
6.2079834
20
288.0064341
11
6.3983356
21
287.6891804
0
LINE
8
DEFAULT_255_1_234
10
6.3983356
20
287.6891804
11
6.5910974
21
288.0064341
0
LINE
8
DEFAULT_255_1_234
10
6.5910974
20
288.0064341
11
6.7645829
21
288.0064341
0
LINE
8
DEFAULT_255_1_234
10
6.7645829
20
288.0064341
11
6.4802594
21
287.5767361
0
LINE
8
DEFAULT_255_1_234
10
6.4802594
20
287.5767361
11
6.7734178
21
287.1374
0
LINE
8
DEFAULT_255_1_234
10
6.7734178
20
287.1374
11
6.6015386
21
287.1374
0
LINE
8
DEFAULT_255_1_234
10
6.6015386
20
287.1374
11
6.4007452
21
287.4626854
0
LINE
8
DEFAULT_255_1_234
10
6.4007452
20
287.4626854
11
6.1999517
21
287.1374
0
LINE
8
DEFAULT_255_1_234
10
6.1999517
20
287.1374
11
6.0272693
21
287.1374
0
LINE
8
DEFAULT_255_1_234
10
6.0272693
20
287.1374
11
6.3204278
21
287.5767361
0
LINE
8
DEFAULT_255_1_234
10
6.3204278
20
287.5767361
11
6.0361042
21
288.0064341
0
LINE
8
DEFAULT_255_1_234
10
6.0361042
20
288.0064341
11
6.2079834
21
288.0064341
0
LINE
8
DEFAULT_255_1_234
10
7.6135376
20
288.3068211
11
7.7685502
21
288.3068211
0
LINE
8
DEFAULT_255_1_234
10
7.7685502
20
288.3068211
11
7.7685502
21
287.511679
0
LINE
8
DEFAULT_255_1_234
10
7.3846331
20
287.1229429
11
7.3436712
21
287.1213365
0
LINE
8
DEFAULT_255_1_234
10
6.922005
20
287.5100727
11
6.922005
21
288.3068211
0
LINE
8
DEFAULT_255_1_234
10
6.922005
20
288.3068211
11
7.074608
21
288.3068211
0
LINE
8
DEFAULT_255_1_234
10
7.074608
20
288.3068211
11
7.074608
21
287.5148917
0
LINE
8
DEFAULT_255_1_234
10
7.6135376
20
287.5140885
11
7.6135376
21
288.3068211
0
ARC
8
DEFAULT_255_1_234
10
7.33324
20
287.5096928
40
0.4353147
50
343.0898354
51
0.2614217
0
ARC
8
DEFAULT_255_1_234
10
7.4160802
20
287.4865837
40
0.3493402
50
315.3345598
51
342.7641223
0
ARC
8
DEFAULT_255_1_234
10
7.3937251
20
287.5097682
40
0.3815385
50
284.6606969
51
315.2182466
0
ARC
8
DEFAULT_255_1_234
10
7.3481963
20
287.6643755
40
0.5426573
50
273.8500273
51
285.1797701
0
ARC
8
DEFAULT_255_1_234
10
7.3394014
20
287.6985475
40
0.5772268
50
257.6317484
51
270.4238298
0
ARC
8
DEFAULT_255_1_234
10
7.2969212
20
287.5164198
40
0.3902347
50
230.6087562
51
257.9964012
0
ARC
8
DEFAULT_255_1_234
10
7.2837214
20
287.4957802
40
0.3659186
50
227.7440991
51
230.1551448
0
ARC
8
DEFAULT_255_1_234
10
7.2703046
20
287.4796471
40
0.3449568
50
189.2524587
51
227.5916061
0
ARC
8
DEFAULT_255_1_234
10
7.4224732
20
287.5124013
40
0.5004737
50
180.2665968
51
190.1525252
0
ARC
8
DEFAULT_255_1_234
10
7.4446752
20
287.5120918
40
0.3700778
50
179.5665184
51
191.9952995
0
ARC
8
DEFAULT_255_1_234
10
7.3218858
20
287.4847043
40
0.2442808
50
191.6974072
51
215.1404042
0
ARC
8
DEFAULT_255_1_234
10
7.2980773
20
287.4705108
40
0.2166522
50
215.6950207
51
224.8513522
0
ARC
8
DEFAULT_255_1_234
10
7.3036517
20
287.4784697
40
0.2262237
50
225.2846858
51
255.0111758
0
ARC
8
DEFAULT_255_1_234
10
7.3360477
20
287.5898455
40
0.3421979
50
254.5944985
51
267.9129803
0
ARC
8
DEFAULT_255_1_234
10
7.3434957
20
287.6982903
40
0.4508556
50
267.4689655
51
270.0223026
0
ARC
8
DEFAULT_255_1_234
10
7.3465103
20
287.6393849
40
0.3919604
50
269.5849941
51
281.1843768
0
ARC
8
DEFAULT_255_1_234
10
7.3743867
20
287.5041059
40
0.2538457
50
280.9344262
51
300.9743589
0
ARC
8
DEFAULT_255_1_234
10
7.3956473
20
287.4649688
40
0.2093566
50
301.4980046
51
315.1466847
0
ARC
8
DEFAULT_255_1_234
10
7.3812011
20
287.4768236
40
0.2279656
50
315.5952539
51
345.6678731
0
ARC
8
DEFAULT_255_1_234
10
7.2692528
20
287.5080009
40
0.3441564
50
345.2524969
51
358.6304371
0
ARC
8
DEFAULT_255_1_234
10
7.1674881
20
287.5139916
40
0.4460494
50
358.1735671
51
0.0124524
0
LINE
8
DEFAULT_255_1_234
10
8.7170985
20
287.5084663
11
8.872111
21
287.5084663
0
LINE
8
DEFAULT_255_1_234
10
7.9717532
20
287.6674947
11
7.9717532
21
287.7799391
0
LINE
8
DEFAULT_255_1_234
10
8.872111
20
287.9309357
11
8.7170985
21
287.9309357
0
LINE
8
DEFAULT_255_1_234
10
8.1267657
20
287.7759232
11
8.1267657
21
287.6626757
0
ARC
8
DEFAULT_255_1_234
10
8.3240497
20
287.5681846
40
0.5513052
50
340.1774281
51
353.7814284
0
ARC
8
DEFAULT_255_1_234
10
8.4811849
20
287.5096582
40
0.3836379
50
311.4558989
51
340.4421614
0
ARC
8
DEFAULT_255_1_234
10
8.4778518
20
287.5207528
40
0.3941894
50
282.4333181
51
310.7513653
0
ARC
8
DEFAULT_255_1_234
10
8.4339257
20
287.7022679
40
0.5809175
50
269.9358511
51
282.809604
0
ARC
8
DEFAULT_255_1_234
10
8.4287323
20
287.8480212
40
0.7266847
50
270.0021091
51
270.3581957
0
ARC
8
DEFAULT_255_1_234
10
8.423474
20
287.5879585
40
0.4666519
50
250.7884749
51
270.6489167
0
ARC
8
DEFAULT_255_1_234
10
8.4066575
20
287.5242319
40
0.4009729
50
219.3627325
51
250.0611886
0
ARC
8
DEFAULT_255_1_234
10
8.4895786
20
287.5947042
40
0.5097822
50
193.5479632
51
219.5756669
0
ARC
8
DEFAULT_255_1_234
10
8.7267406
20
287.6562919
40
0.7547848
50
181.1218675
51
193.87563
0
ARC
8
DEFAULT_255_1_234
10
8.9337588
20
287.667358
40
0.9620055
50
179.9918545
51
181.5394234
0
ARC
8
DEFAULT_255_1_234
10
8.748669
20
287.7836788
40
0.7769248
50
169.5837241
51
180.2757934
0
ARC
8
DEFAULT_255_1_234
10
8.5649628
20
287.8176229
40
0.590109
50
155.0365899
51
169.6003176
0
ARC
8
DEFAULT_255_1_234
10
8.4514092
20
287.8723677
40
0.4640625
50
136.783148
51
155.2472683
0
ARC
8
DEFAULT_255_1_234
10
8.4124569
20
287.9054562
40
0.4130255
50
121.7633186
51
136.428115
0
ARC
8
DEFAULT_255_1_234
10
8.4259531
20
287.8805227
40
0.4413323
50
95.6459699
51
121.5490577
0
ARC
8
DEFAULT_255_1_234
10
8.4416813
20
287.7696949
40
0.55319
50
89.924208
51
96.1377933
0
ARC
8
DEFAULT_255_1_234
10
8.4467245
20
287.7815542
40
0.5413475
50
76.6779277
51
90.4563316
0
ARC
8
DEFAULT_255_1_234
10
8.4860869
20
287.9406114
40
0.3775041
50
47.485847
51
76.9287264
0
ARC
8
DEFAULT_255_1_234
10
8.4713842
20
287.9306159
40
0.3948286
50
16.5424086
51
46.8933463
0
ARC
8
DEFAULT_255_1_234
10
8.3105999
20
287.8777861
40
0.564021
50
5.4072051
51
17.0365086
0
ARC
8
DEFAULT_255_1_234
10
8.1667016
20
287.8546679
40
0.5556559
50
7.8891745
51
15.9239216
0
ARC
8
DEFAULT_255_1_234
10
8.3654029
20
287.9123631
40
0.3487515
50
15.7653144
51
27.9410532
0
ARC
8
DEFAULT_255_1_234
10
8.4758247
20
287.971479
40
0.2235026
50
27.8166557
51
46.4008329
0
ARC
8
DEFAULT_255_1_234
10
8.480789
20
287.9709082
40
0.2205286
50
47.4371857
51
75.0698205
0
ARC
8
DEFAULT_255_1_234
10
8.4499284
20
287.8634765
40
0.3322915
50
74.7008593
51
87.8124495
0
ARC
8
DEFAULT_255_1_234
10
8.4425972
20
287.7578844
40
0.4380987
50
87.3814673
51
90.0240855
0
ARC
8
DEFAULT_255_1_234
10
8.4387515
20
287.8756291
40
0.3203749
50
89.3451631
51
108.5745436
0
ARC
8
DEFAULT_255_1_234
10
8.425062
20
287.9269908
40
0.2673494
50
109.2998449
51
143.3037509
0
ARC
8
DEFAULT_255_1_234
10
8.5012693
20
287.8683881
40
0.3634757
50
143.0753173
51
163.1916937
0
ARC
8
DEFAULT_255_1_234
10
8.696442
20
287.8067967
40
0.5681262
50
162.9373603
51
174.6208611
0
ARC
8
DEFAULT_255_1_234
10
8.9590463
20
287.778001
40
0.8322832
50
174.3419979
51
180.1430411
0
ARC
8
DEFAULT_255_1_234
10
8.8659619
20
287.6585698
40
0.7392076
50
179.6817502
51
189.150529
0
ARC
8
DEFAULT_255_1_234
10
8.6158867
20
287.616919
40
0.4856932
50
188.9910863
51
203.5773039
0
ARC
8
DEFAULT_255_1_234
10
8.50792
20
287.5721211
40
0.3688271
50
203.9077269
51
215.1312379
0
ARC
8
DEFAULT_255_1_234
10
8.4156294
20
287.5005941
40
0.2522457
50
213.9071664
51
263.8849284
0
ARC
8
DEFAULT_255_1_234
10
8.4281623
20
287.5790518
40
0.3316174
50
263.1758525
51
270.1031083
0
ARC
8
DEFAULT_255_1_234
10
8.4313714
20
287.7037365
40
0.4563091
50
269.6719807
51
279.0609165
0
ARC
8
DEFAULT_255_1_234
10
8.4580483
20
287.5424907
40
0.2928759
50
278.8750225
51
293.6346586
0
ARC
8
DEFAULT_255_1_234
10
8.4900691
20
287.46729
40
0.2111472
50
293.8553404
51
310.0518804
0
ARC
8
DEFAULT_255_1_234
10
8.4905545
20
287.4610516
40
0.2060917
50
311.0646779
51
332.0108348
0
ARC
8
DEFAULT_255_1_234
10
8.3713271
20
287.5267978
40
0.3422352
50
331.6588543
51
343.2878891
0
ARC
8
DEFAULT_255_1_234
10
8.1650786
20
287.5901798
40
0.5580003
50
343.1446044
51
351.010618
0
ARC
8
DEFAULT_255_1_234
10
8.0109433
20
287.6182871
40
0.7146438
50
350.7157277
51
351.1602153
0
LINE
8
DEFAULT_255_1_234
10
9.8102181
20
287.2586792
11
9.8102181
21
287.1374
0
LINE
8
DEFAULT_255_1_234
10
9.8102181
20
287.1374
11
9.0439902
21
287.1374
0
LINE
8
DEFAULT_255_1_234
10
9.0439902
20
287.1374
11
9.0439902
21
287.2442221
0
LINE
8
DEFAULT_255_1_234
10
9.0439902
20
287.2442221
11
9.4487898
21
287.6939995
0
LINE
8
DEFAULT_255_1_234
10
9.1700885
20
287.9622595
11
9.0215014
21
287.9622595
0
LINE
8
DEFAULT_255_1_234
10
9.5363358
20
287.5984218
11
9.223098
21
287.2586792
0
LINE
8
DEFAULT_255_1_234
10
9.223098
20
287.2586792
11
9.8102181
21
287.2586792
0
ARC
8
DEFAULT_255_1_234
10
8.0997732
20
288.8869527
40
1.8008286
50
318.5132453
51
320.7828378
0
ARC
8
DEFAULT_255_1_234
10
8.6284706
20
288.4566426
40
1.1191493
50
320.7372736
51
323.9737074
0
ARC
8
DEFAULT_255_1_234
10
9.0204563
20
288.1726361
40
0.6350923
50
323.8961724
51
328.6421089
0
ARC
8
DEFAULT_255_1_234
10
9.2251158
20
288.0464031
40
0.3946393
50
328.8299013
51
331.789948
0
ARC
8
DEFAULT_255_1_234
10
9.3248336
20
287.9949509
40
0.2824501
50
331.4255242
51
352.9364833
0
ARC
8
DEFAULT_255_1_234
10
9.3384837
20
287.9918976
40
0.2685315
50
353.2248685
51
0.0169286
0
ARC
8
DEFAULT_255_1_234
10
9.3594714
20
287.994195
40
0.2475536
50
359.4866256
51
15.9339782
0
ARC
8
DEFAULT_255_1_234
10
9.4101699
20
288.0078286
40
0.1950618
50
16.1714718
51
43.5284424
0
ARC
8
DEFAULT_255_1_234
10
9.4179008
20
288.0155573
40
0.184134
50
43.4415429
51
83.1661404
0
ARC
8
DEFAULT_255_1_234
10
9.4044926
20
287.9418771
40
0.258926
50
82.160215
51
90.1505798
0
ARC
8
DEFAULT_255_1_234
10
9.4013353
20
287.8881865
40
0.3126255
50
89.5460705
51
102.5418777
0
ARC
8
DEFAULT_255_1_234
10
9.3770439
20
287.9912665
40
0.2067346
50
102.1739365
51
129.2061916
0
ARC
8
DEFAULT_255_1_234
10
9.3691511
20
288.0037094
40
0.1921118
50
129.7279328
51
135.7542026
0
ARC
8
DEFAULT_255_1_234
10
9.3813039
20
287.9940045
40
0.2075944
50
136.175737
51
166.3674722
0
ARC
8
DEFAULT_255_1_234
10
9.4819958
20
287.9670182
40
0.3118201
50
165.9092917
51
178.8683903
0
ARC
8
DEFAULT_255_1_234
10
9.5684819
20
287.9623179
40
0.3983935
50
178.438168
51
180.0083905
0
ARC
8
DEFAULT_255_1_234
10
9.4283421
20
287.9662231
40
0.4068601
50
163.2878735
51
180.5581814
0
ARC
8
DEFAULT_255_1_234
10
9.3481683
20
287.988284
40
0.3237344
50
133.454115
51
162.9470031
0
ARC
8
DEFAULT_255_1_234
10
9.3660224
20
287.9693
40
0.349795
50
100.7869394
51
133.4384016
0
ARC
8
DEFAULT_255_1_234
10
9.4007996
20
287.8144319
40
0.5084616
50
89.6605301
51
101.3704185
0
ARC
8
DEFAULT_255_1_234
10
9.4074335
20
287.8205496
40
0.502348
50
78.2171172
51
90.4130393
0
ARC
8
DEFAULT_255_1_234
10
9.4429413
20
287.9829637
40
0.3361092
50
55.9268222
51
78.4888551
0
ARC
8
DEFAULT_255_1_234
10
9.4625853
20
288.0168324
40
0.2970617
50
47.9292255
51
55.4054003
0
ARC
8
DEFAULT_255_1_234
10
9.4727414
20
288.0271502
40
0.2825983
50
4.3347696
51
48.0560701
0
ARC
8
DEFAULT_255_1_234
10
9.3631807
20
288.0101601
40
0.393225
50
359.925209
51
5.5967654
0
ARC
8
DEFAULT_255_1_234
10
9.4060699
20
288.0157816
40
0.3503892
50
337.8914096
51
358.9967724
0
ARC
8
DEFAULT_255_1_234
10
9.1347111
20
288.1204706
40
0.6412172
50
326.9135351
51
338.3505194
0
ARC
8
DEFAULT_255_1_234
10
8.7361415
20
288.3759284
40
1.1146189
50
319.6472867
51
327.095818
0
ARC
8
DEFAULT_255_1_234
10
8.3528418
20
288.6921
40
1.6114559
50
317.2586784
51
319.9046139
0
LINE
8
DEFAULT_255_1_234
10
10.5949189
20
288.3068211
11
10.5949189
21
287.530152
0
LINE
8
DEFAULT_255_1_234
10
10.5949189
20
287.530152
11
10.75716
21
287.530152
0
LINE
8
DEFAULT_255_1_234
10
10.75716
20
287.530152
11
10.75716
21
287.4088728
0
LINE
8
DEFAULT_255_1_234
10
10.75716
20
287.4088728
11
10.5949189
21
287.4088728
0
LINE
8
DEFAULT_255_1_234
10
10.5949189
20
287.4088728
11
10.5949189
21
287.1374
0
LINE
8
DEFAULT_255_1_234
10
10.5949189
20
287.1374
11
10.4455286
21
287.1374
0
LINE
8
DEFAULT_255_1_234
10
10.4455286
20
287.1374
11
10.4455286
21
287.4088728
0
LINE
8
DEFAULT_255_1_234
10
10.4455286
20
287.4088728
11
9.9130243
21
287.4088728
0
LINE
8
DEFAULT_255_1_234
10
9.9130243
20
287.4088728
11
9.9130243
21
287.4964187
0
LINE
8
DEFAULT_255_1_234
10
9.9130243
20
287.4964187
11
10.4366937
21
288.3068211
0
LINE
8
DEFAULT_255_1_234
10
10.4366937
20
288.3068211
11
10.5949189
21
288.3068211
0
LINE
8
DEFAULT_255_1_234
10
10.4278587
20
288.0714912
11
10.0816908
21
287.530152
0
LINE
8
DEFAULT_255_1_234
10
10.0816908
20
287.530152
11
10.4455286
21
287.530152
0
LINE
8
DEFAULT_255_1_234
10
10.4455286
20
287.530152
11
10.4455286
21
288.1036181
0
LINE
8
DEFAULT_255_1_234
10
10.4455286
20
288.1036181
11
10.4278587
21
288.0714912
0
LINE
8
DEFAULT_255_1_234
10
11.4237943
20
288.3068211
11
10.9362678
21
287.0370033
0
LINE
8
DEFAULT_255_1_234
10
10.9362678
20
287.0370033
11
10.8085631
21
287.0370033
0
LINE
8
DEFAULT_255_1_234
10
10.8085631
20
287.0370033
11
11.2968928
21
288.3068211
0
LINE
8
DEFAULT_255_1_234
10
11.2968928
20
288.3068211
11
11.4237943
21
288.3068211
0
LINE
8
DEFAULT_255_1_234
10
12.1257682
20
288.3076243
11
12.1522729
21
288.3076243
0
LINE
8
DEFAULT_255_1_234
10
12.1522729
20
288.3076243
11
12.1522729
21
288.181526
0
LINE
8
DEFAULT_255_1_234
10
12.1522729
20
288.181526
11
12.124965
21
288.181526
0
LINE
8
DEFAULT_255_1_234
10
11.5780037
20
287.5823583
11
11.5780037
21
287.6393836
0
LINE
8
DEFAULT_255_1_234
10
11.727394
20
287.6201075
11
11.727394
21
287.5654917
0
ARC
8
DEFAULT_255_1_234
10
12.1301998
20
287.6817455
40
0.4998079
50
90.6001036
51
104.514704
0
ARC
8
DEFAULT_255_1_234
10
12.0913514
20
287.8262131
40
0.3502176
50
104.2855254
51
133.862935
0
ARC
8
DEFAULT_255_1_234
10
12.1077271
20
287.815383
40
0.3693984
50
134.5302688
51
161.6210873
0
ARC
8
DEFAULT_255_1_234
10
12.273046
20
287.7570895
40
0.5446739
50
161.2849839
51
174.2076652
0
ARC
8
DEFAULT_255_1_234
10
12.4137397
20
287.7376787
40
0.6866274
50
173.7810589
51
174.9254635
0
ARC
8
DEFAULT_255_1_234
10
11.9587229
20
287.5993839
40
0.3033419
50
95.8330959
51
138.9954921
0
ARC
8
DEFAULT_255_1_234
10
11.9810585
20
287.4715375
40
0.4328947
50
89.8753725
51
97.0544009
0
ARC
8
DEFAULT_255_1_234
10
11.9858051
20
287.5550748
40
0.3493769
50
71.6407809
51
90.6240094
0
ARC
8
DEFAULT_255_1_234
10
12.0008624
20
287.6105082
40
0.2920396
50
39.6367836
51
71.019018
0
ARC
8
DEFAULT_255_1_234
10
11.9372097
20
287.5554998
40
0.3761538
50
10.658731
51
39.9043955
0
ARC
8
DEFAULT_255_1_234
10
11.782418
20
287.5218686
40
0.5345136
50
359.682601
51
11.132623
0
ARC
8
DEFAULT_255_1_234
10
11.7784311
20
287.514801
40
0.5385081
50
347.2486944
51
0.4369317
0
ARC
8
DEFAULT_255_1_234
10
11.9451788
20
287.4746807
40
0.3670249
50
318.1409698
51
347.6118597
0
ARC
8
DEFAULT_255_1_234
10
11.9776781
20
287.4479702
40
0.3250007
50
275.6342139
51
317.8248465
0
ARC
8
DEFAULT_255_1_234
10
11.9555893
20
287.5779219
40
0.4565864
50
269.8874292
51
276.7917694
0
ARC
8
DEFAULT_255_1_234
10
11.9500963
20
287.4753743
40
0.3540676
50
246.9140195
51
270.7437342
0
ARC
8
DEFAULT_255_1_234
10
11.9507353
20
287.4611384
40
0.3412781
50
218.1665114
51
245.878116
0
ARC
8
DEFAULT_255_1_234
10
12.0386814
20
287.5347279
40
0.455911
50
191.4115814
51
218.6077802
0
ARC
8
DEFAULT_255_1_234
10
12.2324903
20
287.5781833
40
0.6545001
50
179.6345085
51
191.7836486
0
ARC
8
DEFAULT_255_1_234
10
12.790724
20
287.6460697
40
1.2127388
50
171.4525249
51
180.3158839
0
ARC
8
DEFAULT_255_1_234
10
12.3512116
20
287.7144608
40
0.7679464
50
157.9802646
51
171.6246686
0
ARC
8
DEFAULT_255_1_234
10
12.1298137
20
287.8027421
40
0.5296008
50
141.4298019
51
157.854097
0
ARC
8
DEFAULT_255_1_234
10
12.0656458
20
287.8481381
40
0.4511509
50
102.8715806
51
140.8564722
0
ARC
8
DEFAULT_255_1_234
10
12.1304073
20
287.6041552
40
0.7034845
50
90.3778349
51
103.5869322
0
ARC
8
DEFAULT_255_1_234
10
11.9565849
20
287.543673
40
0.2370698
50
89.8751008
51
126.2071704
0
ARC
8
DEFAULT_255_1_234
10
11.9611639
20
287.5282303
40
0.2522934
50
124.9745049
51
144.895901
0
ARC
8
DEFAULT_255_1_234
10
11.943583
20
287.542556
40
0.2296779
50
145.2974905
51
160.2660252
0
ARC
8
DEFAULT_255_1_234
10
12.2508368
20
287.5623071
40
0.5234525
50
179.6514266
51
190.2855912
0
ARC
8
DEFAULT_255_1_234
10
12.0814506
20
287.5303786
40
0.3510893
50
190.0945431
51
207.5098196
0
ARC
8
DEFAULT_255_1_234
10
12.0248775
20
287.5034623
40
0.288489
50
207.9583163
51
216.3251085
0
ARC
8
DEFAULT_255_1_234
10
11.9908883
20
287.4755105
40
0.2445587
50
215.7661442
51
232.5456785
0
ARC
8
DEFAULT_255_1_234
10
11.9525866
20
287.4268482
40
0.1826382
50
232.8005391
51
270.6605633
0
ARC
8
DEFAULT_255_1_234
10
11.9571567
20
287.4632612
40
0.2190529
50
269.35537
51
288.4744281
0
ARC
8
DEFAULT_255_1_234
10
11.9664464
20
287.4283118
40
0.1829749
50
289.1833337
51
322.9683818
0
ARC
8
DEFAULT_255_1_234
10
11.9052986
20
287.4765391
40
0.2608399
50
322.6007884
51
346.5182367
0
ARC
8
DEFAULT_255_1_234
10
11.7895582
20
287.5060616
40
0.3802777
50
346.2582162
51
358.7741648
0
ARC
8
DEFAULT_255_1_234
10
11.6877251
20
287.5115965
40
0.4822176
50
358.3755224
51
0.0098023
0
ARC
8
DEFAULT_255_1_234
10
11.7633438
20
287.5143657
40
0.4066078
50
359.6214041
51
11.2839074
0
ARC
8
DEFAULT_255_1_234
10
11.8910585
20
287.5410066
40
0.2761514
50
11.0482309
51
31.8146458
0
ARC
8
DEFAULT_255_1_234
10
11.9219628
20
287.5577584
40
0.2410679
50
32.3035391
51
38.082671
0
ARC
8
DEFAULT_255_1_234
10
11.9640288
20
287.5958662
40
0.1844966
50
36.825067
51
85.7415724
0
ARC
8
DEFAULT_255_1_234
10
11.9573122
20
287.5458301
40
0.2349122
50
85.0140713
51
90.0513278
0
LINE
8
DEFAULT_255_1_234
10
13.2261164
20
287.8289327
11
13.2261164
21
287.6361709
0
LINE
8
DEFAULT_255_1_234
10
12.4879996
20
287.6160916
11
12.4879996
21
287.8144755
0
LINE
8
DEFAULT_255_1_234
10
13.0775292
20
287.5960123
11
13.0775292
21
287.8393739
0
LINE
8
DEFAULT_255_1_234
10
12.6365868
20
287.8506184
11
12.6365868
21
287.6128789
0
ARC
8
DEFAULT_255_1_234
10
12.0014053
20
287.6312805
40
1.2247208
50
353.8441951
51
0.2287902
0
ARC
8
DEFAULT_255_1_234
10
12.4653557
20
287.5794806
40
0.7578929
50
344.4934747
51
353.9765454
0
ARC
8
DEFAULT_255_1_234
10
12.7646147
20
287.4943981
40
0.4467846
50
329.2803592
51
344.7472793
0
ARC
8
DEFAULT_255_1_234
10
12.8638972
20
287.4399018
40
0.3336173
50
324.9352394
51
328.6160465
0
ARC
8
DEFAULT_255_1_234
10
12.9016081
20
287.4135427
40
0.2876076
50
280.580143
51
324.9173126
0
ARC
8
DEFAULT_255_1_234
10
12.8614873
20
287.5806099
40
0.4592847
50
269.5977311
51
281.6734359
0
ARC
8
DEFAULT_255_1_234
10
12.8542779
20
287.5686173
40
0.4472986
50
256.6228859
51
270.51044
0
ARC
8
DEFAULT_255_1_234
10
12.8140757
20
287.4137877
40
0.2873874
50
215.8618325
51
257.2788573
0
ARC
8
DEFAULT_255_1_234
10
12.9161788
20
287.4822977
40
0.4102928
50
197.9693508
51
215.2623606
0
ARC
8
DEFAULT_255_1_234
10
13.1646904
20
287.5661709
40
0.6725652
50
187.8816417
51
198.2346507
0
ARC
8
DEFAULT_255_1_234
10
13.5605112
20
287.6233079
40
1.0724845
50
180.8976217
51
188.0055519
0
ARC
8
DEFAULT_255_1_234
10
13.84053
20
287.6336777
40
1.3526448
50
180.7449369
51
181.1510016
0
ARC
8
DEFAULT_255_1_234
10
13.6828029
20
287.8193042
40
1.1948131
50
173.7675579
51
180.231553
0
ARC
8
DEFAULT_255_1_234
10
13.2310176
20
287.8703666
40
0.7401564
50
164.3058563
51
173.9002247
0
ARC
8
DEFAULT_255_1_234
10
12.9398245
20
287.9542656
40
0.4371288
50
148.7922025
51
164.568378
0
ARC
8
DEFAULT_255_1_234
10
12.8446697
20
288.0073929
40
0.3282386
50
144.5883898
51
148.1176286
0
ARC
8
DEFAULT_255_1_234
10
12.8103595
20
288.0313315
40
0.2864044
50
101.6440918
51
144.514236
0
ARC
8
DEFAULT_255_1_234
10
12.8528662
20
287.8624069
40
0.4604934
50
89.5284041
51
102.5819763
0
ARC
8
DEFAULT_255_1_234
10
12.8607749
20
287.8585018
40
0.464401
50
77.0437873
51
90.5081339
0
ARC
8
DEFAULT_255_1_234
10
12.9009751
20
288.0227615
40
0.2953195
50
48.2778575
51
77.4994676
0
ARC
8
DEFAULT_255_1_234
10
12.9082382
20
288.0356746
40
0.2808655
50
36.3142134
51
47.6305865
0
ARC
8
DEFAULT_255_1_234
10
12.8213689
20
287.9771515
40
0.3855453
50
18.2931786
51
35.6769206
0
ARC
8
DEFAULT_255_1_234
10
12.5670448
20
287.8898593
40
0.654423
50
8.024666
51
18.5605216
0
ARC
8
DEFAULT_255_1_234
10
12.1507368
20
287.8283792
40
1.0752407
50
1.1274072
51
8.1718305
0
ARC
8
DEFAULT_255_1_234
10
11.8271559
20
287.8156885
40
1.3990231
50
0.5424119
51
1.3863029
0
ARC
8
DEFAULT_255_1_234
10
12.0092937
20
287.8429342
40
1.0682415
50
359.8090433
51
4.9407866
0
ARC
8
DEFAULT_255_1_234
10
12.4302951
20
287.8805113
40
0.6455691
50
4.8362157
51
12.2904523
0
ARC
8
DEFAULT_255_1_234
10
12.7058066
20
287.9418965
40
0.3633074
50
12.0805627
51
23.8173984
0
ARC
8
DEFAULT_255_1_234
10
12.8231771
20
287.9915919
40
0.2358723
50
24.2871213
51
31.3935614
0
ARC
8
DEFAULT_255_1_234
10
12.8756468
20
288.0259233
40
0.1732111
50
30.7407893
51
82.4657128
0
ARC
8
DEFAULT_255_1_234
10
12.8576602
20
287.9375691
40
0.263235
50
81.1060089
51
90.2184952
0
ARC
8
DEFAULT_255_1_234
10
12.8540901
20
287.9633924
40
0.2374236
50
89.3806855
51
105.6762551
0
ARC
8
DEFAULT_255_1_234
10
12.8357532
20
288.0300567
40
0.1682847
50
105.7981136
51
149.7388061
0
ARC
8
DEFAULT_255_1_234
10
12.942161
20
287.966095
40
0.2924306
50
149.4208916
51
163.6286378
0
ARC
8
DEFAULT_255_1_234
10
13.1512498
20
287.902325
40
0.5110213
50
163.3763315
51
172.1410975
0
ARC
8
DEFAULT_255_1_234
10
13.4813217
20
287.8550518
40
0.8444586
50
172.0259487
51
178.0703232
0
ARC
8
DEFAULT_255_1_234
10
13.7843307
20
287.8406906
40
1.1477868
50
177.8631668
51
179.5044149
0
ARC
8
DEFAULT_255_1_234
10
13.6770711
20
287.6092389
40
1.0404907
50
179.7995573
51
185.2460446
0
ARC
8
DEFAULT_255_1_234
10
13.272775
20
287.5709513
40
0.6343885
50
185.1411642
51
193.0079639
0
ARC
8
DEFAULT_255_1_234
10
13.0084223
20
287.5084641
40
0.3627568
50
192.7897626
51
205.2507664
0
ARC
8
DEFAULT_255_1_234
10
12.903777
20
287.4617415
40
0.2481908
50
205.8005384
51
211.2537509
0
ARC
8
DEFAULT_255_1_234
10
12.851421
20
287.426658
40
0.1852521
50
210.3789793
51
238.4008143
0
ARC
8
DEFAULT_255_1_234
10
12.8494732
20
287.4313376
40
0.1882621
50
239.6520629
51
265.9793761
0
ARC
8
DEFAULT_255_1_234
10
12.8579933
20
287.4985427
40
0.2559272
50
265.1315437
51
270.060332
0
ARC
8
DEFAULT_255_1_234
10
12.8608711
20
287.4661534
40
0.2235528
50
269.3314664
51
287.2178029
0
ARC
8
DEFAULT_255_1_234
10
12.8746563
20
287.4158279
40
0.1714108
50
287.7958004
51
329.080874
0
ARC
8
DEFAULT_255_1_234
10
12.778902
20
287.475593
40
0.2842745
50
328.6634704
51
343.3325132
0
ARC
8
DEFAULT_255_1_234
10
12.561604
20
287.5432863
40
0.5118644
50
343.0499468
51
351.9393422
0
ARC
8
DEFAULT_255_1_234
10
12.214934
20
287.5943949
40
0.8622784
50
351.8069023
51
357.7959224
0
ARC
8
DEFAULT_255_1_234
10
11.8913896
20
287.6111721
40
1.1862365
50
357.5871873
51
359.2677531
0
LINE
8
DEFAULT_255_1_234
10
13.5096367
20
288.3068211
11
13.8421507
21
287.3422093
0
LINE
8
DEFAULT_255_1_234
10
13.8421507
20
287.3422093
11
14.176271
21
288.3068211
0
LINE
8
DEFAULT_255_1_234
10
14.176271
20
288.3068211
11
14.3449375
21
288.3068211
0
LINE
8
DEFAULT_255_1_234
10
14.3449375
20
288.3068211
11
13.9112236
21
287.1374
0
LINE
8
DEFAULT_255_1_234
10
13.9112236
20
287.1374
11
13.7746841
21
287.1374
0
LINE
8
DEFAULT_255_1_234
10
13.7746841
20
287.1374
11
13.3417734
21
288.3068211
0
LINE
8
DEFAULT_255_1_234
10
13.3417734
20
288.3068211
11
13.5096367
21
288.3068211
0
LINE
8
DEFAULT_255_1_234
10
3.0303628
20
277.1208211
11
3.0303628
21
276.344152
0
LINE
8
DEFAULT_255_1_234
10
3.0303628
20
276.344152
11
3.1926039
21
276.344152
0
LINE
8
DEFAULT_255_1_234
10
3.1926039
20
276.344152
11
3.1926039
21
276.2228728
0
LINE
8
DEFAULT_255_1_234
10
3.1926039
20
276.2228728
11
3.0303628
21
276.2228728
0
LINE
8
DEFAULT_255_1_234
10
3.0303628
20
276.2228728
11
3.0303628
21
275.9514
0
LINE
8
DEFAULT_255_1_234
10
3.0303628
20
275.9514
11
2.8809725
21
275.9514
0
LINE
8
DEFAULT_255_1_234
10
2.8809725
20
275.9514
11
2.8809725
21
276.2228728
0
LINE
8
DEFAULT_255_1_234
10
2.8809725
20
276.2228728
11
2.3484682
21
276.2228728
0
LINE
8
DEFAULT_255_1_234
10
2.3484682
20
276.2228728
11
2.3484682
21
276.3104187
0
LINE
8
DEFAULT_255_1_234
10
2.3484682
20
276.3104187
11
2.8721375
21
277.1208211
0
LINE
8
DEFAULT_255_1_234
10
2.8721375
20
277.1208211
11
3.0303628
21
277.1208211
0
LINE
8
DEFAULT_255_1_234
10
2.8633026
20
276.8854912
11
2.5171347
21
276.344152
0
LINE
8
DEFAULT_255_1_234
10
2.5171347
20
276.344152
11
2.8809725
21
276.344152
0
LINE
8
DEFAULT_255_1_234
10
2.8809725
20
276.344152
11
2.8809725
21
276.9176181
0
LINE
8
DEFAULT_255_1_234
10
2.8809725
20
276.9176181
11
2.8633026
21
276.8854912
0
LINE
8
DEFAULT_255_1_234
10
4.0929618
20
276.0726792
11
4.0929618
21
275.9514
0
LINE
8
DEFAULT_255_1_234
10
4.0929618
20
275.9514
11
3.3267339
21
275.9514
0
LINE
8
DEFAULT_255_1_234
10
3.3267339
20
275.9514
11
3.3267339
21
276.0582221
0
LINE
8
DEFAULT_255_1_234
10
3.3267339
20
276.0582221
11
3.7315335
21
276.5079995
0
LINE
8
DEFAULT_255_1_234
10
3.4528322
20
276.7762595
11
3.3042451
21
276.7762595
0
LINE
8
DEFAULT_255_1_234
10
3.8190795
20
276.4124218
11
3.5058417
21
276.0726792
0
LINE
8
DEFAULT_255_1_234
10
3.5058417
20
276.0726792
11
4.0929618
21
276.0726792
0
ARC
8
DEFAULT_255_1_234
10
2.3825169
20
277.7009527
40
1.8008286
50
318.5132453
51
320.7828378
0
ARC
8
DEFAULT_255_1_234
10
2.9112143
20
277.2706426
40
1.1191493
50
320.7372736
51
323.9737074
0
ARC
8
DEFAULT_255_1_234
10
3.3032
20
276.9866361
40
0.6350923
50
323.8961724
51
328.6421089
0
ARC
8
DEFAULT_255_1_234
10
3.5078595
20
276.8604031
40
0.3946393
50
328.8299013
51
331.789948
0
ARC
8
DEFAULT_255_1_234
10
3.6075774
20
276.8089509
40
0.2824501
50
331.4255242
51
352.9364833
0
ARC
8
DEFAULT_255_1_234
10
3.6212274
20
276.8058976
40
0.2685315
50
353.2248685
51
0.0169286
0
ARC
8
DEFAULT_255_1_234
10
3.6422151
20
276.808195
40
0.2475536
50
359.4866256
51
15.9339782
0
ARC
8
DEFAULT_255_1_234
10
3.6929136
20
276.8218286
40
0.1950618
50
16.1714718
51
43.5284424
0
ARC
8
DEFAULT_255_1_234
10
3.7006445
20
276.8295573
40
0.184134
50
43.4415429
51
83.1661404
0
ARC
8
DEFAULT_255_1_234
10
3.6872363
20
276.7558771
40
0.258926
50
82.160215
51
90.1505798
0
ARC
8
DEFAULT_255_1_234
10
3.684079
20
276.7021865
40
0.3126255
50
89.5460705
51
102.5418777
0
ARC
8
DEFAULT_255_1_234
10
3.6597876
20
276.8052665
40
0.2067346
50
102.1739365
51
129.2061916
0
ARC
8
DEFAULT_255_1_234
10
3.6518948
20
276.8177094
40
0.1921118
50
129.7279328
51
135.7542026
0
ARC
8
DEFAULT_255_1_234
10
3.6640476
20
276.8080045
40
0.2075944
50
136.175737
51
166.3674722
0
ARC
8
DEFAULT_255_1_234
10
3.7647395
20
276.7810182
40
0.3118201
50
165.9092917
51
178.8683903
0
ARC
8
DEFAULT_255_1_234
10
3.8512256
20
276.7763179
40
0.3983935
50
178.438168
51
180.0083905
0
ARC
8
DEFAULT_255_1_234
10
3.7110859
20
276.7802231
40
0.4068601
50
163.2878735
51
180.5581814
0
ARC
8
DEFAULT_255_1_234
10
3.630912
20
276.802284
40
0.3237344
50
133.454115
51
162.9470031
0
ARC
8
DEFAULT_255_1_234
10
3.6487661
20
276.7833
40
0.349795
50
100.7869394
51
133.4384016
0
ARC
8
DEFAULT_255_1_234
10
3.6835433
20
276.6284319
40
0.5084616
50
89.6605301
51
101.3704185
0
ARC
8
DEFAULT_255_1_234
10
3.6901772
20
276.6345496
40
0.502348
50
78.2171172
51
90.4130393
0
ARC
8
DEFAULT_255_1_234
10
3.725685
20
276.7969637
40
0.3361092
50
55.9268222
51
78.4888551
0
ARC
8
DEFAULT_255_1_234
10
3.745329
20
276.8308324
40
0.2970617
50
47.9292255
51
55.4054003
0
ARC
8
DEFAULT_255_1_234
10
3.7554851
20
276.8411502
40
0.2825983
50
4.3347696
51
48.0560701
0
ARC
8
DEFAULT_255_1_234
10
3.6459244
20
276.8241601
40
0.393225
50
359.925209
51
5.5967654
0
ARC
8
DEFAULT_255_1_234
10
3.6888136
20
276.8297816
40
0.3503892
50
337.8914096
51
358.9967724
0
ARC
8
DEFAULT_255_1_234
10
3.4174548
20
276.9344706
40
0.6412172
50
326.9135351
51
338.3505194
0
ARC
8
DEFAULT_255_1_234
10
3.0188852
20
277.1899284
40
1.1146189
50
319.6472867
51
327.095818
0
ARC
8
DEFAULT_255_1_234
10
2.6355855
20
277.5061
40
1.6114559
50
317.2586784
51
319.9046139
0
LINE
8
DEFAULT_255_1_234
10
4.7387135
20
277.1264433
11
4.7387135
21
275.9514
0
LINE
8
DEFAULT_255_1_234
10
4.7387135
20
275.9514
11
4.5893232
21
275.9514
0
LINE
8
DEFAULT_255_1_234
10
4.5893232
20
275.9514
11
4.5893232
21
276.9417133
0
LINE
8
DEFAULT_255_1_234
10
4.5893232
20
276.9417133
11
4.2897394
21
276.8316785
0
LINE
8
DEFAULT_255_1_234
10
4.2897394
20
276.8316785
11
4.2897394
21
276.9666117
0
LINE
8
DEFAULT_255_1_234
10
4.2897394
20
276.9666117
11
4.7154215
21
277.1264433
0
LINE
8
DEFAULT_255_1_234
10
4.7154215
20
277.1264433
11
4.7387135
21
277.1264433
0
LINE
8
DEFAULT_255_1_234
10
5.498516
20
276.5088026
11
5.498516
21
276.3875234
0
LINE
8
DEFAULT_255_1_234
10
5.498516
20
276.3875234
11
5.1065671
21
276.3875234
0
LINE
8
DEFAULT_255_1_234
10
5.1065671
20
276.3875234
11
5.1065671
21
276.5088026
0
LINE
8
DEFAULT_255_1_234
10
5.1065671
20
276.5088026
11
5.498516
21
276.5088026
0
LINE
8
DEFAULT_255_1_234
10
6.3828104
20
277.1208211
11
6.3828104
21
277.037291
0
LINE
8
DEFAULT_255_1_234
10
6.3828104
20
277.037291
11
5.8984965
21
275.9514
0
LINE
8
DEFAULT_255_1_234
10
5.8984965
20
275.9514
11
5.7426808
21
275.9514
0
LINE
8
DEFAULT_255_1_234
10
5.7426808
20
275.9514
11
6.2253883
21
276.9987387
0
LINE
8
DEFAULT_255_1_234
10
6.2253883
20
276.9987387
11
5.5924873
21
276.9987387
0
LINE
8
DEFAULT_255_1_234
10
5.5924873
20
276.9987387
11
5.5924873
21
277.1208211
0
LINE
8
DEFAULT_255_1_234
10
5.5924873
20
277.1208211
11
6.3828104
21
277.1208211
0
LINE
8
DEFAULT_255_1_234
10
6.9137083
20
275.9514
11
6.5900292
21
275.9514
0
LINE
8
DEFAULT_255_1_234
10
6.5900292
20
275.9514
11
6.5900292
21
277.1208211
0
LINE
8
DEFAULT_255_1_234
10
6.5900292
20
277.1208211
11
6.9201336
21
277.1208211
0
LINE
8
DEFAULT_255_1_234
10
7.4357712
20
276.5754661
11
7.4357712
21
276.5007709
0
LINE
8
DEFAULT_255_1_234
10
6.9241495
20
276.9939196
11
6.7442386
21
276.9939196
0
LINE
8
DEFAULT_255_1_234
10
6.7442386
20
276.9939196
11
6.7442386
21
276.0774983
0
LINE
8
DEFAULT_255_1_234
10
6.7442386
20
276.0774983
11
6.9064797
21
276.0774983
0
LINE
8
DEFAULT_255_1_234
10
7.2831682
20
276.5039836
11
7.2831682
21
276.5722534
0
ARC
8
DEFAULT_255_1_234
10
6.9240279
20
276.5342894
40
0.5865446
50
75.4101064
51
90.3804066
0
ARC
8
DEFAULT_255_1_234
10
6.9469793
20
276.6299492
40
0.4881916
50
60.145586
51
75.1888407
0
ARC
8
DEFAULT_255_1_234
10
6.9628568
20
276.6576199
40
0.4562893
50
26.5253612
51
60.1450928
0
ARC
8
DEFAULT_255_1_234
10
6.8508317
20
276.5982158
40
0.5830602
50
7.4030428
51
26.8320788
0
ARC
8
DEFAULT_255_1_234
10
6.6914074
20
276.5733804
40
0.7443669
50
0.1605367
51
7.7176192
0
ARC
8
DEFAULT_255_1_234
10
6.7077978
20
276.4969434
40
0.7279835
50
348.7289388
51
0.3012466
0
ARC
8
DEFAULT_255_1_234
10
6.8734409
20
276.4640386
40
0.559104
50
333.0706509
51
348.7181832
0
ARC
8
DEFAULT_255_1_234
10
6.9701167
20
276.4115319
40
0.4491417
50
299.2531685
51
333.4571258
0
ARC
8
DEFAULT_255_1_234
10
6.9340306
20
276.4800828
40
0.5265881
50
278.107187
51
299.0339503
0
ARC
8
DEFAULT_255_1_234
10
6.9084385
20
276.6308216
40
0.679442
50
270.4443897
51
278.4511052
0
ARC
8
DEFAULT_255_1_234
10
6.9105215
20
276.5379213
40
0.4604407
50
269.4970433
51
284.0205042
0
ARC
8
DEFAULT_255_1_234
10
6.9460516
20
276.4013978
40
0.3193797
50
283.7700273
51
318.1555492
0
ARC
8
DEFAULT_255_1_234
10
6.9123274
20
276.4266367
40
0.3613588
50
318.7415601
51
343.6873628
0
ARC
8
DEFAULT_255_1_234
10
6.7319298
20
276.4829832
40
0.5503313
50
343.3325091
51
355.8548958
0
ARC
8
DEFAULT_255_1_234
10
6.5220982
20
276.5029319
40
0.7610708
50
355.4988528
51
0.0791727
0
ARC
8
DEFAULT_255_1_234
10
6.6003605
20
276.576478
40
0.6828208
50
359.6455037
51
9.8607896
0
ARC
8
DEFAULT_255_1_234
10
6.8364302
20
276.6191099
40
0.4429406
50
9.6571907
51
26.1932807
0
ARC
8
DEFAULT_255_1_234
10
6.9292291
20
276.6622118
40
0.3406537
50
26.5777228
51
40.1532208
0
ARC
8
DEFAULT_255_1_234
10
6.9548017
20
276.6821619
40
0.308246
50
40.3840491
51
80.1431104
0
ARC
8
DEFAULT_255_1_234
10
6.9221135
20
276.5372333
40
0.4566909
50
79.2152159
51
89.7445637
0
LINE
8
DEFAULT_255_1_234
10
8.5674432
20
277.1208211
11
8.5674432
21
275.9514
0
LINE
8
DEFAULT_255_1_234
10
8.5674432
20
275.9514
11
8.4124306
21
275.9514
0
LINE
8
DEFAULT_255_1_234
10
8.4124306
20
275.9514
11
8.4124306
21
276.491936
0
LINE
8
DEFAULT_255_1_234
10
8.4124306
20
276.491936
11
7.822901
21
276.491936
0
LINE
8
DEFAULT_255_1_234
10
7.822901
20
276.491936
11
7.822901
21
275.9514
0
LINE
8
DEFAULT_255_1_234
10
7.822901
20
275.9514
11
7.6686917
21
275.9514
0
LINE
8
DEFAULT_255_1_234
10
7.6686917
20
275.9514
11
7.6686917
21
277.1208211
0
LINE
8
DEFAULT_255_1_234
10
7.6686917
20
277.1208211
11
7.822901
21
277.1208211
0
LINE
8
DEFAULT_255_1_234
10
7.822901
20
277.1208211
11
7.822901
21
276.6180343
0
LINE
8
DEFAULT_255_1_234
10
7.822901
20
276.6180343
11
8.4124306
21
276.6180343
0
LINE
8
DEFAULT_255_1_234
10
8.4124306
20
276.6180343
11
8.4124306
21
277.1208211
0
LINE
8
DEFAULT_255_1_234
10
8.4124306
20
277.1208211
11
8.5674432
21
277.1208211
0
LINE
8
DEFAULT_255_1_234
10
9.5360708
20
276.6429327
11
9.5360708
21
276.4501709
0
LINE
8
DEFAULT_255_1_234
10
8.7979541
20
276.4300916
11
8.7979541
21
276.6284755
0
LINE
8
DEFAULT_255_1_234
10
9.3874836
20
276.4100123
11
9.3874836
21
276.6533739
0
LINE
8
DEFAULT_255_1_234
10
8.9465412
20
276.6646184
11
8.9465412
21
276.4268789
0
ARC
8
DEFAULT_255_1_234
10
8.3113598
20
276.4452805
40
1.2247208
50
353.8441951
51
0.2287902
0
ARC
8
DEFAULT_255_1_234
10
8.7753101
20
276.3934806
40
0.7578929
50
344.4934747
51
353.9765454
0
ARC
8
DEFAULT_255_1_234
10
9.0745691
20
276.3083981
40
0.4467846
50
329.2803592
51
344.7472793
0
ARC
8
DEFAULT_255_1_234
10
9.1738516
20
276.2539018
40
0.3336173
50
324.9352394
51
328.6160465
0
ARC
8
DEFAULT_255_1_234
10
9.2115625
20
276.2275427
40
0.2876076
50
280.580143
51
324.9173126
0
ARC
8
DEFAULT_255_1_234
10
9.1714418
20
276.3946099
40
0.4592847
50
269.5977311
51
281.6734359
0
ARC
8
DEFAULT_255_1_234
10
9.1642323
20
276.3826173
40
0.4472986
50
256.6228859
51
270.51044
0
ARC
8
DEFAULT_255_1_234
10
9.1240301
20
276.2277877
40
0.2873874
50
215.8618325
51
257.2788573
0
ARC
8
DEFAULT_255_1_234
10
9.2261333
20
276.2962977
40
0.4102928
50
197.9693508
51
215.2623606
0
ARC
8
DEFAULT_255_1_234
10
9.4746448
20
276.3801709
40
0.6725652
50
187.8816417
51
198.2346507
0
ARC
8
DEFAULT_255_1_234
10
9.8704657
20
276.4373079
40
1.0724845
50
180.8976217
51
188.0055519
0
ARC
8
DEFAULT_255_1_234
10
10.1504845
20
276.4476777
40
1.3526448
50
180.7449369
51
181.1510016
0
ARC
8
DEFAULT_255_1_234
10
9.9927574
20
276.6333042
40
1.1948131
50
173.7675579
51
180.231553
0
ARC
8
DEFAULT_255_1_234
10
9.540972
20
276.6843666
40
0.7401564
50
164.3058563
51
173.9002247
0
ARC
8
DEFAULT_255_1_234
10
9.2497789
20
276.7682656
40
0.4371288
50
148.7922025
51
164.568378
0
ARC
8
DEFAULT_255_1_234
10
9.1546241
20
276.8213929
40
0.3282386
50
144.5883898
51
148.1176286
0
ARC
8
DEFAULT_255_1_234
10
9.1203139
20
276.8453315
40
0.2864044
50
101.6440918
51
144.514236
0
ARC
8
DEFAULT_255_1_234
10
9.1628206
20
276.6764069
40
0.4604934
50
89.5284041
51
102.5819763
0
ARC
8
DEFAULT_255_1_234
10
9.1707294
20
276.6725018
40
0.464401
50
77.0437873
51
90.5081339
0
ARC
8
DEFAULT_255_1_234
10
9.2109295
20
276.8367615
40
0.2953195
50
48.2778575
51
77.4994676
0
ARC
8
DEFAULT_255_1_234
10
9.2181927
20
276.8496746
40
0.2808655
50
36.3142134
51
47.6305865
0
ARC
8
DEFAULT_255_1_234
10
9.1313234
20
276.7911515
40
0.3855453
50
18.2931786
51
35.6769206
0
ARC
8
DEFAULT_255_1_234
10
8.8769993
20
276.7038593
40
0.654423
50
8.024666
51
18.5605216
0
ARC
8
DEFAULT_255_1_234
10
8.4606913
20
276.6423792
40
1.0752407
50
1.1274072
51
8.1718305
0
ARC
8
DEFAULT_255_1_234
10
8.1371103
20
276.6296885
40
1.3990231
50
0.5424119
51
1.3863029
0
ARC
8
DEFAULT_255_1_234
10
8.3192481
20
276.6569342
40
1.0682415
50
359.8090433
51
4.9407866
0
ARC
8
DEFAULT_255_1_234
10
8.7402495
20
276.6945113
40
0.6455691
50
4.8362157
51
12.2904523
0
ARC
8
DEFAULT_255_1_234
10
9.015761
20
276.7558965
40
0.3633074
50
12.0805627
51
23.8173984
0
ARC
8
DEFAULT_255_1_234
10
9.1331315
20
276.8055919
40
0.2358723
50
24.2871213
51
31.3935614
0
ARC
8
DEFAULT_255_1_234
10
9.1856012
20
276.8399233
40
0.1732111
50
30.7407893
51
82.4657128
0
ARC
8
DEFAULT_255_1_234
10
9.1676147
20
276.7515691
40
0.263235
50
81.1060089
51
90.2184952
0
ARC
8
DEFAULT_255_1_234
10
9.1640446
20
276.7773924
40
0.2374236
50
89.3806855
51
105.6762551
0
ARC
8
DEFAULT_255_1_234
10
9.1457076
20
276.8440567
40
0.1682847
50
105.7981136
51
149.7388061
0
ARC
8
DEFAULT_255_1_234
10
9.2521155
20
276.780095
40
0.2924306
50
149.4208916
51
163.6286378
0
ARC
8
DEFAULT_255_1_234
10
9.4612043
20
276.716325
40
0.5110213
50
163.3763315
51
172.1410975
0
ARC
8
DEFAULT_255_1_234
10
9.7912762
20
276.6690518
40
0.8444586
50
172.0259487
51
178.0703232
0
ARC
8
DEFAULT_255_1_234
10
10.0942851
20
276.6546906
40
1.1477868
50
177.8631668
51
179.5044149
0
ARC
8
DEFAULT_255_1_234
10
9.9870255
20
276.4232389
40
1.0404907
50
179.7995573
51
185.2460446
0
ARC
8
DEFAULT_255_1_234
10
9.5827295
20
276.3849513
40
0.6343885
50
185.1411642
51
193.0079639
0
ARC
8
DEFAULT_255_1_234
10
9.3183767
20
276.3224641
40
0.3627568
50
192.7897626
51
205.2507664
0
ARC
8
DEFAULT_255_1_234
10
9.2137314
20
276.2757415
40
0.2481908
50
205.8005384
51
211.2537509
0
ARC
8
DEFAULT_255_1_234
10
9.1613755
20
276.240658
40
0.1852521
50
210.3789793
51
238.4008143
0
ARC
8
DEFAULT_255_1_234
10
9.1594277
20
276.2453376
40
0.1882621
50
239.6520629
51
265.9793761
0
ARC
8
DEFAULT_255_1_234
10
9.1679477
20
276.3125427
40
0.2559272
50
265.1315437
51
270.060332
0
ARC
8
DEFAULT_255_1_234
10
9.1708256
20
276.2801534
40
0.2235528
50
269.3314664
51
287.2178029
0
ARC
8
DEFAULT_255_1_234
10
9.1846108
20
276.2298279
40
0.1714108
50
287.7958004
51
329.080874
0
ARC
8
DEFAULT_255_1_234
10
9.0888564
20
276.289593
40
0.2842745
50
328.6634704
51
343.3325132
0
ARC
8
DEFAULT_255_1_234
10
8.8715584
20
276.3572863
40
0.5118644
50
343.0499468
51
351.9393422
0
ARC
8
DEFAULT_255_1_234
10
8.5248884
20
276.4083949
40
0.8622784
50
351.8069023
51
357.7959224
0
ARC
8
DEFAULT_255_1_234
10
8.201344
20
276.4251721
40
1.1862365
50
357.5871873
51
359.2677531
0
LINE
8
DEFAULT_255_1_234
10
10.4597207
20
276.6429327
11
10.4597207
21
276.4501709
0
LINE
8
DEFAULT_255_1_234
10
9.721604
20
276.4300916
11
9.721604
21
276.6284755
0
LINE
8
DEFAULT_255_1_234
10
10.3111335
20
276.4100123
11
10.3111335
21
276.6533739
0
LINE
8
DEFAULT_255_1_234
10
9.8701911
20
276.6646184
11
9.8701911
21
276.4268789
0
ARC
8
DEFAULT_255_1_234
10
9.2350097
20
276.4452805
40
1.2247208
50
353.8441951
51
0.2287902
0
ARC
8
DEFAULT_255_1_234
10
9.69896
20
276.3934806
40
0.7578929
50
344.4934747
51
353.9765454
0
ARC
8
DEFAULT_255_1_234
10
9.998219
20
276.3083981
40
0.4467846
50
329.2803592
51
344.7472793
0
ARC
8
DEFAULT_255_1_234
10
10.0975015
20
276.2539018
40
0.3336173
50
324.9352394
51
328.6160465
0
ARC
8
DEFAULT_255_1_234
10
10.1352124
20
276.2275427
40
0.2876076
50
280.580143
51
324.9173126
0
ARC
8
DEFAULT_255_1_234
10
10.0950917
20
276.3946099
40
0.4592847
50
269.5977311
51
281.6734359
0
ARC
8
DEFAULT_255_1_234
10
10.0878822
20
276.3826173
40
0.4472986
50
256.6228859
51
270.51044
0
ARC
8
DEFAULT_255_1_234
10
10.04768
20
276.2277877
40
0.2873874
50
215.8618325
51
257.2788573
0
ARC
8
DEFAULT_255_1_234
10
10.1497832
20
276.2962977
40
0.4102928
50
197.9693508
51
215.2623606
0
ARC
8
DEFAULT_255_1_234
10
10.3982947
20
276.3801709
40
0.6725652
50
187.8816417
51
198.2346507
0
ARC
8
DEFAULT_255_1_234
10
10.7941156
20
276.4373079
40
1.0724845
50
180.8976217
51
188.0055519
0
ARC
8
DEFAULT_255_1_234
10
11.0741344
20
276.4476777
40
1.3526448
50
180.7449369
51
181.1510016
0
ARC
8
DEFAULT_255_1_234
10
10.9164073
20
276.6333042
40
1.1948131
50
173.7675579
51
180.231553
0
ARC
8
DEFAULT_255_1_234
10
10.4646219
20
276.6843666
40
0.7401564
50
164.3058563
51
173.9002247
0
ARC
8
DEFAULT_255_1_234
10
10.1734288
20
276.7682656
40
0.4371288
50
148.7922025
51
164.568378
0
ARC
8
DEFAULT_255_1_234
10
10.078274
20
276.8213929
40
0.3282386
50
144.5883898
51
148.1176286
0
ARC
8
DEFAULT_255_1_234
10
10.0439638
20
276.8453315
40
0.2864044
50
101.6440918
51
144.514236
0
ARC
8
DEFAULT_255_1_234
10
10.0864705
20
276.6764069
40
0.4604934
50
89.5284041
51
102.5819763
0
ARC
8
DEFAULT_255_1_234
10
10.0943793
20
276.6725018
40
0.464401
50
77.0437873
51
90.5081339
0
ARC
8
DEFAULT_255_1_234
10
10.1345794
20
276.8367615
40
0.2953195
50
48.2778575
51
77.4994676
0
ARC
8
DEFAULT_255_1_234
10
10.1418426
20
276.8496746
40
0.2808655
50
36.3142134
51
47.6305865
0
ARC
8
DEFAULT_255_1_234
10
10.0549733
20
276.7911515
40
0.3855453
50
18.2931786
51
35.6769206
0
ARC
8
DEFAULT_255_1_234
10
9.8006492
20
276.7038593
40
0.654423
50
8.024666
51
18.5605216
0
ARC
8
DEFAULT_255_1_234
10
9.3843412
20
276.6423792
40
1.0752407
50
1.1274072
51
8.1718305
0
ARC
8
DEFAULT_255_1_234
10
9.0607602
20
276.6296885
40
1.3990231
50
0.5424119
51
1.3863029
0
ARC
8
DEFAULT_255_1_234
10
9.242898
20
276.6569342
40
1.0682415
50
359.8090433
51
4.9407866
0
ARC
8
DEFAULT_255_1_234
10
9.6638994
20
276.6945113
40
0.6455691
50
4.8362157
51
12.2904523
0
ARC
8
DEFAULT_255_1_234
10
9.9394109
20
276.7558965
40
0.3633074
50
12.0805627
51
23.8173984
0
ARC
8
DEFAULT_255_1_234
10
10.0567814
20
276.8055919
40
0.2358723
50
24.2871213
51
31.3935614
0
ARC
8
DEFAULT_255_1_234
10
10.1092511
20
276.8399233
40
0.1732111
50
30.7407893
51
82.4657128
0
ARC
8
DEFAULT_255_1_234
10
10.0912646
20
276.7515691
40
0.263235
50
81.1060089
51
90.2184952
0
ARC
8
DEFAULT_255_1_234
10
10.0876945
20
276.7773924
40
0.2374236
50
89.3806855
51
105.6762551
0
ARC
8
DEFAULT_255_1_234
10
10.0693575
20
276.8440567
40
0.1682847
50
105.7981136
51
149.7388061
0
ARC
8
DEFAULT_255_1_234
10
10.1757654
20
276.780095
40
0.2924306
50
149.4208916
51
163.6286378
0
ARC
8
DEFAULT_255_1_234
10
10.3848542
20
276.716325
40
0.5110213
50
163.3763315
51
172.1410975
0
ARC
8
DEFAULT_255_1_234
10
10.7149261
20
276.6690518
40
0.8444586
50
172.0259487
51
178.0703232
0
ARC
8
DEFAULT_255_1_234
10
11.017935
20
276.6546906
40
1.1477868
50
177.8631668
51
179.5044149
0
ARC
8
DEFAULT_255_1_234
10
10.9106754
20
276.4232389
40
1.0404907
50
179.7995573
51
185.2460446
0
ARC
8
DEFAULT_255_1_234
10
10.5063794
20
276.3849513
40
0.6343885
50
185.1411642
51
193.0079639
0
ARC
8
DEFAULT_255_1_234
10
10.2420266
20
276.3224641
40
0.3627568
50
192.7897626
51
205.2507664
0
ARC
8
DEFAULT_255_1_234
10
10.1373813
20
276.2757415
40
0.2481908
50
205.8005384
51
211.2537509
0
ARC
8
DEFAULT_255_1_234
10
10.0850254
20
276.240658
40
0.1852521
50
210.3789793
51
238.4008143
0
ARC
8
DEFAULT_255_1_234
10
10.0830776
20
276.2453376
40
0.1882621
50
239.6520629
51
265.9793761
0
ARC
8
DEFAULT_255_1_234
10
10.0915976
20
276.3125427
40
0.2559272
50
265.1315437
51
270.060332
0
ARC
8
DEFAULT_255_1_234
10
10.0944755
20
276.2801534
40
0.2235528
50
269.3314664
51
287.2178029
0
ARC
8
DEFAULT_255_1_234
10
10.1082607
20
276.2298279
40
0.1714108
50
287.7958004
51
329.080874
0
ARC
8
DEFAULT_255_1_234
10
10.0125063
20
276.289593
40
0.2842745
50
328.6634704
51
343.3325132
0
ARC
8
DEFAULT_255_1_234
10
9.7952083
20
276.3572863
40
0.5118644
50
343.0499468
51
351.9393422
0
ARC
8
DEFAULT_255_1_234
10
9.4485383
20
276.4083949
40
0.8622784
50
351.8069023
51
357.7959224
0
ARC
8
DEFAULT_255_1_234
10
9.1249939
20
276.4251721
40
1.1862365
50
357.5871873
51
359.2677531
0
LINE
8
DEFAULT_255_1_234
10
10.9745551
20
276.5088026
11
10.9745551
21
276.3875234
0
LINE
8
DEFAULT_255_1_234
10
10.9745551
20
276.3875234
11
10.5826063
21
276.3875234
0
LINE
8
DEFAULT_255_1_234
10
10.5826063
20
276.3875234
11
10.5826063
21
276.5088026
0
LINE
8
DEFAULT_255_1_234
10
10.5826063
20
276.5088026
11
10.9745551
21
276.5088026
0
LINE
8
DEFAULT_255_1_234
10
11.8371638
20
276.6429327
11
11.8371638
21
276.4501709
0
LINE
8
DEFAULT_255_1_234
10
11.0990471
20
276.4300916
11
11.0990471
21
276.6284755
0
LINE
8
DEFAULT_255_1_234
10
11.6885767
20
276.4100123
11
11.6885767
21
276.6533739
0
LINE
8
DEFAULT_255_1_234
10
11.2476342
20
276.6646184
11
11.2476342
21
276.4268789
0
ARC
8
DEFAULT_255_1_234
10
10.6124528
20
276.4452805
40
1.2247208
50
353.8441951
51
0.2287902
0
ARC
8
DEFAULT_255_1_234
10
11.0764031
20
276.3934806
40
0.7578929
50
344.4934747
51
353.9765454
0
ARC
8
DEFAULT_255_1_234
10
11.3756622
20
276.3083981
40
0.4467846
50
329.2803592
51
344.7472793
0
ARC
8
DEFAULT_255_1_234
10
11.4749446
20
276.2539018
40
0.3336173
50
324.9352394
51
328.6160465
0
ARC
8
DEFAULT_255_1_234
10
11.5126555
20
276.2275427
40
0.2876076
50
280.580143
51
324.9173126
0
ARC
8
DEFAULT_255_1_234
10
11.4725348
20
276.3946099
40
0.4592847
50
269.5977311
51
281.6734359
0
ARC
8
DEFAULT_255_1_234
10
11.4653253
20
276.3826173
40
0.4472986
50
256.6228859
51
270.51044
0
ARC
8
DEFAULT_255_1_234
10
11.4251231
20
276.2277877
40
0.2873874
50
215.8618325
51
257.2788573
0
ARC
8
DEFAULT_255_1_234
10
11.5272263
20
276.2962977
40
0.4102928
50
197.9693508
51
215.2623606
0
ARC
8
DEFAULT_255_1_234
10
11.7757378
20
276.3801709
40
0.6725652
50
187.8816417
51
198.2346507
0
ARC
8
DEFAULT_255_1_234
10
12.1715587
20
276.4373079
40
1.0724845
50
180.8976217
51
188.0055519
0
ARC
8
DEFAULT_255_1_234
10
12.4515775
20
276.4476777
40
1.3526448
50
180.7449369
51
181.1510016
0
ARC
8
DEFAULT_255_1_234
10
12.2938504
20
276.6333042
40
1.1948131
50
173.7675579
51
180.231553
0
ARC
8
DEFAULT_255_1_234
10
11.842065
20
276.6843666
40
0.7401564
50
164.3058563
51
173.9002247
0
ARC
8
DEFAULT_255_1_234
10
11.5508719
20
276.7682656
40
0.4371288
50
148.7922025
51
164.568378
0
ARC
8
DEFAULT_255_1_234
10
11.4557172
20
276.8213929
40
0.3282386
50
144.5883898
51
148.1176286
0
ARC
8
DEFAULT_255_1_234
10
11.4214069
20
276.8453315
40
0.2864044
50
101.6440918
51
144.514236
0
ARC
8
DEFAULT_255_1_234
10
11.4639136
20
276.6764069
40
0.4604934
50
89.5284041
51
102.5819763
0
ARC
8
DEFAULT_255_1_234
10
11.4718224
20
276.6725018
40
0.464401
50
77.0437873
51
90.5081339
0
ARC
8
DEFAULT_255_1_234
10
11.5120226
20
276.8367615
40
0.2953195
50
48.2778575
51
77.4994676
0
ARC
8
DEFAULT_255_1_234
10
11.5192857
20
276.8496746
40
0.2808655
50
36.3142134
51
47.6305865
0
ARC
8
DEFAULT_255_1_234
10
11.4324164
20
276.7911515
40
0.3855453
50
18.2931786
51
35.6769206
0
ARC
8
DEFAULT_255_1_234
10
11.1780923
20
276.7038593
40
0.654423
50
8.024666
51
18.5605216
0
ARC
8
DEFAULT_255_1_234
10
10.7617843
20
276.6423792
40
1.0752407
50
1.1274072
51
8.1718305
0
ARC
8
DEFAULT_255_1_234
10
10.4382033
20
276.6296885
40
1.3990231
50
0.5424119
51
1.3863029
0
ARC
8
DEFAULT_255_1_234
10
10.6203411
20
276.6569342
40
1.0682415
50
359.8090433
51
4.9407866
0
ARC
8
DEFAULT_255_1_234
10
11.0413425
20
276.6945113
40
0.6455691
50
4.8362157
51
12.2904523
0
ARC
8
DEFAULT_255_1_234
10
11.316854
20
276.7558965
40
0.3633074
50
12.0805627
51
23.8173984
0
ARC
8
DEFAULT_255_1_234
10
11.4342245
20
276.8055919
40
0.2358723
50
24.2871213
51
31.3935614
0
ARC
8
DEFAULT_255_1_234
10
11.4866943
20
276.8399233
40
0.1732111
50
30.7407893
51
82.4657128
0
ARC
8
DEFAULT_255_1_234
10
11.4687077
20
276.7515691
40
0.263235
50
81.1060089
51
90.2184952
0
ARC
8
DEFAULT_255_1_234
10
11.4651376
20
276.7773924
40
0.2374236
50
89.3806855
51
105.6762551
0
ARC
8
DEFAULT_255_1_234
10
11.4468006
20
276.8440567
40
0.1682847
50
105.7981136
51
149.7388061
0
ARC
8
DEFAULT_255_1_234
10
11.5532085
20
276.780095
40
0.2924306
50
149.4208916
51
163.6286378
0
ARC
8
DEFAULT_255_1_234
10
11.7622973
20
276.716325
40
0.5110213
50
163.3763315
51
172.1410975
0
ARC
8
DEFAULT_255_1_234
10
12.0923692
20
276.6690518
40
0.8444586
50
172.0259487
51
178.0703232
0
ARC
8
DEFAULT_255_1_234
10
12.3953781
20
276.6546906
40
1.1477868
50
177.8631668
51
179.5044149
0
ARC
8
DEFAULT_255_1_234
10
12.2881186
20
276.4232389
40
1.0404907
50
179.7995573
51
185.2460446
0
ARC
8
DEFAULT_255_1_234
10
11.8838225
20
276.3849513
40
0.6343885
50
185.1411642
51
193.0079639
0
ARC
8
DEFAULT_255_1_234
10
11.6194697
20
276.3224641
40
0.3627568
50
192.7897626
51
205.2507664
0
ARC
8
DEFAULT_255_1_234
10
11.5148244
20
276.2757415
40
0.2481908
50
205.8005384
51
211.2537509
0
ARC
8
DEFAULT_255_1_234
10
11.4624685
20
276.240658
40
0.1852521
50
210.3789793
51
238.4008143
0
ARC
8
DEFAULT_255_1_234
10
11.4605207
20
276.2453376
40
0.1882621
50
239.6520629
51
265.9793761
0
ARC
8
DEFAULT_255_1_234
10
11.4690407
20
276.3125427
40
0.2559272
50
265.1315437
51
270.060332
0
ARC
8
DEFAULT_255_1_234
10
11.4719186
20
276.2801534
40
0.2235528
50
269.3314664
51
287.2178029
0
ARC
8
DEFAULT_255_1_234
10
11.4857038
20
276.2298279
40
0.1714108
50
287.7958004
51
329.080874
0
ARC
8
DEFAULT_255_1_234
10
11.3899495
20
276.289593
40
0.2842745
50
328.6634704
51
343.3325132
0
ARC
8
DEFAULT_255_1_234
10
11.1726515
20
276.3572863
40
0.5118644
50
343.0499468
51
351.9393422
0
ARC
8
DEFAULT_255_1_234
10
10.8259815
20
276.4083949
40
0.8622784
50
351.8069023
51
357.7959224
0
ARC
8
DEFAULT_255_1_234
10
10.5024371
20
276.4251721
40
1.1862365
50
357.5871873
51
359.2677531
0
LINE
8
DEFAULT_255_1_234
10
12.8234613
20
275.9514
11
12.7118201
21
276.2566061
0
LINE
8
DEFAULT_255_1_234
10
12.7118201
20
276.2566061
11
12.2218841
21
276.2566061
0
LINE
8
DEFAULT_255_1_234
10
12.2218841
20
276.2566061
11
12.1118493
21
275.9514
0
LINE
8
DEFAULT_255_1_234
10
12.1118493
20
275.9514
11
11.9528208
21
275.9514
0
LINE
8
DEFAULT_255_1_234
10
11.9528208
20
275.9514
11
12.3993855
21
277.1208211
0
LINE
8
DEFAULT_255_1_234
10
12.3993855
20
277.1208211
11
12.5343187
21
277.1208211
0
LINE
8
DEFAULT_255_1_234
10
12.5343187
20
277.1208211
11
12.9816865
21
275.9514
0
LINE
8
DEFAULT_255_1_234
10
12.9816865
20
275.9514
11
12.8234613
21
275.9514
0
LINE
8
DEFAULT_255_1_234
10
12.4668521
20
276.9304689
11
12.2684682
21
276.3835075
0
LINE
8
DEFAULT_255_1_234
10
12.2684682
20
276.3835075
11
12.6660392
21
276.3835075
0
LINE
8
DEFAULT_255_1_234
10
12.6660392
20
276.3835075
11
12.4668521
21
276.9304689
0
LINE
8
DEFAULT_255_1_234
10
13.5447114
20
275.9514
11
13.1391086
21
275.9514
0
LINE
8
DEFAULT_255_1_234
10
13.1391086
20
275.9514
11
13.1391086
21
277.1208211
0
LINE
8
DEFAULT_255_1_234
10
13.1391086
20
277.1208211
11
13.5214193
21
277.1208211
0
LINE
8
DEFAULT_255_1_234
10
13.5503336
20
276.4983614
11
13.293318
21
276.4983614
0
LINE
8
DEFAULT_255_1_234
10
13.293318
20
276.4983614
11
13.293318
21
276.0774983
0
LINE
8
DEFAULT_255_1_234
10
13.293318
20
276.0774983
11
13.5479241
21
276.0774983
0
LINE
8
DEFAULT_255_1_234
10
13.293318
20
276.9939196
11
13.293318
21
276.6220501
0
LINE
8
DEFAULT_255_1_234
10
13.293318
20
276.6220501
11
13.5262384
21
276.6220501
0
LINE
8
DEFAULT_255_1_234
10
13.5214193
20
276.9939196
11
13.293318
21
276.9939196
0
ARC
8
DEFAULT_255_1_234
10
13.5251902
20
276.3840901
40
0.7367406
50
82.1257326
51
90.2932599
0
ARC
8
DEFAULT_255_1_234
10
13.5640857
20
276.6559013
40
0.4621653
50
69.9044149
51
82.2857423
0
ARC
8
DEFAULT_255_1_234
10
13.6211535
20
276.8101637
40
0.2976871
50
51.1838526
51
70.0181538
0
ARC
8
DEFAULT_255_1_234
10
13.6466501
20
276.847224
40
0.2528517
50
12.1017251
51
50.4214761
0
ARC
8
DEFAULT_255_1_234
10
13.5082375
20
276.8124676
40
0.3955061
50
359.5251267
51
12.8211707
0
ARC
8
DEFAULT_255_1_234
10
13.6662302
20
276.8055344
40
0.2375281
50
323.4908128
51
0.8817314
0
ARC
8
DEFAULT_255_1_234
10
13.6243988
20
276.837855
40
0.2903817
50
298.6825083
51
323.2756573
0
ARC
8
DEFAULT_255_1_234
10
13.5882351
20
276.8979649
40
0.3604842
50
293.1999386
51
299.1396394
0
ARC
8
DEFAULT_255_1_234
10
13.6555324
20
276.2894126
40
0.2871098
50
54.0011765
51
74.9167975
0
ARC
8
DEFAULT_255_1_234
10
13.6671683
20
276.3091332
40
0.2643248
50
36.3580696
51
53.5291921
0
ARC
8
DEFAULT_255_1_234
10
13.6544925
20
276.3000998
40
0.2798884
50
4.8189881
51
36.3089977
0
ARC
8
DEFAULT_255_1_234
10
13.5765761
20
276.289127
40
0.358478
50
359.9370252
51
5.5204067
0
ARC
8
DEFAULT_255_1_234
10
13.5441282
20
276.2850667
40
0.3909429
50
344.7478609
51
0.5373281
0
ARC
8
DEFAULT_255_1_234
10
13.6432253
20
276.2583544
40
0.2883093
50
311.1786488
51
344.6886812
0
ARC
8
DEFAULT_255_1_234
10
13.61403
20
276.2946987
40
0.3348923
50
286.0418249
51
310.8441291
0
ARC
8
DEFAULT_255_1_234
10
13.5633132
20
276.4593807
40
0.5071869
50
274.1042341
51
286.4071509
0
ARC
8
DEFAULT_255_1_234
10
13.5456388
20
276.6477229
40
0.6963234
50
269.9236873
51
274.445647
0
ARC
8
DEFAULT_255_1_234
10
13.5502389
20
276.4137537
40
0.3362634
50
269.6055768
51
281.3740047
0
ARC
8
DEFAULT_255_1_234
10
13.5733027
20
276.3044353
40
0.224546
50
281.1055983
51
302.5132223
0
ARC
8
DEFAULT_255_1_234
10
13.5879926
20
276.2780823
40
0.1944357
50
303.0368945
51
311.8811219
0
ARC
8
DEFAULT_255_1_234
10
13.5951333
20
276.269589
40
0.1833454
50
311.9916004
51
351.7143462
0
ARC
8
DEFAULT_255_1_234
10
13.5134563
20
276.286093
40
0.2665871
50
350.7339597
51
0.2221581
0
ARC
8
DEFAULT_255_1_234
10
13.5027009
20
276.2917467
40
0.2773789
50
359.0456241
51
17.2296242
0
ARC
8
DEFAULT_255_1_234
10
13.6066126
20
276.3226163
40
0.1689915
50
17.6685481
51
78.9940892
0
ARC
8
DEFAULT_255_1_234
10
13.554929
20
276.1371224
40
0.3612658
50
76.5635957
51
90.6980921
0
LINE
8
DEFAULT_255_1_234
10
13.5505274
20
276.4983613
11
13.5503336
21
276.4983614
0
ARC
8
DEFAULT_255_1_234
10
13.528495
20
276.9506036
40
0.3285612
50
269.6064736
51
281.4533503
0
ARC
8
DEFAULT_255_1_234
10
13.550777
20
276.8454688
40
0.2210975
50
281.2041486
51
302.5148063
0
ARC
8
DEFAULT_255_1_234
10
13.564462
20
276.8208241
40
0.1929674
50
303.021671
51
309.8369575
0
ARC
8
DEFAULT_255_1_234
10
13.5828082
20
276.8002488
40
0.1654181
50
309.5228395
51
356.9509836
0
ARC
8
DEFAULT_255_1_234
10
13.5164664
20
276.8097932
40
0.2322512
50
355.4701227
51
0.0492546
0
ARC
8
DEFAULT_255_1_234
10
13.4885755
20
276.8120094
40
0.2601498
50
359.5558597
51
11.2096359
0
ARC
8
DEFAULT_255_1_234
10
13.5843045
20
276.831823
40
0.1623975
50
10.9182341
51
31.3230275
0
ARC
8
DEFAULT_255_1_234
10
13.6128778
20
276.8477214
40
0.1297302
50
31.8852677
51
52.1412565
0
ARC
8
DEFAULT_255_1_234
10
13.5854511
20
276.808975
40
0.1771663
50
52.8285564
51
71.9850297
0
ARC
8
DEFAULT_255_1_234
10
13.5478688
20
276.6983664
40
0.2939794
50
71.6863486
51
82.8455995
0
ARC
8
DEFAULT_255_1_234
10
13.5239224
20
276.5174149
40
0.476506
50
82.6984714
51
90.1729175
0
ARC
8
DEFAULT_255_1_234
10
13.5216858
20
276.6397623
40
0.3541573
50
89.8708275
51
90.0431131
0
LINE
8
DEFAULT_255_1_234
10
14.8579006
20
276.6429327
11
14.8579006
21
276.4501709
0
LINE
8
DEFAULT_255_1_234
10
14.1197838
20
276.4300916
11
14.1197838
21
276.6284755
0
LINE
8
DEFAULT_255_1_234
10
14.7093134
20
276.4100123
11
14.7093134
21
276.6533739
0
LINE
8
DEFAULT_255_1_234
10
14.268371
20
276.6646184
11
14.268371
21
276.4268789
0
ARC
8
DEFAULT_255_1_234
10
13.6331895
20
276.4452805
40
1.2247208
50
353.8441951
51
0.2287902
0
ARC
8
DEFAULT_255_1_234
10
14.0971399
20
276.3934806
40
0.7578929
50
344.4934747
51
353.9765454
0
ARC
8
DEFAULT_255_1_234
10
14.3963989
20
276.3083981
40
0.4467846
50
329.2803592
51
344.7472793
0
ARC
8
DEFAULT_255_1_234
10
14.4956814
20
276.2539018
40
0.3336173
50
324.9352394
51
328.6160465
0
ARC
8
DEFAULT_255_1_234
10
14.5333923
20
276.2275427
40
0.2876076
50
280.580143
51
324.9173126
0
ARC
8
DEFAULT_255_1_234
10
14.4932715
20
276.3946099
40
0.4592847
50
269.5977311
51
281.6734359
0
ARC
8
DEFAULT_255_1_234
10
14.4860621
20
276.3826173
40
0.4472986
50
256.6228859
51
270.51044
0
ARC
8
DEFAULT_255_1_234
10
14.4458599
20
276.2277877
40
0.2873874
50
215.8618325
51
257.2788573
0
ARC
8
DEFAULT_255_1_234
10
14.547963
20
276.2962977
40
0.4102928
50
197.9693508
51
215.2623606
0
ARC
8
DEFAULT_255_1_234
10
14.7964746
20
276.3801709
40
0.6725652
50
187.8816417
51
198.2346507
0
ARC
8
DEFAULT_255_1_234
10
15.1922954
20
276.4373079
40
1.0724845
50
180.8976217
51
188.0055519
0
ARC
8
DEFAULT_255_1_234
10
15.4723143
20
276.4476777
40
1.3526448
50
180.7449369
51
181.1510016
0
ARC
8
DEFAULT_255_1_234
10
15.3145872
20
276.6333042
40
1.1948131
50
173.7675579
51
180.231553
0
ARC
8
DEFAULT_255_1_234
10
14.8628018
20
276.6843666
40
0.7401564
50
164.3058563
51
173.9002247
0
ARC
8
DEFAULT_255_1_234
10
14.5716087
20
276.7682656
40
0.4371288
50
148.7922025
51
164.568378
0
ARC
8
DEFAULT_255_1_234
10
14.4764539
20
276.8213929
40
0.3282386
50
144.5883898
51
148.1176286
0
ARC
8
DEFAULT_255_1_234
10
14.4421437
20
276.8453315
40
0.2864044
50
101.6440918
51
144.514236
0
ARC
8
DEFAULT_255_1_234
10
14.4846504
20
276.6764069
40
0.4604934
50
89.5284041
51
102.5819763
0
ARC
8
DEFAULT_255_1_234
10
14.4925592
20
276.6725018
40
0.464401
50
77.0437873
51
90.5081339
0
ARC
8
DEFAULT_255_1_234
10
14.5327593
20
276.8367615
40
0.2953195
50
48.2778575
51
77.4994676
0
ARC
8
DEFAULT_255_1_234
10
14.5400225
20
276.8496746
40
0.2808655
50
36.3142134
51
47.6305865
0
ARC
8
DEFAULT_255_1_234
10
14.4531532
20
276.7911515
40
0.3855453
50
18.2931786
51
35.6769206
0
ARC
8
DEFAULT_255_1_234
10
14.198829
20
276.7038593
40
0.654423
50
8.024666
51
18.5605216
0
ARC
8
DEFAULT_255_1_234
10
13.782521
20
276.6423792
40
1.0752407
50
1.1274072
51
8.1718305
0
ARC
8
DEFAULT_255_1_234
10
13.4589401
20
276.6296885
40
1.3990231
50
0.5424119
51
1.3863029
0
ARC
8
DEFAULT_255_1_234
10
13.6410779
20
276.6569342
40
1.0682415
50
359.8090433
51
4.9407866
0
ARC
8
DEFAULT_255_1_234
10
14.0620793
20
276.6945113
40
0.6455691
50
4.8362157
51
12.2904523
0
ARC
8
DEFAULT_255_1_234
10
14.3375908
20
276.7558965
40
0.3633074
50
12.0805627
51
23.8173984
0
ARC
8
DEFAULT_255_1_234
10
14.4549613
20
276.8055919
40
0.2358723
50
24.2871213
51
31.3935614
0
ARC
8
DEFAULT_255_1_234
10
14.507431
20
276.8399233
40
0.1732111
50
30.7407893
51
82.4657128
0
ARC
8
DEFAULT_255_1_234
10
14.4894445
20
276.7515691
40
0.263235
50
81.1060089
51
90.2184952
0
ARC
8
DEFAULT_255_1_234
10
14.4858743
20
276.7773924
40
0.2374236
50
89.3806855
51
105.6762551
0
ARC
8
DEFAULT_255_1_234
10
14.4675374
20
276.8440567
40
0.1682847
50
105.7981136
51
149.7388061
0
ARC
8
DEFAULT_255_1_234
10
14.5739452
20
276.780095
40
0.2924306
50
149.4208916
51
163.6286378
0
ARC
8
DEFAULT_255_1_234
10
14.783034
20
276.716325
40
0.5110213
50
163.3763315
51
172.1410975
0
ARC
8
DEFAULT_255_1_234
10
15.1131059
20
276.6690518
40
0.8444586
50
172.0259487
51
178.0703232
0
ARC
8
DEFAULT_255_1_234
10
15.4161149
20
276.6546906
40
1.1477868
50
177.8631668
51
179.5044149
0
ARC
8
DEFAULT_255_1_234
10
15.3088553
20
276.4232389
40
1.0404907
50
179.7995573
51
185.2460446
0
ARC
8
DEFAULT_255_1_234
10
14.9045593
20
276.3849513
40
0.6343885
50
185.1411642
51
193.0079639
0
ARC
8
DEFAULT_255_1_234
10
14.6402065
20
276.3224641
40
0.3627568
50
192.7897626
51
205.2507664
0
ARC
8
DEFAULT_255_1_234
10
14.5355612
20
276.2757415
40
0.2481908
50
205.8005384
51
211.2537509
0
ARC
8
DEFAULT_255_1_234
10
14.4832053
20
276.240658
40
0.1852521
50
210.3789793
51
238.4008143
0
ARC
8
DEFAULT_255_1_234
10
14.4812575
20
276.2453376
40
0.1882621
50
239.6520629
51
265.9793761
0
ARC
8
DEFAULT_255_1_234
10
14.4897775
20
276.3125427
40
0.2559272
50
265.1315437
51
270.060332
0
ARC
8
DEFAULT_255_1_234
10
14.4926554
20
276.2801534
40
0.2235528
50
269.3314664
51
287.2178029
0
ARC
8
DEFAULT_255_1_234
10
14.5064405
20
276.2298279
40
0.1714108
50
287.7958004
51
329.080874
0
ARC
8
DEFAULT_255_1_234
10
14.4106862
20
276.289593
40
0.2842745
50
328.6634704
51
343.3325132
0
ARC
8
DEFAULT_255_1_234
10
14.1933882
20
276.3572863
40
0.5118644
50
343.0499468
51
351.9393422
0
ARC
8
DEFAULT_255_1_234
10
13.8467182
20
276.4083949
40
0.8622784
50
351.8069023
51
357.7959224
0
ARC
8
DEFAULT_255_1_234
10
13.5231738
20
276.4251721
40
1.1862365
50
357.5871873
51
359.2677531
0
ARC
8
DEFAULT_255_2_778
10
3.1927863
20
0.5439224
40
0.8001793
50
270.0038926
51
356.8621524
0
ARC
8
DEFAULT_255_2_778
10
3.180174
20
0.5438059
40
0.8127669
50
356.9190192
51
0.0026177
0
LINE
8
DEFAULT_255_2_778
10
3.9929407
20
0.543843
11
3.9929407
21
17.783843
0
LINE
8
DEFAULT_255_2_778
10
3.9926407
20
6.083743
11
6.2927407
21
6.083743
0
LINE
8
DEFAULT_255_2_778
10
6.2927407
20
6.083743
11
6.2927407
21
2.483743
0
LINE
8
DEFAULT_255_2_778
10
6.2927407
20
2.483743
11
3.9926407
21
2.483743
0
LINE
8
DEFAULT_255_2_778
10
6.3927407
20
17.783843
11
6.3927407
21
274.813843
0
LINE
8
DEFAULT_255_2_778
10
8.8927407
20
264.143743
11
8.8927407
21
14.783743
0
LINE
8
DEFAULT_255_2_778
10
8.8927407
20
14.783743
11
6.8927407
21
14.783743
0
LINE
8
DEFAULT_255_2_778
10
6.8927407
20
14.783743
11
6.8927407
21
17.783843
0
ARC
8
DEFAULT_255_2_778
10
21.4929318
20
0.5439455
40
0.8002606
50
183.045261
51
269.9901351
0
ARC
8
DEFAULT_255_2_778
10
21.5058122
20
0.5438504
40
0.8131183
50
179.9975726
51
182.9903558
0
ARC
8
DEFAULT_255_2_778
10
21.4928733
20
16.9836305
40
0.8001793
50
93.1378476
51
179.9961074
0
ARC
8
DEFAULT_255_2_778
10
21.4927569
20
16.9710181
40
0.8127669
50
89.9973823
51
93.0809808
0
LINE
8
DEFAULT_255_2_778
10
7.392894
20
17.7837849
11
7.392894
21
264.1436849
0
LINE
8
DEFAULT_255_2_778
10
16.792794
20
5.7835849
11
7.892694
21
5.7835849
0
LINE
8
DEFAULT_255_2_778
10
7.892694
20
5.7835849
11
7.892694
21
0.7834849
0
LINE
8
DEFAULT_255_2_778
10
7.892694
20
0.7834849
11
16.792794
21
0.7834849
0
LINE
8
DEFAULT_255_2_778
10
16.792794
20
0.7834849
11
16.792794
21
5.7835849
0
LINE
8
DEFAULT_255_2_778
10
12.912894
20
26.6835849
11
12.912894
21
23.8834849
0
LINE
8
DEFAULT_255_2_778
10
16.292694
20
146.8837849
11
18.292694
21
146.8837849
0
LINE
8
DEFAULT_255_2_778
10
18.292694
20
146.8837849
11
18.292694
21
143.6838849
0
LINE
8
DEFAULT_255_2_778
10
18.292694
20
143.6838849
11
16.292694
21
143.6838849
0
LINE
8
DEFAULT_255_2_778
10
16.292694
20
143.6838849
11
16.292694
21
146.8837849
0
LINE
8
DEFAULT_255_2_778
10
22.492694
20
263.6435849
11
16.492694
21
263.6435849
0
LINE
8
DEFAULT_255_2_778
10
16.492694
20
263.6435849
11
16.492694
21
255.6436849
0
LINE
8
DEFAULT_255_2_778
10
16.492694
20
255.6436849
11
22.492694
21
255.6436849
0
LINE
8
DEFAULT_255_2_778
10
22.492694
20
255.6436849
11
22.492694
21
263.6435849
0
LINE
8
DEFAULT_255_2_778
10
20.692694
20
2.4837849
11
18.392694
21
2.4837849
0
LINE
8
DEFAULT_255_2_778
10
18.392694
20
2.4837849
11
18.392694
21
6.0836849
0
LINE
8
DEFAULT_255_2_778
10
18.392694
20
6.0836849
11
20.692694
21
6.0836849
0
LINE
8
DEFAULT_255_2_778
10
20.692694
20
0.5438849
11
20.692694
21
16.9836849
0
LINE
8
DEFAULT_255_2_778
10
21.492794
20
17.7837849
11
24.942694
21
17.7837849
0
ARC
8
DEFAULT_255_2_778
10
23.4448895
20
1.2369461
40
1.4931507
50
269.9175555
51
299.8594812
0
ARC
8
DEFAULT_255_2_778
10
23.441869
20
1.244259
40
1.500997
50
299.820494
51
352.1202577
0
ARC
8
DEFAULT_255_2_778
10
23.4292976
20
1.2434685
40
1.5133435
50
352.2151554
51
0.0086523
0
ARC
8
DEFAULT_255_2_778
10
23.4494919
20
288.2460455
40
1.4931507
50
359.9175555
51
29.8594812
0
ARC
8
DEFAULT_255_2_778
10
23.442179
20
288.243025
40
1.500997
50
29.820494
51
82.1202577
0
ARC
8
DEFAULT_255_2_778
10
23.4429695
20
288.2304537
40
1.5133435
50
82.2151554
51
90.0086523
0
ARC
8
DEFAULT_255_2_778
10
1.6927128
20
288.2431897
40
1.5006073
50
90.0027412
51
134.9828428
0
ARC
8
DEFAULT_255_2_778
10
1.6933482
20
288.2438252
40
1.5006073
50
135.0171572
51
179.9972588
0
ARC
8
DEFAULT_255_2_778
10
1.6858901
20
1.2418485
40
1.4931507
50
179.9175555
51
209.8594812
0
ARC
8
DEFAULT_255_2_778
10
1.693203
20
1.244869
40
1.500997
50
209.820494
51
262.1202577
0
ARC
8
DEFAULT_255_2_778
10
1.6924124
20
1.2574403
40
1.5133435
50
262.2151554
51
270.0086523
0
LINE
8
DEFAULT_255_2_778
10
24.942641
20
1.243697
11
24.942641
21
288.243897
0
LINE
8
DEFAULT_255_2_778
10
23.442741
20
289.743797
11
1.692641
21
289.743797
0
LINE
8
DEFAULT_255_2_778
10
0.192741
20
288.243897
11
0.192741
21
1.243997
0
LINE
8
DEFAULT_255_2_778
10
1.692641
20
-0.255903
11
23.442741
21
-0.255903
0
ARC
8
DEFAULT_255_2_778
10
12.5001862
20
8.5534495
40
3.2620779
50
212.1884
51
224.0912374
0
ARC
8
DEFAULT_255_2_778
10
12.4719118
20
8.5341168
40
3.227851
50
195.9299104
51
212.1653361
0
ARC
8
DEFAULT_255_2_778
10
12.5031785
20
8.5428227
40
3.2603063
50
180.1293199
51
195.9262199
0
ARC
8
DEFAULT_255_2_778
10
12.5243498
20
8.5434014
40
3.2814789
50
180.0000001
51
180.1385908
0
ARC
8
DEFAULT_255_2_778
10
12.4964654
20
8.5449554
40
3.2535949
50
154.9742924
51
180.0273652
0
ARC
8
DEFAULT_255_2_778
10
12.4750759
20
8.5523774
40
3.2310747
50
141.0632717
51
154.9330981
0
ARC
8
DEFAULT_255_2_778
10
12.5166016
20
8.519266
40
3.2841843
50
134.6820521
51
141.0692378
0
ARC
8
DEFAULT_255_2_778
10
12.5021833
20
8.5372503
40
3.2612594
50
122.6963982
51
134.7241177
0
ARC
8
DEFAULT_255_2_778
10
12.4830552
20
8.5645455
40
3.2279568
50
106.1090798
51
122.6723891
0
ARC
8
DEFAULT_255_2_778
10
12.4921058
20
8.5326467
40
3.2611144
50
89.9907874
51
106.1063448
0
LINE
8
DEFAULT_255_2_778
10
12.4926301
20
11.793761
11
12.4929509
21
11.793761
0
ARC
8
DEFAULT_255_2_778
10
12.4942247
20
8.5416298
40
3.2521314
50
65.3109293
51
90.0224424
0
ARC
8
DEFAULT_255_2_778
10
12.5010839
20
8.5620645
40
3.2307006
50
51.5918772
51
65.2700822
0
ARC
8
DEFAULT_255_2_778
10
12.4682234
20
8.5200453
40
3.2840419
50
45.3011269
51
51.5980718
0
ARC
8
DEFAULT_255_2_778
10
12.484985
20
8.5334026
40
3.2627585
50
33.33023
51
45.3453638
0
ARC
8
DEFAULT_255_2_778
10
12.5127
20
8.5532533
40
3.2286953
50
16.4219297
51
33.306145
0
ARC
8
DEFAULT_255_2_778
10
12.4810523
20
8.5440659
40
3.2616492
50
359.9912727
51
16.4195688
0
ARC
8
DEFAULT_255_2_778
10
12.3996232
20
8.5436477
40
3.3430782
50
359.8530118
51
359.9986514
0
ARC
8
DEFAULT_255_2_778
10
12.4913824
20
8.5419866
40
3.2513152
50
335.9325712
51
359.8781368
0
ARC
8
DEFAULT_255_2_778
10
12.5102329
20
8.5359465
40
3.231641
50
322.2222632
51
335.8940551
0
ARC
8
DEFAULT_255_2_778
10
12.4672762
20
8.568777
40
3.2857057
50
315.9357748
51
322.2286502
0
LINE
8
DEFAULT_255_2_778
10
16.8427551
20
5.083786
11
16.7927551
21
5.083786
0
LINE
8
DEFAULT_255_2_778
10
11.4843551
20
6.283686
11
10.1572551
21
6.283686
0
LINE
8
DEFAULT_255_2_778
10
14.8282551
20
6.283686
11
13.5013551
21
6.283686
0
ARC
8
DEFAULT_255_2_778
10
16.2925946
20
1.2836324
40
0.5000956
50
270.0053149
51
315.0041129
0
ARC
8
DEFAULT_255_2_778
10
16.2926453
20
1.2836832
40
0.5000956
50
314.9958871
51
359.9946851
0
LINE
8
DEFAULT_255_2_778
10
10.156941
20
6.2879368
11
14.866041
21
6.2879368
0
LINE
8
DEFAULT_255_2_778
10
0.192741
20
17.7838368
11
8.892741
21
17.7838368
0
LINE
8
DEFAULT_255_2_778
10
8.892741
20
68.6838368
11
13.092741
21
68.6838368
0
LINE
8
DEFAULT_255_2_778
10
13.093041
20
196.8747368
11
8.892741
21
196.8747368
0
LINE
8
DEFAULT_255_2_778
10
6.392741
20
264.1437368
11
24.942641
21
264.1437368
0
LINE
8
DEFAULT_255_2_778
10
0.192741
20
274.8138368
11
24.942641
21
274.8138368
0
ARC
8
DEFAULT_255_2_778
10
3.0916854
20
90.2630145
40
0.4989492
50
89.8676947
51
180.1322858
0
ARC
8
DEFAULT_255_2_778
10
3.0939114
20
90.2630361
40
0.4989275
50
359.8652243
51
90.1233177
0
ARC
8
DEFAULT_255_2_778
10
3.0939327
20
90.2607673
40
0.4989061
50
269.8742308
51
0.1257692
0
ARC
8
DEFAULT_255_2_778
10
3.0916639
20
90.2607886
40
0.4989275
50
179.8766742
51
270.1347757
0
LINE
8
DEFAULT_255_2_778
10
2.5927375
20
90.2618625
11
2.5927375
21
90.2618625
0
ARC
8
DEFAULT_255_2_778
10
3.0916854
20
30.2630145
40
0.4989492
50
89.8676947
51
180.1322858
0
ARC
8
DEFAULT_255_2_778
10
3.0939114
20
30.2630361
40
0.4989275
50
359.8652243
51
90.1233177
0
ARC
8
DEFAULT_255_2_778
10
3.0939327
20
30.2607673
40
0.4989061
50
269.8742308
51
0.1257692
0
ARC
8
DEFAULT_255_2_778
10
3.0916639
20
30.2607886
40
0.4989275
50
179.8766742
51
270.1347757
0
LINE
8
DEFAULT_255_2_778
10
2.5927375
20
30.2618625
11
2.5927375
21
30.2618625
0
ARC
8
DEFAULT_255_2_778
10
3.0916854
20
150.2631012
40
0.4989492
50
89.8676947
51
180.1322858
0
ARC
8
DEFAULT_255_2_778
10
3.0939114
20
150.2631229
40
0.4989275
50
359.8652243
51
90.1233177
0
ARC
8
DEFAULT_255_2_778
10
3.0939327
20
150.2608541
40
0.4989061
50
269.8742308
51
0.1257692
0
ARC
8
DEFAULT_255_2_778
10
3.0916639
20
150.2608753
40
0.4989275
50
179.8766742
51
270.1347757
0
LINE
8
DEFAULT_255_2_778
10
2.5927375
20
150.2619493
11
2.5927375
21
150.2619493
0
ARC
8
DEFAULT_255_2_778
10
3.0916854
20
210.2630145
40
0.4989492
50
89.8676947
51
180.1322858
0
ARC
8
DEFAULT_255_2_778
10
3.0939114
20
210.2630361
40
0.4989275
50
359.8652243
51
90.1233177
0
ARC
8
DEFAULT_255_2_778
10
3.0939327
20
210.2607673
40
0.4989061
50
269.8742308
51
0.1257692
0
ARC
8
DEFAULT_255_2_778
10
3.0916639
20
210.2607886
40
0.4989275
50
179.8766742
51
270.1347757
0
LINE
8
DEFAULT_255_2_778
10
2.5927375
20
210.2618625
11
2.5927375
21
210.2618625
0
ARC
8
DEFAULT_255_2_778
10
12.3927442
20
268.9838022
40
2.5000575
50
121.9154232
51
180.0002045
0
ARC
8
DEFAULT_255_2_778
10
12.3970176
20
268.9763968
40
2.5086027
50
120.0007804
51
121.9088542
0
ARC
8
DEFAULT_255_2_778
10
12.3919529
20
268.9862424
40
2.4975438
50
100.2064418
51
120.0130962
0
ARC
8
DEFAULT_255_2_778
10
12.3926546
20
268.9819942
40
2.5018491
50
89.9989799
51
100.2050175
0
LINE
8
DEFAULT_255_2_778
10
12.3926992
20
271.4838433
11
12.3930599
21
271.4838433
0
ARC
8
DEFAULT_255_2_778
10
12.3930657
20
268.985026
40
2.4988173
50
64.7644616
51
90.000133
0
ARC
8
DEFAULT_255_2_778
10
12.3900647
20
268.9791028
40
2.5054546
50
60.0001428
51
64.7601327
0
ARC
8
DEFAULT_255_2_778
10
12.3927317
20
268.9837921
40
2.5000602
50
1.9146849
51
59.9993419
0
ARC
8
DEFAULT_255_2_778
10
12.3838984
20
268.9838012
40
2.5088883
50
359.9998204
51
1.9077366
0
ARC
8
DEFAULT_255_2_778
10
12.3927292
20
268.9837844
40
2.5000575
50
301.9154232
51
0.0002045
0
ARC
8
DEFAULT_255_2_778
10
12.3884558
20
268.9911898
40
2.5086027
50
300.0007804
51
301.9088542
0
ARC
8
DEFAULT_255_2_778
10
12.3933631
20
268.981874
40
2.4980812
50
280.2117961
51
300.0101427
0
ARC
8
DEFAULT_255_2_778
10
12.392739
20
268.9857385
40
2.5019952
50
270.0073495
51
280.2101726
0
LINE
8
DEFAULT_255_2_778
10
12.3930599
20
266.4837433
11
12.3926992
21
266.4837433
0
ARC
8
DEFAULT_255_2_778
10
12.3923084
20
268.9822114
40
2.4984681
50
244.7639794
51
270.0089607
0
ARC
8
DEFAULT_255_2_778
10
12.3951924
20
268.9878317
40
2.5047818
50
239.9969666
51
244.7591175
0
ARC
8
DEFAULT_255_2_778
10
12.3927416
20
268.9837946
40
2.5000602
50
181.9146849
51
239.9993419
0
ARC
8
DEFAULT_255_2_778
10
12.4015749
20
268.9837855
40
2.5088883
50
179.9998204
51
181.9077366
0
ARC
8
DEFAULT_255_2_778
10
12.4905985
20
280.947207
40
3.2477135
50
162.1310287
51
180.0566956
0
ARC
8
DEFAULT_255_2_778
10
12.4976695
20
280.9388686
40
3.2570071
50
105.7689151
51
162.0295862
0
ARC
8
DEFAULT_255_2_778
10
12.4899881
20
280.9415082
40
3.252386
50
89.9524605
51
105.6513253
0
ARC
8
DEFAULT_255_2_778
10
12.4959022
20
280.946205
40
3.2476899
50
72.1309283
51
90.0567286
0
ARC
8
DEFAULT_255_2_778
10
12.4875434
20
280.9391146
40
3.2570082
50
15.7677879
51
72.0292494
0
ARC
8
DEFAULT_255_2_778
10
12.4899172
20
280.9466955
40
3.2526704
50
359.9524005
51
15.650638
0
ARC
8
DEFAULT_255_2_778
10
12.4950776
20
280.9407874
40
3.2475106
50
342.1304324
51
0.0565629
0
ARC
8
DEFAULT_255_2_778
10
12.4877048
20
280.9492368
40
3.2571256
50
285.7690898
51
342.0287655
0
ARC
8
DEFAULT_255_2_778
10
12.4953866
20
280.9465873
40
3.2524951
50
269.9524383
51
285.6515452
0
ARC
8
DEFAULT_255_2_778
10
12.48948
20
280.9413529
40
3.2472612
50
252.1292096
51
270.0565792
0
ARC
8
DEFAULT_255_2_778
10
12.4980485
20
280.9489616
40
3.2571374
50
195.7681407
51
252.0268278
0
ARC
8
DEFAULT_255_2_778
10
12.4953744
20
280.9412998
40
3.2524888
50
179.9525507
51
195.6510508
0
LINE
8
DEFAULT_255_2_778
10
9.8926867
20
268.9837933
11
9.8926867
21
268.9837933
0
LINE
8
DEFAULT_255_2_778
10
9.2428867
20
280.9439933
11
9.2428867
21
280.9439933
0
LINE
8
DEFAULT_255_2_778
10
0.1927867
20
28.6436933
11
4.2927867
21
28.6436933
0
LINE
8
DEFAULT_255_2_778
10
4.2927867
20
28.6436933
11
4.2927867
21
81.9437933
0
LINE
8
DEFAULT_255_2_778
10
4.2927867
20
81.9437933
11
0.1927867
21
81.9437933
0
LINE
8
DEFAULT_255_2_778
10
1.8926084
20
28.6436682
11
1.8926084
21
81.9436682
0
LINE
8
DEFAULT_255_2_778
10
0.1927084
20
88.6437682
11
4.2927084
21
88.6437682
0
LINE
8
DEFAULT_255_2_778
10
4.2927084
20
88.6437682
11
4.2927084
21
141.9437682
0
LINE
8
DEFAULT_255_2_778
10
4.2927084
20
141.9437682
11
0.1927084
21
141.9437682
0
LINE
8
DEFAULT_255_2_778
10
1.8926084
20
88.6437682
11
1.8926084
21
141.9437682
0
LINE
8
DEFAULT_255_2_778
10
0.1927084
20
148.6438682
11
4.2927084
21
148.6438682
0
LINE
8
DEFAULT_255_2_778
10
4.2927084
20
148.6438682
11
4.2927084
21
201.9438682
0
LINE
8
DEFAULT_255_2_778
10
4.2927084
20
201.9438682
11
0.1927084
21
201.9438682
0
LINE
8
DEFAULT_255_2_778
10
1.8926084
20
148.6438359
11
1.8926084
21
201.9439359
0
LINE
8
DEFAULT_255_2_778
10
0.1927084
20
208.6437359
11
4.2927084
21
208.6437359
0
LINE
8
DEFAULT_255_2_778
10
4.2927084
20
208.6437359
11
4.2927084
21
261.9437359
0
LINE
8
DEFAULT_255_2_778
10
4.2927084
20
261.9437359
11
0.1927084
21
261.9437359
0
ARC
8
DEFAULT_255_2_778
10
11.7928583
20
4.8837948
40
0.5000956
50
134.9958871
51
179.9946851
0
ARC
8
DEFAULT_255_2_778
10
11.7928368
20
4.8840201
40
0.499921
50
89.9970313
51
135.0124063
0
ARC
8
DEFAULT_255_2_778
10
16.2928163
20
4.8838455
40
0.5000956
50
44.9958871
51
89.9946851
0
ARC
8
DEFAULT_255_2_778
10
16.2928671
20
4.8837948
40
0.5000956
50
0.0053149
51
45.0041129
0
ARC
8
DEFAULT_255_2_778
10
11.7928368
20
1.2837622
40
0.499921
50
224.9875937
51
270.0029687
0
ARC
8
DEFAULT_255_2_778
10
11.7926839
20
1.2839154
40
0.4999213
50
179.9970476
51
225.0124006
0
LINE
8
DEFAULT_255_2_778
10
1.8926627
20
208.6437412
11
1.8926627
21
261.9437412
0
LINE
8
DEFAULT_255_2_778
10
16.7926627
20
3.5839412
11
11.2927627
21
3.5839412
0
LINE
8
DEFAULT_255_2_778
10
11.2927627
20
3.5839412
11
11.2927627
21
4.8838412
0
LINE
8
DEFAULT_255_2_778
10
11.7928627
20
5.3839412
11
16.2928627
21
5.3839412
0
LINE
8
DEFAULT_255_2_778
10
11.2927627
20
1.2839412
11
11.2927627
21
2.5838412
0
LINE
8
DEFAULT_255_2_778
10
11.2927627
20
2.5838412
11
16.7926627
21
2.5838412
0
LINE
8
DEFAULT_255_2_778
10
12.89275
20
143.8837427
11
12.09265
21
143.8837427
0
LINE
8
DEFAULT_255_2_778
10
12.09265
20
143.8837427
11
12.09265
21
146.6838427
0
LINE
8
DEFAULT_255_2_778
10
12.09265
20
146.6838427
11
12.89275
21
146.6838427
0
LINE
8
DEFAULT_255_2_778
10
12.89275
20
138.8836427
11
12.09265
21
138.8836427
0
LINE
8
DEFAULT_255_2_778
10
12.09265
20
138.8836427
11
12.09265
21
141.6837427
0
LINE
8
DEFAULT_255_2_778
10
12.09265
20
141.6837427
11
12.89275
21
141.6837427
0
LINE
8
DEFAULT_255_2_778
10
12.89275
20
153.8836427
11
12.09265
21
153.8836427
0
LINE
8
DEFAULT_255_2_778
10
12.09265
20
153.8836427
11
12.09265
21
156.6837427
0
LINE
8
DEFAULT_255_2_778
10
12.09265
20
156.6837427
11
12.89275
21
156.6837427
0
LINE
8
DEFAULT_255_2_778
10
12.89275
20
148.8835427
11
12.09265
21
148.8835427
0
LINE
8
DEFAULT_255_2_778
10
12.09265
20
148.8835427
11
12.09265
21
151.6836427
0
LINE
8
DEFAULT_255_2_778
10
12.09265
20
151.6836427
11
12.89275
21
151.6836427
0
LINE
8
DEFAULT_255_2_778
10
12.89275
20
163.8835427
11
12.09265
21
163.8835427
0
LINE
8
DEFAULT_255_2_778
10
12.09265
20
163.8835427
11
12.09265
21
166.6836427
0
LINE
8
DEFAULT_255_2_778
10
12.09265
20
166.6836427
11
12.89275
21
166.6836427
0
LINE
8
DEFAULT_255_2_778
10
12.89275
20
158.8837427
11
12.09265
21
158.8837427
0
LINE
8
DEFAULT_255_2_778
10
12.09265
20
158.8837427
11
12.09265
21
161.6838427
0
LINE
8
DEFAULT_255_2_778
10
12.09265
20
161.6838427
11
12.89275
21
161.6838427
0
LINE
8
DEFAULT_255_2_778
10
12.89275
20
173.8837427
11
12.09265
21
173.8837427
0
LINE
8
DEFAULT_255_2_778
10
12.09265
20
173.8837427
11
12.09265
21
176.6838427
0
LINE
8
DEFAULT_255_2_778
10
12.09265
20
176.6838427
11
12.89275
21
176.6838427
0
LINE
8
DEFAULT_255_2_778
10
12.89275
20
168.8836427
11
12.09265
21
168.8836427
0
LINE
8
DEFAULT_255_2_778
10
12.09265
20
168.8836427
11
12.09265
21
171.6837427
0
LINE
8
DEFAULT_255_2_778
10
12.09265
20
171.6837427
11
12.89275
21
171.6837427
0
LINE
8
DEFAULT_255_2_778
10
12.89275
20
183.8836427
11
12.09265
21
183.8836427
0
LINE
8
DEFAULT_255_2_778
10
12.09265
20
183.8836427
11
12.09265
21
186.6837427
0
LINE
8
DEFAULT_255_2_778
10
12.09265
20
186.6837427
11
12.89275
21
186.6837427
0
LINE
8
DEFAULT_255_2_778
10
12.89275
20
178.8835427
11
12.09265
21
178.8835427
0
LINE
8
DEFAULT_255_2_778
10
12.09265
20
178.8835427
11
12.09265
21
181.6836427
0
LINE
8
DEFAULT_255_2_778
10
12.09265
20
181.6836427
11
12.89275
21
181.6836427
0
LINE
8
DEFAULT_255_2_778
10
12.89275
20
193.8836427
11
12.09265
21
193.8836427
0
LINE
8
DEFAULT_255_2_778
10
12.09265
20
193.8836427
11
12.09265
21
196.6837427
0
LINE
8
DEFAULT_255_2_778
10
12.09265
20
196.6837427
11
12.89275
21
196.6837427
0
LINE
8
DEFAULT_255_2_778
10
12.89275
20
188.8837427
11
12.09265
21
188.8837427
0
LINE
8
DEFAULT_255_2_778
10
12.09265
20
188.8837427
11
12.09265
21
191.6838427
0
LINE
8
DEFAULT_255_2_778
10
12.09265
20
191.6838427
11
12.89275
21
191.6838427
0
LINE
8
DEFAULT_255_2_778
10
12.89275
20
203.8835427
11
12.09265
21
203.8835427
0
LINE
8
DEFAULT_255_2_778
10
12.09265
20
203.8835427
11
12.09265
21
206.6836427
0
LINE
8
DEFAULT_255_2_778
10
12.09265
20
206.6836427
11
12.89275
21
206.6836427
0
LINE
8
DEFAULT_255_2_778
10
12.89275
20
198.8837427
11
12.09265
21
198.8837427
0
LINE
8
DEFAULT_255_2_778
10
12.09265
20
198.8837427
11
12.09265
21
201.6838427
0
LINE
8
DEFAULT_255_2_778
10
12.09265
20
201.6838427
11
12.89275
21
201.6838427
0
LINE
8
DEFAULT_255_2_778
10
12.89275
20
213.8837427
11
12.09265
21
213.8837427
0
LINE
8
DEFAULT_255_2_778
10
12.09265
20
213.8837427
11
12.09265
21
216.6838427
0
LINE
8
DEFAULT_255_2_778
10
12.09265
20
216.6838427
11
12.89275
21
216.6838427
0
LINE
8
DEFAULT_255_2_778
10
12.89275
20
208.8836427
11
12.09265
21
208.8836427
0
LINE
8
DEFAULT_255_2_778
10
12.09265
20
208.8836427
11
12.09265
21
211.6837427
0
LINE
8
DEFAULT_255_2_778
10
12.09265
20
211.6837427
11
12.89275
21
211.6837427
0
LINE
8
DEFAULT_255_2_778
10
12.89275
20
223.8836427
11
12.09265
21
223.8836427
0
LINE
8
DEFAULT_255_2_778
10
12.09265
20
223.8836427
11
12.09265
21
226.6837427
0
LINE
8
DEFAULT_255_2_778
10
12.09265
20
226.6837427
11
12.89275
21
226.6837427
0
LINE
8
DEFAULT_255_2_778
10
12.89275
20
218.8835427
11
12.09265
21
218.8835427
0
LINE
8
DEFAULT_255_2_778
10
12.09265
20
218.8835427
11
12.09265
21
221.6836427
0
LINE
8
DEFAULT_255_2_778
10
12.09265
20
221.6836427
11
12.89275
21
221.6836427
0
LINE
8
DEFAULT_255_2_778
10
12.09265
20
256.6838427
11
12.89275
21
256.6838427
0
LINE
8
DEFAULT_255_2_778
10
12.89275
20
256.6838427
11
12.89275
21
253.8837427
0
LINE
8
DEFAULT_255_2_778
10
12.89275
20
253.8837427
11
12.09265
21
253.8837427
0
LINE
8
DEFAULT_255_2_778
10
12.09265
20
253.8837427
11
12.09265
21
256.6838427
0
LINE
8
DEFAULT_255_2_778
10
12.09265
20
261.6836427
11
12.89275
21
261.6836427
0
LINE
8
DEFAULT_255_2_778
10
12.89275
20
261.6836427
11
12.89275
21
258.8835427
0
LINE
8
DEFAULT_255_2_778
10
12.89275
20
258.8835427
11
12.09265
21
258.8835427
0
LINE
8
DEFAULT_255_2_778
10
12.09265
20
258.8835427
11
12.09265
21
261.6836427
0
LINE
8
DEFAULT_255_2_778
10
12.09265
20
246.6838427
11
12.89275
21
246.6838427
0
LINE
8
DEFAULT_255_2_778
10
12.89275
20
246.6838427
11
12.89275
21
243.8837427
0
LINE
8
DEFAULT_255_2_778
10
12.89275
20
243.8837427
11
12.09265
21
243.8837427
0
LINE
8
DEFAULT_255_2_778
10
12.09265
20
243.8837427
11
12.09265
21
246.6838427
0
LINE
8
DEFAULT_255_2_778
10
12.09265
20
251.6837427
11
12.89275
21
251.6837427
0
LINE
8
DEFAULT_255_2_778
10
12.89275
20
251.6837427
11
12.89275
21
248.8836427
0
LINE
8
DEFAULT_255_2_778
10
12.89275
20
248.8836427
11
12.09265
21
248.8836427
0
LINE
8
DEFAULT_255_2_778
10
12.09265
20
248.8836427
11
12.09265
21
251.6837427
0
LINE
8
DEFAULT_255_2_778
10
12.09265
20
236.6836427
11
12.89275
21
236.6836427
0
LINE
8
DEFAULT_255_2_778
10
12.89275
20
236.6836427
11
12.89275
21
233.8835427
0
LINE
8
DEFAULT_255_2_778
10
12.89275
20
233.8835427
11
12.09265
21
233.8835427
0
LINE
8
DEFAULT_255_2_778
10
12.09265
20
233.8835427
11
12.09265
21
236.6836427
0
LINE
8
DEFAULT_255_2_778
10
12.09265
20
241.6837427
11
12.89275
21
241.6837427
0
LINE
8
DEFAULT_255_2_778
10
12.89275
20
241.6837427
11
12.89275
21
238.8836427
0
LINE
8
DEFAULT_255_2_778
10
12.89275
20
238.8836427
11
12.09265
21
238.8836427
0
LINE
8
DEFAULT_255_2_778
10
12.09265
20
238.8836427
11
12.09265
21
241.6837427
0
LINE
8
DEFAULT_255_2_778
10
12.9129
20
221.6836623
11
12.9129
21
218.8835623
0
LINE
8
DEFAULT_255_2_778
10
12.9129
20
226.6837623
11
12.9129
21
223.8836623
0
LINE
8
DEFAULT_255_2_778
10
12.9129
20
211.6837623
11
12.9129
21
208.8836623
0
LINE
8
DEFAULT_255_2_778
10
12.9129
20
216.6838623
11
12.9129
21
213.8837623
0
LINE
8
DEFAULT_255_2_778
10
12.9129
20
201.6838623
11
12.9129
21
198.8837623
0
LINE
8
DEFAULT_255_2_778
10
12.9129
20
206.6836623
11
12.9129
21
203.8835623
0
LINE
8
DEFAULT_255_2_778
10
12.9129
20
191.6838623
11
12.9129
21
188.8837623
0
LINE
8
DEFAULT_255_2_778
10
12.9129
20
196.6837623
11
12.9129
21
193.8836623
0
LINE
8
DEFAULT_255_2_778
10
12.9129
20
181.6836623
11
12.9129
21
178.8835623
0
LINE
8
DEFAULT_255_2_778
10
12.9129
20
186.6837623
11
12.9129
21
183.8836623
0
LINE
8
DEFAULT_255_2_778
10
12.9129
20
171.6837623
11
12.9129
21
168.8836623
0
LINE
8
DEFAULT_255_2_778
10
12.9129
20
176.6838623
11
12.9129
21
173.8837623
0
LINE
8
DEFAULT_255_2_778
10
12.9129
20
161.6838623
11
12.9129
21
158.8837623
0
LINE
8
DEFAULT_255_2_778
10
12.9129
20
166.6836623
11
12.9129
21
163.8835623
0
LINE
8
DEFAULT_255_2_778
10
12.9129
20
151.6836623
11
12.9129
21
148.8835623
0
LINE
8
DEFAULT_255_2_778
10
12.9129
20
156.6837623
11
12.9129
21
153.8836623
0
LINE
8
DEFAULT_255_2_778
10
12.9129
20
141.6837623
11
12.9129
21
138.8836623
0
LINE
8
DEFAULT_255_2_778
10
12.9129
20
146.6838623
11
12.9129
21
143.8837623
0
ARC
8
DEFAULT_255_2_778
10
13.092674
20
31.5836582
40
0.3001094
50
0.0208901
51
89.9791099
0
ARC
8
DEFAULT_255_2_778
10
13.092674
20
28.9837771
40
0.3001094
50
270.0208901
51
359.9791099
0
LINE
8
DEFAULT_255_2_778
10
8.8927834
20
31.8837677
11
13.0927834
21
31.8837677
0
LINE
8
DEFAULT_255_2_778
10
13.3927834
20
31.5837677
11
13.3927834
21
28.9836677
0
LINE
8
DEFAULT_255_2_778
10
13.0927834
20
28.6836677
11
8.8927834
21
28.6836677
0
ARC
8
DEFAULT_255_2_778
10
13.092674
20
26.5835582
40
0.3001094
50
0.0208901
51
89.9791099
0
ARC
8
DEFAULT_255_2_778
10
13.092674
20
23.9836771
40
0.3001094
50
270.0208901
51
359.9791099
0
LINE
8
DEFAULT_255_2_778
10
8.8927834
20
26.8836677
11
13.0927834
21
26.8836677
0
LINE
8
DEFAULT_255_2_778
10
13.3927834
20
26.5836677
11
13.3927834
21
23.9835677
0
LINE
8
DEFAULT_255_2_778
10
13.0927834
20
23.6835677
11
8.8927834
21
23.6835677
0
LINE
8
DEFAULT_255_2_778
10
12.092574
20
31.6837384
11
12.892674
21
31.6837384
0
LINE
8
DEFAULT_255_2_778
10
12.072774
20
28.8836384
11
12.072774
21
31.6837384
0
LINE
8
DEFAULT_255_2_778
10
12.892674
20
28.8836384
11
12.092574
21
28.8836384
0
LINE
8
DEFAULT_255_2_778
10
12.092574
20
26.6836384
11
12.892674
21
26.6836384
0
LINE
8
DEFAULT_255_2_778
10
12.072774
20
23.8835384
11
12.072774
21
26.6836384
0
LINE
8
DEFAULT_255_2_778
10
12.892674
20
23.8838384
11
12.092574
21
23.8838384
0
LINE
8
DEFAULT_255_2_778
10
12.912874
20
31.6837384
11
12.912874
21
28.8836384
0
LINE
8
DEFAULT_255_2_778
10
12.912874
20
36.6838384
11
12.912874
21
33.8837384
0
ARC
8
DEFAULT_255_2_778
10
13.092674
20
41.5835582
40
0.3001094
50
0.0208901
51
89.9791099
0
ARC
8
DEFAULT_255_2_778
10
13.092674
20
38.9836771
40
0.3001094
50
270.0208901
51
359.9791099
0
LINE
8
DEFAULT_255_2_778
10
8.8927834
20
41.8836677
11
13.0927834
21
41.8836677
0
LINE
8
DEFAULT_255_2_778
10
13.3927834
20
41.5836677
11
13.3927834
21
38.9835677
0
LINE
8
DEFAULT_255_2_778
10
13.0927834
20
38.6835677
11
8.8927834
21
38.6835677
0
ARC
8
DEFAULT_255_2_778
10
13.092674
20
36.5837582
40
0.3001094
50
0.0208901
51
89.9791099
0
ARC
8
DEFAULT_255_2_778
10
13.092674
20
33.9838771
40
0.3001094
50
270.0208901
51
359.9791099
0
LINE
8
DEFAULT_255_2_778
10
8.8927834
20
36.8838677
11
13.0927834
21
36.8838677
0
LINE
8
DEFAULT_255_2_778
10
13.3927834
20
36.5838677
11
13.3927834
21
33.9837677
0
LINE
8
DEFAULT_255_2_778
10
13.0927834
20
33.6837677
11
8.8927834
21
33.6837677
0
LINE
8
DEFAULT_255_2_778
10
12.092574
20
41.6836193
11
12.892674
21
41.6836193
0
LINE
8
DEFAULT_255_2_778
10
12.072774
20
38.8835193
11
12.072774
21
41.6836193
0
LINE
8
DEFAULT_255_2_778
10
12.892674
20
38.8838193
11
12.092574
21
38.8838193
0
LINE
8
DEFAULT_255_2_778
10
12.092574
20
36.6838193
11
12.892674
21
36.6838193
0
LINE
8
DEFAULT_255_2_778
10
12.072774
20
33.8837193
11
12.072774
21
36.6838193
0
LINE
8
DEFAULT_255_2_778
10
12.892674
20
33.8837193
11
12.092574
21
33.8837193
0
LINE
8
DEFAULT_255_2_778
10
12.912874
20
41.6836193
11
12.912874
21
38.8835193
0
LINE
8
DEFAULT_255_2_778
10
12.912874
20
46.6837193
11
12.912874
21
43.8836193
0
ARC
8
DEFAULT_255_2_778
10
13.092674
20
51.5837582
40
0.3001094
50
0.0208901
51
89.9791099
0
ARC
8
DEFAULT_255_2_778
10
13.092674
20
48.9838771
40
0.3001094
50
270.0208901
51
359.9791099
0
LINE
8
DEFAULT_255_2_778
10
8.8927834
20
51.8838677
11
13.0927834
21
51.8838677
0
LINE
8
DEFAULT_255_2_778
10
13.3927834
20
51.5838677
11
13.3927834
21
48.9837677
0
LINE
8
DEFAULT_255_2_778
10
13.0927834
20
48.6837677
11
8.8927834
21
48.6837677
0
ARC
8
DEFAULT_255_2_778
10
13.092674
20
46.5836582
40
0.3001094
50
0.0208901
51
89.9791099
0
ARC
8
DEFAULT_255_2_778
10
13.092674
20
43.9837771
40
0.3001094
50
270.0208901
51
359.9791099
0
LINE
8
DEFAULT_255_2_778
10
8.8927834
20
46.8837677
11
13.0927834
21
46.8837677
0
LINE
8
DEFAULT_255_2_778
10
13.3927834
20
46.5837677
11
13.3927834
21
43.9836677
0
LINE
8
DEFAULT_255_2_778
10
13.0927834
20
43.6836677
11
8.8927834
21
43.6836677
0
LINE
8
DEFAULT_255_2_778
10
12.092574
20
51.6839061
11
12.892674
21
51.6839061
0
LINE
8
DEFAULT_255_2_778
10
12.072774
20
48.8838061
11
12.072774
21
51.6839061
0
LINE
8
DEFAULT_255_2_778
10
12.892674
20
48.8838061
11
12.092574
21
48.8838061
0
LINE
8
DEFAULT_255_2_778
10
12.092574
20
46.6838061
11
12.892674
21
46.6838061
0
LINE
8
DEFAULT_255_2_778
10
12.072774
20
43.8837061
11
12.072774
21
46.6838061
0
LINE
8
DEFAULT_255_2_778
10
12.892674
20
43.8837061
11
12.092574
21
43.8837061
0
LINE
8
DEFAULT_255_2_778
10
12.912874
20
51.6839061
11
12.912874
21
48.8838061
0
LINE
8
DEFAULT_255_2_778
10
12.912874
20
56.6837061
11
12.912874
21
53.8836061
0
ARC
8
DEFAULT_255_2_778
10
13.092674
20
61.5836582
40
0.3001094
50
0.0208901
51
89.9791099
0
ARC
8
DEFAULT_255_2_778
10
13.092674
20
58.9837771
40
0.3001094
50
270.0208901
51
359.9791099
0
LINE
8
DEFAULT_255_2_778
10
8.8927834
20
61.8837677
11
13.0927834
21
61.8837677
0
LINE
8
DEFAULT_255_2_778
10
13.3927834
20
61.5837677
11
13.3927834
21
58.9836677
0
LINE
8
DEFAULT_255_2_778
10
13.0927834
20
58.6836677
11
8.8927834
21
58.6836677
0
ARC
8
DEFAULT_255_2_778
10
13.092674
20
56.5835582
40
0.3001094
50
0.0208901
51
89.9791099
0
ARC
8
DEFAULT_255_2_778
10
13.092674
20
53.9836771
40
0.3001094
50
270.0208901
51
359.9791099
0
LINE
8
DEFAULT_255_2_778
10
8.8927834
20
56.8836677
11
13.0927834
21
56.8836677
0
LINE
8
DEFAULT_255_2_778
10
13.3927834
20
56.5836677
11
13.3927834
21
53.9835677
0
LINE
8
DEFAULT_255_2_778
10
13.0927834
20
53.6835677
11
8.8927834
21
53.6835677
0
ARC
8
DEFAULT_255_2_778
10
13.092674
20
71.583657
40
0.3001094
50
0.0208901
51
89.9791099
0
ARC
8
DEFAULT_255_2_778
10
13.092674
20
68.9837758
40
0.3001094
50
270.0208901
51
359.9791099
0
LINE
8
DEFAULT_255_2_778
10
12.0926834
20
61.6837664
11
12.8927834
21
61.6837664
0
LINE
8
DEFAULT_255_2_778
10
12.0727834
20
58.8837664
11
12.0727834
21
61.6837664
0
LINE
8
DEFAULT_255_2_778
10
12.8927834
20
58.8837664
11
12.0926834
21
58.8837664
0
LINE
8
DEFAULT_255_2_778
10
12.0926834
20
56.6837664
11
12.8927834
21
56.6837664
0
LINE
8
DEFAULT_255_2_778
10
12.0727834
20
53.8836664
11
12.0727834
21
56.6837664
0
LINE
8
DEFAULT_255_2_778
10
12.8927834
20
53.8838664
11
12.0926834
21
53.8838664
0
LINE
8
DEFAULT_255_2_778
10
12.9128834
20
61.6837664
11
12.9128834
21
58.8837664
0
LINE
8
DEFAULT_255_2_778
10
12.9128834
20
66.6838664
11
12.9128834
21
63.8838664
0
LINE
8
DEFAULT_255_2_778
10
8.8927834
20
71.8837664
11
13.0927834
21
71.8837664
0
LINE
8
DEFAULT_255_2_778
10
13.3927834
20
71.5837664
11
13.3927834
21
68.9836664
0
ARC
8
DEFAULT_255_2_778
10
13.092674
20
66.5835582
40
0.3001094
50
0.0208901
51
89.9791099
0
ARC
8
DEFAULT_255_2_778
10
13.092674
20
63.9836771
40
0.3001094
50
270.0208901
51
359.9791099
0
LINE
8
DEFAULT_255_2_778
10
8.8927834
20
66.8836677
11
13.0927834
21
66.8836677
0
LINE
8
DEFAULT_255_2_778
10
13.3927834
20
66.5836677
11
13.3927834
21
63.9835677
0
LINE
8
DEFAULT_255_2_778
10
13.0927834
20
63.6835677
11
8.8927834
21
63.6835677
0
LINE
8
DEFAULT_255_2_778
10
12.092574
20
71.6837061
11
12.892674
21
71.6837061
0
LINE
8
DEFAULT_255_2_778
10
12.072774
20
68.8836061
11
12.072774
21
71.6837061
0
LINE
8
DEFAULT_255_2_778
10
12.892674
20
68.8839061
11
12.092574
21
68.8839061
0
LINE
8
DEFAULT_255_2_778
10
12.092574
20
66.6839061
11
12.892674
21
66.6839061
0
LINE
8
DEFAULT_255_2_778
10
12.072774
20
63.8838061
11
12.072774
21
66.6839061
0
LINE
8
DEFAULT_255_2_778
10
12.892674
20
63.8838061
11
12.092574
21
63.8838061
0
LINE
8
DEFAULT_255_2_778
10
12.912874
20
71.6837061
11
12.912874
21
68.8836061
0
LINE
8
DEFAULT_255_2_778
10
12.912874
20
76.6838061
11
12.912874
21
73.8837061
0
ARC
8
DEFAULT_255_2_778
10
13.092674
20
81.5835582
40
0.3001094
50
0.0208901
51
89.9791099
0
ARC
8
DEFAULT_255_2_778
10
13.092674
20
78.9836771
40
0.3001094
50
270.0208901
51
359.9791099
0
LINE
8
DEFAULT_255_2_778
10
8.8927834
20
81.8836677
11
13.0927834
21
81.8836677
0
LINE
8
DEFAULT_255_2_778
10
13.3927834
20
81.5836677
11
13.3927834
21
78.9835677
0
LINE
8
DEFAULT_255_2_778
10
13.0927834
20
78.6835677
11
8.8927834
21
78.6835677
0
ARC
8
DEFAULT_255_2_778
10
13.092674
20
76.5837582
40
0.3001094
50
0.0208901
51
89.9791099
0
ARC
8
DEFAULT_255_2_778
10
13.092674
20
73.9838771
40
0.3001094
50
270.0208901
51
359.9791099
0
LINE
8
DEFAULT_255_2_778
10
8.8927834
20
76.8838677
11
13.0927834
21
76.8838677
0
LINE
8
DEFAULT_255_2_778
10
13.3927834
20
76.5838677
11
13.3927834
21
73.9837677
0
LINE
8
DEFAULT_255_2_778
10
13.0927834
20
73.6837677
11
8.8927834
21
73.6837677
0
LINE
8
DEFAULT_255_2_778
10
12.092574
20
81.6836061
11
12.892674
21
81.6836061
0
LINE
8
DEFAULT_255_2_778
10
12.072774
20
78.8835061
11
12.072774
21
81.6836061
0
LINE
8
DEFAULT_255_2_778
10
12.892674
20
78.8838061
11
12.092574
21
78.8838061
0
LINE
8
DEFAULT_255_2_778
10
12.092574
20
76.6838061
11
12.892674
21
76.6838061
0
LINE
8
DEFAULT_255_2_778
10
12.072774
20
73.8837061
11
12.072774
21
76.6838061
0
LINE
8
DEFAULT_255_2_778
10
12.892674
20
73.8837061
11
12.092574
21
73.8837061
0
LINE
8
DEFAULT_255_2_778
10
12.912874
20
81.6836061
11
12.912874
21
78.8835061
0
LINE
8
DEFAULT_255_2_778
10
12.912874
20
86.6837061
11
12.912874
21
83.8836061
0
ARC
8
DEFAULT_255_2_778
10
13.092674
20
91.5837582
40
0.3001094
50
0.0208901
51
89.9791099
0
ARC
8
DEFAULT_255_2_778
10
13.092674
20
88.9838771
40
0.3001094
50
270.0208901
51
359.9791099
0
LINE
8
DEFAULT_255_2_778
10
8.8927834
20
91.8838677
11
13.0927834
21
91.8838677
0
LINE
8
DEFAULT_255_2_778
10
13.3927834
20
91.5838677
11
13.3927834
21
88.9837677
0
LINE
8
DEFAULT_255_2_778
10
13.0927834
20
88.6837677
11
8.8927834
21
88.6837677
0
ARC
8
DEFAULT_255_2_778
10
13.092674
20
86.5836715
40
0.3001094
50
0.0208901
51
89.9791099
0
ARC
8
DEFAULT_255_2_778
10
13.0925886
20
83.9837757
40
0.3001949
50
270.0371877
51
359.9819077
0
LINE
8
DEFAULT_255_2_778
10
8.8927834
20
86.8837809
11
13.0927834
21
86.8837809
0
LINE
8
DEFAULT_255_2_778
10
13.3927834
20
86.5837809
11
13.3927834
21
83.9836809
0
LINE
8
DEFAULT_255_2_778
10
13.0927834
20
83.6835809
11
8.8927834
21
83.6835809
0
LINE
8
DEFAULT_255_2_778
10
12.092574
20
91.6838061
11
12.892674
21
91.6838061
0
LINE
8
DEFAULT_255_2_778
10
12.072774
20
88.8837061
11
12.072774
21
91.6838061
0
LINE
8
DEFAULT_255_2_778
10
12.892674
20
88.8837061
11
12.092574
21
88.8837061
0
LINE
8
DEFAULT_255_2_778
10
12.092574
20
86.6837061
11
12.892674
21
86.6837061
0
LINE
8
DEFAULT_255_2_778
10
12.072774
20
83.8836061
11
12.072774
21
86.6837061
0
LINE
8
DEFAULT_255_2_778
10
12.892674
20
83.8836061
11
12.092574
21
83.8836061
0
LINE
8
DEFAULT_255_2_778
10
12.912874
20
91.6838061
11
12.912874
21
88.8837061
0
LINE
8
DEFAULT_255_2_778
10
12.912874
20
96.6836061
11
12.912874
21
93.8835061
0
ARC
8
DEFAULT_255_2_778
10
13.092674
20
101.5836715
40
0.3001094
50
0.0208901
51
89.9791099
0
ARC
8
DEFAULT_255_2_778
10
13.0925886
20
98.9837757
40
0.3001949
50
270.0371877
51
359.9819077
0
LINE
8
DEFAULT_255_2_778
10
8.8927834
20
101.8837809
11
13.0927834
21
101.8837809
0
LINE
8
DEFAULT_255_2_778
10
13.3927834
20
101.5837809
11
13.3927834
21
98.9836809
0
LINE
8
DEFAULT_255_2_778
10
13.0927834
20
98.6835809
11
8.8927834
21
98.6835809
0
ARC
8
DEFAULT_255_2_778
10
13.092674
20
96.5835582
40
0.3001094
50
0.0208901
51
89.9791099
0
ARC
8
DEFAULT_255_2_778
10
13.092674
20
93.9836771
40
0.3001094
50
270.0208901
51
359.9791099
0
LINE
8
DEFAULT_255_2_778
10
8.8927834
20
96.8836677
11
13.0927834
21
96.8836677
0
LINE
8
DEFAULT_255_2_778
10
13.3927834
20
96.5836677
11
13.3927834
21
93.9835677
0
LINE
8
DEFAULT_255_2_778
10
13.0927834
20
93.6835677
11
8.8927834
21
93.6835677
0
LINE
8
DEFAULT_255_2_778
10
12.092574
20
101.6837384
11
12.892674
21
101.6837384
0
LINE
8
DEFAULT_255_2_778
10
12.072774
20
98.8836384
11
12.072774
21
101.6837384
0
LINE
8
DEFAULT_255_2_778
10
12.892674
20
98.8836384
11
12.092574
21
98.8836384
0
LINE
8
DEFAULT_255_2_778
10
12.092574
20
96.6836384
11
12.892674
21
96.6836384
0
LINE
8
DEFAULT_255_2_778
10
12.072774
20
93.8835384
11
12.072774
21
96.6836384
0
LINE
8
DEFAULT_255_2_778
10
12.892674
20
93.8838384
11
12.092574
21
93.8838384
0
LINE
8
DEFAULT_255_2_778
10
12.912874
20
101.6837384
11
12.912874
21
98.8836384
0
LINE
8
DEFAULT_255_2_778
10
12.912874
20
106.6838384
11
12.912874
21
103.8837384
0
ARC
8
DEFAULT_255_2_778
10
13.092674
20
111.5835582
40
0.3001094
50
0.0208901
51
89.9791099
0
ARC
8
DEFAULT_255_2_778
10
13.092674
20
108.9836771
40
0.3001094
50
270.0208901
51
359.9791099
0
LINE
8
DEFAULT_255_2_778
10
8.8927834
20
111.8836677
11
13.0927834
21
111.8836677
0
LINE
8
DEFAULT_255_2_778
10
13.3927834
20
111.5836677
11
13.3927834
21
108.9835677
0
LINE
8
DEFAULT_255_2_778
10
13.0927834
20
108.6835677
11
8.8927834
21
108.6835677
0
ARC
8
DEFAULT_255_2_778
10
13.092674
20
106.5837582
40
0.3001094
50
0.0208901
51
89.9791099
0
ARC
8
DEFAULT_255_2_778
10
13.092674
20
103.9838771
40
0.3001094
50
270.0208901
51
359.9791099
0
LINE
8
DEFAULT_255_2_778
10
8.8927834
20
106.8838677
11
13.0927834
21
106.8838677
0
LINE
8
DEFAULT_255_2_778
10
13.3927834
20
106.5838677
11
13.3927834
21
103.9837677
0
LINE
8
DEFAULT_255_2_778
10
13.0927834
20
103.6837677
11
8.8927834
21
103.6837677
0
LINE
8
DEFAULT_255_2_778
10
12.092574
20
111.6837061
11
12.892674
21
111.6837061
0
LINE
8
DEFAULT_255_2_778
10
12.072774
20
108.8836061
11
12.072774
21
111.6837061
0
LINE
8
DEFAULT_255_2_778
10
12.892674
20
108.8839061
11
12.092574
21
108.8839061
0
LINE
8
DEFAULT_255_2_778
10
12.092574
20
106.6839061
11
12.892674
21
106.6839061
0
LINE
8
DEFAULT_255_2_778
10
12.072774
20
103.8838061
11
12.072774
21
106.6839061
0
LINE
8
DEFAULT_255_2_778
10
12.892674
20
103.8838061
11
12.092574
21
103.8838061
0
LINE
8
DEFAULT_255_2_778
10
12.912874
20
111.6837061
11
12.912874
21
108.8836061
0
LINE
8
DEFAULT_255_2_778
10
12.912874
20
116.6838061
11
12.912874
21
113.8837061
0
ARC
8
DEFAULT_255_2_778
10
13.092674
20
121.5835582
40
0.3001094
50
0.0208901
51
89.9791099
0
ARC
8
DEFAULT_255_2_778
10
13.092674
20
118.9836771
40
0.3001094
50
270.0208901
51
359.9791099
0
LINE
8
DEFAULT_255_2_778
10
8.8927834
20
121.8836677
11
13.0927834
21
121.8836677
0
LINE
8
DEFAULT_255_2_778
10
13.3927834
20
121.5836677
11
13.3927834
21
118.9835677
0
LINE
8
DEFAULT_255_2_778
10
13.0927834
20
118.6835677
11
8.8927834
21
118.6835677
0
ARC
8
DEFAULT_255_2_778
10
13.092674
20
116.5836582
40
0.3001094
50
0.0208901
51
89.9791099
0
ARC
8
DEFAULT_255_2_778
10
13.092674
20
113.9837771
40
0.3001094
50
270.0208901
51
359.9791099
0
LINE
8
DEFAULT_255_2_778
10
8.8927834
20
116.8837677
11
13.0927834
21
116.8837677
0
LINE
8
DEFAULT_255_2_778
10
13.3927834
20
116.5837677
11
13.3927834
21
113.9836677
0
LINE
8
DEFAULT_255_2_778
10
13.0927834
20
113.6836677
11
8.8927834
21
113.6836677
0
LINE
8
DEFAULT_255_2_778
10
12.092574
20
121.6839193
11
12.892674
21
121.6839193
0
LINE
8
DEFAULT_255_2_778
10
12.072774
20
118.8838193
11
12.072774
21
121.6839193
0
LINE
8
DEFAULT_255_2_778
10
12.892674
20
118.8838193
11
12.092574
21
118.8838193
0
LINE
8
DEFAULT_255_2_778
10
12.092574
20
116.6838193
11
12.892674
21
116.6838193
0
LINE
8
DEFAULT_255_2_778
10
12.072774
20
113.8837193
11
12.072774
21
116.6838193
0
LINE
8
DEFAULT_255_2_778
10
12.892674
20
113.8837193
11
12.092574
21
113.8837193
0
LINE
8
DEFAULT_255_2_778
10
12.912874
20
121.6839193
11
12.912874
21
118.8838193
0
LINE
8
DEFAULT_255_2_778
10
12.912874
20
126.6837193
11
12.912874
21
123.8836193
0
LINE
8
DEFAULT_255_2_778
10
12.092574
20
126.6837193
11
12.892674
21
126.6837193
0
LINE
8
DEFAULT_255_2_778
10
12.072774
20
123.8836193
11
12.072774
21
126.6837193
0
LINE
8
DEFAULT_255_2_778
10
12.892674
20
123.8839193
11
12.092574
21
123.8839193
0
ARC
8
DEFAULT_255_2_778
10
13.092674
20
131.5836582
40
0.3001094
50
0.0208901
51
89.9791099
0
ARC
8
DEFAULT_255_2_778
10
13.092674
20
128.9837771
40
0.3001094
50
270.0208901
51
359.9791099
0
LINE
8
DEFAULT_255_2_778
10
8.8927834
20
131.8837677
11
13.0927834
21
131.8837677
0
LINE
8
DEFAULT_255_2_778
10
13.3927834
20
131.5837677
11
13.3927834
21
128.9836677
0
LINE
8
DEFAULT_255_2_778
10
13.0927834
20
128.6836677
11
8.8927834
21
128.6836677
0
ARC
8
DEFAULT_255_2_778
10
13.092674
20
126.5836582
40
0.3001094
50
0.0208901
51
89.9791099
0
ARC
8
DEFAULT_255_2_778
10
13.092674
20
123.9837771
40
0.3001094
50
270.0208901
51
359.9791099
0
LINE
8
DEFAULT_255_2_778
10
8.8927834
20
126.8837677
11
13.0927834
21
126.8837677
0
LINE
8
DEFAULT_255_2_778
10
13.3927834
20
126.5837677
11
13.3927834
21
123.9836677
0
LINE
8
DEFAULT_255_2_778
10
13.0927834
20
123.6836677
11
8.8927834
21
123.6836677
0
LINE
8
DEFAULT_255_2_778
10
12.09265
20
131.6837427
11
12.89275
21
131.6837427
0
LINE
8
DEFAULT_255_2_778
10
12.89275
20
131.6837427
11
12.89275
21
128.8836427
0
LINE
8
DEFAULT_255_2_778
10
12.89275
20
128.8836427
11
12.09265
21
128.8836427
0
LINE
8
DEFAULT_255_2_778
10
12.09265
20
128.8836427
11
12.09265
21
131.6837427
0
LINE
8
DEFAULT_255_2_778
10
12.09265
20
136.6838427
11
12.89275
21
136.6838427
0
LINE
8
DEFAULT_255_2_778
10
12.89275
20
136.6838427
11
12.89275
21
133.8837427
0
LINE
8
DEFAULT_255_2_778
10
12.89275
20
133.8837427
11
12.09265
21
133.8837427
0
LINE
8
DEFAULT_255_2_778
10
12.09265
20
133.8837427
11
12.09265
21
136.6838427
0
ARC
8
DEFAULT_255_2_778
10
13.092674
20
141.5836582
40
0.3001094
50
0.0208901
51
89.9791099
0
ARC
8
DEFAULT_255_2_778
10
13.092674
20
138.9837771
40
0.3001094
50
270.0208901
51
359.9791099
0
LINE
8
DEFAULT_255_2_778
10
8.8927834
20
141.8837677
11
13.0927834
21
141.8837677
0
LINE
8
DEFAULT_255_2_778
10
13.3927834
20
141.5837677
11
13.3927834
21
138.9836677
0
LINE
8
DEFAULT_255_2_778
10
13.0927834
20
138.6836677
11
8.8927834
21
138.6836677
0
ARC
8
DEFAULT_255_2_778
10
13.092674
20
136.5835582
40
0.3001094
50
0.0208901
51
89.9791099
0
ARC
8
DEFAULT_255_2_778
10
13.092674
20
133.9836771
40
0.3001094
50
270.0208901
51
359.9791099
0
LINE
8
DEFAULT_255_2_778
10
8.8927834
20
136.8836677
11
13.0927834
21
136.8836677
0
LINE
8
DEFAULT_255_2_778
10
13.3927834
20
136.5836677
11
13.3927834
21
133.9835677
0
LINE
8
DEFAULT_255_2_778
10
13.0927834
20
133.6835677
11
8.8927834
21
133.6835677
0
ARC
8
DEFAULT_255_2_778
10
13.092674
20
151.5835582
40
0.3001094
50
0.0208901
51
89.9791099
0
ARC
8
DEFAULT_255_2_778
10
13.092674
20
148.9836771
40
0.3001094
50
270.0208901
51
359.9791099
0
LINE
8
DEFAULT_255_2_778
10
8.8927834
20
151.8836677
11
13.0927834
21
151.8836677
0
LINE
8
DEFAULT_255_2_778
10
13.3927834
20
151.5836677
11
13.3927834
21
148.9835677
0
LINE
8
DEFAULT_255_2_778
10
13.0927834
20
148.6835677
11
8.8927834
21
148.6835677
0
ARC
8
DEFAULT_255_2_778
10
13.092674
20
146.5837582
40
0.3001094
50
0.0208901
51
89.9791099
0
ARC
8
DEFAULT_255_2_778
10
13.092674
20
143.9838771
40
0.3001094
50
270.0208901
51
359.9791099
0
LINE
8
DEFAULT_255_2_778
10
8.8927834
20
146.8838677
11
13.0927834
21
146.8838677
0
LINE
8
DEFAULT_255_2_778
10
13.3927834
20
146.5838677
11
13.3927834
21
143.9837677
0
LINE
8
DEFAULT_255_2_778
10
13.0927834
20
143.6837677
11
8.8927834
21
143.6837677
0
ARC
8
DEFAULT_255_2_778
10
13.092674
20
161.5837582
40
0.3001094
50
0.0208901
51
89.9791099
0
ARC
8
DEFAULT_255_2_778
10
13.092674
20
158.9838771
40
0.3001094
50
270.0208901
51
359.9791099
0
LINE
8
DEFAULT_255_2_778
10
8.8927834
20
161.8838677
11
13.0927834
21
161.8838677
0
LINE
8
DEFAULT_255_2_778
10
13.3927834
20
161.5838677
11
13.3927834
21
158.9837677
0
LINE
8
DEFAULT_255_2_778
10
13.0927834
20
158.6837677
11
8.8927834
21
158.6837677
0
ARC
8
DEFAULT_255_2_778
10
13.092674
20
156.5836715
40
0.3001094
50
0.0208901
51
89.9791099
0
ARC
8
DEFAULT_255_2_778
10
13.0925886
20
153.9837757
40
0.3001949
50
270.0371877
51
359.9819077
0
LINE
8
DEFAULT_255_2_778
10
8.8927834
20
156.8837809
11
13.0927834
21
156.8837809
0
LINE
8
DEFAULT_255_2_778
10
13.3927834
20
156.5837809
11
13.3927834
21
153.9836809
0
LINE
8
DEFAULT_255_2_778
10
13.0927834
20
153.6835809
11
8.8927834
21
153.6835809
0
ARC
8
DEFAULT_255_2_778
10
13.092674
20
171.5836582
40
0.3001094
50
0.0208901
51
89.9791099
0
ARC
8
DEFAULT_255_2_778
10
13.092674
20
168.9837771
40
0.3001094
50
270.0208901
51
359.9791099
0
LINE
8
DEFAULT_255_2_778
10
8.8927834
20
171.8837677
11
13.0927834
21
171.8837677
0
LINE
8
DEFAULT_255_2_778
10
13.3927834
20
171.5837677
11
13.3927834
21
168.9836677
0
LINE
8
DEFAULT_255_2_778
10
13.0927834
20
168.6836677
11
8.8927834
21
168.6836677
0
ARC
8
DEFAULT_255_2_778
10
13.092674
20
166.5835582
40
0.3001094
50
0.0208901
51
89.9791099
0
ARC
8
DEFAULT_255_2_778
10
13.092674
20
163.9836771
40
0.3001094
50
270.0208901
51
359.9791099
0
LINE
8
DEFAULT_255_2_778
10
8.8927834
20
166.8836677
11
13.0927834
21
166.8836677
0
LINE
8
DEFAULT_255_2_778
10
13.3927834
20
166.5836677
11
13.3927834
21
163.9835677
0
LINE
8
DEFAULT_255_2_778
10
13.0927834
20
163.6835677
11
8.8927834
21
163.6835677
0
ARC
8
DEFAULT_255_2_778
10
13.092674
20
181.5835582
40
0.3001094
50
0.0208901
51
89.9791099
0
ARC
8
DEFAULT_255_2_778
10
13.092674
20
178.9836771
40
0.3001094
50
270.0208901
51
359.9791099
0
LINE
8
DEFAULT_255_2_778
10
8.8927834
20
181.8836677
11
13.0927834
21
181.8836677
0
LINE
8
DEFAULT_255_2_778
10
13.3927834
20
181.5836677
11
13.3927834
21
178.9835677
0
LINE
8
DEFAULT_255_2_778
10
13.0927834
20
178.6835677
11
8.8927834
21
178.6835677
0
ARC
8
DEFAULT_255_2_778
10
13.092674
20
176.5837582
40
0.3001094
50
0.0208901
51
89.9791099
0
ARC
8
DEFAULT_255_2_778
10
13.092674
20
173.9838771
40
0.3001094
50
270.0208901
51
359.9791099
0
LINE
8
DEFAULT_255_2_778
10
8.8927834
20
176.8838677
11
13.0927834
21
176.8838677
0
LINE
8
DEFAULT_255_2_778
10
13.3927834
20
176.5838677
11
13.3927834
21
173.9837677
0
LINE
8
DEFAULT_255_2_778
10
13.0927834
20
173.6837677
11
8.8927834
21
173.6837677
0
ARC
8
DEFAULT_255_2_778
10
13.092674
20
191.5835582
40
0.3001094
50
0.0208901
51
89.9791099
0
ARC
8
DEFAULT_255_2_778
10
13.092674
20
188.9836771
40
0.3001094
50
270.0208901
51
359.9791099
0
LINE
8
DEFAULT_255_2_778
10
8.8927834
20
191.8836677
11
13.0927834
21
191.8836677
0
LINE
8
DEFAULT_255_2_778
10
13.3927834
20
191.5836677
11
13.3927834
21
188.9835677
0
LINE
8
DEFAULT_255_2_778
10
13.0927834
20
188.6835677
11
8.8927834
21
188.6835677
0
ARC
8
DEFAULT_255_2_778
10
13.092674
20
186.5836582
40
0.3001094
50
0.0208901
51
89.9791099
0
ARC
8
DEFAULT_255_2_778
10
13.092674
20
183.9837771
40
0.3001094
50
270.0208901
51
359.9791099
0
LINE
8
DEFAULT_255_2_778
10
8.8927834
20
186.8837677
11
13.0927834
21
186.8837677
0
LINE
8
DEFAULT_255_2_778
10
13.3927834
20
186.5837677
11
13.3927834
21
183.9836677
0
LINE
8
DEFAULT_255_2_778
10
13.0927834
20
183.6836677
11
8.8927834
21
183.6836677
0
ARC
8
DEFAULT_255_2_778
10
13.092674
20
201.5837582
40
0.3001094
50
0.0208901
51
89.9791099
0
ARC
8
DEFAULT_255_2_778
10
13.092674
20
198.9838771
40
0.3001094
50
270.0208901
51
359.9791099
0
LINE
8
DEFAULT_255_2_778
10
8.8927834
20
201.8838677
11
13.0927834
21
201.8838677
0
LINE
8
DEFAULT_255_2_778
10
13.3927834
20
201.5838677
11
13.3927834
21
198.9837677
0
LINE
8
DEFAULT_255_2_778
10
13.0927834
20
198.6837677
11
8.8927834
21
198.6837677
0
ARC
8
DEFAULT_255_2_778
10
13.092674
20
193.9839771
40
0.3001094
50
270.0208901
51
359.9791099
0
ARC
8
DEFAULT_255_2_778
10
13.092674
20
196.5838582
40
0.3001094
50
0.0208901
51
89.9791099
0
LINE
8
DEFAULT_255_2_778
10
8.8927834
20
193.6838677
11
13.0927834
21
193.6838677
0
LINE
8
DEFAULT_255_2_778
10
13.3927834
20
193.9838677
11
13.3927834
21
196.5839677
0
ARC
8
DEFAULT_255_2_778
10
13.092674
20
211.5836582
40
0.3001094
50
0.0208901
51
89.9791099
0
ARC
8
DEFAULT_255_2_778
10
13.092674
20
208.9837771
40
0.3001094
50
270.0208901
51
359.9791099
0
LINE
8
DEFAULT_255_2_778
10
8.8927834
20
211.8837677
11
13.0927834
21
211.8837677
0
LINE
8
DEFAULT_255_2_778
10
13.3927834
20
211.5837677
11
13.3927834
21
208.9836677
0
LINE
8
DEFAULT_255_2_778
10
13.0927834
20
208.6836677
11
8.8927834
21
208.6836677
0
ARC
8
DEFAULT_255_2_778
10
13.092674
20
206.5835582
40
0.3001094
50
0.0208901
51
89.9791099
0
ARC
8
DEFAULT_255_2_778
10
13.092674
20
203.9836771
40
0.3001094
50
270.0208901
51
359.9791099
0
LINE
8
DEFAULT_255_2_778
10
8.8927834
20
206.8836677
11
13.0927834
21
206.8836677
0
LINE
8
DEFAULT_255_2_778
10
13.3927834
20
206.5836677
11
13.3927834
21
203.9835677
0
LINE
8
DEFAULT_255_2_778
10
13.0927834
20
203.6835677
11
8.8927834
21
203.6835677
0
ARC
8
DEFAULT_255_2_778
10
13.092674
20
221.5835582
40
0.3001094
50
0.0208901
51
89.9791099
0
ARC
8
DEFAULT_255_2_778
10
13.092674
20
218.9836771
40
0.3001094
50
270.0208901
51
359.9791099
0
LINE
8
DEFAULT_255_2_778
10
8.8927834
20
221.8836677
11
13.0927834
21
221.8836677
0
LINE
8
DEFAULT_255_2_778
10
13.3927834
20
221.5836677
11
13.3927834
21
218.9835677
0
LINE
8
DEFAULT_255_2_778
10
13.0927834
20
218.6835677
11
8.8927834
21
218.6835677
0
ARC
8
DEFAULT_255_2_778
10
13.092674
20
216.5837582
40
0.3001094
50
0.0208901
51
89.9791099
0
ARC
8
DEFAULT_255_2_778
10
13.092674
20
213.9838771
40
0.3001094
50
270.0208901
51
359.9791099
0
LINE
8
DEFAULT_255_2_778
10
8.8927834
20
216.8838677
11
13.0927834
21
216.8838677
0
LINE
8
DEFAULT_255_2_778
10
13.3927834
20
216.5838677
11
13.3927834
21
213.9837677
0
LINE
8
DEFAULT_255_2_778
10
13.0927834
20
213.6837677
11
8.8927834
21
213.6837677
0
ARC
8
DEFAULT_255_2_778
10
13.092674
20
231.5837582
40
0.3001094
50
0.0208901
51
89.9791099
0
ARC
8
DEFAULT_255_2_778
10
13.092674
20
228.9838771
40
0.3001094
50
270.0208901
51
359.9791099
0
LINE
8
DEFAULT_255_2_778
10
8.8927834
20
231.8838677
11
13.0927834
21
231.8838677
0
LINE
8
DEFAULT_255_2_778
10
13.3927834
20
231.5838677
11
13.3927834
21
228.9837677
0
LINE
8
DEFAULT_255_2_778
10
13.0927834
20
228.6837677
11
8.8927834
21
228.6837677
0
ARC
8
DEFAULT_255_2_778
10
13.092674
20
226.5836582
40
0.3001094
50
0.0208901
51
89.9791099
0
ARC
8
DEFAULT_255_2_778
10
13.092674
20
223.9837771
40
0.3001094
50
270.0208901
51
359.9791099
0
LINE
8
DEFAULT_255_2_778
10
8.8927834
20
226.8837677
11
13.0927834
21
226.8837677
0
LINE
8
DEFAULT_255_2_778
10
13.3927834
20
226.5837677
11
13.3927834
21
223.9836677
0
LINE
8
DEFAULT_255_2_778
10
13.0927834
20
223.6836677
11
8.8927834
21
223.6836677
0
LINE
8
DEFAULT_255_2_778
10
12.09265
20
231.6838427
11
12.89275
21
231.6838427
0
LINE
8
DEFAULT_255_2_778
10
12.89275
20
231.6838427
11
12.89275
21
228.8837427
0
LINE
8
DEFAULT_255_2_778
10
12.89275
20
228.8837427
11
12.09265
21
228.8837427
0
LINE
8
DEFAULT_255_2_778
10
12.09265
20
228.8837427
11
12.09265
21
231.6838427
0
ARC
8
DEFAULT_255_2_778
10
13.092674
20
241.5836582
40
0.3001094
50
0.0208901
51
89.9791099
0
ARC
8
DEFAULT_255_2_778
10
13.092674
20
238.9837771
40
0.3001094
50
270.0208901
51
359.9791099
0
LINE
8
DEFAULT_255_2_778
10
8.8927834
20
241.8837677
11
13.0927834
21
241.8837677
0
LINE
8
DEFAULT_255_2_778
10
13.3927834
20
241.5837677
11
13.3927834
21
238.9836677
0
LINE
8
DEFAULT_255_2_778
10
13.0927834
20
238.6836677
11
8.8927834
21
238.6836677
0
ARC
8
DEFAULT_255_2_778
10
13.092674
20
236.5835582
40
0.3001094
50
0.0208901
51
89.9791099
0
ARC
8
DEFAULT_255_2_778
10
13.092674
20
233.9836771
40
0.3001094
50
270.0208901
51
359.9791099
0
LINE
8
DEFAULT_255_2_778
10
8.8927834
20
236.8836677
11
13.0927834
21
236.8836677
0
LINE
8
DEFAULT_255_2_778
10
13.3927834
20
236.5836677
11
13.3927834
21
233.9835677
0
LINE
8
DEFAULT_255_2_778
10
13.0927834
20
233.6835677
11
8.8927834
21
233.6835677
0
ARC
8
DEFAULT_255_2_778
10
13.092674
20
251.5836582
40
0.3001094
50
0.0208901
51
89.9791099
0
ARC
8
DEFAULT_255_2_778
10
13.092674
20
248.9837771
40
0.3001094
50
270.0208901
51
359.9791099
0
LINE
8
DEFAULT_255_2_778
10
8.8927834
20
251.8837677
11
13.0927834
21
251.8837677
0
LINE
8
DEFAULT_255_2_778
10
13.3927834
20
251.5837677
11
13.3927834
21
248.9836677
0
LINE
8
DEFAULT_255_2_778
10
13.0927834
20
248.6836677
11
8.8927834
21
248.6836677
0
ARC
8
DEFAULT_255_2_778
10
13.092674
20
246.5835582
40
0.3001094
50
0.0208901
51
89.9791099
0
ARC
8
DEFAULT_255_2_778
10
13.092674
20
243.9836771
40
0.3001094
50
270.0208901
51
359.9791099
0
LINE
8
DEFAULT_255_2_778
10
8.8927834
20
246.8836677
11
13.0927834
21
246.8836677
0
LINE
8
DEFAULT_255_2_778
10
13.3927834
20
246.5836677
11
13.3927834
21
243.9835677
0
LINE
8
DEFAULT_255_2_778
10
13.0927834
20
243.6835677
11
8.8927834
21
243.6835677
0
ARC
8
DEFAULT_255_2_778
10
13.092674
20
261.5835582
40
0.3001094
50
0.0208901
51
89.9791099
0
ARC
8
DEFAULT_255_2_778
10
13.092674
20
258.9836771
40
0.3001094
50
270.0208901
51
359.9791099
0
LINE
8
DEFAULT_255_2_778
10
8.8927834
20
261.8836677
11
13.0927834
21
261.8836677
0
LINE
8
DEFAULT_255_2_778
10
13.3927834
20
261.5836677
11
13.3927834
21
258.9835677
0
LINE
8
DEFAULT_255_2_778
10
13.0927834
20
258.6835677
11
8.8927834
21
258.6835677
0
ARC
8
DEFAULT_255_2_778
10
13.092674
20
256.5837582
40
0.3001094
50
0.0208901
51
89.9791099
0
ARC
8
DEFAULT_255_2_778
10
13.092674
20
253.9838771
40
0.3001094
50
270.0208901
51
359.9791099
0
LINE
8
DEFAULT_255_2_778
10
8.8927834
20
256.8838677
11
13.0927834
21
256.8838677
0
LINE
8
DEFAULT_255_2_778
10
13.3927834
20
256.5838677
11
13.3927834
21
253.9837677
0
LINE
8
DEFAULT_255_2_778
10
13.0927834
20
253.6837677
11
8.8927834
21
253.6837677
0
ARC
8
DEFAULT_255_2_778
10
3.0916854
20
135.2631145
40
0.4989492
50
89.8676947
51
180.1322858
0
ARC
8
DEFAULT_255_2_778
10
3.0939114
20
135.2631361
40
0.4989275
50
359.8652243
51
90.1233177
0
ARC
8
DEFAULT_255_2_778
10
3.0939327
20
135.2608673
40
0.4989061
50
269.8742308
51
0.1257692
0
ARC
8
DEFAULT_255_2_778
10
3.0916639
20
135.2608886
40
0.4989275
50
179.8766742
51
270.1347757
0
LINE
8
DEFAULT_255_2_778
10
2.5927375
20
135.2619625
11
2.5927375
21
135.2619625
0
ARC
8
DEFAULT_255_2_778
10
3.0916854
20
140.2629145
40
0.4989492
50
89.8676947
51
180.1322858
0
ARC
8
DEFAULT_255_2_778
10
3.0939114
20
140.2629361
40
0.4989275
50
359.8652243
51
90.1233177
0
ARC
8
DEFAULT_255_2_778
10
3.0939327
20
140.2606673
40
0.4989061
50
269.8742308
51
0.1257692
0
ARC
8
DEFAULT_255_2_778
10
3.0916639
20
140.2606886
40
0.4989275
50
179.8766742
51
270.1347757
0
LINE
8
DEFAULT_255_2_778
10
2.5927375
20
140.2617625
11
2.5927375
21
140.2617625
0
LINE
8
DEFAULT_255_2_778
10
4.2926823
20
138.7619082
11
1.8926823
21
138.7619082
0
LINE
8
DEFAULT_255_2_778
10
4.2926823
20
136.7619082
11
1.8926823
21
136.7619082
0
LINE
8
DEFAULT_255_2_778
10
4.2926823
20
133.7621082
11
1.8926823
21
133.7621082
0
LINE
8
DEFAULT_255_2_778
10
4.2926823
20
131.7621082
11
1.8926823
21
131.7621082
0
ARC
8
DEFAULT_255_2_778
10
3.0916854
20
125.2629145
40
0.4989492
50
89.8676947
51
180.1322858
0
ARC
8
DEFAULT_255_2_778
10
3.0939114
20
125.2629361
40
0.4989275
50
359.8652243
51
90.1233177
0
ARC
8
DEFAULT_255_2_778
10
3.0939327
20
125.2606673
40
0.4989061
50
269.8742308
51
0.1257692
0
ARC
8
DEFAULT_255_2_778
10
3.0916639
20
125.2606886
40
0.4989275
50
179.8766742
51
270.1347757
0
LINE
8
DEFAULT_255_2_778
10
2.5927375
20
125.2617625
11
2.5927375
21
125.2617625
0
ARC
8
DEFAULT_255_2_778
10
3.0916854
20
130.2630145
40
0.4989492
50
89.8676947
51
180.1322858
0
ARC
8
DEFAULT_255_2_778
10
3.0939114
20
130.2630361
40
0.4989275
50
359.8652243
51
90.1233177
0
ARC
8
DEFAULT_255_2_778
10
3.0939327
20
130.2607673
40
0.4989061
50
269.8742308
51
0.1257692
0
ARC
8
DEFAULT_255_2_778
10
3.0916639
20
130.2607886
40
0.4989275
50
179.8766742
51
270.1347757
0
LINE
8
DEFAULT_255_2_778
10
2.5927375
20
130.2618625
11
2.5927375
21
130.2618625
0
LINE
8
DEFAULT_255_2_778
10
4.2926823
20
128.7620405
11
1.8926823
21
128.7620405
0
LINE
8
DEFAULT_255_2_778
10
4.2926823
20
126.7620405
11
1.8926823
21
126.7620405
0
LINE
8
DEFAULT_255_2_778
10
4.2926823
20
123.7619405
11
1.8926823
21
123.7619405
0
LINE
8
DEFAULT_255_2_778
10
4.2926823
20
121.7619405
11
1.8926823
21
121.7619405
0
ARC
8
DEFAULT_255_2_778
10
3.0916854
20
115.2630145
40
0.4989492
50
89.8676947
51
180.1322858
0
ARC
8
DEFAULT_255_2_778
10
3.0939114
20
115.2630361
40
0.4989275
50
359.8652243
51
90.1233177
0
ARC
8
DEFAULT_255_2_778
10
3.0939327
20
115.2607673
40
0.4989061
50
269.8742308
51
0.1257692
0
ARC
8
DEFAULT_255_2_778
10
3.0916639
20
115.2607886
40
0.4989275
50
179.8766742
51
270.1347757
0
LINE
8
DEFAULT_255_2_778
10
2.5927375
20
115.2618625
11
2.5927375
21
115.2618625
0
ARC
8
DEFAULT_255_2_778
10
3.0916854
20
120.2631145
40
0.4989492
50
89.8676947
51
180.1322858
0
ARC
8
DEFAULT_255_2_778
10
3.0939114
20
120.2631361
40
0.4989275
50
359.8652243
51
90.1233177
0
ARC
8
DEFAULT_255_2_778
10
3.0939327
20
120.2608673
40
0.4989061
50
269.8742308
51
0.1257692
0
ARC
8
DEFAULT_255_2_778
10
3.0916639
20
120.2608886
40
0.4989275
50
179.8766742
51
270.1347757
0
LINE
8
DEFAULT_255_2_778
10
2.5927375
20
120.2619625
11
2.5927375
21
120.2619625
0
LINE
8
DEFAULT_255_2_778
10
4.2926823
20
118.7620405
11
1.8926823
21
118.7620405
0
LINE
8
DEFAULT_255_2_778
10
4.2926823
20
116.7620405
11
1.8926823
21
116.7620405
0
LINE
8
DEFAULT_255_2_778
10
4.2926823
20
113.7619405
11
1.8926823
21
113.7619405
0
LINE
8
DEFAULT_255_2_778
10
4.2926823
20
111.7619405
11
1.8926823
21
111.7619405
0
ARC
8
DEFAULT_255_2_778
10
3.0916854
20
105.2631145
40
0.4989492
50
89.8676947
51
180.1322858
0
ARC
8
DEFAULT_255_2_778
10
3.0939114
20
105.2631361
40
0.4989275
50
359.8652243
51
90.1233177
0
ARC
8
DEFAULT_255_2_778
10
3.0939327
20
105.2608673
40
0.4989061
50
269.8742308
51
0.1257692
0
ARC
8
DEFAULT_255_2_778
10
3.0916639
20
105.2608886
40
0.4989275
50
179.8766742
51
270.1347757
0
LINE
8
DEFAULT_255_2_778
10
2.5927375
20
105.2619625
11
2.5927375
21
105.2619625
0
ARC
8
DEFAULT_255_2_778
10
3.0916854
20
110.2629012
40
0.4989492
50
89.8676947
51
180.1322858
0
ARC
8
DEFAULT_255_2_778
10
3.0939114
20
110.2629229
40
0.4989275
50
359.8652243
51
90.1233177
0
ARC
8
DEFAULT_255_2_778
10
3.0939327
20
110.2606541
40
0.4989061
50
269.8742308
51
0.1257692
0
ARC
8
DEFAULT_255_2_778
10
3.0916639
20
110.2606753
40
0.4989275
50
179.8766742
51
270.1347757
0
LINE
8
DEFAULT_255_2_778
10
2.5927375
20
110.2617493
11
2.5927375
21
110.2617493
0
LINE
8
DEFAULT_255_2_778
10
4.2926823
20
108.7619082
11
1.8926823
21
108.7619082
0
LINE
8
DEFAULT_255_2_778
10
4.2926823
20
106.7619082
11
1.8926823
21
106.7619082
0
LINE
8
DEFAULT_255_2_778
10
4.2926823
20
103.7621082
11
1.8926823
21
103.7621082
0
LINE
8
DEFAULT_255_2_778
10
4.2926823
20
101.7621082
11
1.8926823
21
101.7621082
0
ARC
8
DEFAULT_255_2_778
10
3.0916854
20
95.2631145
40
0.4989492
50
89.8676947
51
180.1322858
0
ARC
8
DEFAULT_255_2_778
10
3.0939114
20
95.2631361
40
0.4989275
50
359.8652243
51
90.1233177
0
ARC
8
DEFAULT_255_2_778
10
3.0939327
20
95.2608673
40
0.4989061
50
269.8742308
51
0.1257692
0
ARC
8
DEFAULT_255_2_778
10
3.0916639
20
95.2608886
40
0.4989275
50
179.8766742
51
270.1347757
0
LINE
8
DEFAULT_255_2_778
10
2.5927375
20
95.2619625
11
2.5927375
21
95.2619625
0
ARC
8
DEFAULT_255_2_778
10
3.0916854
20
100.2630145
40
0.4989492
50
89.8676947
51
180.1322858
0
ARC
8
DEFAULT_255_2_778
10
3.0939114
20
100.2630361
40
0.4989275
50
359.8652243
51
90.1233177
0
ARC
8
DEFAULT_255_2_778
10
3.0939327
20
100.2607673
40
0.4989061
50
269.8742308
51
0.1257692
0
ARC
8
DEFAULT_255_2_778
10
3.0916639
20
100.2607886
40
0.4989275
50
179.8766742
51
270.1347757
0
LINE
8
DEFAULT_255_2_778
10
2.5927375
20
100.2618625
11
2.5927375
21
100.2618625
0
LINE
8
DEFAULT_255_2_778
10
4.2926823
20
98.7619405
11
1.8926823
21
98.7619405
0
LINE
8
DEFAULT_255_2_778
10
4.2926823
20
96.7619405
11
1.8926823
21
96.7619405
0
LINE
8
DEFAULT_255_2_778
10
4.2926823
20
93.7618405
11
1.8926823
21
93.7618405
0
LINE
8
DEFAULT_255_2_778
10
4.2926823
20
91.7618405
11
1.8926823
21
91.7618405
0
ARC
8
DEFAULT_255_2_778
10
3.0916854
20
75.2630145
40
0.4989492
50
89.8676947
51
180.1322858
0
ARC
8
DEFAULT_255_2_778
10
3.0939114
20
75.2630361
40
0.4989275
50
359.8652243
51
90.1233177
0
ARC
8
DEFAULT_255_2_778
10
3.0939327
20
75.2607673
40
0.4989061
50
269.8742308
51
0.1257692
0
ARC
8
DEFAULT_255_2_778
10
3.0916639
20
75.2607886
40
0.4989275
50
179.8766742
51
270.1347757
0
LINE
8
DEFAULT_255_2_778
10
2.5927375
20
75.2618625
11
2.5927375
21
75.2618625
0
ARC
8
DEFAULT_255_2_778
10
3.0916854
20
80.2631145
40
0.4989492
50
89.8676947
51
180.1322858
0
ARC
8
DEFAULT_255_2_778
10
3.0939114
20
80.2631361
40
0.4989275
50
359.8652243
51
90.1233177
0
ARC
8
DEFAULT_255_2_778
10
3.0939327
20
80.2608673
40
0.4989061
50
269.8742308
51
0.1257692
0
ARC
8
DEFAULT_255_2_778
10
3.0916639
20
80.2608886
40
0.4989275
50
179.8766742
51
270.1347757
0
LINE
8
DEFAULT_255_2_778
10
2.5927375
20
80.2619625
11
2.5927375
21
80.2619625
0
LINE
8
DEFAULT_255_2_778
10
4.2926823
20
78.7621405
11
1.8926823
21
78.7621405
0
LINE
8
DEFAULT_255_2_778
10
4.2926823
20
76.7619405
11
1.8926823
21
76.7619405
0
LINE
8
DEFAULT_255_2_778
10
4.2926823
20
73.7620405
11
1.8926823
21
73.7620405
0
LINE
8
DEFAULT_255_2_778
10
4.2926823
20
71.7620405
11
1.8926823
21
71.7620405
0
ARC
8
DEFAULT_255_2_778
10
3.0916854
20
65.2631145
40
0.4989492
50
89.8676947
51
180.1322858
0
ARC
8
DEFAULT_255_2_778
10
3.0939114
20
65.2631361
40
0.4989275
50
359.8652243
51
90.1233177
0
ARC
8
DEFAULT_255_2_778
10
3.0939327
20
65.2608673
40
0.4989061
50
269.8742308
51
0.1257692
0
ARC
8
DEFAULT_255_2_778
10
3.0916639
20
65.2608886
40
0.4989275
50
179.8766742
51
270.1347757
0
LINE
8
DEFAULT_255_2_778
10
2.5927375
20
65.2619625
11
2.5927375
21
65.2619625
0
ARC
8
DEFAULT_255_2_778
10
3.0916854
20
70.2629145
40
0.4989492
50
89.8676947
51
180.1322858
0
ARC
8
DEFAULT_255_2_778
10
3.0939114
20
70.2629361
40
0.4989275
50
359.8652243
51
90.1233177
0
ARC
8
DEFAULT_255_2_778
10
3.0939327
20
70.2606673
40
0.4989061
50
269.8742308
51
0.1257692
0
ARC
8
DEFAULT_255_2_778
10
3.0916639
20
70.2606886
40
0.4989275
50
179.8766742
51
270.1347757
0
LINE
8
DEFAULT_255_2_778
10
2.5927375
20
70.2617625
11
2.5927375
21
70.2617625
0
LINE
8
DEFAULT_255_2_778
10
4.2926823
20
68.7619215
11
1.8926823
21
68.7619215
0
LINE
8
DEFAULT_255_2_778
10
4.2926823
20
66.7619215
11
1.8926823
21
66.7619215
0
LINE
8
DEFAULT_255_2_778
10
4.2926823
20
63.7621215
11
1.8926823
21
63.7621215
0
LINE
8
DEFAULT_255_2_778
10
4.2926823
20
61.7621215
11
1.8926823
21
61.7621215
0
ARC
8
DEFAULT_255_2_778
10
3.0916854
20
55.2629145
40
0.4989492
50
89.8676947
51
180.1322858
0
ARC
8
DEFAULT_255_2_778
10
3.0939114
20
55.2629361
40
0.4989275
50
359.8652243
51
90.1233177
0
ARC
8
DEFAULT_255_2_778
10
3.0939327
20
55.2606673
40
0.4989061
50
269.8742308
51
0.1257692
0
ARC
8
DEFAULT_255_2_778
10
3.0916639
20
55.2606886
40
0.4989275
50
179.8766742
51
270.1347757
0
LINE
8
DEFAULT_255_2_778
10
2.5927375
20
55.2617625
11
2.5927375
21
55.2617625
0
ARC
8
DEFAULT_255_2_778
10
3.0916854
20
60.2630145
40
0.4989492
50
89.8676947
51
180.1322858
0
ARC
8
DEFAULT_255_2_778
10
3.0939114
20
60.2630361
40
0.4989275
50
359.8652243
51
90.1233177
0
ARC
8
DEFAULT_255_2_778
10
3.0939327
20
60.2607673
40
0.4989061
50
269.8742308
51
0.1257692
0
ARC
8
DEFAULT_255_2_778
10
3.0916639
20
60.2607886
40
0.4989275
50
179.8766742
51
270.1347757
0
LINE
8
DEFAULT_255_2_778
10
2.5927375
20
60.2618625
11
2.5927375
21
60.2618625
0
LINE
8
DEFAULT_255_2_778
10
4.2926823
20
58.7619405
11
1.8926823
21
58.7619405
0
LINE
8
DEFAULT_255_2_778
10
4.2926823
20
56.7619405
11
1.8926823
21
56.7619405
0
LINE
8
DEFAULT_255_2_778
10
4.2926823
20
53.7618405
11
1.8926823
21
53.7618405
0
LINE
8
DEFAULT_255_2_778
10
4.2926823
20
51.7618405
11
1.8926823
21
51.7618405
0
ARC
8
DEFAULT_255_2_778
10
3.0916854
20
45.2630145
40
0.4989492
50
89.8676947
51
180.1322858
0
ARC
8
DEFAULT_255_2_778
10
3.0939114
20
45.2630361
40
0.4989275
50
359.8652243
51
90.1233177
0
ARC
8
DEFAULT_255_2_778
10
3.0939327
20
45.2607673
40
0.4989061
50
269.8742308
51
0.1257692
0
ARC
8
DEFAULT_255_2_778
10
3.0916639
20
45.2607886
40
0.4989275
50
179.8766742
51
270.1347757
0
LINE
8
DEFAULT_255_2_778
10
2.5927375
20
45.2618625
11
2.5927375
21
45.2618625
0
ARC
8
DEFAULT_255_2_778
10
3.0916854
20
50.2631012
40
0.4989492
50
89.8676947
51
180.1322858
0
ARC
8
DEFAULT_255_2_778
10
3.0939114
20
50.2631229
40
0.4989275
50
359.8652243
51
90.1233177
0
ARC
8
DEFAULT_255_2_778
10
3.0939327
20
50.2608541
40
0.4989061
50
269.8742308
51
0.1257692
0
ARC
8
DEFAULT_255_2_778
10
3.0916639
20
50.2608753
40
0.4989275
50
179.8766742
51
270.1347757
0
LINE
8
DEFAULT_255_2_778
10
2.5927375
20
50.2619493
11
2.5927375
21
50.2619493
0
LINE
8
DEFAULT_255_2_778
10
4.2926823
20
48.7620405
11
1.8926823
21
48.7620405
0
LINE
8
DEFAULT_255_2_778
10
4.2926823
20
46.7620405
11
1.8926823
21
46.7620405
0
LINE
8
DEFAULT_255_2_778
10
4.2926823
20
43.7619405
11
1.8926823
21
43.7619405
0
LINE
8
DEFAULT_255_2_778
10
4.2926823
20
41.7619405
11
1.8926823
21
41.7619405
0
ARC
8
DEFAULT_255_2_778
10
3.0916854
20
35.2631012
40
0.4989492
50
89.8676947
51
180.1322858
0
ARC
8
DEFAULT_255_2_778
10
3.0939114
20
35.2631229
40
0.4989275
50
359.8652243
51
90.1233177
0
ARC
8
DEFAULT_255_2_778
10
3.0939327
20
35.2608541
40
0.4989061
50
269.8742308
51
0.1257692
0
ARC
8
DEFAULT_255_2_778
10
3.0916639
20
35.2608753
40
0.4989275
50
179.8766742
51
270.1347757
0
LINE
8
DEFAULT_255_2_778
10
2.5927375
20
35.2619493
11
2.5927375
21
35.2619493
0
ARC
8
DEFAULT_255_2_778
10
3.0916854
20
40.2629145
40
0.4989492
50
89.8676947
51
180.1322858
0
ARC
8
DEFAULT_255_2_778
10
3.0939114
20
40.2629361
40
0.4989275
50
359.8652243
51
90.1233177
0
ARC
8
DEFAULT_255_2_778
10
3.0939327
20
40.2606673
40
0.4989061
50
269.8742308
51
0.1257692
0
ARC
8
DEFAULT_255_2_778
10
3.0916639
20
40.2606886
40
0.4989275
50
179.8766742
51
270.1347757
0
LINE
8
DEFAULT_255_2_778
10
2.5927375
20
40.2617625
11
2.5927375
21
40.2617625
0
LINE
8
DEFAULT_255_2_778
10
4.2926823
20
38.7619082
11
1.8926823
21
38.7619082
0
LINE
8
DEFAULT_255_2_778
10
4.2926823
20
36.7619082
11
1.8926823
21
36.7619082
0
LINE
8
DEFAULT_255_2_778
10
4.2926823
20
33.7621082
11
1.8926823
21
33.7621082
0
LINE
8
DEFAULT_255_2_778
10
4.2926823
20
31.7621082
11
1.8926823
21
31.7621082
0
ARC
8
DEFAULT_255_2_778
10
3.0916854
20
195.2629145
40
0.4989492
50
89.8676947
51
180.1322858
0
ARC
8
DEFAULT_255_2_778
10
3.0939114
20
195.2629361
40
0.4989275
50
359.8652243
51
90.1233177
0
ARC
8
DEFAULT_255_2_778
10
3.0939327
20
195.2606673
40
0.4989061
50
269.8742308
51
0.1257692
0
ARC
8
DEFAULT_255_2_778
10
3.0916639
20
195.2606886
40
0.4989275
50
179.8766742
51
270.1347757
0
LINE
8
DEFAULT_255_2_778
10
2.5927375
20
195.2617625
11
2.5927375
21
195.2617625
0
ARC
8
DEFAULT_255_2_778
10
3.0916854
20
200.2630145
40
0.4989492
50
89.8676947
51
180.1322858
0
ARC
8
DEFAULT_255_2_778
10
3.0939114
20
200.2630361
40
0.4989275
50
359.8652243
51
90.1233177
0
ARC
8
DEFAULT_255_2_778
10
3.0939327
20
200.2607673
40
0.4989061
50
269.8742308
51
0.1257692
0
ARC
8
DEFAULT_255_2_778
10
3.0916639
20
200.2607886
40
0.4989275
50
179.8766742
51
270.1347757
0
LINE
8
DEFAULT_255_2_778
10
2.5927375
20
200.2618625
11
2.5927375
21
200.2618625
0
LINE
8
DEFAULT_255_2_778
10
4.2926823
20
198.7620405
11
1.8926823
21
198.7620405
0
LINE
8
DEFAULT_255_2_778
10
4.2926823
20
196.7620405
11
1.8926823
21
196.7620405
0
LINE
8
DEFAULT_255_2_778
10
4.2926823
20
193.7619405
11
1.8926823
21
193.7619405
0
LINE
8
DEFAULT_255_2_778
10
4.2926823
20
191.7619405
11
1.8926823
21
191.7619405
0
ARC
8
DEFAULT_255_2_778
10
3.0916854
20
185.2630145
40
0.4989492
50
89.8676947
51
180.1322858
0
ARC
8
DEFAULT_255_2_778
10
3.0939114
20
185.2630361
40
0.4989275
50
359.8652243
51
90.1233177
0
ARC
8
DEFAULT_255_2_778
10
3.0939327
20
185.2607673
40
0.4989061
50
269.8742308
51
0.1257692
0
ARC
8
DEFAULT_255_2_778
10
3.0916639
20
185.2607886
40
0.4989275
50
179.8766742
51
270.1347757
0
LINE
8
DEFAULT_255_2_778
10
2.5927375
20
185.2618625
11
2.5927375
21
185.2618625
0
ARC
8
DEFAULT_255_2_778
10
3.0916854
20
190.2631145
40
0.4989492
50
89.8676947
51
180.1322858
0
ARC
8
DEFAULT_255_2_778
10
3.0939114
20
190.2631361
40
0.4989275
50
359.8652243
51
90.1233177
0
ARC
8
DEFAULT_255_2_778
10
3.0939327
20
190.2608673
40
0.4989061
50
269.8742308
51
0.1257692
0
ARC
8
DEFAULT_255_2_778
10
3.0916639
20
190.2608886
40
0.4989275
50
179.8766742
51
270.1347757
0
LINE
8
DEFAULT_255_2_778
10
2.5927375
20
190.2619625
11
2.5927375
21
190.2619625
0
LINE
8
DEFAULT_255_2_778
10
4.2926823
20
188.7620405
11
1.8926823
21
188.7620405
0
LINE
8
DEFAULT_255_2_778
10
4.2926823
20
186.7620405
11
1.8926823
21
186.7620405
0
LINE
8
DEFAULT_255_2_778
10
4.2926823
20
183.7619405
11
1.8926823
21
183.7619405
0
LINE
8
DEFAULT_255_2_778
10
4.2926823
20
181.7619405
11
1.8926823
21
181.7619405
0
ARC
8
DEFAULT_255_2_778
10
3.0916854
20
175.2631145
40
0.4989492
50
89.8676947
51
180.1322858
0
ARC
8
DEFAULT_255_2_778
10
3.0939114
20
175.2631361
40
0.4989275
50
359.8652243
51
90.1233177
0
ARC
8
DEFAULT_255_2_778
10
3.0939327
20
175.2608673
40
0.4989061
50
269.8742308
51
0.1257692
0
ARC
8
DEFAULT_255_2_778
10
3.0916639
20
175.2608886
40
0.4989275
50
179.8766742
51
270.1347757
0
LINE
8
DEFAULT_255_2_778
10
2.5927375
20
175.2619625
11
2.5927375
21
175.2619625
0
ARC
8
DEFAULT_255_2_778
10
3.0916854
20
180.2629145
40
0.4989492
50
89.8676947
51
180.1322858
0
ARC
8
DEFAULT_255_2_778
10
3.0939114
20
180.2629361
40
0.4989275
50
359.8652243
51
90.1233177
0
ARC
8
DEFAULT_255_2_778
10
3.0939327
20
180.2606673
40
0.4989061
50
269.8742308
51
0.1257692
0
ARC
8
DEFAULT_255_2_778
10
3.0916639
20
180.2606886
40
0.4989275
50
179.8766742
51
270.1347757
0
LINE
8
DEFAULT_255_2_778
10
2.5927375
20
180.2617625
11
2.5927375
21
180.2617625
0
LINE
8
DEFAULT_255_2_778
10
4.2926823
20
178.7619082
11
1.8926823
21
178.7619082
0
LINE
8
DEFAULT_255_2_778
10
4.2926823
20
176.7619082
11
1.8926823
21
176.7619082
0
LINE
8
DEFAULT_255_2_778
10
4.2926823
20
173.7621082
11
1.8926823
21
173.7621082
0
LINE
8
DEFAULT_255_2_778
10
4.2926823
20
171.7621082
11
1.8926823
21
171.7621082
0
ARC
8
DEFAULT_255_2_778
10
3.0916854
20
165.2629145
40
0.4989492
50
89.8676947
51
180.1322858
0
ARC
8
DEFAULT_255_2_778
10
3.0939114
20
165.2629361
40
0.4989275
50
359.8652243
51
90.1233177
0
ARC
8
DEFAULT_255_2_778
10
3.0939327
20
165.2606673
40
0.4989061
50
269.8742308
51
0.1257692
0
ARC
8
DEFAULT_255_2_778
10
3.0916639
20
165.2606886
40
0.4989275
50
179.8766742
51
270.1347757
0
LINE
8
DEFAULT_255_2_778
10
2.5927375
20
165.2617625
11
2.5927375
21
165.2617625
0
ARC
8
DEFAULT_255_2_778
10
3.0916854
20
170.2630145
40
0.4989492
50
89.8676947
51
180.1322858
0
ARC
8
DEFAULT_255_2_778
10
3.0939114
20
170.2630361
40
0.4989275
50
359.8652243
51
90.1233177
0
ARC
8
DEFAULT_255_2_778
10
3.0939327
20
170.2607673
40
0.4989061
50
269.8742308
51
0.1257692
0
ARC
8
DEFAULT_255_2_778
10
3.0916639
20
170.2607886
40
0.4989275
50
179.8766742
51
270.1347757
0
LINE
8
DEFAULT_255_2_778
10
2.5927375
20
170.2618625
11
2.5927375
21
170.2618625
0
LINE
8
DEFAULT_255_2_778
10
4.2926823
20
168.7619405
11
1.8926823
21
168.7619405
0
LINE
8
DEFAULT_255_2_778
10
4.2926823
20
166.7619405
11
1.8926823
21
166.7619405
0
LINE
8
DEFAULT_255_2_778
10
4.2926823
20
163.7618405
11
1.8926823
21
163.7618405
0
LINE
8
DEFAULT_255_2_778
10
4.2926823
20
161.7618405
11
1.8926823
21
161.7618405
0
ARC
8
DEFAULT_255_2_778
10
3.0916854
20
155.2630145
40
0.4989492
50
89.8676947
51
180.1322858
0
ARC
8
DEFAULT_255_2_778
10
3.0939114
20
155.2630361
40
0.4989275
50
359.8652243
51
90.1233177
0
ARC
8
DEFAULT_255_2_778
10
3.0939327
20
155.2607673
40
0.4989061
50
269.8742308
51
0.1257692
0
ARC
8
DEFAULT_255_2_778
10
3.0916639
20
155.2607886
40
0.4989275
50
179.8766742
51
270.1347757
0
LINE
8
DEFAULT_255_2_778
10
2.5927375
20
155.2618625
11
2.5927375
21
155.2618625
0
ARC
8
DEFAULT_255_2_778
10
3.0916854
20
160.2631145
40
0.4989492
50
89.8676947
51
180.1322858
0
ARC
8
DEFAULT_255_2_778
10
3.0939114
20
160.2631361
40
0.4989275
50
359.8652243
51
90.1233177
0
ARC
8
DEFAULT_255_2_778
10
3.0939327
20
160.2608673
40
0.4989061
50
269.8742308
51
0.1257692
0
ARC
8
DEFAULT_255_2_778
10
3.0916639
20
160.2608886
40
0.4989275
50
179.8766742
51
270.1347757
0
LINE
8
DEFAULT_255_2_778
10
2.5927375
20
160.2619625
11
2.5927375
21
160.2619625
0
LINE
8
DEFAULT_255_2_778
10
4.2926823
20
158.7620405
11
1.8926823
21
158.7620405
0
LINE
8
DEFAULT_255_2_778
10
4.2926823
20
156.7620405
11
1.8926823
21
156.7620405
0
LINE
8
DEFAULT_255_2_778
10
4.2926823
20
153.7619405
11
1.8926823
21
153.7619405
0
LINE
8
DEFAULT_255_2_778
10
4.2926823
20
151.7619405
11
1.8926823
21
151.7619405
0
ARC
8
DEFAULT_255_2_778
10
3.0916854
20
255.2630145
40
0.4989492
50
89.8676947
51
180.1322858
0
ARC
8
DEFAULT_255_2_778
10
3.0939114
20
255.2630361
40
0.4989275
50
359.8652243
51
90.1233177
0
ARC
8
DEFAULT_255_2_778
10
3.0939327
20
255.2607673
40
0.4989061
50
269.8742308
51
0.1257692
0
ARC
8
DEFAULT_255_2_778
10
3.0916639
20
255.2607886
40
0.4989275
50
179.8766742
51
270.1347757
0
LINE
8
DEFAULT_255_2_778
10
2.5927375
20
255.2618625
11
2.5927375
21
255.2618625
0
ARC
8
DEFAULT_255_2_778
10
3.0916854
20
260.2631145
40
0.4989492
50
89.8676947
51
180.1322858
0
ARC
8
DEFAULT_255_2_778
10
3.0939114
20
260.2631361
40
0.4989275
50
359.8652243
51
90.1233177
0
ARC
8
DEFAULT_255_2_778
10
3.0939327
20
260.2608673
40
0.4989061
50
269.8742308
51
0.1257692
0
ARC
8
DEFAULT_255_2_778
10
3.0916639
20
260.2608886
40
0.4989275
50
179.8766742
51
270.1347757
0
LINE
8
DEFAULT_255_2_778
10
2.5927375
20
260.2619625
11
2.5927375
21
260.2619625
0
LINE
8
DEFAULT_255_2_778
10
4.2926823
20
258.7621405
11
1.8926823
21
258.7621405
0
LINE
8
DEFAULT_255_2_778
10
4.2926823
20
256.7619405
11
1.8926823
21
256.7619405
0
LINE
8
DEFAULT_255_2_778
10
4.2926823
20
253.7620405
11
1.8926823
21
253.7620405
0
LINE
8
DEFAULT_255_2_778
10
4.2926823
20
251.7620405
11
1.8926823
21
251.7620405
0
ARC
8
DEFAULT_255_2_778
10
3.0916854
20
245.2631145
40
0.4989492
50
89.8676947
51
180.1322858
0
ARC
8
DEFAULT_255_2_778
10
3.0939114
20
245.2631361
40
0.4989275
50
359.8652243
51
90.1233177
0
ARC
8
DEFAULT_255_2_778
10
3.0939327
20
245.2608673
40
0.4989061
50
269.8742308
51
0.1257692
0
ARC
8
DEFAULT_255_2_778
10
3.0916639
20
245.2608886
40
0.4989275
50
179.8766742
51
270.1347757
0
LINE
8
DEFAULT_255_2_778
10
2.5927375
20
245.2619625
11
2.5927375
21
245.2619625
0
ARC
8
DEFAULT_255_2_778
10
3.0916854
20
250.2629145
40
0.4989492
50
89.8676947
51
180.1322858
0
ARC
8
DEFAULT_255_2_778
10
3.0939114
20
250.2629361
40
0.4989275
50
359.8652243
51
90.1233177
0
ARC
8
DEFAULT_255_2_778
10
3.0939327
20
250.2606673
40
0.4989061
50
269.8742308
51
0.1257692
0
ARC
8
DEFAULT_255_2_778
10
3.0916639
20
250.2606886
40
0.4989275
50
179.8766742
51
270.1347757
0
LINE
8
DEFAULT_255_2_778
10
2.5927375
20
250.2617625
11
2.5927375
21
250.2617625
0
LINE
8
DEFAULT_255_2_778
10
4.2926823
20
248.7619082
11
1.8926823
21
248.7619082
0
LINE
8
DEFAULT_255_2_778
10
4.2926823
20
246.7619082
11
1.8926823
21
246.7619082
0
LINE
8
DEFAULT_255_2_778
10
4.2926823
20
243.7621082
11
1.8926823
21
243.7621082
0
LINE
8
DEFAULT_255_2_778
10
4.2926823
20
241.7621082
11
1.8926823
21
241.7621082
0
ARC
8
DEFAULT_255_2_778
10
3.0916854
20
235.2629145
40
0.4989492
50
89.8676947
51
180.1322858
0
ARC
8
DEFAULT_255_2_778
10
3.0939114
20
235.2629361
40
0.4989275
50
359.8652243
51
90.1233177
0
ARC
8
DEFAULT_255_2_778
10
3.0939327
20
235.2606673
40
0.4989061
50
269.8742308
51
0.1257692
0
ARC
8
DEFAULT_255_2_778
10
3.0916639
20
235.2606886
40
0.4989275
50
179.8766742
51
270.1347757
0
LINE
8
DEFAULT_255_2_778
10
2.5927375
20
235.2617625
11
2.5927375
21
235.2617625
0
ARC
8
DEFAULT_255_2_778
10
3.0916854
20
240.2630145
40
0.4989492
50
89.8676947
51
180.1322858
0
ARC
8
DEFAULT_255_2_778
10
3.0939114
20
240.2630361
40
0.4989275
50
359.8652243
51
90.1233177
0
ARC
8
DEFAULT_255_2_778
10
3.0939327
20
240.2607673
40
0.4989061
50
269.8742308
51
0.1257692
0
ARC
8
DEFAULT_255_2_778
10
3.0916639
20
240.2607886
40
0.4989275
50
179.8766742
51
270.1347757
0
LINE
8
DEFAULT_255_2_778
10
2.5927375
20
240.2618625
11
2.5927375
21
240.2618625
0
LINE
8
DEFAULT_255_2_778
10
4.2926823
20
238.7619405
11
1.8926823
21
238.7619405
0
LINE
8
DEFAULT_255_2_778
10
4.2926823
20
236.7619405
11
1.8926823
21
236.7619405
0
LINE
8
DEFAULT_255_2_778
10
4.2926823
20
233.7618405
11
1.8926823
21
233.7618405
0
LINE
8
DEFAULT_255_2_778
10
4.2926823
20
231.7618405
11
1.8926823
21
231.7618405
0
ARC
8
DEFAULT_255_2_778
10
3.0916854
20
225.2630145
40
0.4989492
50
89.8676947
51
180.1322858
0
ARC
8
DEFAULT_255_2_778
10
3.0939114
20
225.2630361
40
0.4989275
50
359.8652243
51
90.1233177
0
ARC
8
DEFAULT_255_2_778
10
3.0939327
20
225.2607673
40
0.4989061
50
269.8742308
51
0.1257692
0
ARC
8
DEFAULT_255_2_778
10
3.0916639
20
225.2607886
40
0.4989275
50
179.8766742
51
270.1347757
0
LINE
8
DEFAULT_255_2_778
10
2.5927375
20
225.2618625
11
2.5927375
21
225.2618625
0
ARC
8
DEFAULT_255_2_778
10
3.0916854
20
230.2631145
40
0.4989492
50
89.8676947
51
180.1322858
0
ARC
8
DEFAULT_255_2_778
10
3.0939114
20
230.2631361
40
0.4989275
50
359.8652243
51
90.1233177
0
ARC
8
DEFAULT_255_2_778
10
3.0939327
20
230.2608673
40
0.4989061
50
269.8742308
51
0.1257692
0
ARC
8
DEFAULT_255_2_778
10
3.0916639
20
230.2608886
40
0.4989275
50
179.8766742
51
270.1347757
0
LINE
8
DEFAULT_255_2_778
10
2.5927375
20
230.2619625
11
2.5927375
21
230.2619625
0
LINE
8
DEFAULT_255_2_778
10
4.2926823
20
228.7620405
11
1.8926823
21
228.7620405
0
LINE
8
DEFAULT_255_2_778
10
4.2926823
20
226.7620405
11
1.8926823
21
226.7620405
0
LINE
8
DEFAULT_255_2_778
10
4.2926823
20
223.7619405
11
1.8926823
21
223.7619405
0
LINE
8
DEFAULT_255_2_778
10
4.2926823
20
221.7619405
11
1.8926823
21
221.7619405
0
ARC
8
DEFAULT_255_2_778
10
3.0916854
20
215.2631145
40
0.4989492
50
89.8676947
51
180.1322858
0
ARC
8
DEFAULT_255_2_778
10
3.0939114
20
215.2631361
40
0.4989275
50
359.8652243
51
90.1233177
0
ARC
8
DEFAULT_255_2_778
10
3.0939327
20
215.2608673
40
0.4989061
50
269.8742308
51
0.1257692
0
ARC
8
DEFAULT_255_2_778
10
3.0916639
20
215.2608886
40
0.4989275
50
179.8766742
51
270.1347757
0
LINE
8
DEFAULT_255_2_778
10
2.5927375
20
215.2619625
11
2.5927375
21
215.2619625
0
ARC
8
DEFAULT_255_2_778
10
3.0916854
20
220.2629145
40
0.4989492
50
89.8676947
51
180.1322858
0
ARC
8
DEFAULT_255_2_778
10
3.0939114
20
220.2629361
40
0.4989275
50
359.8652243
51
90.1233177
0
ARC
8
DEFAULT_255_2_778
10
3.0939327
20
220.2606673
40
0.4989061
50
269.8742308
51
0.1257692
0
ARC
8
DEFAULT_255_2_778
10
3.0916639
20
220.2606886
40
0.4989275
50
179.8766742
51
270.1347757
0
LINE
8
DEFAULT_255_2_778
10
2.5927375
20
220.2617625
11
2.5927375
21
220.2617625
0
ARC
8
DEFAULT_255_2_778
10
4.6891884
20
280.9467618
40
1.1466416
50
145.317694
51
180.1378979
0
ARC
8
DEFAULT_255_2_778
10
4.6893915
20
280.9471834
40
1.1465689
50
95.312679
51
145.3407914
0
ARC
8
DEFAULT_255_2_778
10
4.6922645
20
280.9201204
40
1.1737817
50
89.9909445
51
95.330003
0
ARC
8
DEFAULT_255_2_778
10
4.6942768
20
280.9490895
40
1.1448141
50
53.2171205
51
90.0914248
0
ARC
8
DEFAULT_255_2_778
10
4.6938824
20
280.9448297
40
1.1484642
50
4.3484931
51
53.3286148
0
ARC
8
DEFAULT_255_2_778
10
4.6761351
20
280.9441115
40
1.166215
50
359.9946299
51
4.3175665
0
ARC
8
DEFAULT_255_2_778
10
4.6975591
20
280.9422104
40
1.1447923
50
323.1735579
51
0.0896771
0
ARC
8
DEFAULT_255_2_778
10
4.6932299
20
280.9425915
40
1.1484886
50
274.3345008
51
323.2877942
0
ARC
8
DEFAULT_255_2_778
10
4.6925584
20
280.9600829
40
1.165981
50
269.9946772
51
274.3024407
0
ARC
8
DEFAULT_255_2_778
10
4.6913189
20
280.5048592
40
0.7107579
50
269.9696175
51
270.0911839
0
ARC
8
DEFAULT_255_2_778
10
4.690865
20
280.9420936
40
1.1479924
50
224.9885811
51
270.0038427
0
ARC
8
DEFAULT_255_2_778
10
4.6905415
20
280.9424171
40
1.1479924
50
179.9961573
51
225.0114189
0
ARC
8
DEFAULT_255_2_778
10
4.4901007
20
280.9426198
40
0.9475516
50
179.9164113
51
180.0075981
0
LINE
8
DEFAULT_255_2_778
10
4.2926501
20
218.7619021
11
1.8926501
21
218.7619021
0
LINE
8
DEFAULT_255_2_778
10
4.2926501
20
216.7619021
11
1.8926501
21
216.7619021
0
LINE
8
DEFAULT_255_2_778
10
4.2926501
20
213.7621021
11
1.8926501
21
213.7621021
0
LINE
8
DEFAULT_255_2_778
10
4.2926501
20
211.7621021
11
1.8926501
21
211.7621021
0
LINE
8
DEFAULT_255_2_778
10
3.5425501
20
280.9440021
11
3.5425501
21
280.9440021
0
LINE
8
DEFAULT_255_2_778
10
7.2427951
20
283.4937401
11
2.1426951
21
283.4937401
0
LINE
8
DEFAULT_255_2_778
10
2.1426951
20
283.4937401
11
2.1426951
21
278.3936401
0
LINE
8
DEFAULT_255_2_778
10
2.1426951
20
278.3936401
11
7.2427951
21
278.3936401
0
LINE
8
DEFAULT_255_2_778
10
7.2427951
20
278.3936401
11
7.2427951
21
283.4937401
0
LINE
8
DEFAULT_255_2_778
10
21.6924951
20
28.9677401
11
21.8326951
21
28.9677401
0
LINE
8
DEFAULT_255_2_778
10
21.8326951
20
28.9677401
11
22.3004951
21
31.2019401
0
LINE
8
DEFAULT_255_2_778
10
22.3004951
20
31.2019401
11
22.3004951
21
31.4678401
0
LINE
8
DEFAULT_255_2_778
10
22.3004951
20
31.4678401
11
21.4582951
21
31.4678401
0
LINE
8
DEFAULT_255_2_778
10
21.4582951
20
31.4678401
11
21.4582951
21
31.2019401
0
LINE
8
DEFAULT_255_2_778
10
21.4582951
20
31.2019401
11
22.1599951
21
31.2019401
0
LINE
8
DEFAULT_255_2_778
10
22.1599951
20
31.2019401
11
21.6980951
21
28.9960401
0
LINE
8
DEFAULT_255_2_778
10
21.8329951
20
25.1379401
11
21.9266951
21
25.1379401
0
LINE
8
DEFAULT_255_2_778
10
21.9266951
20
25.1379401
11
22.0202951
21
25.0847401
0
LINE
8
DEFAULT_255_2_778
10
22.0202951
20
25.0847401
11
22.1139951
21
24.9783401
0
LINE
8
DEFAULT_255_2_778
10
22.1139951
20
24.9783401
11
22.1840951
21
24.7656401
0
LINE
8
DEFAULT_255_2_778
10
22.1840951
20
24.7656401
11
22.1840951
21
24.6061401
0
LINE
8
DEFAULT_255_2_778
10
22.1840951
20
24.6061401
11
22.1139951
21
24.3933401
0
LINE
8
DEFAULT_255_2_778
10
22.1139951
20
24.3933401
11
22.0202951
21
24.2870401
0
LINE
8
DEFAULT_255_2_778
10
22.0202951
20
24.2870401
11
21.9266951
21
24.2338401
0
LINE
8
DEFAULT_255_2_778
10
21.9266951
20
24.2338401
11
21.8329951
21
24.2338401
0
LINE
8
DEFAULT_255_2_778
10
21.8329951
20
24.2338401
11
21.7392951
21
24.2870401
0
LINE
8
DEFAULT_255_2_778
10
21.7392951
20
24.2870401
11
21.6456951
21
24.3933401
0
LINE
8
DEFAULT_255_2_778
10
21.6456951
20
24.3933401
11
21.5755951
21
24.6061401
0
LINE
8
DEFAULT_255_2_778
10
21.5755951
20
24.6061401
11
21.5755951
21
24.7656401
0
LINE
8
DEFAULT_255_2_778
10
21.5755951
20
24.7656401
11
21.6456951
21
24.9783401
0
LINE
8
DEFAULT_255_2_778
10
21.6456951
20
24.9783401
11
21.7392951
21
25.0847401
0
LINE
8
DEFAULT_255_2_778
10
21.7392951
20
25.0847401
11
21.8329951
21
25.1379401
0
LINE
8
DEFAULT_255_2_778
10
21.8329951
20
26.2018401
11
21.9266951
21
26.2018401
0
LINE
8
DEFAULT_255_2_778
10
21.9266951
20
26.2018401
11
22.0202951
21
26.1486401
0
LINE
8
DEFAULT_255_2_778
10
22.0202951
20
26.1486401
11
22.1139951
21
25.9890401
0
LINE
8
DEFAULT_255_2_778
10
22.1139951
20
25.9890401
11
22.1607951
21
25.8295401
0
LINE
8
DEFAULT_255_2_778
10
22.1607951
20
25.8295401
11
22.1607951
21
25.7231401
0
LINE
8
DEFAULT_255_2_778
10
22.1607951
20
25.7231401
11
22.1139951
21
25.5636401
0
LINE
8
DEFAULT_255_2_778
10
22.1139951
20
25.5636401
11
22.0202951
21
25.4040401
0
LINE
8
DEFAULT_255_2_778
10
22.0202951
20
25.4040401
11
21.9266951
21
25.3509401
0
LINE
8
DEFAULT_255_2_778
10
21.9266951
20
25.3509401
11
21.8329951
21
25.3509401
0
LINE
8
DEFAULT_255_2_778
10
21.8329951
20
25.3509401
11
21.7392951
21
25.4040401
0
LINE
8
DEFAULT_255_2_778
10
21.7392951
20
25.4040401
11
21.6456951
21
25.5636401
0
LINE
8
DEFAULT_255_2_778
10
21.6456951
20
25.5636401
11
21.5987951
21
25.7231401
0
LINE
8
DEFAULT_255_2_778
10
21.5987951
20
25.7231401
11
21.5987951
21
25.8295401
0
LINE
8
DEFAULT_255_2_778
10
21.5987951
20
25.8295401
11
21.6456951
21
25.9890401
0
LINE
8
DEFAULT_255_2_778
10
21.6456951
20
25.9890401
11
21.7392951
21
26.1486401
0
LINE
8
DEFAULT_255_2_778
10
21.7392951
20
26.1486401
11
21.8329951
21
26.2018401
0
LINE
8
DEFAULT_255_2_778
10
21.6924951
20
24.0208401
11
21.8093951
21
23.9676401
0
LINE
8
DEFAULT_255_2_778
10
21.8093951
20
23.9676401
11
21.9496951
21
23.9676401
0
LINE
8
DEFAULT_255_2_778
10
21.9496951
20
23.9676401
11
22.0665951
21
24.0208401
0
LINE
8
DEFAULT_255_2_778
10
22.0665951
20
24.0208401
11
22.1768951
21
24.1716401
0
LINE
8
DEFAULT_255_2_778
10
22.1835951
20
24.1806401
11
22.2536951
21
24.3402401
0
LINE
8
DEFAULT_255_2_778
10
22.2536951
20
24.3402401
11
22.3004951
21
24.6061401
0
LINE
8
DEFAULT_255_2_778
10
22.3004951
20
24.6061401
11
22.3004951
21
24.7656401
0
LINE
8
DEFAULT_255_2_778
10
22.3004951
20
24.7656401
11
22.2536951
21
25.0315401
0
LINE
8
DEFAULT_255_2_778
10
22.2536951
20
25.0315401
11
22.1599951
21
25.1911401
0
LINE
8
DEFAULT_255_2_778
10
22.1599951
20
25.1911401
11
22.1131951
21
25.2442401
0
LINE
8
DEFAULT_255_2_778
10
22.1131951
20
25.2442401
11
22.1599951
21
25.2974401
0
LINE
8
DEFAULT_255_2_778
10
22.1599951
20
25.2974401
11
22.2300951
21
25.4570401
0
LINE
8
DEFAULT_255_2_778
10
22.2300951
20
25.4570401
11
22.2769951
21
25.6697401
0
LINE
8
DEFAULT_255_2_778
10
22.2769951
20
25.6697401
11
22.2769951
21
25.8292401
0
LINE
8
DEFAULT_255_2_778
10
22.2769951
20
25.8292401
11
22.2300951
21
26.0951401
0
LINE
8
DEFAULT_255_2_778
10
22.2300951
20
26.0951401
11
22.1599951
21
26.2547401
0
LINE
8
DEFAULT_255_2_778
10
22.1599951
20
26.2547401
11
22.0430951
21
26.4142401
0
LINE
8
DEFAULT_255_2_778
10
22.0430951
20
26.4142401
11
21.9260951
21
26.4674401
0
LINE
8
DEFAULT_255_2_778
10
21.9260951
20
26.4674401
11
21.8324951
21
26.4674401
0
LINE
8
DEFAULT_255_2_778
10
21.8324951
20
26.4674401
11
21.7154951
21
26.4142401
0
LINE
8
DEFAULT_255_2_778
10
21.7154951
20
26.4142401
11
21.5985951
21
26.2547401
0
LINE
8
DEFAULT_255_2_778
10
21.5985951
20
26.2547401
11
21.5284951
21
26.0951401
0
LINE
8
DEFAULT_255_2_778
10
21.5284951
20
26.0951401
11
21.4850951
21
25.8491401
0
LINE
8
DEFAULT_255_2_778
10
21.4815951
20
25.8290401
11
21.4815951
21
25.6694401
0
LINE
8
DEFAULT_255_2_778
10
21.4815951
20
25.6694401
11
21.5284951
21
25.4567401
0
LINE
8
DEFAULT_255_2_778
10
21.5284951
20
25.4567401
11
21.5985951
21
25.2972401
0
LINE
8
DEFAULT_255_2_778
10
21.5985951
20
25.2972401
11
21.6453951
21
25.2440401
0
LINE
8
DEFAULT_255_2_778
10
21.6453951
20
25.2440401
11
21.5985951
21
25.1908401
0
LINE
8
DEFAULT_255_2_778
10
21.5985951
20
25.1908401
11
21.5048951
21
25.0312401
0
LINE
8
DEFAULT_255_2_778
10
21.5048951
20
25.0312401
11
21.4580951
21
24.7653401
0
LINE
8
DEFAULT_255_2_778
10
21.4580951
20
24.7653401
11
21.4580951
21
24.6058401
0
LINE
8
DEFAULT_255_2_778
10
21.4580951
20
24.6058401
11
21.5048951
21
24.3399401
0
LINE
8
DEFAULT_255_2_778
10
21.5048951
20
24.3399401
11
21.5749951
21
24.1803401
0
LINE
8
DEFAULT_255_2_778
10
21.5749951
20
24.1803401
11
21.6723951
21
24.0475401
0
LINE
8
DEFAULT_255_2_778
10
20.8972299
20
25.0315239
11
20.4995299
21
25.0315239
0
LINE
8
DEFAULT_255_2_778
10
20.4995299
20
25.0315239
11
20.8972299
21
26.0423239
0
LINE
8
DEFAULT_255_2_778
10
20.8972299
20
26.0423239
11
20.8972299
21
25.0315239
0
LINE
8
DEFAULT_255_2_778
10
21.0377299
20
26.4677239
11
20.8974299
21
26.4677239
0
LINE
8
DEFAULT_255_2_778
10
20.8974299
20
26.4677239
11
20.3360299
21
25.0315239
0
LINE
8
DEFAULT_255_2_778
10
20.3360299
20
25.0315239
11
20.3360299
21
24.7125239
0
LINE
8
DEFAULT_255_2_778
10
20.3360299
20
24.7125239
11
20.8974299
21
24.7125239
0
LINE
8
DEFAULT_255_2_778
10
20.8974299
20
24.7125239
11
20.8974299
21
23.9677239
0
LINE
8
DEFAULT_255_2_778
10
20.8974299
20
23.9677239
11
21.0377299
21
23.9677239
0
LINE
8
DEFAULT_255_2_778
10
21.0377299
20
23.9677239
11
21.0377299
21
24.7125239
0
LINE
8
DEFAULT_255_2_778
10
21.0377299
20
24.7125239
11
21.2715299
21
24.7125239
0
LINE
8
DEFAULT_255_2_778
10
21.2715299
20
24.7125239
11
21.2715299
21
25.0315239
0
LINE
8
DEFAULT_255_2_778
10
21.2715299
20
25.0315239
11
21.0377299
21
25.0315239
0
LINE
8
DEFAULT_255_2_778
10
21.0377299
20
25.0315239
11
21.0377299
21
26.4677239
0
LINE
8
DEFAULT_255_2_778
10
20.8972299
20
30.0316239
11
20.4995299
21
30.0316239
0
LINE
8
DEFAULT_255_2_778
10
20.4995299
20
30.0316239
11
20.8972299
21
31.0424239
0
LINE
8
DEFAULT_255_2_778
10
20.8972299
20
31.0424239
11
20.8972299
21
30.0316239
0
LINE
8
DEFAULT_255_2_778
10
21.0377299
20
31.4678239
11
20.8974299
21
31.4678239
0
LINE
8
DEFAULT_255_2_778
10
20.8974299
20
31.4678239
11
20.3360299
21
30.0316239
0
LINE
8
DEFAULT_255_2_778
10
20.3360299
20
30.0316239
11
20.3360299
21
29.7126239
0
LINE
8
DEFAULT_255_2_778
10
20.3360299
20
29.7126239
11
20.8974299
21
29.7126239
0
LINE
8
DEFAULT_255_2_778
10
20.8974299
20
29.7126239
11
20.8974299
21
28.9678239
0
LINE
8
DEFAULT_255_2_778
10
20.8974299
20
28.9678239
11
21.0377299
21
28.9678239
0
LINE
8
DEFAULT_255_2_778
10
21.0377299
20
28.9678239
11
21.0377299
21
29.7126239
0
LINE
8
DEFAULT_255_2_778
10
21.0377299
20
29.7126239
11
21.2715299
21
29.7126239
0
LINE
8
DEFAULT_255_2_778
10
21.2715299
20
29.7126239
11
21.2715299
21
30.0316239
0
LINE
8
DEFAULT_255_2_778
10
21.2715299
20
30.0316239
11
21.0377299
21
30.0316239
0
LINE
8
DEFAULT_255_2_778
10
21.0377299
20
30.0316239
11
21.0377299
21
31.4678239
0
LINE
8
DEFAULT_255_2_778
10
20.3823156
20
146.0955916
11
20.3590156
21
145.8828916
0
LINE
8
DEFAULT_255_2_778
10
20.3590156
20
145.8828916
11
20.4760156
21
145.8828916
0
LINE
8
DEFAULT_255_2_778
10
20.4760156
20
145.8828916
11
20.5228156
21
146.0424916
0
LINE
8
DEFAULT_255_2_778
10
20.5228156
20
146.0424916
11
20.5929156
21
146.1487916
0
LINE
8
DEFAULT_255_2_778
10
20.5929156
20
146.1487916
11
20.7099156
21
146.2019916
0
LINE
8
DEFAULT_255_2_778
10
20.7099156
20
146.2019916
11
20.8035156
21
146.2019916
0
LINE
8
DEFAULT_255_2_778
10
20.8035156
20
146.2019916
11
20.9205156
21
146.1487916
0
LINE
8
DEFAULT_255_2_778
10
20.9205156
20
146.1487916
11
20.9906156
21
146.0424916
0
LINE
8
DEFAULT_255_2_778
10
20.9906156
20
146.0424916
11
21.0374156
21
145.8828916
0
LINE
8
DEFAULT_255_2_778
10
21.0374156
20
145.8828916
11
21.0374156
21
145.7764916
0
LINE
8
DEFAULT_255_2_778
10
21.0374156
20
145.7764916
11
20.9906156
21
145.5637916
0
LINE
8
DEFAULT_255_2_778
10
20.9906156
20
145.5637916
11
20.3355156
21
144.2339916
0
LINE
8
DEFAULT_255_2_778
10
20.3355156
20
144.2339916
11
20.3355156
21
143.9680916
0
LINE
8
DEFAULT_255_2_778
10
20.3355156
20
143.9680916
11
21.1777156
21
143.9680916
0
LINE
8
DEFAULT_255_2_778
10
21.1777156
20
143.9680916
11
21.1777156
21
144.2339916
0
LINE
8
DEFAULT_255_2_778
10
21.1777156
20
144.2339916
11
20.5226156
21
144.2339916
0
LINE
8
DEFAULT_255_2_778
10
20.5226156
20
144.2339916
11
21.1073156
21
145.4042916
0
LINE
8
DEFAULT_255_2_778
10
21.1073156
20
145.4042916
11
21.1541156
21
145.5637916
0
LINE
8
DEFAULT_255_2_778
10
21.1541156
20
145.5637916
11
21.1774156
21
145.7764916
0
LINE
8
DEFAULT_255_2_778
10
21.1774156
20
145.7764916
11
21.1774156
21
145.8828916
0
LINE
8
DEFAULT_255_2_778
10
21.1774156
20
145.8828916
11
21.1541156
21
146.0955916
0
LINE
8
DEFAULT_255_2_778
10
21.1541156
20
146.0955916
11
21.0605156
21
146.3083916
0
LINE
8
DEFAULT_255_2_778
10
21.0605156
20
146.3083916
11
20.9668156
21
146.4146916
0
LINE
8
DEFAULT_255_2_778
10
20.9668156
20
146.4146916
11
20.8266156
21
146.4678916
0
LINE
8
DEFAULT_255_2_778
10
20.8266156
20
146.4678916
11
20.7329156
21
146.4678916
0
LINE
8
DEFAULT_255_2_778
10
20.7329156
20
146.4678916
11
20.5691156
21
146.4146916
0
LINE
8
DEFAULT_255_2_778
10
20.5691156
20
146.4146916
11
20.4755156
21
146.3083916
0
LINE
8
DEFAULT_255_2_778
10
20.4755156
20
146.3083916
11
20.3850156
21
146.1027916
0
LINE
8
DEFAULT_255_2_778
10
22.0664167
20
146.4678704
11
21.9261167
21
146.4678704
0
LINE
8
DEFAULT_255_2_778
10
21.9261167
20
146.4678704
11
21.3647167
21
145.0316704
0
LINE
8
DEFAULT_255_2_778
10
21.3647167
20
145.0316704
11
21.3647167
21
144.7126704
0
LINE
8
DEFAULT_255_2_778
10
21.3647167
20
144.7126704
11
21.9261167
21
144.7126704
0
LINE
8
DEFAULT_255_2_778
10
21.9261167
20
144.7126704
11
21.9261167
21
143.9678704
0
LINE
8
DEFAULT_255_2_778
10
21.9261167
20
143.9678704
11
22.0664167
21
143.9678704
0
LINE
8
DEFAULT_255_2_778
10
22.0664167
20
143.9678704
11
22.0664167
21
144.7126704
0
LINE
8
DEFAULT_255_2_778
10
22.0664167
20
144.7126704
11
22.3003167
21
144.7126704
0
LINE
8
DEFAULT_255_2_778
10
22.3003167
20
144.7126704
11
22.3003167
21
145.0316704
0
LINE
8
DEFAULT_255_2_778
10
22.3003167
20
145.0316704
11
22.0664167
21
145.0316704
0
LINE
8
DEFAULT_255_2_778
10
22.0664167
20
145.0316704
11
22.0664167
21
146.4678704
0
LINE
8
DEFAULT_255_2_778
10
21.9261167
20
145.0316704
11
21.5285167
21
145.0316704
0
LINE
8
DEFAULT_255_2_778
10
21.5285167
20
145.0316704
11
21.9261167
21
146.0424704
0
LINE
8
DEFAULT_255_2_778
10
21.9261167
20
146.0424704
11
21.9261167
21
145.0316704
0
LINE
8
DEFAULT_255_2_778
10
21.7801167
20
251.4677704
11
21.7333167
21
251.4677704
0
LINE
8
DEFAULT_255_2_778
10
21.7333167
20
251.4677704
11
21.5695167
21
251.4145704
0
LINE
8
DEFAULT_255_2_778
10
21.5695167
20
251.4145704
11
21.4758167
21
251.3082704
0
LINE
8
DEFAULT_255_2_778
10
21.4758167
20
251.3082704
11
21.3853167
21
251.1026704
0
LINE
8
DEFAULT_255_2_778
10
21.3824156
20
254.8454916
11
21.3592156
21
254.6327916
0
LINE
8
DEFAULT_255_2_778
10
21.3592156
20
254.6327916
11
21.4761156
21
254.6327916
0
LINE
8
DEFAULT_255_2_778
10
21.4761156
20
254.6327916
11
21.5229156
21
254.7923916
0
LINE
8
DEFAULT_255_2_778
10
21.5229156
20
254.7923916
11
21.5930156
21
254.8986916
0
LINE
8
DEFAULT_255_2_778
10
21.5930156
20
254.8986916
11
21.7100156
21
254.9518916
0
LINE
8
DEFAULT_255_2_778
10
21.7100156
20
254.9518916
11
21.8036156
21
254.9518916
0
LINE
8
DEFAULT_255_2_778
10
21.8036156
20
254.9518916
11
21.9206156
21
254.8986916
0
LINE
8
DEFAULT_255_2_778
10
21.9206156
20
254.8986916
11
21.9907156
21
254.7923916
0
LINE
8
DEFAULT_255_2_778
10
21.9907156
20
254.7923916
11
22.0375156
21
254.6327916
0
LINE
8
DEFAULT_255_2_778
10
22.0375156
20
254.6327916
11
22.0375156
21
254.5263916
0
LINE
8
DEFAULT_255_2_778
10
22.0375156
20
254.5263916
11
21.9907156
21
254.3136916
0
LINE
8
DEFAULT_255_2_778
10
21.9907156
20
254.3136916
11
21.3356156
21
252.9838916
0
LINE
8
DEFAULT_255_2_778
10
21.3356156
20
252.9838916
11
21.3356156
21
252.7179916
0
LINE
8
DEFAULT_255_2_778
10
21.3356156
20
252.7179916
11
22.1778156
21
252.7179916
0
LINE
8
DEFAULT_255_2_778
10
22.1778156
20
252.7179916
11
22.1778156
21
252.9838916
0
LINE
8
DEFAULT_255_2_778
10
22.1778156
20
252.9838916
11
21.5227156
21
252.9838916
0
LINE
8
DEFAULT_255_2_778
10
21.5227156
20
252.9838916
11
22.1074156
21
254.1541916
0
LINE
8
DEFAULT_255_2_778
10
22.1074156
20
254.1541916
11
22.1542156
21
254.3136916
0
LINE
8
DEFAULT_255_2_778
10
22.1542156
20
254.3136916
11
22.1775156
21
254.5263916
0
LINE
8
DEFAULT_255_2_778
10
22.1775156
20
254.5263916
11
22.1775156
21
254.6327916
0
LINE
8
DEFAULT_255_2_778
10
22.1775156
20
254.6327916
11
22.1542156
21
254.8454916
0
LINE
8
DEFAULT_255_2_778
10
22.1542156
20
254.8454916
11
22.0606156
21
255.0582916
0
LINE
8
DEFAULT_255_2_778
10
22.0606156
20
255.0582916
11
21.9669156
21
255.1645916
0
LINE
8
DEFAULT_255_2_778
10
21.9669156
20
255.1645916
11
21.8267156
21
255.2177916
0
LINE
8
DEFAULT_255_2_778
10
21.8267156
20
255.2177916
11
21.7330156
21
255.2177916
0
LINE
8
DEFAULT_255_2_778
10
21.7330156
20
255.2177916
11
21.5693156
21
255.1645916
0
LINE
8
DEFAULT_255_2_778
10
21.5693156
20
255.1645916
11
21.4756156
21
255.0582916
0
LINE
8
DEFAULT_255_2_778
10
21.4756156
20
255.0582916
11
21.3851156
21
254.8526916
0
LINE
8
DEFAULT_255_2_778
10
21.382122
20
251.0955195
11
21.358822
21
250.8828195
0
LINE
8
DEFAULT_255_2_778
10
21.358822
20
250.8828195
11
21.475822
21
250.8828195
0
LINE
8
DEFAULT_255_2_778
10
21.475822
20
250.8828195
11
21.522622
21
251.0423195
0
LINE
8
DEFAULT_255_2_778
10
21.522622
20
251.0423195
11
21.592722
21
251.1487195
0
LINE
8
DEFAULT_255_2_778
10
21.592722
20
251.1487195
11
21.709722
21
251.2018195
0
LINE
8
DEFAULT_255_2_778
10
21.709722
20
251.2018195
11
21.803322
21
251.2018195
0
LINE
8
DEFAULT_255_2_778
10
21.803322
20
251.2018195
11
21.920322
21
251.1487195
0
LINE
8
DEFAULT_255_2_778
10
21.920322
20
251.1487195
11
21.990422
21
251.0423195
0
LINE
8
DEFAULT_255_2_778
10
21.990422
20
251.0423195
11
22.037222
21
250.8828195
0
LINE
8
DEFAULT_255_2_778
10
22.037222
20
250.8828195
11
22.037222
21
250.7764195
0
LINE
8
DEFAULT_255_2_778
10
22.037222
20
250.7764195
11
21.990422
21
250.5637195
0
LINE
8
DEFAULT_255_2_778
10
21.990422
20
250.5637195
11
21.943522
21
250.4573195
0
LINE
8
DEFAULT_255_2_778
10
21.943522
20
250.4573195
11
21.803322
21
250.3509195
0
LINE
8
DEFAULT_255_2_778
10
21.803322
20
250.3509195
11
21.709722
21
250.3509195
0
LINE
8
DEFAULT_255_2_778
10
21.709722
20
250.3509195
11
21.709722
21
250.1382195
0
LINE
8
DEFAULT_255_2_778
10
21.709722
20
250.1382195
11
21.803322
21
250.1382195
0
LINE
8
DEFAULT_255_2_778
10
21.803322
20
250.1382195
11
21.943522
21
250.0850195
0
LINE
8
DEFAULT_255_2_778
10
21.943522
20
250.0850195
11
22.013722
21
249.9787195
0
LINE
8
DEFAULT_255_2_778
10
22.013722
20
249.9787195
11
22.060522
21
249.7659195
0
LINE
8
DEFAULT_255_2_778
10
22.060522
20
249.7659195
11
22.060522
21
249.5532195
0
LINE
8
DEFAULT_255_2_778
10
22.060522
20
249.5532195
11
22.037222
21
249.4469195
0
LINE
8
DEFAULT_255_2_778
10
22.037222
20
249.4469195
11
21.990422
21
249.3405195
0
LINE
8
DEFAULT_255_2_778
10
21.990422
20
249.3405195
11
21.943522
21
249.2873195
0
LINE
8
DEFAULT_255_2_778
10
21.943522
20
249.2873195
11
21.826622
21
249.2341195
0
LINE
8
DEFAULT_255_2_778
10
21.826622
20
249.2341195
11
21.686422
21
249.2341195
0
LINE
8
DEFAULT_255_2_778
10
21.686422
20
249.2341195
11
21.569422
21
249.2873195
0
LINE
8
DEFAULT_255_2_778
10
21.569422
20
249.2873195
11
21.522622
21
249.3405195
0
LINE
8
DEFAULT_255_2_778
10
21.522622
20
249.3405195
11
21.475822
21
249.4469195
0
LINE
8
DEFAULT_255_2_778
10
21.475822
20
249.4469195
11
21.452522
21
249.5532195
0
LINE
8
DEFAULT_255_2_778
10
21.452522
20
249.5532195
11
21.358822
21
249.5532195
0
LINE
8
DEFAULT_255_2_778
10
21.335522
20
249.5527195
11
21.358822
21
249.3931195
0
LINE
8
DEFAULT_255_2_778
10
21.358822
20
249.3931195
11
21.404322
21
249.2384195
0
LINE
8
DEFAULT_255_2_778
10
21.405622
20
249.2339195
11
21.475822
21
249.1275195
0
LINE
8
DEFAULT_255_2_778
10
21.475822
20
249.1275195
11
21.569422
21
249.0211195
0
LINE
8
DEFAULT_255_2_778
10
21.569422
20
249.0211195
11
21.663122
21
248.9680195
0
LINE
8
DEFAULT_255_2_778
10
21.663122
20
248.9680195
11
21.850122
21
248.9680195
0
LINE
8
DEFAULT_255_2_778
10
21.850122
20
248.9680195
11
21.943822
21
249.0211195
0
LINE
8
DEFAULT_255_2_778
10
21.943822
20
249.0211195
11
22.037522
21
249.1275195
0
LINE
8
DEFAULT_255_2_778
10
22.037522
20
249.1275195
11
22.107622
21
249.2339195
0
LINE
8
DEFAULT_255_2_778
10
22.107622
20
249.2339195
11
22.154422
21
249.3934195
0
LINE
8
DEFAULT_255_2_778
10
22.154422
20
249.3934195
11
22.177722
21
249.5530195
0
LINE
8
DEFAULT_255_2_778
10
22.177722
20
249.5530195
11
22.177722
21
249.7657195
0
LINE
8
DEFAULT_255_2_778
10
22.177722
20
249.7657195
11
22.154422
21
249.9784195
0
LINE
8
DEFAULT_255_2_778
10
22.154422
20
249.9784195
11
22.107622
21
250.1379195
0
LINE
8
DEFAULT_255_2_778
10
22.107622
20
250.1379195
11
21.990622
21
250.2443195
0
LINE
8
DEFAULT_255_2_778
10
21.990622
20
250.2443195
11
22.084322
21
250.4039195
0
LINE
8
DEFAULT_255_2_778
10
22.084322
20
250.4039195
11
22.131122
21
250.5634195
0
LINE
8
DEFAULT_255_2_778
10
22.131122
20
250.5634195
11
22.154422
21
250.7761195
0
LINE
8
DEFAULT_255_2_778
10
22.154422
20
250.7761195
11
22.154422
21
250.8825195
0
LINE
8
DEFAULT_255_2_778
10
22.154422
20
250.8825195
11
22.131122
21
251.0952195
0
LINE
8
DEFAULT_255_2_778
10
22.131122
20
251.0952195
11
22.038822
21
251.3050195
0
LINE
8
DEFAULT_255_2_778
10
22.037522
20
251.3082195
11
21.947222
21
251.4106195
0
LINE
8
DEFAULT_255_2_778
10
21.943522
20
251.4146195
11
21.794622
21
251.4630195
0
LINE
8
DEFAULT_255_2_778
10
22.492622
20
271.9838195
11
16.492622
21
271.9838195
0
LINE
8
DEFAULT_255_2_778
10
16.492622
20
271.9838195
11
16.492622
21
265.9838195
0
LINE
8
DEFAULT_255_2_778
10
16.492622
20
265.9838195
11
22.492622
21
265.9838195
0
LINE
8
DEFAULT_255_2_778
10
22.492622
20
265.9838195
11
22.492622
21
271.9838195
0
LINE
8
DEFAULT_255_2_778
10
21.430322
20
270.7339195
11
21.211422
21
270.7339195
0
LINE
8
DEFAULT_255_2_778
10
21.211422
20
270.7339195
11
20.992622
21
270.2127195
0
LINE
8
DEFAULT_255_2_778
10
20.992622
20
270.2127195
11
20.992622
21
269.6168195
0
LINE
8
DEFAULT_255_2_778
10
20.992622
20
269.6168195
11
21.211422
21
270.1381195
0
LINE
8
DEFAULT_255_2_778
10
21.211422
20
270.1381195
11
21.211422
21
267.2337195
0
LINE
8
DEFAULT_255_2_778
10
21.211422
20
267.2337195
11
21.430322
21
267.2337195
0
LINE
8
DEFAULT_255_2_778
10
21.430322
20
267.2337195
11
21.430322
21
270.7339195
0
LINE
8
DEFAULT_255_2_778
10
17.7116084
20
270.7339541
11
17.4928084
21
270.7339541
0
LINE
8
DEFAULT_255_2_778
10
17.4928084
20
270.7339541
11
18.1127084
21
269.0213541
0
LINE
8
DEFAULT_255_2_778
10
18.1127084
20
269.0213541
11
17.4928084
21
267.2340541
0
LINE
8
DEFAULT_255_2_778
10
17.4928084
20
267.2340541
11
17.7116084
21
267.2340541
0
LINE
8
DEFAULT_255_2_778
10
17.7116084
20
267.2340541
11
18.2220084
21
268.6490541
0
LINE
8
DEFAULT_255_2_778
10
18.2220084
20
268.6490541
11
18.7324084
21
267.2340541
0
LINE
8
DEFAULT_255_2_778
10
18.7324084
20
267.2340541
11
18.9512084
21
267.2340541
0
LINE
8
DEFAULT_255_2_778
10
18.9512084
20
267.2340541
11
18.3313084
21
269.0213541
0
LINE
8
DEFAULT_255_2_778
10
18.3313084
20
269.0213541
11
18.9512084
21
270.7339541
0
LINE
8
DEFAULT_255_2_778
10
18.9512084
20
270.7339541
11
18.7324084
21
270.7339541
0
LINE
8
DEFAULT_255_2_778
10
18.7324084
20
270.7339541
11
18.2220084
21
269.3189541
0
LINE
8
DEFAULT_255_2_778
10
18.2220084
20
269.3189541
11
17.7116084
21
270.7339541
0
ENDSEC
0
EOF