0
SECTION
2
HEADER
9
$MEASUREMENT
70
1
0
ENDSEC
0
SECTION
2
TABLES
0
TABLE
2
LTYPE
0
LTYPE
72
65
70
64
2
CONTINUOUS
3
______
73
0
40
0
0
ENDTAB
0
TABLE
2
LAYER
0
LAYER
2
DEFAULT_255_2_778
70
0
62
255
6
CONTINUOUS
0
ENDTAB
0
ENDSEC
0
SECTION
2
ENTITIES
0
LINE
8
DEFAULT_255_2_778
10
210.9510708
20
278.513046
11
222.8509708
21
278.513046
0
LINE
8
DEFAULT_255_2_778
10
222.8509708
20
278.513046
11
222.8509708
21
278.574146
0
LINE
8
DEFAULT_255_2_778
10
222.8509708
20
278.574146
11
223.0848708
21
278.574146
0
LINE
8
DEFAULT_255_2_778
10
223.0848708
20
278.574146
11
223.9508708
21
279.090146
0
LINE
8
DEFAULT_255_2_778
10
223.9508708
20
279.090146
11
223.9508708
21
282.936146
0
LINE
8
DEFAULT_255_2_778
10
223.9508708
20
282.936146
11
223.0848708
21
283.452046
0
LINE
8
DEFAULT_255_2_778
10
223.0848708
20
283.452046
11
222.8509708
21
283.452046
0
LINE
8
DEFAULT_255_2_778
10
222.8509708
20
283.452046
11
222.8509708
21
283.513146
0
LINE
8
DEFAULT_255_2_778
10
222.8509708
20
283.513146
11
210.9510708
21
283.513146
0
LINE
8
DEFAULT_255_2_778
10
0.1511708
20
-0.186854
11
139.9511708
21
-0.186854
0
LINE
8
DEFAULT_255_2_778
10
139.9511708
20
-0.186854
11
139.9511708
21
287.643046
0
LINE
8
DEFAULT_255_2_778
10
139.9511708
20
287.643046
11
136.4512708
21
287.643046
0
LINE
8
DEFAULT_255_2_778
10
136.4512708
20
287.643046
11
136.4512708
21
285.343046
0
LINE
8
DEFAULT_255_2_778
10
136.4512708
20
285.343046
11
134.2512708
21
285.343046
0
LINE
8
DEFAULT_255_2_778
10
134.2512708
20
285.343046
11
134.2512708
21
287.643046
0
LINE
8
DEFAULT_255_2_778
10
134.2512708
20
287.643046
11
48.0510708
21
287.643046
0
LINE
8
DEFAULT_255_2_778
10
48.0510708
20
287.643046
11
48.0510708
21
284.942946
0
LINE
8
DEFAULT_255_2_778
10
48.0510708
20
284.942946
11
45.8510708
21
284.942946
0
LINE
8
DEFAULT_255_2_778
10
45.8510708
20
284.942946
11
45.8510708
21
287.643046
0
LINE
8
DEFAULT_255_2_778
10
45.8510708
20
287.643046
11
25.3154708
21
287.643046
0
LINE
8
DEFAULT_255_2_778
10
25.3154708
20
287.643046
11
25.3146708
21
288.510646
0
LINE
8
DEFAULT_255_2_778
10
25.3146708
20
288.510646
11
25.3122708
21
288.675946
0
LINE
8
DEFAULT_255_2_778
10
25.3122708
20
288.675946
11
25.3082708
21
288.837346
0
LINE
8
DEFAULT_255_2_778
10
25.3082708
20
288.837346
11
25.3027708
21
288.992646
0
LINE
8
DEFAULT_255_2_778
10
25.3027708
20
288.992646
11
25.2955708
21
289.139746
0
LINE
8
DEFAULT_255_2_778
10
25.2955708
20
289.139746
11
25.2870708
21
289.277146
0
LINE
8
DEFAULT_255_2_778
10
25.2870708
20
289.277146
11
25.2773708
21
289.402546
0
LINE
8
DEFAULT_255_2_778
10
25.2773708
20
289.402546
11
25.2664708
21
289.514746
0
LINE
8
DEFAULT_255_2_778
10
25.2664708
20
289.514746
11
25.2545708
21
289.612346
0
LINE
8
DEFAULT_255_2_778
10
25.2545708
20
289.612346
11
25.2415708
21
289.693846
0
LINE
8
DEFAULT_255_2_778
10
25.2415708
20
289.693846
11
25.2280708
21
289.758346
0
LINE
8
DEFAULT_255_2_778
10
25.2280708
20
289.758346
11
25.2138708
21
289.805246
0
LINE
8
DEFAULT_255_2_778
10
25.2138708
20
289.805246
11
25.1992708
21
289.833546
0
LINE
8
DEFAULT_255_2_778
10
25.1992708
20
289.833546
11
25.1841708
21
289.843046
0
LINE
8
DEFAULT_255_2_778
10
25.1841708
20
289.843046
11
1.8667708
21
289.843046
0
LINE
8
DEFAULT_255_2_778
10
1.8667708
20
289.843046
11
1.8487708
21
289.776346
0
LINE
8
DEFAULT_255_2_778
10
1.8487708
20
289.776346
11
1.7124708
21
289.757346
0
LINE
8
DEFAULT_255_2_778
10
140.9512708
20
0.813046
11
139.9511708
21
0.813046
0
ARC
8
DEFAULT_255_2_778
10
153.9534926
20
2.0837397
40
1.993198
50
65.6873726
51
90.0684804
0
ARC
8
DEFAULT_255_2_778
10
153.9485098
20
2.075074
40
2.0031469
50
9.8052981
51
65.6595418
0
ARC
8
DEFAULT_255_2_778
10
153.9375608
20
2.0773682
40
2.0135495
50
359.9877133
51
9.6879127
0
ARC
8
DEFAULT_255_2_778
10
156.4512656
20
0.2768973
40
0.5001553
50
179.99552
51
225.3082633
0
ARC
8
DEFAULT_255_2_778
10
156.4510778
20
0.2770046
40
0.5000996
50
225.3322089
51
270.0009425
0
ARC
8
DEFAULT_255_2_778
10
156.4511024
20
0.2776836
40
0.5007788
50
269.9981333
51
270.6416346
0
ARC
8
DEFAULT_255_2_778
10
3.6494985
20
286.8435122
40
3.4982882
50
152.3114074
51
180.0045179
0
ARC
8
DEFAULT_255_2_778
10
3.6502544
20
286.8442234
40
3.4986271
50
122.910911
51
152.3274719
0
ARC
8
DEFAULT_255_2_778
10
3.6583037
20
286.8322948
40
3.5130148
50
121.9496113
51
122.9154188
0
ARC
8
DEFAULT_255_2_778
10
154.9494873
20
160.3100536
40
1.4936916
50
90.9581267
51
121.2706464
0
ARC
8
DEFAULT_255_2_778
10
154.95216
20
160.3034287
40
1.5007417
50
121.2265727
51
172.3163174
0
ARC
8
DEFAULT_255_2_778
10
154.9647327
20
160.3040324
40
1.5131225
50
172.4026231
51
180.0074224
0
ARC
8
DEFAULT_255_2_778
10
209.9547922
20
0.775576
40
0.9963191
50
318.3540548
51
0.083984
0
ARC
8
DEFAULT_255_2_778
10
209.9521647
20
0.7745951
40
0.9976339
50
271.7307506
51
318.4964297
0
ARC
8
DEFAULT_255_2_778
10
209.95102
20
0.7956955
40
1.0187593
50
269.9994553
51
271.7592611
0
LINE
8
DEFAULT_255_2_778
10
24.5513103
20
6.0430364
11
24.5513103
21
1.5430364
0
LINE
8
DEFAULT_255_2_778
10
24.5513103
20
1.5430364
11
12.2154103
21
1.5430364
0
LINE
8
DEFAULT_255_2_778
10
12.2154103
20
1.5430364
11
12.2154103
21
6.0430364
0
LINE
8
DEFAULT_255_2_778
10
12.2154103
20
6.0430364
11
24.5513103
21
6.0430364
0
LINE
8
DEFAULT_255_2_778
10
139.9512103
20
2.1430364
11
136.4513103
21
2.1430364
0
LINE
8
DEFAULT_255_2_778
10
136.4513103
20
2.1430364
11
136.4513103
21
4.4430364
0
LINE
8
DEFAULT_255_2_778
10
136.4513103
20
4.4430364
11
134.2513103
21
4.4430364
0
LINE
8
DEFAULT_255_2_778
10
134.2513103
20
4.4430364
11
134.2513103
21
2.1430364
0
LINE
8
DEFAULT_255_2_778
10
134.2513103
20
2.1430364
11
48.0511103
21
2.1430364
0
LINE
8
DEFAULT_255_2_778
10
48.0511103
20
2.1430364
11
48.0511103
21
4.8431364
0
LINE
8
DEFAULT_255_2_778
10
48.0511103
20
4.8431364
11
45.8511103
21
4.8431364
0
LINE
8
DEFAULT_255_2_778
10
45.8511103
20
4.8431364
11
45.8511103
21
2.1430364
0
LINE
8
DEFAULT_255_2_778
10
45.8511103
20
2.1430364
11
25.3155103
21
2.1430364
0
LINE
8
DEFAULT_255_2_778
10
25.3155103
20
2.1430364
11
25.3147103
21
1.1757364
0
LINE
8
DEFAULT_255_2_778
10
25.3147103
20
1.1757364
11
25.3123103
21
1.0098364
0
LINE
8
DEFAULT_255_2_778
10
25.3123103
20
1.0098364
11
25.3083103
21
0.8482364
0
LINE
8
DEFAULT_255_2_778
10
25.3083103
20
0.8482364
11
25.3028103
21
0.6936364
0
LINE
8
DEFAULT_255_2_778
10
25.3028103
20
0.6936364
11
25.2956103
21
0.5463364
0
LINE
8
DEFAULT_255_2_778
10
25.2956103
20
0.5463364
11
25.2871103
21
0.4087364
0
LINE
8
DEFAULT_255_2_778
10
25.2871103
20
0.4087364
11
25.2774103
21
0.2836364
0
LINE
8
DEFAULT_255_2_778
10
25.2774103
20
0.2836364
11
25.2665103
21
0.1716364
0
LINE
8
DEFAULT_255_2_778
10
25.2665103
20
0.1716364
11
25.2546103
21
0.0737364
0
LINE
8
DEFAULT_255_2_778
10
25.2546103
20
0.0737364
11
25.2416103
21
-0.0079636
0
LINE
8
DEFAULT_255_2_778
10
25.2416103
20
-0.0079636
11
25.2281103
21
-0.0722636
0
LINE
8
DEFAULT_255_2_778
10
25.2281103
20
-0.0722636
11
25.2139103
21
-0.1191636
0
LINE
8
DEFAULT_255_2_778
10
25.2139103
20
-0.1191636
11
25.1993103
21
-0.1474636
0
LINE
8
DEFAULT_255_2_778
10
25.1993103
20
-0.1474636
11
25.1845103
21
-0.1569636
0
LINE
8
DEFAULT_255_2_778
10
153.7511103
20
4.0769364
11
153.9511103
21
4.0769364
0
LINE
8
DEFAULT_255_2_778
10
155.9511103
20
2.0769364
11
155.9511103
21
0.2769364
0
LINE
8
DEFAULT_255_2_778
10
0.1512103
20
-0.1569636
11
0.1512103
21
286.8432364
0
LINE
8
DEFAULT_255_2_778
10
1.7993103
20
289.8131364
11
1.8668103
21
289.8131364
0
LINE
8
DEFAULT_255_2_778
10
12.2154103
20
288.0430364
11
24.5513103
21
288.0430364
0
LINE
8
DEFAULT_255_2_778
10
24.5513103
20
288.0430364
11
24.5513103
21
283.5430364
0
LINE
8
DEFAULT_255_2_778
10
24.5513103
20
283.5430364
11
12.2154103
21
283.5430364
0
LINE
8
DEFAULT_255_2_778
10
12.2154103
20
283.5430364
11
12.2154103
21
288.0430364
0
LINE
8
DEFAULT_255_2_778
10
209.4514103
20
162.7859364
11
154.9245103
21
161.8035364
0
LINE
8
DEFAULT_255_2_778
10
210.9514103
20
160.7859364
11
214.9532103
21
160.7859364
0
LINE
8
DEFAULT_255_2_778
10
214.9532103
20
160.7859364
11
214.9913103
21
160.7613364
0
LINE
8
DEFAULT_255_2_778
10
214.9913103
20
160.7613364
11
215.0794103
21
160.6898364
0
LINE
8
DEFAULT_255_2_778
10
209.4512103
20
162.7837364
11
209.4512103
21
161.7770364
0
LINE
8
DEFAULT_255_2_778
10
209.4512103
20
161.7770364
11
210.9511103
21
161.7770364
0
LINE
8
DEFAULT_255_2_778
10
210.9511103
20
161.7770364
11
210.9511103
21
0.7770364
0
LINE
8
DEFAULT_255_2_778
10
209.9510103
20
-0.2230636
11
156.4512103
21
-0.2230636
0
ARC
8
DEFAULT_255_2_778
10
152.4550113
20
0.841778
40
0.9963226
50
318.3541388
51
0.0816049
0
ARC
8
DEFAULT_255_2_778
10
152.4523492
20
0.8407585
40
0.9976376
50
271.732932
51
318.4994886
0
ARC
8
DEFAULT_255_2_778
10
152.4512425
20
0.8618562
40
1.0187592
50
269.9994554
51
271.7592612
0
ARC
8
DEFAULT_255_2_778
10
146.2040445
20
17.8164573
40
4.0033612
50
269.9597607
51
285.787556
0
ARC
8
DEFAULT_255_2_778
10
146.2014278
20
17.8081002
40
3.9960344
50
285.8562599
51
314.0437686
0
ARC
8
DEFAULT_255_2_778
10
146.203369
20
17.8143055
40
3.9991493
50
313.9619713
51
343.5559571
0
ARC
8
DEFAULT_255_2_778
10
146.201769
20
17.8095207
40
3.9993328
50
343.6281907
51
359.5242901
0
ARC
8
DEFAULT_255_2_778
10
146.1207027
20
17.8134323
40
4.08043
50
359.4788168
51
359.9952913
0
ARC
8
DEFAULT_255_2_778
10
146.1979949
20
17.8160917
40
4.0031391
50
359.9571374
51
15.7857313
0
ARC
8
DEFAULT_255_2_778
10
146.2063542
20
17.8134708
40
3.9958109
50
15.8545041
51
44.0433006
0
ARC
8
DEFAULT_255_2_778
10
146.2000524
20
17.8153155
40
3.9990623
50
43.9615339
51
73.5560163
0
ARC
8
DEFAULT_255_2_778
10
146.2048095
20
17.8136388
40
3.999327
50
73.6281794
51
89.5242937
0
ARC
8
DEFAULT_255_2_778
10
146.2008975
20
17.7325669
40
4.08043
50
89.4788168
51
89.9952913
0
ARC
8
DEFAULT_255_2_778
10
146.2040445
20
271.8164573
40
4.0033612
50
269.9597607
51
285.787556
0
ARC
8
DEFAULT_255_2_778
10
146.2014278
20
271.8081002
40
3.9960344
50
285.8562599
51
314.0437686
0
ARC
8
DEFAULT_255_2_778
10
146.203369
20
271.8143055
40
3.9991493
50
313.9619713
51
343.5559571
0
ARC
8
DEFAULT_255_2_778
10
146.201769
20
271.8095207
40
3.9993328
50
343.6281907
51
359.5242901
0
ARC
8
DEFAULT_255_2_778
10
146.1207027
20
271.8134323
40
4.08043
50
359.4788168
51
359.9952913
0
ARC
8
DEFAULT_255_2_778
10
146.1980726
20
271.8160951
40
4.0030613
50
359.957088
51
15.7858869
0
ARC
8
DEFAULT_255_2_778
10
146.2064608
20
271.8134764
40
3.9957049
50
15.8547423
51
44.0439268
0
ARC
8
DEFAULT_255_2_778
10
146.1999428
20
271.8151004
40
3.9992652
50
43.9622848
51
73.5552364
0
ARC
8
DEFAULT_255_2_778
10
146.2046293
20
271.8132354
40
3.9997303
50
73.6271867
51
89.5217608
0
ARC
8
DEFAULT_255_2_778
10
146.2006523
20
271.7227427
40
4.0902544
50
89.4766332
51
89.9918672
0
ARC
8
DEFAULT_255_2_778
10
209.9523774
20
288.8466211
40
0.996477
50
48.3575081
51
90.0830578
0
ARC
8
DEFAULT_255_2_778
10
209.9535129
20
288.8441184
40
0.9975959
50
1.7327121
51
48.5017548
0
ARC
8
DEFAULT_255_2_778
10
209.9323737
20
288.8430067
40
1.0187592
50
359.9994554
51
1.7592612
0
ARC
8
DEFAULT_255_2_778
10
210.9510718
20
274.512858
40
0.400039
50
89.9912595
51
179.9944112
0
ARC
8
DEFAULT_255_2_778
10
210.9510933
20
274.5128575
40
0.4000605
50
179.9943399
51
270.0056601
0
LINE
8
DEFAULT_255_2_778
10
25.3345329
20
289.698597
11
25.2842329
21
289.813197
0
LINE
8
DEFAULT_255_2_778
10
139.9512329
20
287.813197
11
139.9512329
21
289.813197
0
LINE
8
DEFAULT_255_2_778
10
139.9512329
20
289.813197
11
25.2096329
21
289.813197
0
LINE
8
DEFAULT_255_2_778
10
152.4512329
20
-0.156903
11
140.9510329
21
-0.156903
0
LINE
8
DEFAULT_255_2_778
10
140.9510329
20
-0.156903
11
140.9510329
21
13.813097
0
LINE
8
DEFAULT_255_2_778
10
140.9510329
20
13.813097
11
146.2012329
21
13.813097
0
LINE
8
DEFAULT_255_2_778
10
146.2012329
20
21.812997
11
140.9510329
21
21.812997
0
LINE
8
DEFAULT_255_2_778
10
140.9510329
20
21.812997
11
140.9510329
21
267.813097
0
LINE
8
DEFAULT_255_2_778
10
140.9510329
20
267.813097
11
146.2012329
21
267.813097
0
LINE
8
DEFAULT_255_2_778
10
146.2012329
20
275.812997
11
140.9510329
21
275.812997
0
LINE
8
DEFAULT_255_2_778
10
140.9510329
20
275.812997
11
140.9510329
21
289.843097
0
LINE
8
DEFAULT_255_2_778
10
140.9510329
20
289.843097
11
209.9509329
21
289.843097
0
LINE
8
DEFAULT_255_2_778
10
210.9511329
20
288.842997
11
210.9511329
21
274.912897
0
LINE
8
DEFAULT_255_2_778
10
210.9511329
20
274.112797
11
210.9511329
21
162.812897
0
LINE
8
DEFAULT_255_2_778
10
210.9511329
20
162.812897
11
153.4510329
21
161.809397
0
LINE
8
DEFAULT_255_2_778
10
153.4510329
20
161.809397
11
153.4510329
21
0.842897
0
LINE
8
DEFAULT_255_2_778
10
214.9566329
20
160.785997
11
215.2130329
21
160.585397
0
LINE
8
DEFAULT_255_2_778
10
215.2130329
20
160.585397
11
215.3873329
21
160.468697
0
LINE
8
DEFAULT_255_2_778
10
215.3873329
20
160.468697
11
215.5998329
21
160.363697
0
LINE
8
DEFAULT_255_2_778
10
215.5998329
20
160.363697
11
215.8527329
21
160.295997
0
ARC
8
DEFAULT_255_2_778
10
215.9476438
20
160.7873452
40
0.9963226
50
138.3541388
51
180.0816049
0
ARC
8
DEFAULT_255_2_778
10
215.9503058
20
160.7883647
40
0.9976376
50
91.732932
51
138.4994886
0
ARC
8
DEFAULT_255_2_778
10
215.9514125
20
160.767267
40
1.0187592
50
89.9994554
51
91.7592612
0
ARC
8
DEFAULT_255_2_778
10
215.9528667
20
160.7895502
40
0.996477
50
48.3575081
51
90.0830578
0
ARC
8
DEFAULT_255_2_778
10
215.9540022
20
160.7870476
40
0.9975959
50
1.7327121
51
48.5017548
0
ARC
8
DEFAULT_255_2_778
10
215.932863
20
160.7859359
40
1.0187592
50
359.9994554
51
1.7592612
0
ARC
8
DEFAULT_255_2_778
10
215.9553414
20
158.2844026
40
0.9962817
50
318.352397
51
0.0818679
0
ARC
8
DEFAULT_255_2_778
10
215.9525765
20
158.2835069
40
0.9977557
50
271.7308645
51
318.4963478
0
ARC
8
DEFAULT_255_2_778
10
215.9514319
20
158.3048499
40
1.0191238
50
269.9994553
51
271.7589451
0
ARC
8
DEFAULT_255_2_778
10
45.2146576
20
284.7681148
40
0.7356987
50
14.9595731
51
28.5945339
0
ARC
8
DEFAULT_255_2_778
10
153.7514309
20
4.3768351
40
0.3001087
50
179.9826105
51
224.9730267
0
ARC
8
DEFAULT_255_2_778
10
153.751231
20
4.3770343
40
0.3001081
50
225.0269039
51
270.0174139
0
LINE
8
DEFAULT_255_2_778
10
140.9513222
20
288.8130262
11
139.9512222
21
288.8130262
0
LINE
8
DEFAULT_255_2_778
10
216.9516222
20
160.7859262
11
216.9516222
21
158.2858262
0
LINE
8
DEFAULT_255_2_778
10
215.9514222
20
157.2857262
11
211.9515222
21
157.2857262
0
LINE
8
DEFAULT_255_2_778
10
211.9515222
20
157.2857262
11
211.9515222
21
159.2857262
0
LINE
8
DEFAULT_255_2_778
10
211.9515222
20
159.2857262
11
210.9513222
21
159.2857262
0
LINE
8
DEFAULT_255_2_778
10
210.9511222
20
1.2771262
11
210.8913222
21
0.9479262
0
LINE
8
DEFAULT_255_2_778
10
210.8913222
20
0.9479262
11
210.7188222
21
0.6000262
0
LINE
8
DEFAULT_255_2_778
10
210.7188222
20
0.6000262
11
210.4539222
21
0.2743262
0
LINE
8
DEFAULT_255_2_778
10
210.4539222
20
0.2743262
11
210.1282222
21
0.0095262
0
LINE
8
DEFAULT_255_2_778
10
210.1282222
20
0.0095262
11
209.7803222
21
-0.1630738
0
LINE
8
DEFAULT_255_2_778
10
209.7803222
20
-0.1630738
11
209.4511222
21
-0.2228738
0
ARC
8
DEFAULT_255_2_778
10
18.581574
20
19.0867772
40
4.0304465
50
164.9582557
51
180.0541116
0
ARC
8
DEFAULT_255_2_778
10
18.5328536
20
19.0965471
40
3.9808611
50
139.8198467
51
164.9120716
0
ARC
8
DEFAULT_255_2_778
10
18.5419331
20
19.0929924
40
3.9900926
50
107.9359541
51
139.864966
0
ARC
8
DEFAULT_255_2_778
10
18.5443038
20
19.0720576
40
4.0107424
50
91.9213223
51
107.8760764
0
ARC
8
DEFAULT_255_2_778
10
18.551032
20
18.9718068
40
4.1111638
50
89.9986442
51
91.9681959
0
ARC
8
DEFAULT_255_2_778
10
18.5549391
20
19.0526072
40
4.0303653
50
74.9581016
51
90.0541611
0
ARC
8
DEFAULT_255_2_778
10
18.5647359
20
19.1014285
40
3.9806755
50
49.8189466
51
74.9119085
0
ARC
8
DEFAULT_255_2_778
10
18.5610786
20
19.0922468
40
3.9900512
50
17.9349408
51
49.863891
0
ARC
8
DEFAULT_255_2_778
10
18.5399509
20
19.0898015
40
4.0109075
50
1.9211679
51
17.8752368
0
ARC
8
DEFAULT_255_2_778
10
18.4398655
20
19.083068
40
4.1111638
50
359.9986442
51
1.9681959
0
ARC
8
DEFAULT_255_2_778
10
18.5204753
20
19.07916
40
4.0305558
50
344.958843
51
0.054171
0
ARC
8
DEFAULT_255_2_778
10
18.5694613
20
19.0693132
40
3.9806941
50
319.8201341
51
344.9127401
0
ARC
8
DEFAULT_255_2_778
10
18.5604325
20
19.0728457
40
3.9898728
50
287.9352114
51
319.8650293
0
ARC
8
DEFAULT_255_2_778
10
18.5579667
20
19.0940463
40
4.0108046
50
271.9211201
51
287.8754619
0
ARC
8
DEFAULT_255_2_778
10
18.5512267
20
19.1942131
40
4.1111424
50
269.9986419
51
271.9682019
0
ARC
8
DEFAULT_255_2_778
10
18.5473219
20
19.1137059
40
4.030637
50
254.9589971
51
270.0541215
0
ARC
8
DEFAULT_255_2_778
10
18.5375019
20
19.0648208
40
3.9808797
50
229.8210342
51
254.9129031
0
ARC
8
DEFAULT_255_2_778
10
18.540932
20
19.0737474
40
3.9899142
50
197.9362248
51
229.8661043
0
ARC
8
DEFAULT_255_2_778
10
18.5619397
20
19.0761385
40
4.0106395
50
181.9212745
51
197.8763014
0
ARC
8
DEFAULT_255_2_778
10
18.6622718
20
19.0828733
40
4.1111424
50
179.9986419
51
181.968202
0
LINE
8
DEFAULT_255_2_778
10
14.5511293
20
19.0829707
11
14.5511293
21
19.0829707
0
ARC
8
DEFAULT_255_2_778
10
18.581574
20
270.5467772
40
4.0304465
50
164.9582557
51
180.0541116
0
ARC
8
DEFAULT_255_2_778
10
18.5328536
20
270.5565471
40
3.9808611
50
139.8198467
51
164.9120716
0
ARC
8
DEFAULT_255_2_778
10
18.5419331
20
270.5529924
40
3.9900926
50
107.9359541
51
139.864966
0
ARC
8
DEFAULT_255_2_778
10
18.5443038
20
270.5320576
40
4.0107424
50
91.9213223
51
107.8760764
0
ARC
8
DEFAULT_255_2_778
10
18.551032
20
270.4318068
40
4.1111638
50
89.9986442
51
91.9681959
0
ARC
8
DEFAULT_255_2_778
10
18.5549391
20
270.5126072
40
4.0303653
50
74.9581016
51
90.0541611
0
ARC
8
DEFAULT_255_2_778
10
18.5647359
20
270.5614285
40
3.9806755
50
49.8189466
51
74.9119085
0
ARC
8
DEFAULT_255_2_778
10
18.5610786
20
270.5522468
40
3.9900512
50
17.9349408
51
49.863891
0
ARC
8
DEFAULT_255_2_778
10
18.5399509
20
270.5498015
40
4.0109075
50
1.9211679
51
17.8752368
0
ARC
8
DEFAULT_255_2_778
10
18.4398655
20
270.543068
40
4.1111638
50
359.9986442
51
1.9681959
0
ARC
8
DEFAULT_255_2_778
10
18.5204753
20
270.53916
40
4.0305558
50
344.958843
51
0.054171
0
ARC
8
DEFAULT_255_2_778
10
18.5694613
20
270.5293132
40
3.9806941
50
319.8201341
51
344.9127401
0
ARC
8
DEFAULT_255_2_778
10
18.5604325
20
270.5328457
40
3.9898728
50
287.9352114
51
319.8650293
0
ARC
8
DEFAULT_255_2_778
10
18.5579667
20
270.5540463
40
4.0108046
50
271.9211201
51
287.8754619
0
ARC
8
DEFAULT_255_2_778
10
18.5512267
20
270.6542131
40
4.1111424
50
269.9986419
51
271.9682019
0
ARC
8
DEFAULT_255_2_778
10
18.5473219
20
270.5737059
40
4.030637
50
254.9589971
51
270.0541215
0
ARC
8
DEFAULT_255_2_778
10
18.5375019
20
270.5248208
40
3.9808797
50
229.8210342
51
254.9129031
0
ARC
8
DEFAULT_255_2_778
10
18.540932
20
270.5337474
40
3.9899142
50
197.9362248
51
229.8661043
0
ARC
8
DEFAULT_255_2_778
10
18.5619397
20
270.5361385
40
4.0106395
50
181.9212745
51
197.8763014
0
ARC
8
DEFAULT_255_2_778
10
18.6622718
20
270.5428733
40
4.1111424
50
179.9986419
51
181.968202
0
LINE
8
DEFAULT_255_2_778
10
14.5511293
20
270.5429707
11
14.5511293
21
270.5429707
0
LINE
8
DEFAULT_255_2_778
10
86.7511896
20
1.8131743
11
86.7511896
21
2.1430743
0
LINE
8
DEFAULT_255_2_778
10
86.6900896
20
2.1430743
11
86.6987896
21
1.8131743
0
LINE
8
DEFAULT_255_2_778
10
81.2123896
20
2.1430743
11
81.2036896
21
1.8131743
0
LINE
8
DEFAULT_255_2_778
10
81.1512896
20
1.8131743
11
81.1512896
21
2.1430743
0
LINE
8
DEFAULT_255_2_778
10
9.9510896
20
227.3928743
11
8.2511896
21
227.3928743
0
LINE
8
DEFAULT_255_2_778
10
8.2511896
20
223.3928743
11
9.9510896
21
223.3928743
0
LINE
8
DEFAULT_255_2_778
10
8.2511261
20
227.4928979
11
9.9510261
21
227.4928979
0
LINE
8
DEFAULT_255_2_778
10
9.9510261
20
227.4928979
11
9.9510261
21
223.2928979
0
LINE
8
DEFAULT_255_2_778
10
9.9510261
20
223.2928979
11
8.2511261
21
223.2928979
0
LINE
8
DEFAULT_255_2_778
10
8.2511261
20
223.2928979
11
8.2511261
21
227.4928979
0
ARC
8
DEFAULT_255_2_778
10
146.1983285
20
271.8137237
40
3.4470628
50
153.6985789
51
180.0115696
0
ARC
8
DEFAULT_255_2_778
10
146.2003438
20
271.813888
40
3.4487971
50
122.1478488
51
153.7158605
0
ARC
8
DEFAULT_255_2_778
10
146.20717
20
271.8029531
40
3.4616878
50
120.0011558
51
122.1472055
0
ARC
8
DEFAULT_255_2_778
10
146.2006394
20
271.8153143
40
3.4477173
50
103.9401088
51
120.0098833
0
ARC
8
DEFAULT_255_2_778
10
146.2011754
20
271.8116532
40
3.4513995
50
89.9976698
51
103.9341027
0
ARC
8
DEFAULT_255_2_778
10
146.2017682
20
271.8145334
40
3.4485193
50
66.8996393
51
90.0075175
0
ARC
8
DEFAULT_255_2_778
10
146.1990562
20
271.8093641
40
3.4543382
50
59.9973113
51
66.8919038
0
ARC
8
DEFAULT_255_2_778
10
146.2032256
20
271.8150366
40
3.447341
50
33.6997769
51
60.0101777
0
ARC
8
DEFAULT_255_2_778
10
146.2027731
20
271.8134719
40
3.4485857
50
2.1469097
51
33.7172346
0
ARC
8
DEFAULT_255_2_778
10
146.1905775
20
271.8130595
40
3.4607883
50
359.9994732
51
2.1461687
0
ARC
8
DEFAULT_255_2_778
10
146.204303
20
271.8123316
40
3.4470628
50
333.6985789
51
0.0115696
0
ARC
8
DEFAULT_255_2_778
10
146.2022877
20
271.8121673
40
3.4487971
50
302.1478488
51
333.7158605
0
ARC
8
DEFAULT_255_2_778
10
146.1954614
20
271.8231022
40
3.4616878
50
300.0011558
51
302.1472055
0
ARC
8
DEFAULT_255_2_778
10
146.2019921
20
271.810741
40
3.4477173
50
283.9401088
51
300.0098833
0
ARC
8
DEFAULT_255_2_778
10
146.2014561
20
271.8144021
40
3.4513995
50
269.9976698
51
283.9341027
0
ARC
8
DEFAULT_255_2_778
10
146.2008633
20
271.811522
40
3.4485193
50
246.8996393
51
270.0075175
0
ARC
8
DEFAULT_255_2_778
10
146.2035752
20
271.8166912
40
3.4543382
50
239.9973113
51
246.8919038
0
ARC
8
DEFAULT_255_2_778
10
146.1994059
20
271.8110187
40
3.447341
50
213.6997769
51
240.0101777
0
ARC
8
DEFAULT_255_2_778
10
146.1998583
20
271.8125834
40
3.4485857
50
182.1469097
51
213.7172346
0
ARC
8
DEFAULT_255_2_778
10
146.212054
20
271.8129958
40
3.4607883
50
179.9994732
51
182.1461687
0
LINE
8
DEFAULT_255_2_778
10
142.7512657
20
271.8130277
11
142.7512657
21
271.8130277
0
ARC
8
DEFAULT_255_2_778
10
146.2029718
20
271.8132799
40
2.8328545
50
179.9998348
51
190.1660738
0
ARC
8
DEFAULT_255_2_778
10
145.9262158
20
271.813448
40
2.5560985
50
179.9319102
51
180.0035837
0
ARC
8
DEFAULT_255_2_778
10
146.2042153
20
271.8132604
40
2.8340981
50
169.8361575
51
179.9347973
0
ARC
8
DEFAULT_255_2_778
10
143.9451806
20
272.9197941
40
1.3001924
50
332.1986986
51
350.7847244
0
ARC
8
DEFAULT_255_2_778
10
145.5247115
20
272.6633356
40
0.3000228
50
117.8631819
51
170.7473772
0
ARC
8
DEFAULT_255_2_778
10
145.5247901
20
272.6633376
40
0.3000578
50
89.9972918
51
117.8766408
0
ARC
8
DEFAULT_255_2_778
10
145.5248043
20
272.6606623
40
0.302733
50
89.5071386
51
89.9999957
0
ARC
8
DEFAULT_255_2_778
10
145.5248842
20
272.6643638
40
0.2990308
50
64.9085716
51
89.516348
0
ARC
8
DEFAULT_255_2_778
10
146.2012083
20
274.113082
40
1.2997813
50
244.990041
51
269.9801894
0
LINE
8
DEFAULT_255_2_778
10
146.2007589
20
272.8133007
11
146.2012798
21
272.8133006
0
ARC
8
DEFAULT_255_2_778
10
146.201386
20
274.1125855
40
1.2992849
50
269.9953163
51
295.0148291
0
ARC
8
DEFAULT_255_2_778
10
146.8776944
20
272.6631087
40
0.3002075
50
90.3379673
51
115.0060953
0
ARC
8
DEFAULT_255_2_778
10
146.8777502
20
272.6653774
40
0.297939
50
90.0000015
51
90.3512749
0
ARC
8
DEFAULT_255_2_778
10
146.8778202
20
272.6631634
40
0.300153
50
62.160139
51
90.0133663
0
ARC
8
DEFAULT_255_2_778
10
146.8774364
20
272.6632303
40
0.3002733
50
9.2651897
51
62.0894137
0
ARC
8
DEFAULT_255_2_778
10
148.4573358
20
272.9201273
40
1.300376
50
189.2288384
51
207.8136354
0
ARC
8
DEFAULT_255_2_778
10
146.2028803
20
271.813255
40
2.829462
50
0.0654191
51
10.1807849
0
ARC
8
DEFAULT_255_2_778
10
146.4762437
20
271.813448
40
2.5560985
50
359.9964163
51
0.0680898
0
ARC
8
DEFAULT_255_2_778
10
146.2041266
20
271.8132854
40
2.8282157
50
349.8169609
51
0.0000538
0
ARC
8
DEFAULT_255_2_778
10
148.4582026
20
270.7062332
40
1.3012783
50
152.1928548
51
170.7646516
0
ARC
8
DEFAULT_255_2_778
10
146.8781154
20
270.9629334
40
0.2995249
50
297.8394626
51
350.805934
0
ARC
8
DEFAULT_255_2_778
10
146.8775804
20
270.963773
40
0.3005172
50
270.0047767
51
297.8548946
0
ARC
8
DEFAULT_255_2_778
10
146.8776055
20
270.9579393
40
0.2946834
50
269.6729865
51
269.9999988
0
ARC
8
DEFAULT_255_2_778
10
146.8774955
20
270.9618135
40
0.298557
50
244.8882296
51
269.6983262
0
ARC
8
DEFAULT_255_2_778
10
146.2011656
20
269.5130727
40
1.300278
50
64.9948722
51
89.932723
0
ARC
8
DEFAULT_255_2_778
10
146.2015205
20
270.0503072
40
0.7630433
50
89.9120068
51
90.029341
0
ARC
8
DEFAULT_255_2_778
10
146.2009881
20
269.5145633
40
1.2987873
50
89.993752
51
115.0196978
0
ARC
8
DEFAULT_255_2_778
10
145.5246831
20
270.964026
40
0.300691
50
270.5192917
51
294.9856288
0
ARC
8
DEFAULT_255_2_778
10
145.5246374
20
270.9680209
40
0.3046862
50
270.0041739
51
270.5210915
0
ARC
8
DEFAULT_255_2_778
10
145.5245505
20
270.9630285
40
0.2996938
50
242.1383806
51
270.0208567
0
ARC
8
DEFAULT_255_2_778
10
145.5248812
20
270.9634375
40
0.3002099
50
189.2703804
51
242.1190528
0
ARC
8
DEFAULT_255_2_778
10
143.944328
20
270.7065715
40
1.3010798
50
9.2216782
51
27.7949159
0
LINE
8
DEFAULT_255_2_778
10
143.4145923
20
272.3133756
11
145.0952923
21
272.3133756
0
LINE
8
DEFAULT_255_2_778
10
147.3071923
20
272.3133756
11
148.9877923
21
272.3133756
0
LINE
8
DEFAULT_255_2_778
10
148.9877923
20
271.3132756
11
147.3071923
21
271.3132756
0
LINE
8
DEFAULT_255_2_778
10
145.0952923
20
271.3132756
11
143.4145923
21
271.3132756
0
ARC
8
DEFAULT_255_2_778
10
146.1983285
20
17.8137237
40
3.4470628
50
153.6985789
51
180.0115696
0
ARC
8
DEFAULT_255_2_778
10
146.2003438
20
17.813888
40
3.4487971
50
122.1478488
51
153.7158605
0
ARC
8
DEFAULT_255_2_778
10
146.20717
20
17.8029531
40
3.4616878
50
120.0011558
51
122.1472055
0
ARC
8
DEFAULT_255_2_778
10
146.2006394
20
17.8153143
40
3.4477173
50
103.9401088
51
120.0098833
0
ARC
8
DEFAULT_255_2_778
10
146.2011754
20
17.8116532
40
3.4513995
50
89.9976698
51
103.9341027
0
ARC
8
DEFAULT_255_2_778
10
146.2017682
20
17.8145334
40
3.4485193
50
66.8996393
51
90.0075175
0
ARC
8
DEFAULT_255_2_778
10
146.1990562
20
17.8093641
40
3.4543382
50
59.9973113
51
66.8919038
0
ARC
8
DEFAULT_255_2_778
10
146.2032256
20
17.8150366
40
3.447341
50
33.6997769
51
60.0101777
0
ARC
8
DEFAULT_255_2_778
10
146.2027731
20
17.8134719
40
3.4485857
50
2.1469097
51
33.7172346
0
ARC
8
DEFAULT_255_2_778
10
146.1905775
20
17.8130595
40
3.4607883
50
359.9994732
51
2.1461687
0
ARC
8
DEFAULT_255_2_778
10
146.2041227
20
17.8123413
40
3.4472431
50
333.6992802
51
0.0114074
0
ARC
8
DEFAULT_255_2_778
10
146.2026518
20
17.8118534
40
3.4483458
50
302.1454152
51
333.7173774
0
ARC
8
DEFAULT_255_2_778
10
146.1962861
20
17.8221716
40
3.4604693
50
299.9970346
51
302.1437561
0
ARC
8
DEFAULT_255_2_778
10
146.2019921
20
17.810741
40
3.4477173
50
283.9401088
51
300.0098833
0
ARC
8
DEFAULT_255_2_778
10
146.2014561
20
17.8144021
40
3.4513995
50
269.9976698
51
283.9341027
0
ARC
8
DEFAULT_255_2_778
10
146.2008633
20
17.811522
40
3.4485193
50
246.8996393
51
270.0075175
0
ARC
8
DEFAULT_255_2_778
10
146.2035752
20
17.8166912
40
3.4543382
50
239.9973113
51
246.8919038
0
ARC
8
DEFAULT_255_2_778
10
146.1989116
20
17.810565
40
3.446701
50
213.6986361
51
240.013525
0
ARC
8
DEFAULT_255_2_778
10
146.2000168
20
17.8125903
40
3.4487444
50
182.1469317
51
213.7164423
0
ARC
8
DEFAULT_255_2_778
10
146.2120795
20
17.812996
40
3.4608139
50
179.9994764
51
182.146162
0
LINE
8
DEFAULT_255_2_778
10
142.7512657
20
17.8130277
11
142.7512657
21
17.8130277
0
ARC
8
DEFAULT_255_2_778
10
146.2029718
20
17.8129898
40
2.8328545
50
179.9998348
51
190.1660738
0
ARC
8
DEFAULT_255_2_778
10
145.9262158
20
17.8131578
40
2.5560985
50
179.9319102
51
180.0035837
0
ARC
8
DEFAULT_255_2_778
10
146.2042153
20
17.8129703
40
2.8340981
50
169.8361575
51
179.9347973
0
ARC
8
DEFAULT_255_2_778
10
143.9451806
20
18.919504
40
1.3001924
50
332.1986986
51
350.7847244
0
ARC
8
DEFAULT_255_2_778
10
145.5245415
20
18.6631674
40
0.2998355
50
117.8453612
51
170.7651555
0
ARC
8
DEFAULT_255_2_778
10
145.5247141
20
18.6632264
40
0.2998641
50
90.0001528
51
117.8797742
0
ARC
8
DEFAULT_255_2_778
10
145.5247132
20
18.6604203
40
0.3026702
50
89.4898033
51
89.9999952
0
ARC
8
DEFAULT_255_2_778
10
145.5247941
20
18.6644745
40
0.2986153
50
64.8521846
51
89.4983995
0
ARC
8
DEFAULT_255_2_778
10
146.2011961
20
20.1134372
40
1.3004516
50
245.004411
51
269.9807376
0
LINE
8
DEFAULT_255_2_778
10
146.2007589
20
18.8129856
11
146.2012798
21
18.8129855
0
ARC
8
DEFAULT_255_2_778
10
146.2013984
20
20.1129391
40
1.2999537
50
269.994769
51
295.0004688
0
ARC
8
DEFAULT_255_2_778
10
146.8778846
20
18.6623535
40
0.3006187
50
90.3737512
51
115.0095339
0
ARC
8
DEFAULT_255_2_778
10
146.8778847
20
18.6716628
40
0.2913095
50
89.9942448
51
90.3857306
0
ARC
8
DEFAULT_255_2_778
10
146.8780157
20
18.6631955
40
0.2997769
50
62.1644127
51
90.0194311
0
ARC
8
DEFAULT_255_2_778
10
146.8774364
20
18.6629402
40
0.3002733
50
9.2651897
51
62.0894137
0
ARC
8
DEFAULT_255_2_778
10
148.4573358
20
18.9198372
40
1.300376
50
189.2288384
51
207.8136354
0
ARC
8
DEFAULT_255_2_778
10
146.2028803
20
17.8129649
40
2.829462
50
0.0654191
51
10.1807849
0
ARC
8
DEFAULT_255_2_778
10
146.4762437
20
17.8131578
40
2.5560985
50
359.9964163
51
0.0680898
0
ARC
8
DEFAULT_255_2_778
10
146.2041266
20
17.8129953
40
2.8282157
50
349.8169609
51
0.0000538
0
ARC
8
DEFAULT_255_2_778
10
148.4587833
20
16.7058014
40
1.3018581
50
152.1992606
51
170.7669416
0
ARC
8
DEFAULT_255_2_778
10
146.8781207
20
16.9626616
40
0.2995386
50
297.8369212
51
350.7834184
0
ARC
8
DEFAULT_255_2_778
10
146.8774604
20
16.9636265
40
0.3007003
50
270.0139003
51
297.8623189
0
ARC
8
DEFAULT_255_2_778
10
146.8774968
20
16.9574527
40
0.2945263
50
269.6939493
51
270.0071164
0
ARC
8
DEFAULT_255_2_778
10
146.8773961
20
16.9606625
40
0.2977355
50
244.8352484
51
269.7166278
0
ARC
8
DEFAULT_255_2_778
10
146.2011773
20
15.5120346
40
1.300951
50
65.0092641
51
89.9332726
0
ARC
8
DEFAULT_255_2_778
10
146.2015205
20
16.0499421
40
0.7630433
50
89.9120068
51
90.029341
0
ARC
8
DEFAULT_255_2_778
10
146.2009757
20
15.5135297
40
1.2994558
50
89.9932053
51
115.0053351
0
ARC
8
DEFAULT_255_2_778
10
145.5246831
20
16.9637359
40
0.300691
50
270.5192917
51
294.9856288
0
ARC
8
DEFAULT_255_2_778
10
145.5246374
20
16.9677308
40
0.3046862
50
270.0041739
51
270.5210915
0
ARC
8
DEFAULT_255_2_778
10
145.5245505
20
16.9627384
40
0.2996938
50
242.1383806
51
270.0208567
0
ARC
8
DEFAULT_255_2_778
10
145.5248769
20
16.9631666
40
0.3002249
50
189.2929702
51
242.1215012
0
ARC
8
DEFAULT_255_2_778
10
143.9437464
20
16.7061391
40
1.3016607
50
9.2194122
51
27.7885181
0
LINE
8
DEFAULT_255_2_778
10
143.4145923
20
18.3130855
11
145.0952923
21
18.3130855
0
LINE
8
DEFAULT_255_2_778
10
147.3071923
20
18.3130855
11
148.9877923
21
18.3130855
0
LINE
8
DEFAULT_255_2_778
10
148.9877923
20
17.3129855
11
147.3071923
21
17.3129855
0
LINE
8
DEFAULT_255_2_778
10
145.0952923
20
17.3129855
11
143.4145923
21
17.3129855
0
ARC
8
DEFAULT_255_2_778
10
34.621674
20
179.7968772
40
4.0304465
50
164.9582557
51
180.0541116
0
ARC
8
DEFAULT_255_2_778
10
34.5729536
20
179.8066471
40
3.9808611
50
139.8198467
51
164.9120716
0
ARC
8
DEFAULT_255_2_778
10
34.5820331
20
179.8030924
40
3.9900926
50
107.9359541
51
139.864966
0
ARC
8
DEFAULT_255_2_778
10
34.5844038
20
179.7821576
40
4.0107424
50
91.9213223
51
107.8760764
0
ARC
8
DEFAULT_255_2_778
10
34.591132
20
179.6819068
40
4.1111638
50
89.9986442
51
91.9681959
0
ARC
8
DEFAULT_255_2_778
10
34.5950391
20
179.7627072
40
4.0303653
50
74.9581016
51
90.0541611
0
ARC
8
DEFAULT_255_2_778
10
34.6048359
20
179.8115285
40
3.9806755
50
49.8189466
51
74.9119085
0
ARC
8
DEFAULT_255_2_778
10
34.6011786
20
179.8023468
40
3.9900512
50
17.9349408
51
49.863891
0
ARC
8
DEFAULT_255_2_778
10
34.5800509
20
179.7999015
40
4.0109075
50
1.9211679
51
17.8752368
0
ARC
8
DEFAULT_255_2_778
10
34.4799655
20
179.793168
40
4.1111638
50
359.9986442
51
1.9681959
0
ARC
8
DEFAULT_255_2_778
10
34.5605753
20
179.78926
40
4.0305558
50
344.958843
51
0.054171
0
ARC
8
DEFAULT_255_2_778
10
34.6095613
20
179.7794132
40
3.9806941
50
319.8201341
51
344.9127401
0
ARC
8
DEFAULT_255_2_778
10
34.6005325
20
179.7829457
40
3.9898728
50
287.9352114
51
319.8650293
0
ARC
8
DEFAULT_255_2_778
10
34.5980667
20
179.8041463
40
4.0108046
50
271.9211201
51
287.8754619
0
ARC
8
DEFAULT_255_2_778
10
34.5913267
20
179.9043131
40
4.1111424
50
269.9986419
51
271.9682019
0
ARC
8
DEFAULT_255_2_778
10
34.5874219
20
179.8238059
40
4.030637
50
254.9589971
51
270.0541215
0
ARC
8
DEFAULT_255_2_778
10
34.5776019
20
179.7749208
40
3.9808797
50
229.8210342
51
254.9129031
0
ARC
8
DEFAULT_255_2_778
10
34.581032
20
179.7838474
40
3.9899142
50
197.9362248
51
229.8661043
0
ARC
8
DEFAULT_255_2_778
10
34.6020397
20
179.7862385
40
4.0106395
50
181.9212745
51
197.8763014
0
ARC
8
DEFAULT_255_2_778
10
34.7023718
20
179.7929733
40
4.1111424
50
179.9986419
51
181.968202
0
LINE
8
DEFAULT_255_2_778
10
30.5912293
20
179.7930707
11
30.5912293
21
179.7930707
0
ARC
8
DEFAULT_255_2_778
10
34.5932862
20
179.7931079
40
2.833169
50
179.9996432
51
190.1655093
0
ARC
8
DEFAULT_255_2_778
10
34.5932862
20
179.7931432
40
2.833169
50
169.8344907
51
180.0003568
0
ARC
8
DEFAULT_255_2_778
10
32.3351806
20
180.8995941
40
1.3001924
50
332.1986986
51
350.7847244
0
ARC
8
DEFAULT_255_2_778
10
33.9147115
20
180.6431356
40
0.3000228
50
117.8631819
51
170.7473772
0
ARC
8
DEFAULT_255_2_778
10
33.9147901
20
180.6431376
40
0.3000578
50
89.9972918
51
117.8766408
0
ARC
8
DEFAULT_255_2_778
10
33.9148043
20
180.6404623
40
0.302733
50
89.5071386
51
89.9999957
0
ARC
8
DEFAULT_255_2_778
10
33.9148842
20
180.6441638
40
0.2990308
50
64.9085716
51
89.516348
0
ARC
8
DEFAULT_255_2_778
10
34.5912083
20
182.092882
40
1.2997813
50
244.990041
51
269.9801894
0
LINE
8
DEFAULT_255_2_778
10
34.5907589
20
180.7931007
11
34.5912798
21
180.7931006
0
ARC
8
DEFAULT_255_2_778
10
34.591386
20
182.0923855
40
1.2992849
50
269.9953163
51
295.0148291
0
ARC
8
DEFAULT_255_2_778
10
35.2676944
20
180.6429087
40
0.3002075
50
90.3379673
51
115.0060953
0
ARC
8
DEFAULT_255_2_778
10
35.2677502
20
180.6451774
40
0.297939
50
90.0000015
51
90.3512749
0
ARC
8
DEFAULT_255_2_778
10
35.2678202
20
180.6429634
40
0.300153
50
62.160139
51
90.0133663
0
ARC
8
DEFAULT_255_2_778
10
35.2674364
20
180.6430303
40
0.3002733
50
9.2651897
51
62.0894137
0
ARC
8
DEFAULT_255_2_778
10
36.8473358
20
180.8999273
40
1.300376
50
189.2288384
51
207.8136354
0
ARC
8
DEFAULT_255_2_778
10
34.5938378
20
179.79314
40
2.8285046
50
359.9997079
51
10.1825179
0
ARC
8
DEFAULT_255_2_778
10
34.5938127
20
179.7931134
40
2.8285296
50
349.8175263
51
0.0002457
0
ARC
8
DEFAULT_255_2_778
10
36.8482026
20
178.6860332
40
1.3012783
50
152.1928548
51
170.7646516
0
ARC
8
DEFAULT_255_2_778
10
35.2681154
20
178.9427334
40
0.2995249
50
297.8394626
51
350.805934
0
ARC
8
DEFAULT_255_2_778
10
35.2675804
20
178.943573
40
0.3005172
50
270.0047767
51
297.8548946
0
ARC
8
DEFAULT_255_2_778
10
35.2676055
20
178.9377393
40
0.2946834
50
269.6729865
51
269.9999988
0
ARC
8
DEFAULT_255_2_778
10
35.2674955
20
178.9416135
40
0.298557
50
244.8882296
51
269.6983262
0
ARC
8
DEFAULT_255_2_778
10
34.5911656
20
177.4928727
40
1.300278
50
64.9948722
51
89.932723
0
ARC
8
DEFAULT_255_2_778
10
34.5915205
20
178.0301072
40
0.7630433
50
89.9120068
51
90.029341
0
ARC
8
DEFAULT_255_2_778
10
34.5909881
20
177.4943633
40
1.2987873
50
89.993752
51
115.0196978
0
ARC
8
DEFAULT_255_2_778
10
33.9146831
20
178.943826
40
0.300691
50
270.5192917
51
294.9856288
0
ARC
8
DEFAULT_255_2_778
10
33.9146374
20
178.9478209
40
0.3046862
50
270.0041739
51
270.5210915
0
ARC
8
DEFAULT_255_2_778
10
33.9145505
20
178.9428285
40
0.2996938
50
242.1383806
51
270.0208567
0
ARC
8
DEFAULT_255_2_778
10
33.9147115
20
178.9431156
40
0.3000228
50
189.2526228
51
242.1368181
0
ARC
8
DEFAULT_255_2_778
10
32.334328
20
178.6863715
40
1.3010798
50
9.2216782
51
27.7949159
0
LINE
8
DEFAULT_255_2_778
10
31.8045923
20
180.2931756
11
33.4852923
21
180.2931756
0
LINE
8
DEFAULT_255_2_778
10
35.6971923
20
180.2931756
11
37.3777923
21
180.2931756
0
LINE
8
DEFAULT_255_2_778
10
37.3777923
20
179.2930756
11
35.6971923
21
179.2930756
0
LINE
8
DEFAULT_255_2_778
10
33.4852923
20
179.2930756
11
31.8045923
21
179.2930756
0
ENDSEC
0
EOF