0
SECTION
2
HEADER
9
$MEASUREMENT
70
1
0
ENDSEC
0
SECTION
2
TABLES
0
TABLE
2
LTYPE
0
LTYPE
72
65
70
64
2
CONTINUOUS
3
______
73
0
40
0
0
ENDTAB
0
TABLE
2
LAYER
0
LAYER
2
DEFAULT_255_2_778
70
0
62
255
6
CONTINUOUS
0
LAYER
2
DEFAULT_255_1_234
70
0
62
255
6
CONTINUOUS
0
ENDTAB
0
ENDSEC
0
SECTION
2
ENTITIES
0
ARC
8
DEFAULT_255_2_778
10
3.5695693
20
59.9302032
40
0.7914215
50
129.1312896
51
180.1450914
0
ARC
8
DEFAULT_255_2_778
10
3.5698345
20
59.9306904
40
0.7912112
50
89.854026
51
129.1684493
0
ARC
8
DEFAULT_255_2_778
10
25.7988937
20
59.9303769
40
0.7915249
50
39.4792447
51
90.147911
0
ARC
8
DEFAULT_255_2_778
10
25.7994935
20
59.9302236
40
0.7911595
50
359.8533901
51
39.5154338
0
ARC
8
DEFAULT_255_2_778
10
25.7991693
20
-1.986349
40
0.7914836
50
309.4761667
51
0.1482649
0
ARC
8
DEFAULT_255_2_778
10
25.798898
20
-1.9867801
40
0.7913235
50
269.8517415
51
309.511178
0
ARC
8
DEFAULT_255_2_778
10
3.569842
20
-1.9867219
40
0.7913815
50
219.1282118
51
270.1454017
0
ARC
8
DEFAULT_255_2_778
10
3.5695247
20
-1.9863394
40
0.7913769
50
179.8524075
51
219.1641908
0
LINE
8
DEFAULT_255_2_778
10
3.5718503
20
60.7218991
11
25.7968503
21
60.7218991
0
LINE
8
DEFAULT_255_2_778
10
26.5906503
20
59.9281991
11
26.5906503
21
-1.9843009
0
LINE
8
DEFAULT_255_2_778
10
25.7968503
20
-2.7781009
11
3.5718503
21
-2.7781009
0
LINE
8
DEFAULT_255_2_778
10
2.7781503
20
-1.9843009
11
2.7781503
21
59.9281991
0
LINE
8
DEFAULT_255_1_234
10
6.6564835
20
0.5189243
11
6.6829882
21
0.5189243
0
LINE
8
DEFAULT_255_1_234
10
6.6829882
20
0.5189243
11
6.6829882
21
0.392826
0
LINE
8
DEFAULT_255_1_234
10
6.6829882
20
0.392826
11
6.6556803
21
0.392826
0
LINE
8
DEFAULT_255_1_234
10
6.1087189
20
-0.2063417
11
6.1087189
21
-0.1493164
0
LINE
8
DEFAULT_255_1_234
10
6.2581093
20
-0.1685925
11
6.2581093
21
-0.2232083
0
ARC
8
DEFAULT_255_1_234
10
6.6609151
20
-0.1069545
40
0.4998079
50
90.6001036
51
104.514704
0
ARC
8
DEFAULT_255_1_234
10
6.6220667
20
0.0375131
40
0.3502176
50
104.2855254
51
133.862935
0
ARC
8
DEFAULT_255_1_234
10
6.6384424
20
0.026683
40
0.3693984
50
134.5302688
51
161.6210873
0
ARC
8
DEFAULT_255_1_234
10
6.8037613
20
-0.0316105
40
0.5446739
50
161.2849839
51
174.2076652
0
ARC
8
DEFAULT_255_1_234
10
6.944455
20
-0.0510213
40
0.6866274
50
173.7810589
51
174.9254635
0
ARC
8
DEFAULT_255_1_234
10
6.4894382
20
-0.1893161
40
0.3033419
50
95.8330959
51
138.9954921
0
ARC
8
DEFAULT_255_1_234
10
6.5117738
20
-0.3171625
40
0.4328947
50
89.8753725
51
97.0544009
0
ARC
8
DEFAULT_255_1_234
10
6.5165204
20
-0.2336252
40
0.3493769
50
71.6407809
51
90.6240094
0
ARC
8
DEFAULT_255_1_234
10
6.5315777
20
-0.1781918
40
0.2920396
50
39.6367836
51
71.019018
0
ARC
8
DEFAULT_255_1_234
10
6.467925
20
-0.2332002
40
0.3761538
50
10.658731
51
39.9043955
0
ARC
8
DEFAULT_255_1_234
10
6.3131333
20
-0.2668314
40
0.5345136
50
359.682601
51
11.132623
0
ARC
8
DEFAULT_255_1_234
10
6.3091464
20
-0.273899
40
0.5385081
50
347.2486944
51
0.4369317
0
ARC
8
DEFAULT_255_1_234
10
6.4758941
20
-0.3140193
40
0.3670249
50
318.1409698
51
347.6118597
0
ARC
8
DEFAULT_255_1_234
10
6.5083934
20
-0.3407298
40
0.3250007
50
275.6342139
51
317.8248465
0
ARC
8
DEFAULT_255_1_234
10
6.4863045
20
-0.2107781
40
0.4565864
50
269.8874292
51
276.7917694
0
ARC
8
DEFAULT_255_1_234
10
6.4808116
20
-0.3133257
40
0.3540676
50
246.9140195
51
270.7437342
0
ARC
8
DEFAULT_255_1_234
10
6.4814506
20
-0.3275616
40
0.3412781
50
218.1665114
51
245.878116
0
ARC
8
DEFAULT_255_1_234
10
6.5693967
20
-0.2539721
40
0.455911
50
191.4115814
51
218.6077802
0
ARC
8
DEFAULT_255_1_234
10
6.7632056
20
-0.2105167
40
0.6545001
50
179.6345085
51
191.7836486
0
ARC
8
DEFAULT_255_1_234
10
7.3214393
20
-0.1426303
40
1.2127388
50
171.4525249
51
180.3158839
0
ARC
8
DEFAULT_255_1_234
10
6.8819269
20
-0.0742392
40
0.7679464
50
157.9802646
51
171.6246686
0
ARC
8
DEFAULT_255_1_234
10
6.660529
20
0.0140421
40
0.5296008
50
141.4298019
51
157.854097
0
ARC
8
DEFAULT_255_1_234
10
6.596361
20
0.0594381
40
0.4511509
50
102.8715806
51
140.8564722
0
ARC
8
DEFAULT_255_1_234
10
6.6611226
20
-0.1845448
40
0.7034845
50
90.3778349
51
103.5869322
0
ARC
8
DEFAULT_255_1_234
10
6.4873002
20
-0.245027
40
0.2370698
50
89.8751008
51
126.2071704
0
ARC
8
DEFAULT_255_1_234
10
6.4918792
20
-0.2604697
40
0.2522934
50
124.9745049
51
144.895901
0
ARC
8
DEFAULT_255_1_234
10
6.4742982
20
-0.246144
40
0.2296779
50
145.2974905
51
160.2660252
0
ARC
8
DEFAULT_255_1_234
10
6.7815521
20
-0.2263929
40
0.5234525
50
179.6514266
51
190.2855912
0
ARC
8
DEFAULT_255_1_234
10
6.6121658
20
-0.2583214
40
0.3510893
50
190.0945431
51
207.5098196
0
ARC
8
DEFAULT_255_1_234
10
6.5555928
20
-0.2852377
40
0.288489
50
207.9583163
51
216.3251085
0
ARC
8
DEFAULT_255_1_234
10
6.5216036
20
-0.3131895
40
0.2445587
50
215.7661442
51
232.5456785
0
ARC
8
DEFAULT_255_1_234
10
6.4833019
20
-0.3618518
40
0.1826382
50
232.8005391
51
270.6605633
0
ARC
8
DEFAULT_255_1_234
10
6.487872
20
-0.3254388
40
0.2190529
50
269.35537
51
288.4744281
0
ARC
8
DEFAULT_255_1_234
10
6.4971617
20
-0.3603882
40
0.1829749
50
289.1833337
51
322.9683818
0
ARC
8
DEFAULT_255_1_234
10
6.4360139
20
-0.3121609
40
0.2608399
50
322.6007884
51
346.5182367
0
ARC
8
DEFAULT_255_1_234
10
6.3202735
20
-0.2826384
40
0.3802777
50
346.2582162
51
358.7741648
0
ARC
8
DEFAULT_255_1_234
10
6.2184404
20
-0.2771035
40
0.4822176
50
358.3755224
51
0.0098023
0
ARC
8
DEFAULT_255_1_234
10
6.2940591
20
-0.2743343
40
0.4066078
50
359.6214041
51
11.2839074
0
ARC
8
DEFAULT_255_1_234
10
6.4217738
20
-0.2476934
40
0.2761514
50
11.0482309
51
31.8146458
0
ARC
8
DEFAULT_255_1_234
10
6.4526781
20
-0.2309416
40
0.2410679
50
32.3035391
51
38.082671
0
ARC
8
DEFAULT_255_1_234
10
6.4947441
20
-0.1928338
40
0.1844966
50
36.825067
51
85.7415724
0
ARC
8
DEFAULT_255_1_234
10
6.4880274
20
-0.2428699
40
0.2349122
50
85.0140713
51
90.0513278
0
LINE
8
DEFAULT_255_1_234
10
7.7230983
20
0.0153343
11
7.7230983
21
-0.110764
0
LINE
8
DEFAULT_255_1_234
10
7.7230983
20
-0.110764
11
7.2162957
21
-0.110764
0
LINE
8
DEFAULT_255_1_234
10
7.2162957
20
-0.110764
11
7.2162957
21
-0.5252017
0
LINE
8
DEFAULT_255_1_234
10
7.2162957
20
-0.5252017
11
7.8050221
21
-0.5252017
0
LINE
8
DEFAULT_255_1_234
10
7.8050221
20
-0.5252017
11
7.8050221
21
-0.6513
0
LINE
8
DEFAULT_255_1_234
10
7.8050221
20
-0.6513
11
7.0620863
21
-0.6513
0
LINE
8
DEFAULT_255_1_234
10
7.0620863
20
-0.6513
11
7.0620863
21
0.5181211
0
LINE
8
DEFAULT_255_1_234
10
7.0620863
20
0.5181211
11
7.7969903
21
0.5181211
0
LINE
8
DEFAULT_255_1_234
10
7.7969903
20
0.5181211
11
7.7969903
21
0.3912196
0
LINE
8
DEFAULT_255_1_234
10
7.7969903
20
0.3912196
11
7.2162957
21
0.3912196
0
LINE
8
DEFAULT_255_1_234
10
7.2162957
20
0.3912196
11
7.2162957
21
0.0153343
0
LINE
8
DEFAULT_255_1_234
10
7.2162957
20
0.0153343
11
7.7230983
21
0.0153343
0
LINE
8
DEFAULT_255_1_234
10
8.7728465
20
0.1799849
11
8.617834
21
0.1799849
0
LINE
8
DEFAULT_255_1_234
10
7.9254981
20
-0.3123606
11
8.0805107
21
-0.3123606
0
ARC
8
DEFAULT_255_1_234
10
8.6837153
20
1.0746768
40
1.252368
50
248.9199003
51
254.1439814
0
ARC
8
DEFAULT_255_1_234
10
8.5156648
20
0.6420234
40
0.788226
50
241.633709
51
249.0064503
0
ARC
8
DEFAULT_255_1_234
10
8.3628042
20
0.3619317
40
0.4691427
50
230.498225
51
241.8087113
0
ARC
8
DEFAULT_255_1_234
10
8.2843616
20
0.2619906
40
0.3421437
50
227.4064532
51
229.9881192
0
ARC
8
DEFAULT_255_1_234
10
8.2356137
20
0.2144088
40
0.2741476
50
200.6781896
51
228.1763934
0
ARC
8
DEFAULT_255_1_234
10
8.2428447
20
0.2129077
40
0.2804109
50
179.5061581
51
199.8694617
0
ARC
8
DEFAULT_255_1_234
10
8.2419199
20
0.220321
40
0.2795204
50
132.4834203
51
181.0242172
0
ARC
8
DEFAULT_255_1_234
10
8.3014782
20
0.1640704
40
0.3612768
50
129.2532479
51
133.4242687
0
ARC
8
DEFAULT_255_1_234
10
8.3161231
20
0.1420965
40
0.3875675
50
101.98776
51
128.8742646
0
ARC
8
DEFAULT_255_1_234
10
8.3559842
20
-0.0300259
40
0.5642249
50
89.5906553
51
102.3169264
0
ARC
8
DEFAULT_255_1_234
10
8.3630334
20
0.0018148
40
0.5323783
50
77.2360837
51
90.3248275
0
ARC
8
DEFAULT_255_1_234
10
8.3837413
20
0.09854
40
0.4334697
50
63.837784
51
77.0809408
0
ARC
8
DEFAULT_255_1_234
10
8.4115175
20
0.1502911
40
0.3747796
50
45.9864267
51
64.1607727
0
ARC
8
DEFAULT_255_1_234
10
8.4376056
20
0.1800866
40
0.3352302
50
32.2747395
51
45.6547121
0
ARC
8
DEFAULT_255_1_234
10
8.4442497
20
0.181988
40
0.328603
50
359.6507365
51
32.6130309
0
ARC
8
DEFAULT_255_1_234
10
8.3499592
20
0.182466
40
0.2678863
50
359.469343
51
14.9832209
0
ARC
8
DEFAULT_255_1_234
10
8.4204654
20
0.2013539
40
0.1948938
50
14.9781179
51
48.2004265
0
ARC
8
DEFAULT_255_1_234
10
8.4040299
20
0.1806983
40
0.2212521
50
48.5927837
51
74.1241538
0
ARC
8
DEFAULT_255_1_234
10
8.3706788
20
0.0706248
40
0.3362561
50
73.7888341
51
86.6652678
0
ARC
8
DEFAULT_255_1_234
10
8.3604354
20
-0.0501119
40
0.4573953
50
86.2640471
51
90.0526343
0
ARC
8
DEFAULT_255_1_234
10
8.3576066
20
-0.0105808
40
0.4178709
50
89.6697524
51
99.2309573
0
ARC
8
DEFAULT_255_1_234
10
8.3333517
20
0.1338964
40
0.2713749
50
99.069534
51
113.7658566
0
ARC
8
DEFAULT_255_1_234
10
8.3059708
20
0.1984677
40
0.2012469
50
114.0401004
51
127.9850673
0
ARC
8
DEFAULT_255_1_234
10
8.2819272
20
0.228073
40
0.1631167
50
127.7287463
51
176.7105154
0
ARC
8
DEFAULT_255_1_234
10
8.349799
20
0.2179693
40
0.2315392
50
175.1779447
51
180.0581938
0
ARC
8
DEFAULT_255_1_234
10
8.2654836
20
0.2167428
40
0.1472271
50
179.6142195
51
228.1246017
0
ARC
8
DEFAULT_255_1_234
10
8.3096505
20
0.2576308
40
0.2072299
50
226.5779593
51
230.8800004
0
ARC
8
DEFAULT_255_1_234
10
8.3567584
20
0.3201636
40
0.2854818
50
231.4635071
51
241.9260842
0
ARC
8
DEFAULT_255_1_234
10
8.4764762
20
0.54048
40
0.53622
50
241.7178533
51
248.3259551
0
ARC
8
DEFAULT_255_1_234
10
8.6150134
20
0.8837064
40
0.9063478
50
248.2007737
51
252.4528373
0
ARC
8
DEFAULT_255_1_234
10
8.7353858
20
1.2558441
40
1.2974635
50
252.3391078
51
254.3469452
0
ARC
8
DEFAULT_255_1_234
10
7.9811561
20
-1.4418852
40
1.5037162
50
71.0197183
51
74.4087047
0
ARC
8
DEFAULT_255_1_234
10
8.1506246
20
-0.9526889
40
0.9859993
50
66.1847285
51
71.086374
0
ARC
8
DEFAULT_255_1_234
10
8.3062559
20
-0.60228
40
0.6025855
50
59.3536294
51
66.2691831
0
ARC
8
DEFAULT_255_1_234
10
8.3951211
20
-0.4519391
40
0.4279449
50
49.1020879
51
59.3293958
0
ARC
8
DEFAULT_255_1_234
10
8.4769951
20
-0.3586166
40
0.3038015
50
32.7919921
51
49.2505539
0
ARC
8
DEFAULT_255_1_234
10
8.5091041
20
-0.3357809
40
0.264448
50
31.1181161
51
32.4005348
0
ARC
8
DEFAULT_255_1_234
10
8.5002579
20
-0.3393221
40
0.2738556
50
8.1116974
51
30.7958831
0
ARC
8
DEFAULT_255_1_234
10
8.4192247
20
-0.3531247
40
0.3560327
50
359.8389159
51
8.4706516
0
ARC
8
DEFAULT_255_1_234
10
8.4818038
20
-0.3579863
40
0.2934776
50
337.4731098
51
0.7537279
0
ARC
8
DEFAULT_255_1_234
10
8.4996733
20
-0.3599613
40
0.2762607
50
307.5917067
51
336.4315538
0
ARC
8
DEFAULT_255_1_234
10
8.4536561
20
-0.3086898
40
0.3449979
50
307.6551545
51
308.4529766
0
ARC
8
DEFAULT_255_1_234
10
8.430628
20
-0.273175
40
0.3871988
50
284.3734338
51
307.1424381
0
ARC
8
DEFAULT_255_1_234
10
8.381111
20
-0.0910068
40
0.5759636
50
272.4382747
51
284.646547
0
ARC
8
DEFAULT_255_1_234
10
8.3684319
20
0.0889893
40
0.7563528
50
269.9708387
51
272.8178037
0
ARC
8
DEFAULT_255_1_234
10
8.3641358
20
-0.1148284
40
0.5525489
50
248.2707594
51
270.4055579
0
ARC
8
DEFAULT_255_1_234
10
8.35871
20
-0.1338808
40
0.5328452
50
246.1383403
51
248.0542782
0
ARC
8
DEFAULT_255_1_234
10
8.3168478
20
-0.2218157
40
0.4355005
50
233.1670131
51
246.4950969
0
ARC
8
DEFAULT_255_1_234
10
8.2614383
20
-0.2966188
40
0.3424126
50
215.3403242
51
233.0843104
0
ARC
8
DEFAULT_255_1_234
10
8.2341815
20
-0.3164451
40
0.3087104
50
179.2419209
51
215.2648451
0
ARC
8
DEFAULT_255_1_234
10
8.3109409
20
-0.3150334
40
0.2304457
50
179.335461
51
199.1045811
0
ARC
8
DEFAULT_255_1_234
10
8.2777085
20
-0.3237234
40
0.1962176
50
199.8828939
51
232.7063202
0
ARC
8
DEFAULT_255_1_234
10
8.3249353
20
-0.2643212
40
0.2720938
50
232.3738199
51
255.5136649
0
ARC
8
DEFAULT_255_1_234
10
8.359022
20
-0.1399165
40
0.4010747
50
255.2446292
51
267.5320849
0
ARC
8
DEFAULT_255_1_234
10
8.3677843
20
-0.0166298
40
0.5246356
50
267.1557994
51
270.0286766
0
ARC
8
DEFAULT_255_1_234
10
8.3705616
20
-0.061005
40
0.4802668
50
269.7000017
51
278.1660162
0
ARC
8
DEFAULT_255_1_234
10
8.396162
20
-0.2340485
40
0.3053425
50
278.0231263
51
290.625471
0
ARC
8
DEFAULT_255_1_234
10
8.4309308
20
-0.3267975
40
0.206291
50
290.6619762
51
307.0370976
0
ARC
8
DEFAULT_255_1_234
10
8.4609697
20
-0.3636496
40
0.1587906
50
306.3943566
51
355.3030547
0
ARC
8
DEFAULT_255_1_234
10
8.4097628
20
-0.3559887
40
0.2104809
50
354.3660432
51
0.0698737
0
ARC
8
DEFAULT_255_1_234
10
8.4239973
20
-0.3537383
40
0.1962563
50
359.417946
51
16.1971788
0
ARC
8
DEFAULT_255_1_234
10
8.4695284
20
-0.3412582
40
0.149053
50
16.4723299
51
52.6262157
0
ARC
8
DEFAULT_255_1_234
10
8.3874338
20
-0.4496567
40
0.2850296
50
52.7386432
51
62.4979148
0
ARC
8
DEFAULT_255_1_234
10
8.2489415
20
-0.7102717
40
0.5801521
50
62.2515216
51
68.1220564
0
ARC
8
DEFAULT_255_1_234
10
8.0769325
20
-1.1330128
40
1.0365451
50
68.0062803
51
71.8053402
0
ARC
8
DEFAULT_255_1_234
10
7.8973697
20
-1.6715242
40
1.6042013
50
71.7183119
51
73.9258742
0
LINE
8
DEFAULT_255_1_234
10
9.6892679
20
0.5181211
11
9.6892679
21
0.434591
0
LINE
8
DEFAULT_255_1_234
10
9.6892679
20
0.434591
11
9.2049541
21
-0.6513
0
LINE
8
DEFAULT_255_1_234
10
9.2049541
20
-0.6513
11
9.0491383
21
-0.6513
0
LINE
8
DEFAULT_255_1_234
10
9.0491383
20
-0.6513
11
9.5318458
21
0.3960387
0
LINE
8
DEFAULT_255_1_234
10
9.5318458
20
0.3960387
11
8.8989448
21
0.3960387
0
LINE
8
DEFAULT_255_1_234
10
8.8989448
20
0.3960387
11
8.8989448
21
0.5181211
0
LINE
8
DEFAULT_255_1_234
10
8.8989448
20
0.5181211
11
9.6892679
21
0.5181211
0
LINE
8
DEFAULT_255_1_234
10
10.4852131
20
0.5181211
11
10.4852131
21
-0.258548
0
LINE
8
DEFAULT_255_1_234
10
10.4852131
20
-0.258548
11
10.6474542
21
-0.258548
0
LINE
8
DEFAULT_255_1_234
10
10.6474542
20
-0.258548
11
10.6474542
21
-0.3798272
0
LINE
8
DEFAULT_255_1_234
10
10.6474542
20
-0.3798272
11
10.4852131
21
-0.3798272
0
LINE
8
DEFAULT_255_1_234
10
10.4852131
20
-0.3798272
11
10.4852131
21
-0.6513
0
LINE
8
DEFAULT_255_1_234
10
10.4852131
20
-0.6513
11
10.3358228
21
-0.6513
0
LINE
8
DEFAULT_255_1_234
10
10.3358228
20
-0.6513
11
10.3358228
21
-0.3798272
0
LINE
8
DEFAULT_255_1_234
10
10.3358228
20
-0.3798272
11
9.8033186
21
-0.3798272
0
LINE
8
DEFAULT_255_1_234
10
9.8033186
20
-0.3798272
11
9.8033186
21
-0.2922813
0
LINE
8
DEFAULT_255_1_234
10
9.8033186
20
-0.2922813
11
10.3269879
21
0.5181211
0
LINE
8
DEFAULT_255_1_234
10
10.3269879
20
0.5181211
11
10.4852131
21
0.5181211
0
LINE
8
DEFAULT_255_1_234
10
10.318153
20
0.2827912
11
9.9719851
21
-0.258548
0
LINE
8
DEFAULT_255_1_234
10
9.9719851
20
-0.258548
11
10.3358228
21
-0.258548
0
LINE
8
DEFAULT_255_1_234
10
10.3358228
20
-0.258548
11
10.3358228
21
0.3149181
0
LINE
8
DEFAULT_255_1_234
10
10.3358228
20
0.3149181
11
10.318153
21
0.2827912
0
LINE
8
DEFAULT_255_1_234
10
10.9687238
20
-0.0955037
11
10.8498541
21
-0.0649831
0
LINE
8
DEFAULT_255_1_234
10
10.8498541
20
-0.0649831
11
10.9092889
21
0.5181211
0
LINE
8
DEFAULT_255_1_234
10
10.9092889
20
0.5181211
11
11.5084566
21
0.5181211
0
LINE
8
DEFAULT_255_1_234
10
11.5084566
20
0.5181211
11
11.5084566
21
0.3807784
0
LINE
8
DEFAULT_255_1_234
10
11.5084566
20
0.3807784
11
11.0353872
21
0.3807784
0
LINE
8
DEFAULT_255_1_234
10
11.0353872
20
0.3807784
11
11.0000476
21
0.0619184
0
LINE
8
DEFAULT_255_1_234
10
10.808089
20
-0.3436844
11
10.9486444
21
-0.3436844
0
LINE
8
DEFAULT_255_1_234
10
11.0080793
20
-0.0633768
11
10.9687238
21
-0.0955037
0
ARC
8
DEFAULT_255_1_234
10
11.185526
20
-0.256077
40
0.3681349
50
93.7182161
51
120.2538958
0
ARC
8
DEFAULT_255_1_234
10
11.1949523
20
-0.3368606
40
0.449379
50
89.9660152
51
94.2496022
0
ARC
8
DEFAULT_255_1_234
10
11.1990256
20
-0.2779451
40
0.390482
50
73.8043271
51
90.5585896
0
ARC
8
DEFAULT_255_1_234
10
11.2225153
20
-0.1921398
40
0.3015334
50
41.3071453
51
73.5430202
0
ARC
8
DEFAULT_255_1_234
10
11.1808981
20
-0.2279676
40
0.3564457
50
13.5075983
51
41.2174222
0
ARC
8
DEFAULT_255_1_234
10
11.0167185
20
-0.2709514
40
0.5261351
50
1.1331335
51
13.8829381
0
ARC
8
DEFAULT_255_1_234
10
10.8755553
20
-0.2785335
40
0.6674378
50
359.9919444
51
1.544251
0
ARC
8
DEFAULT_255_1_234
10
11.003238
20
-0.282672
40
0.5397702
50
347.8572367
51
0.4293338
0
ARC
8
DEFAULT_255_1_234
10
11.1782697
20
-0.3223264
40
0.3603188
50
323.673004
51
348.1672506
0
ARC
8
DEFAULT_255_1_234
10
11.2077206
20
-0.3402832
40
0.3259678
50
316.8171152
51
323.1492751
0
ARC
8
DEFAULT_255_1_234
10
11.2138395
20
-0.343954
40
0.3189975
50
281.8396411
51
316.5457803
0
ARC
8
DEFAULT_255_1_234
10
11.1762658
20
-0.1884238
40
0.4789527
50
269.5770101
51
282.4214771
0
ARC
8
DEFAULT_255_1_234
10
11.169147
20
-0.2097875
40
0.45759
50
256.2427136
51
270.4486331
0
ARC
8
DEFAULT_255_1_234
10
11.1392372
20
-0.3297771
40
0.3339303
50
228.9023911
51
256.3314342
0
ARC
8
DEFAULT_255_1_234
10
11.1318605
20
-0.3414254
40
0.32031
50
193.753695
51
228.5271154
0
ARC
8
DEFAULT_255_1_234
10
11.2556559
20
-0.30512
40
0.4492253
50
184.924711
51
194.497588
0
ARC
8
DEFAULT_255_1_234
10
11.2749126
20
-0.3015409
40
0.3289787
50
187.3600538
51
198.6732863
0
ARC
8
DEFAULT_255_1_234
10
11.1699419
20
-0.3379326
40
0.217884
50
198.4451669
51
217.794479
0
ARC
8
DEFAULT_255_1_234
10
11.1403595
20
-0.3588915
40
0.1816698
50
218.2887171
51
228.5612368
0
ARC
8
DEFAULT_255_1_234
10
11.1501382
20
-0.3457037
40
0.1980329
50
228.9654866
51
258.1234728
0
ARC
8
DEFAULT_255_1_234
10
11.1707092
20
-0.2576167
40
0.2884748
50
257.7258293
51
270.401361
0
ARC
8
DEFAULT_255_1_234
10
11.1751978
20
-0.3021179
40
0.2439788
50
269.4204404
51
286.4209037
0
ARC
8
DEFAULT_255_1_234
10
11.1900465
20
-0.3560343
40
0.1880666
50
286.7251356
51
320.600362
0
ARC
8
DEFAULT_255_1_234
10
11.1517291
20
-0.3249405
40
0.2374121
50
320.6712579
51
344.5441685
0
ARC
8
DEFAULT_255_1_234
10
11.0360617
20
-0.2909955
40
0.3579479
50
344.2412205
51
356.7357071
0
ARC
8
DEFAULT_255_1_234
10
10.9111765
20
-0.2806556
40
0.4832297
50
356.3548756
51
0.0500261
0
ARC
8
DEFAULT_255_1_234
10
11.0448274
20
-0.277535
40
0.3495889
50
359.5576869
51
12.953486
0
ARC
8
DEFAULT_255_1_234
10
11.1503172
20
-0.2519566
40
0.2410532
50
12.6490276
51
41.6081334
0
ARC
8
DEFAULT_255_1_234
10
11.1733543
20
-0.2323679
40
0.2108218
50
41.7850273
51
85.9892764
0
ARC
8
DEFAULT_255_1_234
10
11.1610279
20
-0.3136538
40
0.2928454
50
84.6957577
51
90.0676183
0
ARC
8
DEFAULT_255_1_234
10
11.1586763
20
-0.3805284
40
0.3597255
50
89.6804936
51
99.1614436
0
ARC
8
DEFAULT_255_1_234
10
11.1381395
20
-0.2577869
40
0.235281
50
98.9830931
51
113.8908934
0
ARC
8
DEFAULT_255_1_234
10
11.1151805
20
-0.2036413
40
0.176479
50
114.1950727
51
127.3641004
0
LINE
8
DEFAULT_255_1_234
10
12.471462
20
-0.5300208
11
12.471462
21
-0.6513
0
LINE
8
DEFAULT_255_1_234
10
12.471462
20
-0.6513
11
11.7052342
21
-0.6513
0
LINE
8
DEFAULT_255_1_234
10
11.7052342
20
-0.6513
11
11.7052342
21
-0.5444779
0
LINE
8
DEFAULT_255_1_234
10
11.7052342
20
-0.5444779
11
12.1100338
21
-0.0947005
0
LINE
8
DEFAULT_255_1_234
10
11.8313325
20
0.1735595
11
11.6827453
21
0.1735595
0
LINE
8
DEFAULT_255_1_234
10
12.1975797
20
-0.1902782
11
11.8843419
21
-0.5300208
0
LINE
8
DEFAULT_255_1_234
10
11.8843419
20
-0.5300208
11
12.471462
21
-0.5300208
0
ARC
8
DEFAULT_255_1_234
10
10.7610171
20
1.0982527
40
1.8008286
50
318.5132453
51
320.7828378
0
ARC
8
DEFAULT_255_1_234
10
11.2897146
20
0.6679426
40
1.1191493
50
320.7372736
51
323.9737074
0
ARC
8
DEFAULT_255_1_234
10
11.6817002
20
0.3839361
40
0.6350923
50
323.8961724
51
328.6421089
0
ARC
8
DEFAULT_255_1_234
10
11.8863597
20
0.2577031
40
0.3946393
50
328.8299013
51
331.789948
0
ARC
8
DEFAULT_255_1_234
10
11.9860776
20
0.2062509
40
0.2824501
50
331.4255242
51
352.9364833
0
ARC
8
DEFAULT_255_1_234
10
11.9997277
20
0.2031976
40
0.2685315
50
353.2248685
51
0.0169286
0
ARC
8
DEFAULT_255_1_234
10
12.0207153
20
0.205495
40
0.2475536
50
359.4866256
51
15.9339782
0
ARC
8
DEFAULT_255_1_234
10
12.0714139
20
0.2191286
40
0.1950618
50
16.1714718
51
43.5284424
0
ARC
8
DEFAULT_255_1_234
10
12.0791447
20
0.2268573
40
0.184134
50
43.4415429
51
83.1661404
0
ARC
8
DEFAULT_255_1_234
10
12.0657365
20
0.1531771
40
0.258926
50
82.160215
51
90.1505798
0
ARC
8
DEFAULT_255_1_234
10
12.0625793
20
0.0994865
40
0.3126255
50
89.5460705
51
102.5418777
0
ARC
8
DEFAULT_255_1_234
10
12.0382879
20
0.2025665
40
0.2067346
50
102.1739365
51
129.2061916
0
ARC
8
DEFAULT_255_1_234
10
12.0303951
20
0.2150094
40
0.1921118
50
129.7279328
51
135.7542026
0
ARC
8
DEFAULT_255_1_234
10
12.0425478
20
0.2053045
40
0.2075944
50
136.175737
51
166.3674722
0
ARC
8
DEFAULT_255_1_234
10
12.1432398
20
0.1783182
40
0.3118201
50
165.9092917
51
178.8683903
0
ARC
8
DEFAULT_255_1_234
10
12.2297259
20
0.1736179
40
0.3983935
50
178.438168
51
180.0083905
0
ARC
8
DEFAULT_255_1_234
10
12.0895861
20
0.1775231
40
0.4068601
50
163.2878735
51
180.5581814
0
ARC
8
DEFAULT_255_1_234
10
12.0094122
20
0.199584
40
0.3237344
50
133.454115
51
162.9470031
0
ARC
8
DEFAULT_255_1_234
10
12.0272664
20
0.1806
40
0.349795
50
100.7869394
51
133.4384016
0
ARC
8
DEFAULT_255_1_234
10
12.0620435
20
0.0257319
40
0.5084616
50
89.6605301
51
101.3704185
0
ARC
8
DEFAULT_255_1_234
10
12.0686774
20
0.0318496
40
0.502348
50
78.2171172
51
90.4130393
0
ARC
8
DEFAULT_255_1_234
10
12.1041852
20
0.1942637
40
0.3361092
50
55.9268222
51
78.4888551
0
ARC
8
DEFAULT_255_1_234
10
12.1238292
20
0.2281324
40
0.2970617
50
47.9292255
51
55.4054003
0
ARC
8
DEFAULT_255_1_234
10
12.1339853
20
0.2384502
40
0.2825983
50
4.3347696
51
48.0560701
0
ARC
8
DEFAULT_255_1_234
10
12.0244247
20
0.2214601
40
0.393225
50
359.925209
51
5.5967654
0
ARC
8
DEFAULT_255_1_234
10
12.0673138
20
0.2270816
40
0.3503892
50
337.8914096
51
358.9967724
0
ARC
8
DEFAULT_255_1_234
10
11.7959551
20
0.3317706
40
0.6412172
50
326.9135351
51
338.3505194
0
ARC
8
DEFAULT_255_1_234
10
11.3973854
20
0.5872284
40
1.1146189
50
319.6472867
51
327.095818
0
ARC
8
DEFAULT_255_1_234
10
11.0140857
20
0.9034
40
1.6114559
50
317.2586784
51
319.9046139
0
LINE
8
DEFAULT_255_1_234
10
12.9533663
20
-0.0938974
11
12.9533663
21
-0.2151766
0
LINE
8
DEFAULT_255_1_234
10
12.9533663
20
-0.2151766
11
12.5614175
21
-0.2151766
0
LINE
8
DEFAULT_255_1_234
10
12.5614175
20
-0.2151766
11
12.5614175
21
-0.0938974
0
LINE
8
DEFAULT_255_1_234
10
12.5614175
20
-0.0938974
11
12.9533663
21
-0.0938974
0
LINE
8
DEFAULT_255_1_234
10
13.571007
20
0.5237433
11
13.571007
21
-0.6513
0
LINE
8
DEFAULT_255_1_234
10
13.571007
20
-0.6513
11
13.4216167
21
-0.6513
0
LINE
8
DEFAULT_255_1_234
10
13.4216167
20
-0.6513
11
13.4216167
21
0.3390133
0
LINE
8
DEFAULT_255_1_234
10
13.4216167
20
0.3390133
11
13.1220328
21
0.2289785
0
LINE
8
DEFAULT_255_1_234
10
13.1220328
20
0.2289785
11
13.1220328
21
0.3639117
0
LINE
8
DEFAULT_255_1_234
10
13.1220328
20
0.3639117
11
13.5477149
21
0.5237433
0
LINE
8
DEFAULT_255_1_234
10
13.5477149
20
0.5237433
11
13.571007
21
0.5237433
0
LINE
8
DEFAULT_255_1_234
10
14.8022725
20
-0.6513
11
14.6906313
21
-0.3460939
0
LINE
8
DEFAULT_255_1_234
10
14.6906313
20
-0.3460939
11
14.2006953
21
-0.3460939
0
LINE
8
DEFAULT_255_1_234
10
14.2006953
20
-0.3460939
11
14.0906604
21
-0.6513
0
LINE
8
DEFAULT_255_1_234
10
14.0906604
20
-0.6513
11
13.931632
21
-0.6513
0
LINE
8
DEFAULT_255_1_234
10
13.931632
20
-0.6513
11
14.3781967
21
0.5181211
0
LINE
8
DEFAULT_255_1_234
10
14.3781967
20
0.5181211
11
14.5131299
21
0.5181211
0
LINE
8
DEFAULT_255_1_234
10
14.5131299
20
0.5181211
11
14.9604977
21
-0.6513
0
LINE
8
DEFAULT_255_1_234
10
14.9604977
20
-0.6513
11
14.8022725
21
-0.6513
0
LINE
8
DEFAULT_255_1_234
10
14.4456633
20
0.3277689
11
14.2472793
21
-0.2191925
0
LINE
8
DEFAULT_255_1_234
10
14.2472793
20
-0.2191925
11
14.6448504
21
-0.2191925
0
LINE
8
DEFAULT_255_1_234
10
14.6448504
20
-0.2191925
11
14.4456633
21
0.3277689
0
LINE
8
DEFAULT_255_1_234
10
16.0166713
20
0.5181211
11
16.0166713
21
-0.6513
0
LINE
8
DEFAULT_255_1_234
10
16.0166713
20
-0.6513
11
15.8616587
21
-0.6513
0
LINE
8
DEFAULT_255_1_234
10
15.8616587
20
-0.6513
11
15.8616587
21
-0.110764
0
LINE
8
DEFAULT_255_1_234
10
15.8616587
20
-0.110764
11
15.2721292
21
-0.110764
0
LINE
8
DEFAULT_255_1_234
10
15.2721292
20
-0.110764
11
15.2721292
21
-0.6513
0
LINE
8
DEFAULT_255_1_234
10
15.2721292
20
-0.6513
11
15.1179198
21
-0.6513
0
LINE
8
DEFAULT_255_1_234
10
15.1179198
20
-0.6513
11
15.1179198
21
0.5181211
0
LINE
8
DEFAULT_255_1_234
10
15.1179198
20
0.5181211
11
15.2721292
21
0.5181211
0
LINE
8
DEFAULT_255_1_234
10
15.2721292
20
0.5181211
11
15.2721292
21
0.0153343
0
LINE
8
DEFAULT_255_1_234
10
15.2721292
20
0.0153343
11
15.8616587
21
0.0153343
0
LINE
8
DEFAULT_255_1_234
10
15.8616587
20
0.0153343
11
15.8616587
21
0.5181211
0
LINE
8
DEFAULT_255_1_234
10
15.8616587
20
0.5181211
11
16.0166713
21
0.5181211
0
LINE
8
DEFAULT_255_1_234
10
16.9852989
20
0.0402327
11
16.9852989
21
-0.1525291
0
LINE
8
DEFAULT_255_1_234
10
16.2471822
20
-0.1726084
11
16.2471822
21
0.0257755
0
LINE
8
DEFAULT_255_1_234
10
16.8367118
20
-0.1926877
11
16.8367118
21
0.0506739
0
LINE
8
DEFAULT_255_1_234
10
16.3957693
20
0.0619184
11
16.3957693
21
-0.1758211
0
ARC
8
DEFAULT_255_1_234
10
15.7605879
20
-0.1574195
40
1.2247208
50
353.8441951
51
0.2287902
0
ARC
8
DEFAULT_255_1_234
10
16.2245382
20
-0.2092194
40
0.7578929
50
344.4934747
51
353.9765454
0
ARC
8
DEFAULT_255_1_234
10
16.5237973
20
-0.2943019
40
0.4467846
50
329.2803592
51
344.7472793
0
ARC
8
DEFAULT_255_1_234
10
16.6230798
20
-0.3487982
40
0.3336173
50
324.9352394
51
328.6160465
0
ARC
8
DEFAULT_255_1_234
10
16.6607906
20
-0.3751573
40
0.2876076
50
280.580143
51
324.9173126
0
ARC
8
DEFAULT_255_1_234
10
16.6206699
20
-0.2080901
40
0.4592847
50
269.5977311
51
281.6734359
0
ARC
8
DEFAULT_255_1_234
10
16.6134604
20
-0.2200827
40
0.4472986
50
256.6228859
51
270.51044
0
ARC
8
DEFAULT_255_1_234
10
16.5732582
20
-0.3749123
40
0.2873874
50
215.8618325
51
257.2788573
0
ARC
8
DEFAULT_255_1_234
10
16.6753614
20
-0.3064023
40
0.4102928
50
197.9693508
51
215.2623606
0
ARC
8
DEFAULT_255_1_234
10
16.923873
20
-0.2225291
40
0.6725652
50
187.8816417
51
198.2346507
0
ARC
8
DEFAULT_255_1_234
10
17.3196938
20
-0.1653921
40
1.0724845
50
180.8976217
51
188.0055519
0
ARC
8
DEFAULT_255_1_234
10
17.5997126
20
-0.1550223
40
1.3526448
50
180.7449369
51
181.1510016
0
ARC
8
DEFAULT_255_1_234
10
17.4419855
20
0.0306042
40
1.1948131
50
173.7675579
51
180.231553
0
ARC
8
DEFAULT_255_1_234
10
16.9902002
20
0.0816666
40
0.7401564
50
164.3058563
51
173.9002247
0
ARC
8
DEFAULT_255_1_234
10
16.699007
20
0.1655656
40
0.4371288
50
148.7922025
51
164.568378
0
ARC
8
DEFAULT_255_1_234
10
16.6038523
20
0.2186929
40
0.3282386
50
144.5883898
51
148.1176286
0
ARC
8
DEFAULT_255_1_234
10
16.569542
20
0.2426315
40
0.2864044
50
101.6440918
51
144.514236
0
ARC
8
DEFAULT_255_1_234
10
16.6120487
20
0.0737069
40
0.4604934
50
89.5284041
51
102.5819763
0
ARC
8
DEFAULT_255_1_234
10
16.6199575
20
0.0698018
40
0.464401
50
77.0437873
51
90.5081339
0
ARC
8
DEFAULT_255_1_234
10
16.6601577
20
0.2340615
40
0.2953195
50
48.2778575
51
77.4994676
0
ARC
8
DEFAULT_255_1_234
10
16.6674208
20
0.2469746
40
0.2808655
50
36.3142134
51
47.6305865
0
ARC
8
DEFAULT_255_1_234
10
16.5805515
20
0.1884515
40
0.3855453
50
18.2931786
51
35.6769206
0
ARC
8
DEFAULT_255_1_234
10
16.3262274
20
0.1011593
40
0.654423
50
8.024666
51
18.5605216
0
ARC
8
DEFAULT_255_1_234
10
15.9099194
20
0.0396792
40
1.0752407
50
1.1274072
51
8.1718305
0
ARC
8
DEFAULT_255_1_234
10
15.5863384
20
0.0269885
40
1.3990231
50
0.5424119
51
1.3863029
0
ARC
8
DEFAULT_255_1_234
10
15.7684762
20
0.0542342
40
1.0682415
50
359.8090433
51
4.9407866
0
ARC
8
DEFAULT_255_1_234
10
16.1894776
20
0.0918113
40
0.6455691
50
4.8362157
51
12.2904523
0
ARC
8
DEFAULT_255_1_234
10
16.4649891
20
0.1531965
40
0.3633074
50
12.0805627
51
23.8173984
0
ARC
8
DEFAULT_255_1_234
10
16.5823596
20
0.2028919
40
0.2358723
50
24.2871213
51
31.3935614
0
ARC
8
DEFAULT_255_1_234
10
16.6348294
20
0.2372233
40
0.1732111
50
30.7407893
51
82.4657128
0
ARC
8
DEFAULT_255_1_234
10
16.6168428
20
0.1488691
40
0.263235
50
81.1060089
51
90.2184952
0
ARC
8
DEFAULT_255_1_234
10
16.6132727
20
0.1746924
40
0.2374236
50
89.3806855
51
105.6762551
0
ARC
8
DEFAULT_255_1_234
10
16.5949357
20
0.2413567
40
0.1682847
50
105.7981136
51
149.7388061
0
ARC
8
DEFAULT_255_1_234
10
16.7013436
20
0.177395
40
0.2924306
50
149.4208916
51
163.6286378
0
ARC
8
DEFAULT_255_1_234
10
16.9104324
20
0.113625
40
0.5110213
50
163.3763315
51
172.1410975
0
ARC
8
DEFAULT_255_1_234
10
17.2405043
20
0.0663518
40
0.8444586
50
172.0259487
51
178.0703232
0
ARC
8
DEFAULT_255_1_234
10
17.5435132
20
0.0519906
40
1.1477868
50
177.8631668
51
179.5044149
0
ARC
8
DEFAULT_255_1_234
10
17.4362537
20
-0.1794611
40
1.0404907
50
179.7995573
51
185.2460446
0
ARC
8
DEFAULT_255_1_234
10
17.0319576
20
-0.2177487
40
0.6343885
50
185.1411642
51
193.0079639
0
ARC
8
DEFAULT_255_1_234
10
16.7676049
20
-0.2802359
40
0.3627568
50
192.7897626
51
205.2507664
0
ARC
8
DEFAULT_255_1_234
10
16.6629596
20
-0.3269585
40
0.2481908
50
205.8005384
51
211.2537509
0
ARC
8
DEFAULT_255_1_234
10
16.6106036
20
-0.362042
40
0.1852521
50
210.3789793
51
238.4008143
0
ARC
8
DEFAULT_255_1_234
10
16.6086558
20
-0.3573624
40
0.1882621
50
239.6520629
51
265.9793761
0
ARC
8
DEFAULT_255_1_234
10
16.6171758
20
-0.2901573
40
0.2559272
50
265.1315437
51
270.060332
0
ARC
8
DEFAULT_255_1_234
10
16.6200537
20
-0.3225466
40
0.2235528
50
269.3314664
51
287.2178029
0
ARC
8
DEFAULT_255_1_234
10
16.6338389
20
-0.3728721
40
0.1714108
50
287.7958004
51
329.080874
0
ARC
8
DEFAULT_255_1_234
10
16.5380846
20
-0.313107
40
0.2842745
50
328.6634704
51
343.3325132
0
ARC
8
DEFAULT_255_1_234
10
16.3207866
20
-0.2454137
40
0.5118644
50
343.0499468
51
351.9393422
0
ARC
8
DEFAULT_255_1_234
10
15.9741166
20
-0.1943051
40
0.8622784
50
351.8069023
51
357.7959224
0
ARC
8
DEFAULT_255_1_234
10
15.6505722
20
-0.1775279
40
1.1862365
50
357.5871873
51
359.2677531
0
LINE
8
DEFAULT_255_1_234
10
17.9089488
20
0.0402327
11
17.9089488
21
-0.1525291
0
LINE
8
DEFAULT_255_1_234
10
17.1708321
20
-0.1726084
11
17.1708321
21
0.0257755
0
LINE
8
DEFAULT_255_1_234
10
17.7603617
20
-0.1926877
11
17.7603617
21
0.0506739
0
LINE
8
DEFAULT_255_1_234
10
17.3194192
20
0.0619184
11
17.3194192
21
-0.1758211
0
ARC
8
DEFAULT_255_1_234
10
16.6842378
20
-0.1574195
40
1.2247208
50
353.8441951
51
0.2287902
0
ARC
8
DEFAULT_255_1_234
10
17.1481881
20
-0.2092194
40
0.7578929
50
344.4934747
51
353.9765454
0
ARC
8
DEFAULT_255_1_234
10
17.4474472
20
-0.2943019
40
0.4467846
50
329.2803592
51
344.7472793
0
ARC
8
DEFAULT_255_1_234
10
17.5467297
20
-0.3487982
40
0.3336173
50
324.9352394
51
328.6160465
0
ARC
8
DEFAULT_255_1_234
10
17.5844405
20
-0.3751573
40
0.2876076
50
280.580143
51
324.9173126
0
ARC
8
DEFAULT_255_1_234
10
17.5443198
20
-0.2080901
40
0.4592847
50
269.5977311
51
281.6734359
0
ARC
8
DEFAULT_255_1_234
10
17.5371103
20
-0.2200827
40
0.4472986
50
256.6228859
51
270.51044
0
ARC
8
DEFAULT_255_1_234
10
17.4969081
20
-0.3749123
40
0.2873874
50
215.8618325
51
257.2788573
0
ARC
8
DEFAULT_255_1_234
10
17.5990113
20
-0.3064023
40
0.4102928
50
197.9693508
51
215.2623606
0
ARC
8
DEFAULT_255_1_234
10
17.8475229
20
-0.2225291
40
0.6725652
50
187.8816417
51
198.2346507
0
ARC
8
DEFAULT_255_1_234
10
18.2433437
20
-0.1653921
40
1.0724845
50
180.8976217
51
188.0055519
0
ARC
8
DEFAULT_255_1_234
10
18.5233625
20
-0.1550223
40
1.3526448
50
180.7449369
51
181.1510016
0
ARC
8
DEFAULT_255_1_234
10
18.3656354
20
0.0306042
40
1.1948131
50
173.7675579
51
180.231553
0
ARC
8
DEFAULT_255_1_234
10
17.9138501
20
0.0816666
40
0.7401564
50
164.3058563
51
173.9002247
0
ARC
8
DEFAULT_255_1_234
10
17.6226569
20
0.1655656
40
0.4371288
50
148.7922025
51
164.568378
0
ARC
8
DEFAULT_255_1_234
10
17.5275022
20
0.2186929
40
0.3282386
50
144.5883898
51
148.1176286
0
ARC
8
DEFAULT_255_1_234
10
17.493192
20
0.2426315
40
0.2864044
50
101.6440918
51
144.514236
0
ARC
8
DEFAULT_255_1_234
10
17.5356986
20
0.0737069
40
0.4604934
50
89.5284041
51
102.5819763
0
ARC
8
DEFAULT_255_1_234
10
17.5436074
20
0.0698018
40
0.464401
50
77.0437873
51
90.5081339
0
ARC
8
DEFAULT_255_1_234
10
17.5838076
20
0.2340615
40
0.2953195
50
48.2778575
51
77.4994676
0
ARC
8
DEFAULT_255_1_234
10
17.5910707
20
0.2469746
40
0.2808655
50
36.3142134
51
47.6305865
0
ARC
8
DEFAULT_255_1_234
10
17.5042014
20
0.1884515
40
0.3855453
50
18.2931786
51
35.6769206
0
ARC
8
DEFAULT_255_1_234
10
17.2498773
20
0.1011593
40
0.654423
50
8.024666
51
18.5605216
0
ARC
8
DEFAULT_255_1_234
10
16.8335693
20
0.0396792
40
1.0752407
50
1.1274072
51
8.1718305
0
ARC
8
DEFAULT_255_1_234
10
16.5099883
20
0.0269885
40
1.3990231
50
0.5424119
51
1.3863029
0
ARC
8
DEFAULT_255_1_234
10
16.6921261
20
0.0542342
40
1.0682415
50
359.8090433
51
4.9407866
0
ARC
8
DEFAULT_255_1_234
10
17.1131275
20
0.0918113
40
0.6455691
50
4.8362157
51
12.2904523
0
ARC
8
DEFAULT_255_1_234
10
17.388639
20
0.1531965
40
0.3633074
50
12.0805627
51
23.8173984
0
ARC
8
DEFAULT_255_1_234
10
17.5060095
20
0.2028919
40
0.2358723
50
24.2871213
51
31.3935614
0
ARC
8
DEFAULT_255_1_234
10
17.5584793
20
0.2372233
40
0.1732111
50
30.7407893
51
82.4657128
0
ARC
8
DEFAULT_255_1_234
10
17.5404927
20
0.1488691
40
0.263235
50
81.1060089
51
90.2184952
0
ARC
8
DEFAULT_255_1_234
10
17.5369226
20
0.1746924
40
0.2374236
50
89.3806855
51
105.6762551
0
ARC
8
DEFAULT_255_1_234
10
17.5185857
20
0.2413567
40
0.1682847
50
105.7981136
51
149.7388061
0
ARC
8
DEFAULT_255_1_234
10
17.6249935
20
0.177395
40
0.2924306
50
149.4208916
51
163.6286378
0
ARC
8
DEFAULT_255_1_234
10
17.8340823
20
0.113625
40
0.5110213
50
163.3763315
51
172.1410975
0
ARC
8
DEFAULT_255_1_234
10
18.1641542
20
0.0663518
40
0.8444586
50
172.0259487
51
178.0703232
0
ARC
8
DEFAULT_255_1_234
10
18.4671631
20
0.0519906
40
1.1477868
50
177.8631668
51
179.5044149
0
ARC
8
DEFAULT_255_1_234
10
18.3599036
20
-0.1794611
40
1.0404907
50
179.7995573
51
185.2460446
0
ARC
8
DEFAULT_255_1_234
10
17.9556075
20
-0.2177487
40
0.6343885
50
185.1411642
51
193.0079639
0
ARC
8
DEFAULT_255_1_234
10
17.6912548
20
-0.2802359
40
0.3627568
50
192.7897626
51
205.2507664
0
ARC
8
DEFAULT_255_1_234
10
17.5866095
20
-0.3269585
40
0.2481908
50
205.8005384
51
211.2537509
0
ARC
8
DEFAULT_255_1_234
10
17.5342535
20
-0.362042
40
0.1852521
50
210.3789793
51
238.4008143
0
ARC
8
DEFAULT_255_1_234
10
17.5323057
20
-0.3573624
40
0.1882621
50
239.6520629
51
265.9793761
0
ARC
8
DEFAULT_255_1_234
10
17.5408257
20
-0.2901573
40
0.2559272
50
265.1315437
51
270.060332
0
ARC
8
DEFAULT_255_1_234
10
17.5437036
20
-0.3225466
40
0.2235528
50
269.3314664
51
287.2178029
0
ARC
8
DEFAULT_255_1_234
10
17.5574888
20
-0.3728721
40
0.1714108
50
287.7958004
51
329.080874
0
ARC
8
DEFAULT_255_1_234
10
17.4617345
20
-0.313107
40
0.2842745
50
328.6634704
51
343.3325132
0
ARC
8
DEFAULT_255_1_234
10
17.2444365
20
-0.2454137
40
0.5118644
50
343.0499468
51
351.9393422
0
ARC
8
DEFAULT_255_1_234
10
16.8977665
20
-0.1943051
40
0.8622784
50
351.8069023
51
357.7959224
0
ARC
8
DEFAULT_255_1_234
10
16.5742221
20
-0.1775279
40
1.1862365
50
357.5871873
51
359.2677531
0
LINE
8
DEFAULT_255_1_234
10
18.4237833
20
-0.0938974
11
18.4237833
21
-0.2151766
0
LINE
8
DEFAULT_255_1_234
10
18.4237833
20
-0.2151766
11
18.0318344
21
-0.2151766
0
LINE
8
DEFAULT_255_1_234
10
18.0318344
20
-0.2151766
11
18.0318344
21
-0.0938974
0
LINE
8
DEFAULT_255_1_234
10
18.0318344
20
-0.0938974
11
18.4237833
21
-0.0938974
0
LINE
8
DEFAULT_255_1_234
10
19.2863919
20
0.0402327
11
19.2863919
21
-0.1525291
0
LINE
8
DEFAULT_255_1_234
10
18.5482752
20
-0.1726084
11
18.5482752
21
0.0257755
0
LINE
8
DEFAULT_255_1_234
10
19.1378048
20
-0.1926877
11
19.1378048
21
0.0506739
0
LINE
8
DEFAULT_255_1_234
10
18.6968624
20
0.0619184
11
18.6968624
21
-0.1758211
0
ARC
8
DEFAULT_255_1_234
10
18.0616809
20
-0.1574195
40
1.2247208
50
353.8441951
51
0.2287902
0
ARC
8
DEFAULT_255_1_234
10
18.5256313
20
-0.2092194
40
0.7578929
50
344.4934747
51
353.9765454
0
ARC
8
DEFAULT_255_1_234
10
18.8248903
20
-0.2943019
40
0.4467846
50
329.2803592
51
344.7472793
0
ARC
8
DEFAULT_255_1_234
10
18.9241728
20
-0.3487982
40
0.3336173
50
324.9352394
51
328.6160465
0
ARC
8
DEFAULT_255_1_234
10
18.9618836
20
-0.3751573
40
0.2876076
50
280.580143
51
324.9173126
0
ARC
8
DEFAULT_255_1_234
10
18.9217629
20
-0.2080901
40
0.4592847
50
269.5977311
51
281.6734359
0
ARC
8
DEFAULT_255_1_234
10
18.9145535
20
-0.2200827
40
0.4472986
50
256.6228859
51
270.51044
0
ARC
8
DEFAULT_255_1_234
10
18.8743513
20
-0.3749123
40
0.2873874
50
215.8618325
51
257.2788573
0
ARC
8
DEFAULT_255_1_234
10
18.9764544
20
-0.3064023
40
0.4102928
50
197.9693508
51
215.2623606
0
ARC
8
DEFAULT_255_1_234
10
19.224966
20
-0.2225291
40
0.6725652
50
187.8816417
51
198.2346507
0
ARC
8
DEFAULT_255_1_234
10
19.6207868
20
-0.1653921
40
1.0724845
50
180.8976217
51
188.0055519
0
ARC
8
DEFAULT_255_1_234
10
19.9008056
20
-0.1550223
40
1.3526448
50
180.7449369
51
181.1510016
0
ARC
8
DEFAULT_255_1_234
10
19.7430785
20
0.0306042
40
1.1948131
50
173.7675579
51
180.231553
0
ARC
8
DEFAULT_255_1_234
10
19.2912932
20
0.0816666
40
0.7401564
50
164.3058563
51
173.9002247
0
ARC
8
DEFAULT_255_1_234
10
19.0001001
20
0.1655656
40
0.4371288
50
148.7922025
51
164.568378
0
ARC
8
DEFAULT_255_1_234
10
18.9049453
20
0.2186929
40
0.3282386
50
144.5883898
51
148.1176286
0
ARC
8
DEFAULT_255_1_234
10
18.8706351
20
0.2426315
40
0.2864044
50
101.6440918
51
144.514236
0
ARC
8
DEFAULT_255_1_234
10
18.9131418
20
0.0737069
40
0.4604934
50
89.5284041
51
102.5819763
0
ARC
8
DEFAULT_255_1_234
10
18.9210505
20
0.0698018
40
0.464401
50
77.0437873
51
90.5081339
0
ARC
8
DEFAULT_255_1_234
10
18.9612507
20
0.2340615
40
0.2953195
50
48.2778575
51
77.4994676
0
ARC
8
DEFAULT_255_1_234
10
18.9685138
20
0.2469746
40
0.2808655
50
36.3142134
51
47.6305865
0
ARC
8
DEFAULT_255_1_234
10
18.8816445
20
0.1884515
40
0.3855453
50
18.2931786
51
35.6769206
0
ARC
8
DEFAULT_255_1_234
10
18.6273204
20
0.1011593
40
0.654423
50
8.024666
51
18.5605216
0
ARC
8
DEFAULT_255_1_234
10
18.2110124
20
0.0396792
40
1.0752407
50
1.1274072
51
8.1718305
0
ARC
8
DEFAULT_255_1_234
10
17.8874315
20
0.0269885
40
1.3990231
50
0.5424119
51
1.3863029
0
ARC
8
DEFAULT_255_1_234
10
18.0695692
20
0.0542342
40
1.0682415
50
359.8090433
51
4.9407866
0
ARC
8
DEFAULT_255_1_234
10
18.4905706
20
0.0918113
40
0.6455691
50
4.8362157
51
12.2904523
0
ARC
8
DEFAULT_255_1_234
10
18.7660821
20
0.1531965
40
0.3633074
50
12.0805627
51
23.8173984
0
ARC
8
DEFAULT_255_1_234
10
18.8834527
20
0.2028919
40
0.2358723
50
24.2871213
51
31.3935614
0
ARC
8
DEFAULT_255_1_234
10
18.9359224
20
0.2372233
40
0.1732111
50
30.7407893
51
82.4657128
0
ARC
8
DEFAULT_255_1_234
10
18.9179358
20
0.1488691
40
0.263235
50
81.1060089
51
90.2184952
0
ARC
8
DEFAULT_255_1_234
10
18.9143657
20
0.1746924
40
0.2374236
50
89.3806855
51
105.6762551
0
ARC
8
DEFAULT_255_1_234
10
18.8960288
20
0.2413567
40
0.1682847
50
105.7981136
51
149.7388061
0
ARC
8
DEFAULT_255_1_234
10
19.0024366
20
0.177395
40
0.2924306
50
149.4208916
51
163.6286378
0
ARC
8
DEFAULT_255_1_234
10
19.2115254
20
0.113625
40
0.5110213
50
163.3763315
51
172.1410975
0
ARC
8
DEFAULT_255_1_234
10
19.5415973
20
0.0663518
40
0.8444586
50
172.0259487
51
178.0703232
0
ARC
8
DEFAULT_255_1_234
10
19.8446063
20
0.0519906
40
1.1477868
50
177.8631668
51
179.5044149
0
ARC
8
DEFAULT_255_1_234
10
19.7373467
20
-0.1794611
40
1.0404907
50
179.7995573
51
185.2460446
0
ARC
8
DEFAULT_255_1_234
10
19.3330506
20
-0.2177487
40
0.6343885
50
185.1411642
51
193.0079639
0
ARC
8
DEFAULT_255_1_234
10
19.0686979
20
-0.2802359
40
0.3627568
50
192.7897626
51
205.2507664
0
ARC
8
DEFAULT_255_1_234
10
18.9640526
20
-0.3269585
40
0.2481908
50
205.8005384
51
211.2537509
0
ARC
8
DEFAULT_255_1_234
10
18.9116966
20
-0.362042
40
0.1852521
50
210.3789793
51
238.4008143
0
ARC
8
DEFAULT_255_1_234
10
18.9097488
20
-0.3573624
40
0.1882621
50
239.6520629
51
265.9793761
0
ARC
8
DEFAULT_255_1_234
10
18.9182688
20
-0.2901573
40
0.2559272
50
265.1315437
51
270.060332
0
ARC
8
DEFAULT_255_1_234
10
18.9211467
20
-0.3225466
40
0.2235528
50
269.3314664
51
287.2178029
0
ARC
8
DEFAULT_255_1_234
10
18.9349319
20
-0.3728721
40
0.1714108
50
287.7958004
51
329.080874
0
ARC
8
DEFAULT_255_1_234
10
18.8391776
20
-0.313107
40
0.2842745
50
328.6634704
51
343.3325132
0
ARC
8
DEFAULT_255_1_234
10
18.6218796
20
-0.2454137
40
0.5118644
50
343.0499468
51
351.9393422
0
ARC
8
DEFAULT_255_1_234
10
18.2752096
20
-0.1943051
40
0.8622784
50
351.8069023
51
357.7959224
0
ARC
8
DEFAULT_255_1_234
10
17.9516652
20
-0.1775279
40
1.1862365
50
357.5871873
51
359.2677531
0
LINE
8
DEFAULT_255_1_234
10
20.2726894
20
-0.6513
11
20.1610482
21
-0.3460939
0
LINE
8
DEFAULT_255_1_234
10
20.1610482
20
-0.3460939
11
19.6711122
21
-0.3460939
0
LINE
8
DEFAULT_255_1_234
10
19.6711122
20
-0.3460939
11
19.5610774
21
-0.6513
0
LINE
8
DEFAULT_255_1_234
10
19.5610774
20
-0.6513
11
19.402049
21
-0.6513
0
LINE
8
DEFAULT_255_1_234
10
19.402049
20
-0.6513
11
19.8486136
21
0.5181211
0
LINE
8
DEFAULT_255_1_234
10
19.8486136
20
0.5181211
11
19.9835468
21
0.5181211
0
LINE
8
DEFAULT_255_1_234
10
19.9835468
20
0.5181211
11
20.4309146
21
-0.6513
0
LINE
8
DEFAULT_255_1_234
10
20.4309146
20
-0.6513
11
20.2726894
21
-0.6513
0
LINE
8
DEFAULT_255_1_234
10
19.9160802
20
0.3277689
11
19.7176963
21
-0.2191925
0
LINE
8
DEFAULT_255_1_234
10
19.7176963
20
-0.2191925
11
20.1152673
21
-0.2191925
0
LINE
8
DEFAULT_255_1_234
10
20.1152673
20
-0.2191925
11
19.9160802
21
0.3277689
0
LINE
8
DEFAULT_255_1_234
10
21.2493488
20
0.0153343
11
21.2493488
21
-0.110764
0
LINE
8
DEFAULT_255_1_234
10
21.2493488
20
-0.110764
11
20.7425461
21
-0.110764
0
LINE
8
DEFAULT_255_1_234
10
20.7425461
20
-0.110764
11
20.7425461
21
-0.5252017
0
LINE
8
DEFAULT_255_1_234
10
20.7425461
20
-0.5252017
11
21.3312725
21
-0.5252017
0
LINE
8
DEFAULT_255_1_234
10
21.3312725
20
-0.5252017
11
21.3312725
21
-0.6513
0
LINE
8
DEFAULT_255_1_234
10
21.3312725
20
-0.6513
11
20.5883367
21
-0.6513
0
LINE
8
DEFAULT_255_1_234
10
20.5883367
20
-0.6513
11
20.5883367
21
0.5181211
0
LINE
8
DEFAULT_255_1_234
10
20.5883367
20
0.5181211
11
21.3232408
21
0.5181211
0
LINE
8
DEFAULT_255_1_234
10
21.3232408
20
0.5181211
11
21.3232408
21
0.3912196
0
LINE
8
DEFAULT_255_1_234
10
21.3232408
20
0.3912196
11
20.7425461
21
0.3912196
0
LINE
8
DEFAULT_255_1_234
10
20.7425461
20
0.3912196
11
20.7425461
21
0.0153343
0
LINE
8
DEFAULT_255_1_234
10
20.7425461
20
0.0153343
11
21.2493488
21
0.0153343
0
LINE
8
DEFAULT_255_1_234
10
22.2179764
20
0.0402327
11
22.2179764
21
-0.1525291
0
LINE
8
DEFAULT_255_1_234
10
21.4798597
20
-0.1726084
11
21.4798597
21
0.0257755
0
LINE
8
DEFAULT_255_1_234
10
22.0693893
20
-0.1926877
11
22.0693893
21
0.0506739
0
LINE
8
DEFAULT_255_1_234
10
21.6284468
20
0.0619184
11
21.6284468
21
-0.1758211
0
ARC
8
DEFAULT_255_1_234
10
20.9932654
20
-0.1574195
40
1.2247208
50
353.8441951
51
0.2287902
0
ARC
8
DEFAULT_255_1_234
10
21.4572157
20
-0.2092194
40
0.7578929
50
344.4934747
51
353.9765454
0
ARC
8
DEFAULT_255_1_234
10
21.7564748
20
-0.2943019
40
0.4467846
50
329.2803592
51
344.7472793
0
ARC
8
DEFAULT_255_1_234
10
21.8557572
20
-0.3487982
40
0.3336173
50
324.9352394
51
328.6160465
0
ARC
8
DEFAULT_255_1_234
10
21.8934681
20
-0.3751573
40
0.2876076
50
280.580143
51
324.9173126
0
ARC
8
DEFAULT_255_1_234
10
21.8533474
20
-0.2080901
40
0.4592847
50
269.5977311
51
281.6734359
0
ARC
8
DEFAULT_255_1_234
10
21.8461379
20
-0.2200827
40
0.4472986
50
256.6228859
51
270.51044
0
ARC
8
DEFAULT_255_1_234
10
21.8059357
20
-0.3749123
40
0.2873874
50
215.8618325
51
257.2788573
0
ARC
8
DEFAULT_255_1_234
10
21.9080389
20
-0.3064023
40
0.4102928
50
197.9693508
51
215.2623606
0
ARC
8
DEFAULT_255_1_234
10
22.1565504
20
-0.2225291
40
0.6725652
50
187.8816417
51
198.2346507
0
ARC
8
DEFAULT_255_1_234
10
22.5523713
20
-0.1653921
40
1.0724845
50
180.8976217
51
188.0055519
0
ARC
8
DEFAULT_255_1_234
10
22.8323901
20
-0.1550223
40
1.3526448
50
180.7449369
51
181.1510016
0
ARC
8
DEFAULT_255_1_234
10
22.674663
20
0.0306042
40
1.1948131
50
173.7675579
51
180.231553
0
ARC
8
DEFAULT_255_1_234
10
22.2228776
20
0.0816666
40
0.7401564
50
164.3058563
51
173.9002247
0
ARC
8
DEFAULT_255_1_234
10
21.9316845
20
0.1655656
40
0.4371288
50
148.7922025
51
164.568378
0
ARC
8
DEFAULT_255_1_234
10
21.8365297
20
0.2186929
40
0.3282386
50
144.5883898
51
148.1176286
0
ARC
8
DEFAULT_255_1_234
10
21.8022195
20
0.2426315
40
0.2864044
50
101.6440918
51
144.514236
0
ARC
8
DEFAULT_255_1_234
10
21.8447262
20
0.0737069
40
0.4604934
50
89.5284041
51
102.5819763
0
ARC
8
DEFAULT_255_1_234
10
21.852635
20
0.0698018
40
0.464401
50
77.0437873
51
90.5081339
0
ARC
8
DEFAULT_255_1_234
10
21.8928352
20
0.2340615
40
0.2953195
50
48.2778575
51
77.4994676
0
ARC
8
DEFAULT_255_1_234
10
21.9000983
20
0.2469746
40
0.2808655
50
36.3142134
51
47.6305865
0
ARC
8
DEFAULT_255_1_234
10
21.813229
20
0.1884515
40
0.3855453
50
18.2931786
51
35.6769206
0
ARC
8
DEFAULT_255_1_234
10
21.5589049
20
0.1011593
40
0.654423
50
8.024666
51
18.5605216
0
ARC
8
DEFAULT_255_1_234
10
21.1425969
20
0.0396792
40
1.0752407
50
1.1274072
51
8.1718305
0
ARC
8
DEFAULT_255_1_234
10
20.8190159
20
0.0269885
40
1.3990231
50
0.5424119
51
1.3863029
0
ARC
8
DEFAULT_255_1_234
10
21.0011537
20
0.0542342
40
1.0682415
50
359.8090433
51
4.9407866
0
ARC
8
DEFAULT_255_1_234
10
21.4221551
20
0.0918113
40
0.6455691
50
4.8362157
51
12.2904523
0
ARC
8
DEFAULT_255_1_234
10
21.6976666
20
0.1531965
40
0.3633074
50
12.0805627
51
23.8173984
0
ARC
8
DEFAULT_255_1_234
10
21.8150371
20
0.2028919
40
0.2358723
50
24.2871213
51
31.3935614
0
ARC
8
DEFAULT_255_1_234
10
21.8675069
20
0.2372233
40
0.1732111
50
30.7407893
51
82.4657128
0
ARC
8
DEFAULT_255_1_234
10
21.8495203
20
0.1488691
40
0.263235
50
81.1060089
51
90.2184952
0
ARC
8
DEFAULT_255_1_234
10
21.8459502
20
0.1746924
40
0.2374236
50
89.3806855
51
105.6762551
0
ARC
8
DEFAULT_255_1_234
10
21.8276132
20
0.2413567
40
0.1682847
50
105.7981136
51
149.7388061
0
ARC
8
DEFAULT_255_1_234
10
21.9340211
20
0.177395
40
0.2924306
50
149.4208916
51
163.6286378
0
ARC
8
DEFAULT_255_1_234
10
22.1431099
20
0.113625
40
0.5110213
50
163.3763315
51
172.1410975
0
ARC
8
DEFAULT_255_1_234
10
22.4731818
20
0.0663518
40
0.8444586
50
172.0259487
51
178.0703232
0
ARC
8
DEFAULT_255_1_234
10
22.7761907
20
0.0519906
40
1.1477868
50
177.8631668
51
179.5044149
0
ARC
8
DEFAULT_255_1_234
10
22.6689312
20
-0.1794611
40
1.0404907
50
179.7995573
51
185.2460446
0
ARC
8
DEFAULT_255_1_234
10
22.2646351
20
-0.2177487
40
0.6343885
50
185.1411642
51
193.0079639
0
ARC
8
DEFAULT_255_1_234
10
22.0002823
20
-0.2802359
40
0.3627568
50
192.7897626
51
205.2507664
0
ARC
8
DEFAULT_255_1_234
10
21.895637
20
-0.3269585
40
0.2481908
50
205.8005384
51
211.2537509
0
ARC
8
DEFAULT_255_1_234
10
21.8432811
20
-0.362042
40
0.1852521
50
210.3789793
51
238.4008143
0
ARC
8
DEFAULT_255_1_234
10
21.8413333
20
-0.3573624
40
0.1882621
50
239.6520629
51
265.9793761
0
ARC
8
DEFAULT_255_1_234
10
21.8498533
20
-0.2901573
40
0.2559272
50
265.1315437
51
270.060332
0
ARC
8
DEFAULT_255_1_234
10
21.8527312
20
-0.3225466
40
0.2235528
50
269.3314664
51
287.2178029
0
ARC
8
DEFAULT_255_1_234
10
21.8665164
20
-0.3728721
40
0.1714108
50
287.7958004
51
329.080874
0
ARC
8
DEFAULT_255_1_234
10
21.7707621
20
-0.313107
40
0.2842745
50
328.6634704
51
343.3325132
0
ARC
8
DEFAULT_255_1_234
10
21.5534641
20
-0.2454137
40
0.5118644
50
343.0499468
51
351.9393422
0
ARC
8
DEFAULT_255_1_234
10
21.2067941
20
-0.1943051
40
0.8622784
50
351.8069023
51
357.7959224
0
ARC
8
DEFAULT_255_1_234
10
20.8832497
20
-0.1775279
40
1.1862365
50
357.5871873
51
359.2677531
0
ARC
8
DEFAULT_255_2_778
10
7.7537338
20
60.2762992
40
3.0484709
50
251.6854144
51
258.6071955
0
ARC
8
DEFAULT_255_2_778
10
7.539521
20
59.1946738
40
1.9458471
50
258.4992492
51
268.3986479
0
ARC
8
DEFAULT_255_2_778
10
7.5172314
20
58.7644206
40
1.5151737
50
268.7865272
51
269.9950384
0
ARC
8
DEFAULT_255_2_778
10
7.5277432
20
58.3132355
40
1.0640417
50
269.426895
51
279.6711067
0
ARC
8
DEFAULT_255_2_778
10
7.6417753
20
57.6836746
40
0.4243233
50
278.7731084
51
300.3324923
0
ARC
8
DEFAULT_255_2_778
10
7.760746
20
57.4810552
40
0.1893587
50
300.2240287
51
1.9041213
0
ARC
8
DEFAULT_255_2_778
10
7.7452705
20
57.4902089
40
0.2047497
50
359.1991369
51
359.99965
0
ARC
8
DEFAULT_255_2_778
10
7.7523233
20
57.4910378
40
0.1976988
50
359.7594145
51
47.1793976
0
ARC
8
DEFAULT_255_2_778
10
7.6187277
20
57.342431
40
0.3975169
50
47.6144502
51
60.8366176
0
ARC
8
DEFAULT_255_2_778
10
7.0190958
20
56.3264865
40
1.5771337
50
59.799464
51
64.8885807
0
ARC
8
DEFAULT_255_2_778
10
6.0948833
20
54.3974682
40
3.7160912
50
64.6076081
51
66.8386974
0
ARC
8
DEFAULT_255_2_778
10
9.6419609
20
62.7605052
40
5.368109
50
244.3032309
51
247.1393781
0
ARC
8
DEFAULT_255_2_778
10
8.5507088
20
60.500518
40
2.8584574
50
240.2323579
51
244.3709759
0
ARC
8
DEFAULT_255_2_778
10
7.7800475
20
59.1636591
40
1.315392
50
233.2209971
51
240.4606284
0
ARC
8
DEFAULT_255_2_778
10
7.3561477
20
58.5925187
40
0.6041399
50
225.6990744
51
232.9899679
0
ARC
8
DEFAULT_255_2_778
10
7.3965073
20
58.6169214
40
0.6499005
50
178.2783416
51
224.6550883
0
ARC
8
DEFAULT_255_2_778
10
7.5059624
20
58.6502974
40
0.7591885
50
157.033673
51
181.0453383
0
ARC
8
DEFAULT_255_2_778
10
7.378439
20
58.6911396
40
0.6259551
50
124.9113017
51
155.9211516
0
ARC
8
DEFAULT_255_2_778
10
7.5960466
20
58.3825681
40
1.0035357
50
100.4079723
51
125.0168617
0
ARC
8
DEFAULT_255_2_778
10
7.6991199
20
57.8885046
40
1.5081396
50
89.6483922
51
100.8684975
0
ARC
8
DEFAULT_255_2_778
10
7.7083242
20
57.5362988
40
1.8603169
50
89.5079487
51
89.9984402
0
ARC
8
DEFAULT_255_2_778
10
7.7099573
20
57.4710694
40
1.9255311
50
83.9170631
51
89.5732113
0
ARC
8
DEFAULT_255_2_778
10
7.5071517
20
55.4634957
40
3.9433074
50
80.7325723
51
84.0779772
0
ARC
8
DEFAULT_255_2_778
10
7.0208457
20
52.440582
40
7.0050837
50
78.5086351
51
80.7886813
0
ARC
8
DEFAULT_255_2_778
10
7.6620177
20
57.0400544
40
1.9415426
50
67.135818
51
78.0934208
0
ARC
8
DEFAULT_255_2_778
10
7.7851814
20
57.6104809
40
1.3579807
50
78.2126325
51
89.7333975
0
ARC
8
DEFAULT_255_2_778
10
7.7793853
20
58.0256211
40
0.9429038
50
89.2638155
51
100.5666868
0
ARC
8
DEFAULT_255_2_778
10
7.6660949
20
58.5954419
40
0.362036
50
99.4784875
51
124.329414
0
ARC
8
DEFAULT_255_2_778
10
7.5705593
20
58.743551
40
0.1859067
50
125.7571195
51
182.2824883
0
ARC
8
DEFAULT_255_2_778
10
7.5493239
20
58.7368629
40
0.1645253
50
180.2492993
51
239.8144161
0
ARC
8
DEFAULT_255_2_778
10
7.932718
20
59.3369128
40
0.876484
50
237.8725734
51
242.8068846
0
ARC
8
DEFAULT_255_2_778
10
9.4175857
20
62.1534958
40
4.0604642
50
242.3328458
51
244.031083
0
ARC
8
DEFAULT_255_2_778
10
12.3804066
20
68.2019314
40
10.7955807
50
243.950624
51
244.8024316
0
ARC
8
DEFAULT_255_2_778
10
15.4009918
20
74.5859175
40
17.8580926
50
244.7535425
51
244.9563234
0
ARC
8
DEFAULT_255_2_778
10
5.8652927
20
54.0843264
40
4.7527588
50
62.2505456
51
65.4301556
0
ARC
8
DEFAULT_255_2_778
10
6.9275435
20
56.0924172
40
2.4810291
50
57.2951304
51
62.3684211
0
ARC
8
DEFAULT_255_2_778
10
7.6807233
20
57.2557235
40
1.0952081
50
48.7345704
51
57.5685367
0
ARC
8
DEFAULT_255_2_778
10
8.0117486
20
57.6432722
40
0.5856147
50
44.3236031
51
48.0704418
0
ARC
8
DEFAULT_255_2_778
10
7.9783002
20
57.6232468
40
0.6236013
50
1.3523843
51
43.4925744
0
ARC
8
DEFAULT_255_2_778
10
7.7103531
20
57.5903151
40
0.8926473
50
359.9763756
51
3.0599076
0
ARC
8
DEFAULT_255_2_778
10
7.8645343
20
57.5752407
40
0.7386124
50
333.0361889
51
1.1408766
0
ARC
8
DEFAULT_255_2_778
10
7.8947908
20
57.5821919
40
0.7150741
50
300.8430083
51
331.4403095
0
ARC
8
DEFAULT_255_2_778
10
7.694568
20
57.8957162
40
1.0869673
50
281.4258583
51
301.4316118
0
ARC
8
DEFAULT_255_2_778
10
7.5632666
20
58.5039414
40
1.7091691
50
270.2273513
51
281.7010805
0
ARC
8
DEFAULT_255_2_778
10
7.5453797
20
58.9806043
40
2.1859577
50
269.9983113
51
270.6466065
0
LINE
8
DEFAULT_255_2_778
10
7.5453153
20
56.7946465
11
7.5438002
21
56.794647
0
ARC
8
DEFAULT_255_2_778
10
7.5509161
20
59.9775969
40
3.1829579
50
256.2431122
51
269.871909
0
ARC
8
DEFAULT_255_2_778
10
21.7538511
20
60.2021629
40
2.9720345
50
251.5709223
51
258.7508181
0
ARC
8
DEFAULT_255_2_778
10
21.5538128
20
59.1789385
40
1.9294488
50
258.6495077
51
268.8281511
0
ARC
8
DEFAULT_255_2_778
10
21.5355488
20
58.7841193
40
1.5343723
50
269.2085037
51
269.9981866
0
ARC
8
DEFAULT_255_2_778
10
21.5473849
20
58.3157184
40
1.0660376
50
269.3612297
51
279.5899087
0
ARC
8
DEFAULT_255_2_778
10
21.6608439
20
57.6842324
40
0.424527
50
278.6895227
51
300.2363944
0
ARC
8
DEFAULT_255_2_778
10
21.7799083
20
57.4807793
40
0.188796
50
300.1108484
51
1.9024905
0
ARC
8
DEFAULT_255_2_778
10
21.7439577
20
57.4914221
40
0.2246851
50
358.8842611
51
0.0019649
0
ARC
8
DEFAULT_255_2_778
10
21.7769791
20
57.4953385
40
0.1917038
50
358.831716
51
47.0900458
0
ARC
8
DEFAULT_255_2_778
10
21.6364654
20
57.335984
40
0.4041259
50
47.8812665
51
61.174665
0
ARC
8
DEFAULT_255_2_778
10
21.0418848
20
56.3160117
40
1.5846568
50
60.1210877
51
65.1917015
0
ARC
8
DEFAULT_255_2_778
10
20.1415278
20
54.4104122
40
3.6922188
50
64.9168629
51
67.1565628
0
ARC
8
DEFAULT_255_2_778
10
23.6275467
20
62.6819888
40
5.2839333
50
244.2656926
51
247.1407051
0
ARC
8
DEFAULT_255_2_778
10
22.5594997
20
60.473765
40
2.8309849
50
240.1545061
51
244.3326325
0
ARC
8
DEFAULT_255_2_778
10
21.7856548
20
59.1377346
40
1.2870531
50
232.697515
51
240.4357497
0
ARC
8
DEFAULT_255_2_778
10
21.3705506
20
58.5867218
40
0.5972006
50
225.5850892
51
232.3393736
0
ARC
8
DEFAULT_255_2_778
10
21.4133941
20
58.6162933
40
0.6483829
50
178.7795739
51
224.7095916
0
ARC
8
DEFAULT_255_2_778
10
21.6669319
20
58.6403135
40
0.9018316
50
179.997867
51
180.6487041
0
ARC
8
DEFAULT_255_2_778
10
21.5167738
20
58.6541249
40
0.7517998
50
156.9195758
51
181.050088
0
ARC
8
DEFAULT_255_2_778
10
21.3928482
20
58.6935712
40
0.6224513
50
124.7111133
51
155.7879672
0
ARC
8
DEFAULT_255_2_778
10
21.6055459
20
58.4016942
40
0.9835402
50
101.7934503
51
125.2143527
0
ARC
8
DEFAULT_255_2_778
10
21.729848
20
57.8491326
40
1.5498677
50
89.5248728
51
102.1166783
0
ARC
8
DEFAULT_255_2_778
10
21.7283109
20
57.2955834
40
2.1034129
50
83.2889725
51
89.6080411
0
ARC
8
DEFAULT_255_2_778
10
21.529975
20
55.5277668
40
3.8823067
50
79.4764054
51
83.4308492
0
ARC
8
DEFAULT_255_2_778
10
21.2186357
20
53.7745673
40
5.6628977
50
78.2224868
51
79.6190915
0
ARC
8
DEFAULT_255_2_778
10
21.6838473
20
57.0520715
40
1.9311543
50
67.1323814
51
78.3148813
0
ARC
8
DEFAULT_255_2_778
10
21.801359
20
57.6035614
40
1.3672981
50
78.4565774
51
89.7552271
0
ARC
8
DEFAULT_255_2_778
10
21.7951366
20
58.034447
40
0.9364778
50
89.2619009
51
100.5950934
0
ARC
8
DEFAULT_255_2_778
10
21.6824182
20
58.5999169
40
0.3599879
50
99.5087086
51
124.406715
0
ARC
8
DEFAULT_255_2_778
10
21.5878565
20
58.746343
40
0.1858061
50
125.8630185
51
182.2986975
0
ARC
8
DEFAULT_255_2_778
10
21.5497296
20
58.7388047
40
0.1475296
50
179.9666559
51
180.100057
0
ARC
8
DEFAULT_255_2_778
10
21.566185
20
58.738793
40
0.163985
50
180.0859454
51
239.8819968
0
ARC
8
DEFAULT_255_2_778
10
21.9379018
20
59.3255619
40
0.8584853
50
238.072871
51
243.0442008
0
ARC
8
DEFAULT_255_2_778
10
23.4872034
20
62.2905845
40
4.2038426
50
242.5409111
51
244.1884903
0
ARC
8
DEFAULT_255_2_778
10
26.6463384
20
68.785196
40
11.4260319
50
244.1076525
51
244.9219574
0
ARC
8
DEFAULT_255_2_778
10
29.9038827
20
75.708855
40
19.0777309
50
244.8743531
51
245.066969
0
ARC
8
DEFAULT_255_2_778
10
19.8865272
20
54.1166274
40
4.7250654
50
62.0340028
51
65.293009
0
ARC
8
DEFAULT_255_2_778
10
20.9507744
20
56.1115758
40
2.464003
50
57.1127289
51
62.13736
0
ARC
8
DEFAULT_255_2_778
10
21.7037139
20
57.2652906
40
1.0863604
50
48.3695509
51
57.4197129
0
ARC
8
DEFAULT_255_2_778
10
22.0286268
20
57.6420419
40
0.5889589
50
44.472493
51
47.6467012
0
ARC
8
DEFAULT_255_2_778
10
21.9979457
20
57.6249032
40
0.6229283
50
1.2061613
51
43.6203607
0
ARC
8
DEFAULT_255_2_778
10
21.7312413
20
57.5924903
40
0.890659
50
359.9779196
51
2.9299178
0
ARC
8
DEFAULT_255_2_778
10
21.8802547
20
57.5773837
40
0.7417924
50
333.172934
51
1.140392
0
ARC
8
DEFAULT_255_2_778
10
21.9146167
20
57.5820736
40
0.7135172
50
300.9808035
51
331.5913995
0
ARC
8
DEFAULT_255_2_778
10
21.7182603
20
57.8919862
40
1.0803281
50
281.9040909
51
301.4483918
0
ARC
8
DEFAULT_255_2_778
10
21.5848425
20
58.4905518
40
1.6935565
50
270.5796874
51
282.1436175
0
ARC
8
DEFAULT_255_2_778
10
21.5636722
20
58.9854735
40
2.1887267
50
269.9959074
51
271.0027751
0
LINE
8
DEFAULT_255_2_778
10
21.5635158
20
56.7967468
11
21.5625002
21
56.796747
0
ARC
8
DEFAULT_255_2_778
10
21.5700221
20
59.9855174
40
3.1887792
50
256.2556596
51
269.8648469
0
LINE
8
DEFAULT_255_2_778
10
6.7958002
20
56.887547
11
6.7958002
21
57.382247
0
LINE
8
DEFAULT_255_2_778
10
8.4164002
20
59.305247
11
8.4164002
21
58.829047
0
LINE
8
DEFAULT_255_2_778
10
6.7940002
20
56.885947
11
6.7958002
21
56.887547
0
LINE
8
DEFAULT_255_2_778
10
8.9866002
20
59.354747
11
9.6629002
21
59.354747
0
LINE
8
DEFAULT_255_2_778
10
9.6629002
20
59.354747
11
9.6629002
21
56.847347
0
LINE
8
DEFAULT_255_2_778
10
9.6629002
20
56.847347
11
8.9866002
21
56.847347
0
LINE
8
DEFAULT_255_2_778
10
8.9866002
20
56.847347
11
8.9866002
21
59.354747
0
LINE
8
DEFAULT_255_2_778
10
10.2809002
20
56.847347
11
10.2809002
21
59.354747
0
LINE
8
DEFAULT_255_2_778
10
10.2809002
20
59.354747
11
12.0132002
21
59.354747
0
LINE
8
DEFAULT_255_2_778
10
12.0132002
20
59.354747
11
12.0132002
21
58.901047
0
LINE
8
DEFAULT_255_2_778
10
12.0132002
20
58.901047
11
10.9321002
21
58.901047
0
LINE
8
DEFAULT_255_2_778
10
10.9321002
20
58.901047
11
10.9321002
21
58.334747
0
LINE
8
DEFAULT_255_2_778
10
10.9321002
20
58.334747
11
11.8735002
21
58.334747
0
LINE
8
DEFAULT_255_2_778
10
11.8735002
20
58.334747
11
11.8735002
21
57.921247
0
LINE
8
DEFAULT_255_2_778
10
11.8735002
20
57.921247
11
10.9321002
21
57.921247
0
LINE
8
DEFAULT_255_2_778
10
10.9321002
20
57.921247
11
10.9321002
21
57.325947
0
LINE
8
DEFAULT_255_2_778
10
10.9321002
20
57.325947
11
12.0412002
21
57.325947
0
LINE
8
DEFAULT_255_2_778
10
12.0412002
20
57.325947
11
12.0412002
21
56.845747
0
LINE
8
DEFAULT_255_2_778
10
12.0412002
20
56.845747
11
10.2809002
21
56.847347
0
LINE
8
DEFAULT_255_2_778
10
12.4817002
20
56.847347
11
12.4817002
21
59.354747
0
LINE
8
DEFAULT_255_2_778
10
12.4817002
20
59.354747
11
13.3575002
21
59.354747
0
LINE
8
DEFAULT_255_2_778
10
13.3575002
20
59.354747
11
13.9671002
21
57.752447
0
LINE
8
DEFAULT_255_2_778
10
13.9671002
20
57.752447
11
14.5897002
21
59.354747
0
LINE
8
DEFAULT_255_2_778
10
14.5897002
20
59.354747
11
15.4215002
21
59.354747
0
LINE
8
DEFAULT_255_2_778
10
15.4215002
20
59.354747
11
15.4215002
21
56.847347
0
LINE
8
DEFAULT_255_2_778
10
15.4215002
20
56.847347
11
14.7812002
21
56.847347
0
LINE
8
DEFAULT_255_2_778
10
14.7812002
20
56.847347
11
14.7812002
21
58.623147
0
LINE
8
DEFAULT_255_2_778
10
14.7812002
20
58.623147
11
14.0724002
21
56.822947
0
LINE
8
DEFAULT_255_2_778
10
14.0724002
20
56.822947
11
13.6515002
21
56.822947
0
LINE
8
DEFAULT_255_2_778
10
13.6515002
20
56.822947
11
12.9559002
21
58.623147
0
LINE
8
DEFAULT_255_2_778
10
12.9559002
20
58.623147
11
12.9559002
21
56.847047
0
LINE
8
DEFAULT_255_2_778
10
12.9559002
20
56.847047
11
12.4817002
21
56.847347
0
LINE
8
DEFAULT_255_2_778
10
16.0409002
20
56.847347
11
16.0409002
21
59.354747
0
LINE
8
DEFAULT_255_2_778
10
16.0409002
20
59.354747
11
17.7731002
21
59.354747
0
LINE
8
DEFAULT_255_2_778
10
17.7731002
20
59.354747
11
17.7731002
21
58.901047
0
LINE
8
DEFAULT_255_2_778
10
17.7731002
20
58.901047
11
16.6921002
21
58.901047
0
LINE
8
DEFAULT_255_2_778
10
16.6921002
20
58.901047
11
16.6921002
21
58.334747
0
LINE
8
DEFAULT_255_2_778
10
16.6921002
20
58.334747
11
17.6334002
21
58.334747
0
LINE
8
DEFAULT_255_2_778
10
17.6334002
20
58.334747
11
17.6334002
21
57.921247
0
LINE
8
DEFAULT_255_2_778
10
17.6334002
20
57.921247
11
16.6921002
21
57.921247
0
LINE
8
DEFAULT_255_2_778
10
16.6921002
20
57.921247
11
16.6921002
21
57.325947
0
LINE
8
DEFAULT_255_2_778
10
16.6921002
20
57.325947
11
17.8030002
21
57.325947
0
LINE
8
DEFAULT_255_2_778
10
17.8030002
20
57.325947
11
17.8030002
21
56.845747
0
LINE
8
DEFAULT_255_2_778
10
17.8030002
20
56.845747
11
16.0409002
21
56.847347
0
LINE
8
DEFAULT_255_2_778
10
18.2454002
20
56.847347
11
18.2454002
21
59.354747
0
LINE
8
DEFAULT_255_2_778
10
18.2454002
20
59.354747
11
19.0283002
21
59.354747
0
LINE
8
DEFAULT_255_2_778
10
19.0283002
20
59.354747
11
19.8586002
21
57.675947
0
LINE
8
DEFAULT_255_2_778
10
19.8586002
20
57.675947
11
19.8586002
21
59.354747
0
LINE
8
DEFAULT_255_2_778
10
19.8586002
20
59.354747
11
20.3343002
21
59.354747
0
LINE
8
DEFAULT_255_2_778
10
20.3343002
20
59.354747
11
20.3343002
21
56.847347
0
LINE
8
DEFAULT_255_2_778
10
20.3343002
20
56.847347
11
19.5739002
21
56.847347
0
LINE
8
DEFAULT_255_2_778
10
19.5739002
20
56.847347
11
18.7214002
21
58.548547
0
LINE
8
DEFAULT_255_2_778
10
18.7214002
20
58.548547
11
18.7214002
21
56.847347
0
LINE
8
DEFAULT_255_2_778
10
18.7214002
20
56.847347
11
18.2454002
21
56.847347
0
LINE
8
DEFAULT_255_2_778
10
20.8143002
20
56.887747
11
20.8143002
21
57.382547
0
LINE
8
DEFAULT_255_2_778
10
22.3745002
20
59.318247
11
22.4343002
21
59.307647
0
LINE
8
DEFAULT_255_2_778
10
22.4343002
20
59.307647
11
22.4343002
21
58.831447
0
LINE
8
DEFAULT_255_2_778
10
20.8124002
20
56.888047
11
20.8143002
21
56.887747
0
LINE
8
DEFAULT_255_1_234
10
9.1313023
20
55.0809849
11
8.9762897
21
55.0809849
0
LINE
8
DEFAULT_255_1_234
10
8.2839539
20
54.5886394
11
8.4389665
21
54.5886394
0
ARC
8
DEFAULT_255_1_234
10
9.042171
20
55.9756768
40
1.252368
50
248.9199003
51
254.1439814
0
ARC
8
DEFAULT_255_1_234
10
8.8741205
20
55.5430234
40
0.788226
50
241.633709
51
249.0064503
0
ARC
8
DEFAULT_255_1_234
10
8.72126
20
55.2629317
40
0.4691427
50
230.498225
51
241.8087113
0
ARC
8
DEFAULT_255_1_234
10
8.6428174
20
55.1629906
40
0.3421437
50
227.4064532
51
229.9881192
0
ARC
8
DEFAULT_255_1_234
10
8.5940694
20
55.1154088
40
0.2741476
50
200.6781896
51
228.1763934
0
ARC
8
DEFAULT_255_1_234
10
8.6013005
20
55.1139077
40
0.2804109
50
179.5061581
51
199.8694617
0
ARC
8
DEFAULT_255_1_234
10
8.6003757
20
55.121321
40
0.2795204
50
132.4834203
51
181.0242172
0
ARC
8
DEFAULT_255_1_234
10
8.6599339
20
55.0650704
40
0.3612768
50
129.2532479
51
133.4242687
0
ARC
8
DEFAULT_255_1_234
10
8.6745789
20
55.0430965
40
0.3875675
50
101.98776
51
128.8742646
0
ARC
8
DEFAULT_255_1_234
10
8.7144399
20
54.8709741
40
0.5642249
50
89.5906553
51
102.3169264
0
ARC
8
DEFAULT_255_1_234
10
8.7214891
20
54.9028148
40
0.5323783
50
77.2360837
51
90.3248275
0
ARC
8
DEFAULT_255_1_234
10
8.7421971
20
54.99954
40
0.4334697
50
63.837784
51
77.0809408
0
ARC
8
DEFAULT_255_1_234
10
8.7699732
20
55.0512911
40
0.3747796
50
45.9864267
51
64.1607727
0
ARC
8
DEFAULT_255_1_234
10
8.7960614
20
55.0810866
40
0.3352302
50
32.2747395
51
45.6547121
0
ARC
8
DEFAULT_255_1_234
10
8.8027054
20
55.082988
40
0.328603
50
359.6507365
51
32.6130309
0
ARC
8
DEFAULT_255_1_234
10
8.708415
20
55.083466
40
0.2678863
50
359.469343
51
14.9832209
0
ARC
8
DEFAULT_255_1_234
10
8.7789212
20
55.1023539
40
0.1948938
50
14.9781179
51
48.2004265
0
ARC
8
DEFAULT_255_1_234
10
8.7624856
20
55.0816983
40
0.2212521
50
48.5927837
51
74.1241538
0
ARC
8
DEFAULT_255_1_234
10
8.7291346
20
54.9716248
40
0.3362561
50
73.7888341
51
86.6652678
0
ARC
8
DEFAULT_255_1_234
10
8.7188911
20
54.8508881
40
0.4573953
50
86.2640471
51
90.0526343
0
ARC
8
DEFAULT_255_1_234
10
8.7160624
20
54.8904192
40
0.4178709
50
89.6697524
51
99.2309573
0
ARC
8
DEFAULT_255_1_234
10
8.6918075
20
55.0348964
40
0.2713749
50
99.069534
51
113.7658566
0
ARC
8
DEFAULT_255_1_234
10
8.6644266
20
55.0994677
40
0.2012469
50
114.0401004
51
127.9850673
0
ARC
8
DEFAULT_255_1_234
10
8.640383
20
55.129073
40
0.1631167
50
127.7287463
51
176.7105154
0
ARC
8
DEFAULT_255_1_234
10
8.7082547
20
55.1189693
40
0.2315392
50
175.1779447
51
180.0581938
0
ARC
8
DEFAULT_255_1_234
10
8.6239394
20
55.1177428
40
0.1472271
50
179.6142195
51
228.1246017
0
ARC
8
DEFAULT_255_1_234
10
8.6681063
20
55.1586308
40
0.2072299
50
226.5779593
51
230.8800004
0
ARC
8
DEFAULT_255_1_234
10
8.7152141
20
55.2211636
40
0.2854818
50
231.4635071
51
241.9260842
0
ARC
8
DEFAULT_255_1_234
10
8.8349319
20
55.44148
40
0.53622
50
241.7178533
51
248.3259551
0
ARC
8
DEFAULT_255_1_234
10
8.9734691
20
55.7847064
40
0.9063478
50
248.2007737
51
252.4528373
0
ARC
8
DEFAULT_255_1_234
10
9.0938416
20
56.1568441
40
1.2974635
50
252.3391078
51
254.3469452
0
ARC
8
DEFAULT_255_1_234
10
8.3396119
20
53.4591148
40
1.5037162
50
71.0197183
51
74.4087047
0
ARC
8
DEFAULT_255_1_234
10
8.5090804
20
53.9483111
40
0.9859993
50
66.1847285
51
71.086374
0
ARC
8
DEFAULT_255_1_234
10
8.6647116
20
54.29872
40
0.6025855
50
59.3536294
51
66.2691831
0
ARC
8
DEFAULT_255_1_234
10
8.7535769
20
54.4490609
40
0.4279449
50
49.1020879
51
59.3293958
0
ARC
8
DEFAULT_255_1_234
10
8.8354509
20
54.5423834
40
0.3038015
50
32.7919921
51
49.2505539
0
ARC
8
DEFAULT_255_1_234
10
8.8675599
20
54.5652191
40
0.264448
50
31.1181161
51
32.4005348
0
ARC
8
DEFAULT_255_1_234
10
8.8587136
20
54.5616779
40
0.2738556
50
8.1116974
51
30.7958831
0
ARC
8
DEFAULT_255_1_234
10
8.7776804
20
54.5478753
40
0.3560327
50
359.8389159
51
8.4706516
0
ARC
8
DEFAULT_255_1_234
10
8.8402596
20
54.5430137
40
0.2934776
50
337.4731098
51
0.7537279
0
ARC
8
DEFAULT_255_1_234
10
8.8581291
20
54.5410387
40
0.2762607
50
307.5917067
51
336.4315538
0
ARC
8
DEFAULT_255_1_234
10
8.8121119
20
54.5923102
40
0.3449979
50
307.6551545
51
308.4529766
0
ARC
8
DEFAULT_255_1_234
10
8.7890838
20
54.627825
40
0.3871988
50
284.3734338
51
307.1424381
0
ARC
8
DEFAULT_255_1_234
10
8.7395668
20
54.8099932
40
0.5759636
50
272.4382747
51
284.646547
0
ARC
8
DEFAULT_255_1_234
10
8.7268876
20
54.9899893
40
0.7563528
50
269.9708387
51
272.8178037
0
ARC
8
DEFAULT_255_1_234
10
8.7225916
20
54.7861716
40
0.5525489
50
248.2707594
51
270.4055579
0
ARC
8
DEFAULT_255_1_234
10
8.7171657
20
54.7671192
40
0.5328452
50
246.1383403
51
248.0542782
0
ARC
8
DEFAULT_255_1_234
10
8.6753036
20
54.6791843
40
0.4355005
50
233.1670131
51
246.4950969
0
ARC
8
DEFAULT_255_1_234
10
8.6198941
20
54.6043812
40
0.3424126
50
215.3403242
51
233.0843104
0
ARC
8
DEFAULT_255_1_234
10
8.5926372
20
54.5845549
40
0.3087104
50
179.2419209
51
215.2648451
0
ARC
8
DEFAULT_255_1_234
10
8.6693966
20
54.5859666
40
0.2304457
50
179.335461
51
199.1045811
0
ARC
8
DEFAULT_255_1_234
10
8.6361643
20
54.5772766
40
0.1962176
50
199.8828939
51
232.7063202
0
ARC
8
DEFAULT_255_1_234
10
8.6833911
20
54.6366788
40
0.2720938
50
232.3738199
51
255.5136649
0
ARC
8
DEFAULT_255_1_234
10
8.7174778
20
54.7610835
40
0.4010747
50
255.2446292
51
267.5320849
0
ARC
8
DEFAULT_255_1_234
10
8.7262401
20
54.8843702
40
0.5246356
50
267.1557994
51
270.0286766
0
ARC
8
DEFAULT_255_1_234
10
8.7290173
20
54.839995
40
0.4802668
50
269.7000017
51
278.1660162
0
ARC
8
DEFAULT_255_1_234
10
8.7546178
20
54.6669515
40
0.3053425
50
278.0231263
51
290.625471
0
ARC
8
DEFAULT_255_1_234
10
8.7893865
20
54.5742025
40
0.206291
50
290.6619762
51
307.0370976
0
ARC
8
DEFAULT_255_1_234
10
8.8194254
20
54.5373504
40
0.1587906
50
306.3943566
51
355.3030547
0
ARC
8
DEFAULT_255_1_234
10
8.7682186
20
54.5450113
40
0.2104809
50
354.3660432
51
0.0698737
0
ARC
8
DEFAULT_255_1_234
10
8.7824531
20
54.5472617
40
0.1962563
50
359.417946
51
16.1971788
0
ARC
8
DEFAULT_255_1_234
10
8.8279841
20
54.5597418
40
0.149053
50
16.4723299
51
52.6262157
0
ARC
8
DEFAULT_255_1_234
10
8.7458895
20
54.4513433
40
0.2850296
50
52.7386432
51
62.4979148
0
ARC
8
DEFAULT_255_1_234
10
8.6073972
20
54.1907283
40
0.5801521
50
62.2515216
51
68.1220564
0
ARC
8
DEFAULT_255_1_234
10
8.4353883
20
53.7679872
40
1.0365451
50
68.0062803
51
71.8053402
0
ARC
8
DEFAULT_255_1_234
10
8.2558255
20
53.2294758
40
1.6042013
50
71.7183119
51
73.9258742
0
LINE
8
DEFAULT_255_1_234
10
9.4967464
20
55.4191211
11
9.4967464
21
54.2497
0
LINE
8
DEFAULT_255_1_234
10
9.4967464
20
54.2497
11
9.342537
21
54.2497
0
LINE
8
DEFAULT_255_1_234
10
9.342537
20
54.2497
11
9.342537
21
55.4191211
0
LINE
8
DEFAULT_255_1_234
10
9.342537
20
55.4191211
11
9.4967464
21
55.4191211
0
LINE
8
DEFAULT_255_1_234
10
9.7786604
20
55.4191211
11
9.9778475
21
55.4191211
0
LINE
8
DEFAULT_255_1_234
10
9.9778475
20
55.4191211
11
10.3601583
21
54.4649506
0
LINE
8
DEFAULT_255_1_234
10
10.3601583
20
54.4649506
11
10.742469
21
55.4191211
0
LINE
8
DEFAULT_255_1_234
10
10.742469
20
55.4191211
11
10.9424593
21
55.4191211
0
LINE
8
DEFAULT_255_1_234
10
10.9424593
20
55.4191211
11
10.9424593
21
54.2497
0
LINE
8
DEFAULT_255_1_234
10
10.9424593
20
54.2497
11
10.7882499
21
54.2497
0
LINE
8
DEFAULT_255_1_234
10
10.7882499
20
54.2497
11
10.7882499
21
54.7050996
0
LINE
8
DEFAULT_255_1_234
10
10.7882499
20
54.7050996
11
10.802707
21
55.1966419
0
LINE
8
DEFAULT_255_1_234
10
10.802707
20
55.1966419
11
10.4187899
21
54.2497
0
LINE
8
DEFAULT_255_1_234
10
10.4187899
20
54.2497
11
10.3007234
21
54.2497
0
LINE
8
DEFAULT_255_1_234
10
10.3007234
20
54.2497
11
9.9176095
21
55.1942324
0
LINE
8
DEFAULT_255_1_234
10
9.9176095
20
55.1942324
11
9.9328698
21
54.7050996
0
LINE
8
DEFAULT_255_1_234
10
9.9328698
20
54.7050996
11
9.9328698
21
54.2497
0
LINE
8
DEFAULT_255_1_234
10
9.9328698
20
54.2497
11
9.7786604
21
54.2497
0
LINE
8
DEFAULT_255_1_234
10
9.7786604
20
54.2497
11
9.7786604
21
55.4191211
0
LINE
8
DEFAULT_255_1_234
10
11.9865853
20
54.2497
11
11.8749441
21
54.5549061
0
LINE
8
DEFAULT_255_1_234
10
11.8749441
20
54.5549061
11
11.3850081
21
54.5549061
0
LINE
8
DEFAULT_255_1_234
10
11.3850081
20
54.5549061
11
11.2749732
21
54.2497
0
LINE
8
DEFAULT_255_1_234
10
11.2749732
20
54.2497
11
11.1159448
21
54.2497
0
LINE
8
DEFAULT_255_1_234
10
11.1159448
20
54.2497
11
11.5625095
21
55.4191211
0
LINE
8
DEFAULT_255_1_234
10
11.5625095
20
55.4191211
11
11.6974427
21
55.4191211
0
LINE
8
DEFAULT_255_1_234
10
11.6974427
20
55.4191211
11
12.1448105
21
54.2497
0
LINE
8
DEFAULT_255_1_234
10
12.1448105
20
54.2497
11
11.9865853
21
54.2497
0
LINE
8
DEFAULT_255_1_234
10
11.6299761
20
55.2287689
11
11.4315921
21
54.6818075
0
LINE
8
DEFAULT_255_1_234
10
11.4315921
20
54.6818075
11
11.8291632
21
54.6818075
0
LINE
8
DEFAULT_255_1_234
10
11.8291632
20
54.6818075
11
11.6299761
21
55.2287689
0
LINE
8
DEFAULT_255_1_234
10
13.006616
20
55.4191211
11
13.006616
21
55.2922196
0
LINE
8
DEFAULT_255_1_234
10
13.006616
20
55.2922196
11
12.6307307
21
55.2922196
0
LINE
8
DEFAULT_255_1_234
10
12.6307307
20
55.2922196
11
12.6307307
21
54.2497
0
LINE
8
DEFAULT_255_1_234
10
12.6307307
20
54.2497
11
12.4773245
21
54.2497
0
LINE
8
DEFAULT_255_1_234
10
12.4773245
20
54.2497
11
12.4773245
21
55.2922196
0
LINE
8
DEFAULT_255_1_234
10
12.4773245
20
55.2922196
11
12.1022423
21
55.2922196
0
LINE
8
DEFAULT_255_1_234
10
12.1022423
20
55.2922196
11
12.1022423
21
55.4191211
0
LINE
8
DEFAULT_255_1_234
10
12.1022423
20
55.4191211
11
13.006616
21
55.4191211
0
LINE
8
DEFAULT_255_1_234
10
13.3455554
20
55.4191211
11
13.3455554
21
54.2497
0
LINE
8
DEFAULT_255_1_234
10
13.3455554
20
54.2497
11
13.191346
21
54.2497
0
LINE
8
DEFAULT_255_1_234
10
13.191346
20
54.2497
11
13.191346
21
55.4191211
0
LINE
8
DEFAULT_255_1_234
10
13.191346
20
55.4191211
11
13.3455554
21
55.4191211
0
LINE
8
DEFAULT_255_1_234
10
14.332656
20
54.6207663
11
14.4876686
21
54.6207663
0
LINE
8
DEFAULT_255_1_234
10
13.5873107
20
54.7797947
11
13.5873107
21
54.8922391
0
LINE
8
DEFAULT_255_1_234
10
14.4876686
20
55.0432357
11
14.332656
21
55.0432357
0
LINE
8
DEFAULT_255_1_234
10
13.7423232
20
54.8882232
11
13.7423232
21
54.7749757
0
ARC
8
DEFAULT_255_1_234
10
13.9396072
20
54.6804846
40
0.5513052
50
340.1774281
51
353.7814284
0
ARC
8
DEFAULT_255_1_234
10
14.0967425
20
54.6219582
40
0.3836379
50
311.4558989
51
340.4421614
0
ARC
8
DEFAULT_255_1_234
10
14.0934093
20
54.6330528
40
0.3941894
50
282.4333181
51
310.7513653
0
ARC
8
DEFAULT_255_1_234
10
14.0494832
20
54.8145679
40
0.5809175
50
269.9358511
51
282.809604
0
ARC
8
DEFAULT_255_1_234
10
14.0442899
20
54.9603212
40
0.7266847
50
270.0021091
51
270.3581957
0
ARC
8
DEFAULT_255_1_234
10
14.0390315
20
54.7002585
40
0.4666519
50
250.7884749
51
270.6489167
0
ARC
8
DEFAULT_255_1_234
10
14.022215
20
54.6365319
40
0.4009729
50
219.3627325
51
250.0611886
0
ARC
8
DEFAULT_255_1_234
10
14.1051361
20
54.7070042
40
0.5097822
50
193.5479632
51
219.5756669
0
ARC
8
DEFAULT_255_1_234
10
14.3422982
20
54.7685919
40
0.7547848
50
181.1218675
51
193.87563
0
ARC
8
DEFAULT_255_1_234
10
14.5493163
20
54.779658
40
0.9620055
50
179.9918545
51
181.5394234
0
ARC
8
DEFAULT_255_1_234
10
14.3642265
20
54.8959788
40
0.7769248
50
169.5837241
51
180.2757934
0
ARC
8
DEFAULT_255_1_234
10
14.1805203
20
54.9299229
40
0.590109
50
155.0365899
51
169.6003176
0
ARC
8
DEFAULT_255_1_234
10
14.0669667
20
54.9846677
40
0.4640625
50
136.783148
51
155.2472683
0
ARC
8
DEFAULT_255_1_234
10
14.0280144
20
55.0177562
40
0.4130255
50
121.7633186
51
136.428115
0
ARC
8
DEFAULT_255_1_234
10
14.0415106
20
54.9928227
40
0.4413323
50
95.6459699
51
121.5490577
0
ARC
8
DEFAULT_255_1_234
10
14.0572388
20
54.8819949
40
0.55319
50
89.924208
51
96.1377933
0
ARC
8
DEFAULT_255_1_234
10
14.0622821
20
54.8938542
40
0.5413475
50
76.6779277
51
90.4563316
0
ARC
8
DEFAULT_255_1_234
10
14.1016444
20
55.0529114
40
0.3775041
50
47.485847
51
76.9287264
0
ARC
8
DEFAULT_255_1_234
10
14.0869417
20
55.0429159
40
0.3948286
50
16.5424086
51
46.8933463
0
ARC
8
DEFAULT_255_1_234
10
13.9261574
20
54.9900861
40
0.564021
50
5.4072051
51
17.0365086
0
ARC
8
DEFAULT_255_1_234
10
13.7822591
20
54.9669679
40
0.5556559
50
7.8891745
51
15.9239216
0
ARC
8
DEFAULT_255_1_234
10
13.9809605
20
55.0246631
40
0.3487515
50
15.7653144
51
27.9410532
0
ARC
8
DEFAULT_255_1_234
10
14.0913822
20
55.083779
40
0.2235026
50
27.8166557
51
46.4008329
0
ARC
8
DEFAULT_255_1_234
10
14.0963465
20
55.0832082
40
0.2205286
50
47.4371857
51
75.0698205
0
ARC
8
DEFAULT_255_1_234
10
14.065486
20
54.9757765
40
0.3322915
50
74.7008593
51
87.8124495
0
ARC
8
DEFAULT_255_1_234
10
14.0581547
20
54.8701844
40
0.4380987
50
87.3814673
51
90.0240855
0
ARC
8
DEFAULT_255_1_234
10
14.0543091
20
54.9879291
40
0.3203749
50
89.3451631
51
108.5745436
0
ARC
8
DEFAULT_255_1_234
10
14.0406196
20
55.0392908
40
0.2673494
50
109.2998449
51
143.3037509
0
ARC
8
DEFAULT_255_1_234
10
14.1168268
20
54.9806881
40
0.3634757
50
143.0753173
51
163.1916937
0
ARC
8
DEFAULT_255_1_234
10
14.3119996
20
54.9190967
40
0.5681262
50
162.9373603
51
174.6208611
0
ARC
8
DEFAULT_255_1_234
10
14.5746038
20
54.890301
40
0.8322832
50
174.3419979
51
180.1430411
0
ARC
8
DEFAULT_255_1_234
10
14.4815194
20
54.7708698
40
0.7392076
50
179.6817502
51
189.150529
0
ARC
8
DEFAULT_255_1_234
10
14.2314443
20
54.729219
40
0.4856932
50
188.9910863
51
203.5773039
0
ARC
8
DEFAULT_255_1_234
10
14.1234775
20
54.6844211
40
0.3688271
50
203.9077269
51
215.1312379
0
ARC
8
DEFAULT_255_1_234
10
14.0311869
20
54.6128941
40
0.2522457
50
213.9071664
51
263.8849284
0
ARC
8
DEFAULT_255_1_234
10
14.0437198
20
54.6913518
40
0.3316174
50
263.1758525
51
270.1031083
0
ARC
8
DEFAULT_255_1_234
10
14.046929
20
54.8160365
40
0.4563091
50
269.6719807
51
279.0609165
0
ARC
8
DEFAULT_255_1_234
10
14.0736058
20
54.6547907
40
0.2928759
50
278.8750225
51
293.6346586
0
ARC
8
DEFAULT_255_1_234
10
14.1056266
20
54.57959
40
0.2111472
50
293.8553404
51
310.0518804
0
ARC
8
DEFAULT_255_1_234
10
14.106112
20
54.5733516
40
0.2060917
50
311.0646779
51
332.0108348
0
ARC
8
DEFAULT_255_1_234
10
13.9868847
20
54.6390978
40
0.3422352
50
331.6588543
51
343.2878891
0
ARC
8
DEFAULT_255_1_234
10
13.7806362
20
54.7024798
40
0.5580003
50
343.1446044
51
351.010618
0
ARC
8
DEFAULT_255_1_234
10
13.6265008
20
54.7305871
40
0.7146438
50
350.7157277
51
351.1602153
0
LINE
8
DEFAULT_255_1_234
10
15.8811751
20
55.0809849
11
15.7261626
21
55.0809849
0
LINE
8
DEFAULT_255_1_234
10
15.0338268
20
54.5886394
11
15.1888393
21
54.5886394
0
ARC
8
DEFAULT_255_1_234
10
15.7920439
20
55.9756768
40
1.252368
50
248.9199003
51
254.1439814
0
ARC
8
DEFAULT_255_1_234
10
15.6239934
20
55.5430234
40
0.788226
50
241.633709
51
249.0064503
0
ARC
8
DEFAULT_255_1_234
10
15.4711328
20
55.2629317
40
0.4691427
50
230.498225
51
241.8087113
0
ARC
8
DEFAULT_255_1_234
10
15.3926902
20
55.1629906
40
0.3421437
50
227.4064532
51
229.9881192
0
ARC
8
DEFAULT_255_1_234
10
15.3439423
20
55.1154088
40
0.2741476
50
200.6781896
51
228.1763934
0
ARC
8
DEFAULT_255_1_234
10
15.3511734
20
55.1139077
40
0.2804109
50
179.5061581
51
199.8694617
0
ARC
8
DEFAULT_255_1_234
10
15.3502485
20
55.121321
40
0.2795204
50
132.4834203
51
181.0242172
0
ARC
8
DEFAULT_255_1_234
10
15.4098068
20
55.0650704
40
0.3612768
50
129.2532479
51
133.4242687
0
ARC
8
DEFAULT_255_1_234
10
15.4244517
20
55.0430965
40
0.3875675
50
101.98776
51
128.8742646
0
ARC
8
DEFAULT_255_1_234
10
15.4643128
20
54.8709741
40
0.5642249
50
89.5906553
51
102.3169264
0
ARC
8
DEFAULT_255_1_234
10
15.471362
20
54.9028148
40
0.5323783
50
77.2360837
51
90.3248275
0
ARC
8
DEFAULT_255_1_234
10
15.4920699
20
54.99954
40
0.4334697
50
63.837784
51
77.0809408
0
ARC
8
DEFAULT_255_1_234
10
15.5198461
20
55.0512911
40
0.3747796
50
45.9864267
51
64.1607727
0
ARC
8
DEFAULT_255_1_234
10
15.5459342
20
55.0810866
40
0.3352302
50
32.2747395
51
45.6547121
0
ARC
8
DEFAULT_255_1_234
10
15.5525783
20
55.082988
40
0.328603
50
359.6507365
51
32.6130309
0
ARC
8
DEFAULT_255_1_234
10
15.4582878
20
55.083466
40
0.2678863
50
359.469343
51
14.9832209
0
ARC
8
DEFAULT_255_1_234
10
15.5287941
20
55.1023539
40
0.1948938
50
14.9781179
51
48.2004265
0
ARC
8
DEFAULT_255_1_234
10
15.5123585
20
55.0816983
40
0.2212521
50
48.5927837
51
74.1241538
0
ARC
8
DEFAULT_255_1_234
10
15.4790074
20
54.9716248
40
0.3362561
50
73.7888341
51
86.6652678
0
ARC
8
DEFAULT_255_1_234
10
15.468764
20
54.8508881
40
0.4573953
50
86.2640471
51
90.0526343
0
ARC
8
DEFAULT_255_1_234
10
15.4659352
20
54.8904192
40
0.4178709
50
89.6697524
51
99.2309573
0
ARC
8
DEFAULT_255_1_234
10
15.4416803
20
55.0348964
40
0.2713749
50
99.069534
51
113.7658566
0
ARC
8
DEFAULT_255_1_234
10
15.4142994
20
55.0994677
40
0.2012469
50
114.0401004
51
127.9850673
0
ARC
8
DEFAULT_255_1_234
10
15.3902558
20
55.129073
40
0.1631167
50
127.7287463
51
176.7105154
0
ARC
8
DEFAULT_255_1_234
10
15.4581276
20
55.1189693
40
0.2315392
50
175.1779447
51
180.0581938
0
ARC
8
DEFAULT_255_1_234
10
15.3738123
20
55.1177428
40
0.1472271
50
179.6142195
51
228.1246017
0
ARC
8
DEFAULT_255_1_234
10
15.4179791
20
55.1586308
40
0.2072299
50
226.5779593
51
230.8800004
0
ARC
8
DEFAULT_255_1_234
10
15.465087
20
55.2211636
40
0.2854818
50
231.4635071
51
241.9260842
0
ARC
8
DEFAULT_255_1_234
10
15.5848048
20
55.44148
40
0.53622
50
241.7178533
51
248.3259551
0
ARC
8
DEFAULT_255_1_234
10
15.723342
20
55.7847064
40
0.9063478
50
248.2007737
51
252.4528373
0
ARC
8
DEFAULT_255_1_234
10
15.8437145
20
56.1568441
40
1.2974635
50
252.3391078
51
254.3469452
0
ARC
8
DEFAULT_255_1_234
10
15.0894847
20
53.4591148
40
1.5037162
50
71.0197183
51
74.4087047
0
ARC
8
DEFAULT_255_1_234
10
15.2589532
20
53.9483111
40
0.9859993
50
66.1847285
51
71.086374
0
ARC
8
DEFAULT_255_1_234
10
15.4145845
20
54.29872
40
0.6025855
50
59.3536294
51
66.2691831
0
ARC
8
DEFAULT_255_1_234
10
15.5034497
20
54.4490609
40
0.4279449
50
49.1020879
51
59.3293958
0
ARC
8
DEFAULT_255_1_234
10
15.5853237
20
54.5423834
40
0.3038015
50
32.7919921
51
49.2505539
0
ARC
8
DEFAULT_255_1_234
10
15.6174327
20
54.5652191
40
0.264448
50
31.1181161
51
32.4005348
0
ARC
8
DEFAULT_255_1_234
10
15.6085865
20
54.5616779
40
0.2738556
50
8.1116974
51
30.7958831
0
ARC
8
DEFAULT_255_1_234
10
15.5275533
20
54.5478753
40
0.3560327
50
359.8389159
51
8.4706516
0
ARC
8
DEFAULT_255_1_234
10
15.5901324
20
54.5430137
40
0.2934776
50
337.4731098
51
0.7537279
0
ARC
8
DEFAULT_255_1_234
10
15.6080019
20
54.5410387
40
0.2762607
50
307.5917067
51
336.4315538
0
ARC
8
DEFAULT_255_1_234
10
15.5619847
20
54.5923102
40
0.3449979
50
307.6551545
51
308.4529766
0
ARC
8
DEFAULT_255_1_234
10
15.5389566
20
54.627825
40
0.3871988
50
284.3734338
51
307.1424381
0
ARC
8
DEFAULT_255_1_234
10
15.4894396
20
54.8099932
40
0.5759636
50
272.4382747
51
284.646547
0
ARC
8
DEFAULT_255_1_234
10
15.4767605
20
54.9899893
40
0.7563528
50
269.9708387
51
272.8178037
0
ARC
8
DEFAULT_255_1_234
10
15.4724645
20
54.7861716
40
0.5525489
50
248.2707594
51
270.4055579
0
ARC
8
DEFAULT_255_1_234
10
15.4670386
20
54.7671192
40
0.5328452
50
246.1383403
51
248.0542782
0
ARC
8
DEFAULT_255_1_234
10
15.4251765
20
54.6791843
40
0.4355005
50
233.1670131
51
246.4950969
0
ARC
8
DEFAULT_255_1_234
10
15.369767
20
54.6043812
40
0.3424126
50
215.3403242
51
233.0843104
0
ARC
8
DEFAULT_255_1_234
10
15.3425101
20
54.5845549
40
0.3087104
50
179.2419209
51
215.2648451
0
ARC
8
DEFAULT_255_1_234
10
15.4192695
20
54.5859666
40
0.2304457
50
179.335461
51
199.1045811
0
ARC
8
DEFAULT_255_1_234
10
15.3860371
20
54.5772766
40
0.1962176
50
199.8828939
51
232.7063202
0
ARC
8
DEFAULT_255_1_234
10
15.433264
20
54.6366788
40
0.2720938
50
232.3738199
51
255.5136649
0
ARC
8
DEFAULT_255_1_234
10
15.4673506
20
54.7610835
40
0.4010747
50
255.2446292
51
267.5320849
0
ARC
8
DEFAULT_255_1_234
10
15.476113
20
54.8843702
40
0.5246356
50
267.1557994
51
270.0286766
0
ARC
8
DEFAULT_255_1_234
10
15.4788902
20
54.839995
40
0.4802668
50
269.7000017
51
278.1660162
0
ARC
8
DEFAULT_255_1_234
10
15.5044907
20
54.6669515
40
0.3053425
50
278.0231263
51
290.625471
0
ARC
8
DEFAULT_255_1_234
10
15.5392594
20
54.5742025
40
0.206291
50
290.6619762
51
307.0370976
0
ARC
8
DEFAULT_255_1_234
10
15.5692983
20
54.5373504
40
0.1587906
50
306.3943566
51
355.3030547
0
ARC
8
DEFAULT_255_1_234
10
15.5180914
20
54.5450113
40
0.2104809
50
354.3660432
51
0.0698737
0
ARC
8
DEFAULT_255_1_234
10
15.532326
20
54.5472617
40
0.1962563
50
359.417946
51
16.1971788
0
ARC
8
DEFAULT_255_1_234
10
15.577857
20
54.5597418
40
0.149053
50
16.4723299
51
52.6262157
0
ARC
8
DEFAULT_255_1_234
10
15.4957624
20
54.4513433
40
0.2850296
50
52.7386432
51
62.4979148
0
ARC
8
DEFAULT_255_1_234
10
15.3572701
20
54.1907283
40
0.5801521
50
62.2515216
51
68.1220564
0
ARC
8
DEFAULT_255_1_234
10
15.1852612
20
53.7679872
40
1.0365451
50
68.0062803
51
71.8053402
0
ARC
8
DEFAULT_255_1_234
10
15.0056983
20
53.2294758
40
1.6042013
50
71.7183119
51
73.9258742
0
LINE
8
DEFAULT_255_1_234
10
16.7975965
20
55.4191211
11
16.7975965
21
55.335591
0
LINE
8
DEFAULT_255_1_234
10
16.7975965
20
55.335591
11
16.3132827
21
54.2497
0
LINE
8
DEFAULT_255_1_234
10
16.3132827
20
54.2497
11
16.1574669
21
54.2497
0
LINE
8
DEFAULT_255_1_234
10
16.1574669
20
54.2497
11
16.6401744
21
55.2970387
0
LINE
8
DEFAULT_255_1_234
10
16.6401744
20
55.2970387
11
16.0072734
21
55.2970387
0
LINE
8
DEFAULT_255_1_234
10
16.0072734
20
55.2970387
11
16.0072734
21
55.4191211
0
LINE
8
DEFAULT_255_1_234
10
16.0072734
20
55.4191211
11
16.7975965
21
55.4191211
0
LINE
8
DEFAULT_255_1_234
10
17.2907452
20
54.8071026
11
17.2907452
21
54.6858234
0
LINE
8
DEFAULT_255_1_234
10
17.2907452
20
54.6858234
11
16.8987964
21
54.6858234
0
LINE
8
DEFAULT_255_1_234
10
16.8987964
20
54.6858234
11
16.8987964
21
54.8071026
0
LINE
8
DEFAULT_255_1_234
10
16.8987964
20
54.8071026
11
17.2907452
21
54.8071026
0
LINE
8
DEFAULT_255_1_234
10
18.047335
20
55.4191211
11
18.047335
21
54.642452
0
LINE
8
DEFAULT_255_1_234
10
18.047335
20
54.642452
11
18.2095761
21
54.642452
0
LINE
8
DEFAULT_255_1_234
10
18.2095761
20
54.642452
11
18.2095761
21
54.5211728
0
LINE
8
DEFAULT_255_1_234
10
18.2095761
20
54.5211728
11
18.047335
21
54.5211728
0
LINE
8
DEFAULT_255_1_234
10
18.047335
20
54.5211728
11
18.047335
21
54.2497
0
LINE
8
DEFAULT_255_1_234
10
18.047335
20
54.2497
11
17.8979446
21
54.2497
0
LINE
8
DEFAULT_255_1_234
10
17.8979446
20
54.2497
11
17.8979446
21
54.5211728
0
LINE
8
DEFAULT_255_1_234
10
17.8979446
20
54.5211728
11
17.3654404
21
54.5211728
0
LINE
8
DEFAULT_255_1_234
10
17.3654404
20
54.5211728
11
17.3654404
21
54.6087187
0
LINE
8
DEFAULT_255_1_234
10
17.3654404
20
54.6087187
11
17.8891097
21
55.4191211
0
LINE
8
DEFAULT_255_1_234
10
17.8891097
20
55.4191211
11
18.047335
21
55.4191211
0
LINE
8
DEFAULT_255_1_234
10
17.8802748
20
55.1837912
11
17.5341069
21
54.642452
0
LINE
8
DEFAULT_255_1_234
10
17.5341069
20
54.642452
11
17.8979446
21
54.642452
0
LINE
8
DEFAULT_255_1_234
10
17.8979446
20
54.642452
11
17.8979446
21
55.2159181
0
LINE
8
DEFAULT_255_1_234
10
17.8979446
20
55.2159181
11
17.8802748
21
55.1837912
0
LINE
8
DEFAULT_255_1_234
10
19.0770038
20
54.9412327
11
19.0770038
21
54.7484709
0
LINE
8
DEFAULT_255_1_234
10
18.3388871
20
54.7283916
11
18.3388871
21
54.9267755
0
LINE
8
DEFAULT_255_1_234
10
18.9284167
20
54.7083123
11
18.9284167
21
54.9516739
0
LINE
8
DEFAULT_255_1_234
10
18.4874742
20
54.9629184
11
18.4874742
21
54.7251789
0
ARC
8
DEFAULT_255_1_234
10
17.8522928
20
54.7435805
40
1.2247208
50
353.8441951
51
0.2287902
0
ARC
8
DEFAULT_255_1_234
10
18.3162431
20
54.6917806
40
0.7578929
50
344.4934747
51
353.9765454
0
ARC
8
DEFAULT_255_1_234
10
18.6155022
20
54.6066981
40
0.4467846
50
329.2803592
51
344.7472793
0
ARC
8
DEFAULT_255_1_234
10
18.7147846
20
54.5522018
40
0.3336173
50
324.9352394
51
328.6160465
0
ARC
8
DEFAULT_255_1_234
10
18.7524955
20
54.5258427
40
0.2876076
50
280.580143
51
324.9173126
0
ARC
8
DEFAULT_255_1_234
10
18.7123748
20
54.6929099
40
0.4592847
50
269.5977311
51
281.6734359
0
ARC
8
DEFAULT_255_1_234
10
18.7051653
20
54.6809173
40
0.4472986
50
256.6228859
51
270.51044
0
ARC
8
DEFAULT_255_1_234
10
18.6649631
20
54.5260877
40
0.2873874
50
215.8618325
51
257.2788573
0
ARC
8
DEFAULT_255_1_234
10
18.7670663
20
54.5945977
40
0.4102928
50
197.9693508
51
215.2623606
0
ARC
8
DEFAULT_255_1_234
10
19.0155778
20
54.6784709
40
0.6725652
50
187.8816417
51
198.2346507
0
ARC
8
DEFAULT_255_1_234
10
19.4113987
20
54.7356079
40
1.0724845
50
180.8976217
51
188.0055519
0
ARC
8
DEFAULT_255_1_234
10
19.6914175
20
54.7459777
40
1.3526448
50
180.7449369
51
181.1510016
0
ARC
8
DEFAULT_255_1_234
10
19.5336904
20
54.9316042
40
1.1948131
50
173.7675579
51
180.231553
0
ARC
8
DEFAULT_255_1_234
10
19.081905
20
54.9826666
40
0.7401564
50
164.3058563
51
173.9002247
0
ARC
8
DEFAULT_255_1_234
10
18.7907119
20
55.0665656
40
0.4371288
50
148.7922025
51
164.568378
0
ARC
8
DEFAULT_255_1_234
10
18.6955571
20
55.1196929
40
0.3282386
50
144.5883898
51
148.1176286
0
ARC
8
DEFAULT_255_1_234
10
18.6612469
20
55.1436315
40
0.2864044
50
101.6440918
51
144.514236
0
ARC
8
DEFAULT_255_1_234
10
18.7037536
20
54.9747069
40
0.4604934
50
89.5284041
51
102.5819763
0
ARC
8
DEFAULT_255_1_234
10
18.7116624
20
54.9708018
40
0.464401
50
77.0437873
51
90.5081339
0
ARC
8
DEFAULT_255_1_234
10
18.7518626
20
55.1350615
40
0.2953195
50
48.2778575
51
77.4994676
0
ARC
8
DEFAULT_255_1_234
10
18.7591257
20
55.1479746
40
0.2808655
50
36.3142134
51
47.6305865
0
ARC
8
DEFAULT_255_1_234
10
18.6722564
20
55.0894515
40
0.3855453
50
18.2931786
51
35.6769206
0
ARC
8
DEFAULT_255_1_234
10
18.4179323
20
55.0021593
40
0.654423
50
8.024666
51
18.5605216
0
ARC
8
DEFAULT_255_1_234
10
18.0016243
20
54.9406792
40
1.0752407
50
1.1274072
51
8.1718305
0
ARC
8
DEFAULT_255_1_234
10
17.6780433
20
54.9279885
40
1.3990231
50
0.5424119
51
1.3863029
0
ARC
8
DEFAULT_255_1_234
10
17.8601811
20
54.9552342
40
1.0682415
50
359.8090433
51
4.9407866
0
ARC
8
DEFAULT_255_1_234
10
18.2811825
20
54.9928113
40
0.6455691
50
4.8362157
51
12.2904523
0
ARC
8
DEFAULT_255_1_234
10
18.556694
20
55.0541965
40
0.3633074
50
12.0805627
51
23.8173984
0
ARC
8
DEFAULT_255_1_234
10
18.6740645
20
55.1038919
40
0.2358723
50
24.2871213
51
31.3935614
0
ARC
8
DEFAULT_255_1_234
10
18.7265342
20
55.1382233
40
0.1732111
50
30.7407893
51
82.4657128
0
ARC
8
DEFAULT_255_1_234
10
18.7085477
20
55.0498691
40
0.263235
50
81.1060089
51
90.2184952
0
ARC
8
DEFAULT_255_1_234
10
18.7049776
20
55.0756924
40
0.2374236
50
89.3806855
51
105.6762551
0
ARC
8
DEFAULT_255_1_234
10
18.6866406
20
55.1423567
40
0.1682847
50
105.7981136
51
149.7388061
0
ARC
8
DEFAULT_255_1_234
10
18.7930485
20
55.078395
40
0.2924306
50
149.4208916
51
163.6286378
0
ARC
8
DEFAULT_255_1_234
10
19.0021373
20
55.014625
40
0.5110213
50
163.3763315
51
172.1410975
0
ARC
8
DEFAULT_255_1_234
10
19.3322092
20
54.9673518
40
0.8444586
50
172.0259487
51
178.0703232
0
ARC
8
DEFAULT_255_1_234
10
19.6352181
20
54.9529906
40
1.1477868
50
177.8631668
51
179.5044149
0
ARC
8
DEFAULT_255_1_234
10
19.5279586
20
54.7215389
40
1.0404907
50
179.7995573
51
185.2460446
0
ARC
8
DEFAULT_255_1_234
10
19.1236625
20
54.6832513
40
0.6343885
50
185.1411642
51
193.0079639
0
ARC
8
DEFAULT_255_1_234
10
18.8593097
20
54.6207641
40
0.3627568
50
192.7897626
51
205.2507664
0
ARC
8
DEFAULT_255_1_234
10
18.7546644
20
54.5740415
40
0.2481908
50
205.8005384
51
211.2537509
0
ARC
8
DEFAULT_255_1_234
10
18.7023085
20
54.538958
40
0.1852521
50
210.3789793
51
238.4008143
0
ARC
8
DEFAULT_255_1_234
10
18.7003607
20
54.5436376
40
0.1882621
50
239.6520629
51
265.9793761
0
ARC
8
DEFAULT_255_1_234
10
18.7088807
20
54.6108427
40
0.2559272
50
265.1315437
51
270.060332
0
ARC
8
DEFAULT_255_1_234
10
18.7117586
20
54.5784534
40
0.2235528
50
269.3314664
51
287.2178029
0
ARC
8
DEFAULT_255_1_234
10
18.7255438
20
54.5281279
40
0.1714108
50
287.7958004
51
329.080874
0
ARC
8
DEFAULT_255_1_234
10
18.6297894
20
54.587893
40
0.2842745
50
328.6634704
51
343.3325132
0
ARC
8
DEFAULT_255_1_234
10
18.4124915
20
54.6555863
40
0.5118644
50
343.0499468
51
351.9393422
0
ARC
8
DEFAULT_255_1_234
10
18.0658215
20
54.7066949
40
0.8622784
50
351.8069023
51
357.7959224
0
ARC
8
DEFAULT_255_1_234
10
17.7422771
20
54.7234721
40
1.1862365
50
357.5871873
51
359.2677531
0
LINE
8
DEFAULT_255_1_234
10
20.0006537
20
54.9412327
11
20.0006537
21
54.7484709
0
LINE
8
DEFAULT_255_1_234
10
19.262537
20
54.7283916
11
19.262537
21
54.9267755
0
LINE
8
DEFAULT_255_1_234
10
19.8520666
20
54.7083123
11
19.8520666
21
54.9516739
0
LINE
8
DEFAULT_255_1_234
10
19.4111241
20
54.9629184
11
19.4111241
21
54.7251789
0
ARC
8
DEFAULT_255_1_234
10
18.7759427
20
54.7435805
40
1.2247208
50
353.8441951
51
0.2287902
0
ARC
8
DEFAULT_255_1_234
10
19.239893
20
54.6917806
40
0.7578929
50
344.4934747
51
353.9765454
0
ARC
8
DEFAULT_255_1_234
10
19.5391521
20
54.6066981
40
0.4467846
50
329.2803592
51
344.7472793
0
ARC
8
DEFAULT_255_1_234
10
19.6384345
20
54.5522018
40
0.3336173
50
324.9352394
51
328.6160465
0
ARC
8
DEFAULT_255_1_234
10
19.6761454
20
54.5258427
40
0.2876076
50
280.580143
51
324.9173126
0
ARC
8
DEFAULT_255_1_234
10
19.6360247
20
54.6929099
40
0.4592847
50
269.5977311
51
281.6734359
0
ARC
8
DEFAULT_255_1_234
10
19.6288152
20
54.6809173
40
0.4472986
50
256.6228859
51
270.51044
0
ARC
8
DEFAULT_255_1_234
10
19.588613
20
54.5260877
40
0.2873874
50
215.8618325
51
257.2788573
0
ARC
8
DEFAULT_255_1_234
10
19.6907162
20
54.5945977
40
0.4102928
50
197.9693508
51
215.2623606
0
ARC
8
DEFAULT_255_1_234
10
19.9392277
20
54.6784709
40
0.6725652
50
187.8816417
51
198.2346507
0
ARC
8
DEFAULT_255_1_234
10
20.3350486
20
54.7356079
40
1.0724845
50
180.8976217
51
188.0055519
0
ARC
8
DEFAULT_255_1_234
10
20.6150674
20
54.7459777
40
1.3526448
50
180.7449369
51
181.1510016
0
ARC
8
DEFAULT_255_1_234
10
20.4573403
20
54.9316042
40
1.1948131
50
173.7675579
51
180.231553
0
ARC
8
DEFAULT_255_1_234
10
20.0055549
20
54.9826666
40
0.7401564
50
164.3058563
51
173.9002247
0
ARC
8
DEFAULT_255_1_234
10
19.7143618
20
55.0665656
40
0.4371288
50
148.7922025
51
164.568378
0
ARC
8
DEFAULT_255_1_234
10
19.619207
20
55.1196929
40
0.3282386
50
144.5883898
51
148.1176286
0
ARC
8
DEFAULT_255_1_234
10
19.5848968
20
55.1436315
40
0.2864044
50
101.6440918
51
144.514236
0
ARC
8
DEFAULT_255_1_234
10
19.6274035
20
54.9747069
40
0.4604934
50
89.5284041
51
102.5819763
0
ARC
8
DEFAULT_255_1_234
10
19.6353123
20
54.9708018
40
0.464401
50
77.0437873
51
90.5081339
0
ARC
8
DEFAULT_255_1_234
10
19.6755125
20
55.1350615
40
0.2953195
50
48.2778575
51
77.4994676
0
ARC
8
DEFAULT_255_1_234
10
19.6827756
20
55.1479746
40
0.2808655
50
36.3142134
51
47.6305865
0
ARC
8
DEFAULT_255_1_234
10
19.5959063
20
55.0894515
40
0.3855453
50
18.2931786
51
35.6769206
0
ARC
8
DEFAULT_255_1_234
10
19.3415822
20
55.0021593
40
0.654423
50
8.024666
51
18.5605216
0
ARC
8
DEFAULT_255_1_234
10
18.9252742
20
54.9406792
40
1.0752407
50
1.1274072
51
8.1718305
0
ARC
8
DEFAULT_255_1_234
10
18.6016932
20
54.9279885
40
1.3990231
50
0.5424119
51
1.3863029
0
ARC
8
DEFAULT_255_1_234
10
18.783831
20
54.9552342
40
1.0682415
50
359.8090433
51
4.9407866
0
ARC
8
DEFAULT_255_1_234
10
19.2048324
20
54.9928113
40
0.6455691
50
4.8362157
51
12.2904523
0
ARC
8
DEFAULT_255_1_234
10
19.4803439
20
55.0541965
40
0.3633074
50
12.0805627
51
23.8173984
0
ARC
8
DEFAULT_255_1_234
10
19.5977144
20
55.1038919
40
0.2358723
50
24.2871213
51
31.3935614
0
ARC
8
DEFAULT_255_1_234
10
19.6501841
20
55.1382233
40
0.1732111
50
30.7407893
51
82.4657128
0
ARC
8
DEFAULT_255_1_234
10
19.6321976
20
55.0498691
40
0.263235
50
81.1060089
51
90.2184952
0
ARC
8
DEFAULT_255_1_234
10
19.6286275
20
55.0756924
40
0.2374236
50
89.3806855
51
105.6762551
0
ARC
8
DEFAULT_255_1_234
10
19.6102905
20
55.1423567
40
0.1682847
50
105.7981136
51
149.7388061
0
ARC
8
DEFAULT_255_1_234
10
19.7166984
20
55.078395
40
0.2924306
50
149.4208916
51
163.6286378
0
ARC
8
DEFAULT_255_1_234
10
19.9257872
20
55.014625
40
0.5110213
50
163.3763315
51
172.1410975
0
ARC
8
DEFAULT_255_1_234
10
20.2558591
20
54.9673518
40
0.8444586
50
172.0259487
51
178.0703232
0
ARC
8
DEFAULT_255_1_234
10
20.558868
20
54.9529906
40
1.1477868
50
177.8631668
51
179.5044149
0
ARC
8
DEFAULT_255_1_234
10
20.4516085
20
54.7215389
40
1.0404907
50
179.7995573
51
185.2460446
0
ARC
8
DEFAULT_255_1_234
10
20.0473124
20
54.6832513
40
0.6343885
50
185.1411642
51
193.0079639
0
ARC
8
DEFAULT_255_1_234
10
19.7829596
20
54.6207641
40
0.3627568
50
192.7897626
51
205.2507664
0
ARC
8
DEFAULT_255_1_234
10
19.6783143
20
54.5740415
40
0.2481908
50
205.8005384
51
211.2537509
0
ARC
8
DEFAULT_255_1_234
10
19.6259584
20
54.538958
40
0.1852521
50
210.3789793
51
238.4008143
0
ARC
8
DEFAULT_255_1_234
10
19.6240106
20
54.5436376
40
0.1882621
50
239.6520629
51
265.9793761
0
ARC
8
DEFAULT_255_1_234
10
19.6325306
20
54.6108427
40
0.2559272
50
265.1315437
51
270.060332
0
ARC
8
DEFAULT_255_1_234
10
19.6354085
20
54.5784534
40
0.2235528
50
269.3314664
51
287.2178029
0
ARC
8
DEFAULT_255_1_234
10
19.6491937
20
54.5281279
40
0.1714108
50
287.7958004
51
329.080874
0
ARC
8
DEFAULT_255_1_234
10
19.5534394
20
54.587893
40
0.2842745
50
328.6634704
51
343.3325132
0
ARC
8
DEFAULT_255_1_234
10
19.3361414
20
54.6555863
40
0.5118644
50
343.0499468
51
351.9393422
0
ARC
8
DEFAULT_255_1_234
10
18.9894714
20
54.7066949
40
0.8622784
50
351.8069023
51
357.7959224
0
ARC
8
DEFAULT_255_1_234
10
18.665927
20
54.7234721
40
1.1862365
50
357.5871873
51
359.2677531
0
LINE
8
DEFAULT_255_2_778
10
18.6531417
20
30.6254497
11
18.6531417
21
21.0343497
0
LINE
8
DEFAULT_255_2_778
10
18.6531417
20
21.0343497
11
19.9760417
21
21.0343497
0
LINE
8
DEFAULT_255_2_778
10
19.9760417
20
44.8468497
11
18.6531417
21
44.8468497
0
LINE
8
DEFAULT_255_2_778
10
18.6531417
20
44.8468497
11
18.6531417
21
35.2557497
0
LINE
8
DEFAULT_255_2_778
10
17.3301834
20
35.2557041
11
19.9759834
21
35.2557041
0
LINE
8
DEFAULT_255_2_778
10
19.9759834
20
35.2557041
11
19.9759834
21
30.6255041
0
LINE
8
DEFAULT_255_2_778
10
19.9759834
20
30.6255041
11
17.3301834
21
30.6255041
0
LINE
8
DEFAULT_255_2_778
10
17.3301834
20
30.6255041
11
17.3301834
21
35.2557041
0
LINE
8
DEFAULT_255_2_778
10
18.124
20
31.0884833
11
18.124
21
34.7926833
0
LINE
8
DEFAULT_255_2_778
10
17.8594167
20
34.0981656
11
18.1240167
21
34.7926656
0
LINE
8
DEFAULT_255_2_778
10
18.1240167
20
34.7926656
11
18.3886167
21
34.0981656
0
LINE
8
DEFAULT_255_2_778
10
18.3886167
20
34.0981656
11
17.8594167
21
34.0981656
0
LINE
8
DEFAULT_255_2_778
10
19.1823
20
34.7926833
11
19.1823
21
31.0884833
0
LINE
8
DEFAULT_255_2_778
10
18.9177167
20
31.7830656
11
19.1823167
21
31.0885656
0
LINE
8
DEFAULT_255_2_778
10
19.1823167
20
31.0885656
11
19.4469167
21
31.7830656
0
LINE
8
DEFAULT_255_2_778
10
19.4469167
20
31.7830656
11
18.9177167
21
31.7830656
0
LINE
8
DEFAULT_255_2_778
10
10.7156417
20
22.6880227
11
10.7156417
21
5.1594227
0
LINE
8
DEFAULT_255_2_778
10
10.7156417
20
5.1594227
11
9.3927417
21
5.1594227
0
LINE
8
DEFAULT_255_2_778
10
9.3926834
20
27.3182041
11
12.0384834
21
27.3182041
0
LINE
8
DEFAULT_255_2_778
10
12.0384834
20
27.3182041
11
12.0384834
21
22.6880041
0
LINE
8
DEFAULT_255_2_778
10
12.0384834
20
22.6880041
11
9.3926834
21
22.6880041
0
LINE
8
DEFAULT_255_2_778
10
9.3926834
20
22.6880041
11
9.3926834
21
27.3182041
0
LINE
8
DEFAULT_255_2_778
10
10.1865
20
23.1509833
11
10.1865
21
26.8551833
0
LINE
8
DEFAULT_255_2_778
10
9.9219167
20
26.1606656
11
10.1865167
21
26.8551656
0
LINE
8
DEFAULT_255_2_778
10
10.1865167
20
26.8551656
11
10.4511167
21
26.1606656
0
LINE
8
DEFAULT_255_2_778
10
10.4511167
20
26.1606656
11
9.9219167
21
26.1606656
0
LINE
8
DEFAULT_255_2_778
10
11.2448
20
26.8551833
11
11.2448
21
23.1509833
0
LINE
8
DEFAULT_255_2_778
10
10.9802167
20
23.8455656
11
11.2448167
21
23.1510656
0
LINE
8
DEFAULT_255_2_778
10
11.2448167
20
23.1510656
11
11.5094167
21
23.8455656
0
LINE
8
DEFAULT_255_2_778
10
11.5094167
20
23.8455656
11
10.9802167
21
23.8455656
0
LINE
8
DEFAULT_255_2_778
10
9.3927417
20
44.8469227
11
10.7156417
21
44.8469227
0
LINE
8
DEFAULT_255_2_778
10
10.7156417
20
44.8469227
11
10.7156417
21
27.3183227
0
LINE
8
DEFAULT_255_1_234
10
4.5992137
20
53.4404433
11
4.5992137
21
52.2654
0
LINE
8
DEFAULT_255_1_234
10
4.5992137
20
52.2654
11
4.4498234
21
52.2654
0
LINE
8
DEFAULT_255_1_234
10
4.4498234
20
52.2654
11
4.4498234
21
53.2557133
0
LINE
8
DEFAULT_255_1_234
10
4.4498234
20
53.2557133
11
4.1502396
21
53.1456785
0
LINE
8
DEFAULT_255_1_234
10
4.1502396
20
53.1456785
11
4.1502396
21
53.2806117
0
LINE
8
DEFAULT_255_1_234
10
4.1502396
20
53.2806117
11
4.5759217
21
53.4404433
0
LINE
8
DEFAULT_255_1_234
10
4.5759217
20
53.4404433
11
4.5992137
21
53.4404433
0
LINE
8
DEFAULT_255_1_234
10
5.2280988
20
53.4348211
11
5.2280988
21
52.3914983
0
LINE
8
DEFAULT_255_1_234
10
5.2280988
20
52.3914983
11
5.7822888
21
52.3914983
0
LINE
8
DEFAULT_255_1_234
10
5.7822888
20
52.3914983
11
5.7822888
21
52.2654
0
LINE
8
DEFAULT_255_1_234
10
5.7822888
20
52.2654
11
5.0730863
21
52.2654
0
LINE
8
DEFAULT_255_1_234
10
5.0730863
20
52.2654
11
5.0730863
21
53.4348211
0
LINE
8
DEFAULT_255_1_234
10
5.0730863
20
53.4348211
11
5.2280988
21
53.4348211
0
LINE
8
DEFAULT_255_1_234
10
6.3605739
20
53.2340276
11
6.3605739
21
52.8926788
0
LINE
8
DEFAULT_255_1_234
10
6.3605739
20
52.8926788
11
6.6866625
21
52.8926788
0
LINE
8
DEFAULT_255_1_234
10
6.6866625
20
52.8926788
11
6.6866625
21
52.7521233
0
LINE
8
DEFAULT_255_1_234
10
6.6866625
20
52.7521233
11
6.3605739
21
52.7521233
0
LINE
8
DEFAULT_255_1_234
10
6.3605739
20
52.7521233
11
6.3605739
21
52.3826634
0
LINE
8
DEFAULT_255_1_234
10
6.3605739
20
52.3826634
11
6.2111836
21
52.3826634
0
LINE
8
DEFAULT_255_1_234
10
6.2111836
20
52.3826634
11
6.2111836
21
52.7521233
0
LINE
8
DEFAULT_255_1_234
10
6.2111836
20
52.7521233
11
5.885095
21
52.7521233
0
LINE
8
DEFAULT_255_1_234
10
5.885095
20
52.7521233
11
5.885095
21
52.8926788
0
LINE
8
DEFAULT_255_1_234
10
5.885095
20
52.8926788
11
6.2111836
21
52.8926788
0
LINE
8
DEFAULT_255_1_234
10
6.2111836
20
52.8926788
11
6.2111836
21
53.2340276
0
LINE
8
DEFAULT_255_1_234
10
6.2111836
20
53.2340276
11
6.3605739
21
53.2340276
0
LINE
8
DEFAULT_255_1_234
10
4.3183902
20
5.8098211
11
4.3183902
21
4.6404
0
LINE
8
DEFAULT_255_1_234
10
4.3183902
20
4.6404
11
4.1641808
21
4.6404
0
LINE
8
DEFAULT_255_1_234
10
4.1641808
20
4.6404
11
4.1641808
21
5.8098211
0
LINE
8
DEFAULT_255_1_234
10
4.1641808
20
5.8098211
11
4.3183902
21
5.8098211
0
LINE
8
DEFAULT_255_1_234
10
5.3279797
20
4.7616792
11
5.3279797
21
4.6404
0
LINE
8
DEFAULT_255_1_234
10
5.3279797
20
4.6404
11
4.5617519
21
4.6404
0
LINE
8
DEFAULT_255_1_234
10
4.5617519
20
4.6404
11
4.5617519
21
4.7472221
0
LINE
8
DEFAULT_255_1_234
10
4.5617519
20
4.7472221
11
4.9665515
21
5.1969995
0
LINE
8
DEFAULT_255_1_234
10
4.6878501
20
5.4652595
11
4.539263
21
5.4652595
0
LINE
8
DEFAULT_255_1_234
10
5.0540974
20
5.1014218
11
4.7408596
21
4.7616792
0
LINE
8
DEFAULT_255_1_234
10
4.7408596
20
4.7616792
11
5.3279797
21
4.7616792
0
ARC
8
DEFAULT_255_1_234
10
3.6175348
20
6.3899527
40
1.8008286
50
318.5132453
51
320.7828378
0
ARC
8
DEFAULT_255_1_234
10
4.1462322
20
5.9596426
40
1.1191493
50
320.7372736
51
323.9737074
0
ARC
8
DEFAULT_255_1_234
10
4.5382179
20
5.6756361
40
0.6350923
50
323.8961724
51
328.6421089
0
ARC
8
DEFAULT_255_1_234
10
4.7428774
20
5.5494031
40
0.3946393
50
328.8299013
51
331.789948
0
ARC
8
DEFAULT_255_1_234
10
4.8425953
20
5.4979509
40
0.2824501
50
331.4255242
51
352.9364833
0
ARC
8
DEFAULT_255_1_234
10
4.8562453
20
5.4948976
40
0.2685315
50
353.2248685
51
0.0169286
0
ARC
8
DEFAULT_255_1_234
10
4.877233
20
5.497195
40
0.2475536
50
359.4866256
51
15.9339782
0
ARC
8
DEFAULT_255_1_234
10
4.9279316
20
5.5108286
40
0.1950618
50
16.1714718
51
43.5284424
0
ARC
8
DEFAULT_255_1_234
10
4.9356624
20
5.5185573
40
0.184134
50
43.4415429
51
83.1661404
0
ARC
8
DEFAULT_255_1_234
10
4.9222542
20
5.4448771
40
0.258926
50
82.160215
51
90.1505798
0
ARC
8
DEFAULT_255_1_234
10
4.919097
20
5.3911865
40
0.3126255
50
89.5460705
51
102.5418777
0
ARC
8
DEFAULT_255_1_234
10
4.8948056
20
5.4942665
40
0.2067346
50
102.1739365
51
129.2061916
0
ARC
8
DEFAULT_255_1_234
10
4.8869127
20
5.5067094
40
0.1921118
50
129.7279328
51
135.7542026
0
ARC
8
DEFAULT_255_1_234
10
4.8990655
20
5.4970045
40
0.2075944
50
136.175737
51
166.3674722
0
ARC
8
DEFAULT_255_1_234
10
4.9997574
20
5.4700182
40
0.3118201
50
165.9092917
51
178.8683903
0
ARC
8
DEFAULT_255_1_234
10
5.0862436
20
5.4653179
40
0.3983935
50
178.438168
51
180.0083905
0
ARC
8
DEFAULT_255_1_234
10
4.9461038
20
5.4692231
40
0.4068601
50
163.2878735
51
180.5581814
0
ARC
8
DEFAULT_255_1_234
10
4.8659299
20
5.491284
40
0.3237344
50
133.454115
51
162.9470031
0
ARC
8
DEFAULT_255_1_234
10
4.8837841
20
5.4723
40
0.349795
50
100.7869394
51
133.4384016
0
ARC
8
DEFAULT_255_1_234
10
4.9185612
20
5.3174319
40
0.5084616
50
89.6605301
51
101.3704185
0
ARC
8
DEFAULT_255_1_234
10
4.9251951
20
5.3235496
40
0.502348
50
78.2171172
51
90.4130393
0
ARC
8
DEFAULT_255_1_234
10
4.9607029
20
5.4859637
40
0.3361092
50
55.9268222
51
78.4888551
0
ARC
8
DEFAULT_255_1_234
10
4.9803469
20
5.5198324
40
0.2970617
50
47.9292255
51
55.4054003
0
ARC
8
DEFAULT_255_1_234
10
4.990503
20
5.5301502
40
0.2825983
50
4.3347696
51
48.0560701
0
ARC
8
DEFAULT_255_1_234
10
4.8809424
20
5.5131601
40
0.393225
50
359.925209
51
5.5967654
0
ARC
8
DEFAULT_255_1_234
10
4.9238315
20
5.5187816
40
0.3503892
50
337.8914096
51
358.9967724
0
ARC
8
DEFAULT_255_1_234
10
4.6524727
20
5.6234706
40
0.6412172
50
326.9135351
51
338.3505194
0
ARC
8
DEFAULT_255_1_234
10
4.2539031
20
5.8789284
40
1.1146189
50
319.6472867
51
327.095818
0
ARC
8
DEFAULT_255_1_234
10
3.8706034
20
6.1951
40
1.6114559
50
317.2586784
51
319.9046139
0
ARC
8
DEFAULT_255_1_234
10
5.6109062
20
4.7192565
40
0.1070357
50
163.5417914
51
180.5078233
0
ARC
8
DEFAULT_255_1_234
10
5.5916881
20
4.7244421
40
0.0871371
50
138.1647447
51
163.2316401
0
ARC
8
DEFAULT_255_1_234
10
5.5804659
20
4.7339534
40
0.0724329
50
105.6856465
51
137.8494928
0
ARC
8
DEFAULT_255_1_234
10
5.5923091
20
4.6955129
40
0.1126485
50
92.6088068
51
106.1990587
0
ARC
8
DEFAULT_255_1_234
10
5.5953464
20
4.6559774
40
0.1522861
50
89.9660831
51
93.0733434
0
ARC
8
DEFAULT_255_1_234
10
5.5964159
20
4.678132
40
0.130135
50
78.4379222
51
90.4311858
0
ARC
8
DEFAULT_255_1_234
10
5.606074
20
4.7231588
40
0.0840873
50
56.8960528
51
78.7359558
0
ARC
8
DEFAULT_255_1_234
10
5.6123966
20
4.7341877
40
0.0713991
50
42.6499553
51
56.3125067
0
ARC
8
DEFAULT_255_1_234
10
5.5995853
20
4.7224146
40
0.0887984
50
3.8142714
51
42.6365749
0
ARC
8
DEFAULT_255_1_234
10
5.5709654
20
4.7184153
40
0.1176392
50
359.9476902
51
4.8305927
0
ARC
8
DEFAULT_255_1_234
10
5.5935814
20
4.7173541
40
0.0950282
50
340.9376387
51
0.5750546
0
ARC
8
DEFAULT_255_1_234
10
5.604831
20
4.7143192
40
0.0834082
50
316.0805399
51
340.3842391
0
ARC
8
DEFAULT_255_1_234
10
5.6106388
20
4.7089809
40
0.0755219
50
285.8514865
51
315.9414755
0
ARC
8
DEFAULT_255_1_234
10
5.5988959
20
4.7469349
40
0.115244
50
273.1292529
51
286.3135479
0
ARC
8
DEFAULT_255_1_234
10
5.5955658
20
4.7871049
40
0.1555398
50
269.9524064
51
273.5463789
0
ARC
8
DEFAULT_255_1_234
10
5.594461
20
4.7652792
40
0.1337177
50
259.0490813
51
270.4180302
0
ARC
8
DEFAULT_255_1_234
10
5.5848273
20
4.7175393
40
0.0850178
50
239.7587791
51
259.311372
0
ARC
8
DEFAULT_255_1_234
10
5.5767305
20
4.7024482
40
0.0679053
50
222.6244131
51
239.247817
0
ARC
8
DEFAULT_255_1_234
10
5.5901679
20
4.7147619
40
0.0861314
50
182.9227855
51
222.598345
0
ARC
8
DEFAULT_255_1_234
10
5.6170298
20
4.7182373
40
0.113155
50
179.9642935
51
183.9868025
0
LINE
8
DEFAULT_255_1_234
10
6.6845403
20
4.7616792
11
6.6845403
21
4.6404
0
LINE
8
DEFAULT_255_1_234
10
6.6845403
20
4.6404
11
5.9183125
21
4.6404
0
LINE
8
DEFAULT_255_1_234
10
5.9183125
20
4.6404
11
5.9183125
21
4.7472221
0
LINE
8
DEFAULT_255_1_234
10
5.9183125
20
4.7472221
11
6.3231121
21
5.1969995
0
LINE
8
DEFAULT_255_1_234
10
6.0444107
20
5.4652595
11
5.8958236
21
5.4652595
0
LINE
8
DEFAULT_255_1_234
10
6.410658
20
5.1014218
11
6.0974202
21
4.7616792
0
LINE
8
DEFAULT_255_1_234
10
6.0974202
20
4.7616792
11
6.6845403
21
4.7616792
0
ARC
8
DEFAULT_255_1_234
10
4.9740954
20
6.3899527
40
1.8008286
50
318.5132453
51
320.7828378
0
ARC
8
DEFAULT_255_1_234
10
5.5027928
20
5.9596426
40
1.1191493
50
320.7372736
51
323.9737074
0
ARC
8
DEFAULT_255_1_234
10
5.8947785
20
5.6756361
40
0.6350923
50
323.8961724
51
328.6421089
0
ARC
8
DEFAULT_255_1_234
10
6.099438
20
5.5494031
40
0.3946393
50
328.8299013
51
331.789948
0
ARC
8
DEFAULT_255_1_234
10
6.1991559
20
5.4979509
40
0.2824501
50
331.4255242
51
352.9364833
0
ARC
8
DEFAULT_255_1_234
10
6.2128059
20
5.4948976
40
0.2685315
50
353.2248685
51
0.0169286
0
ARC
8
DEFAULT_255_1_234
10
6.2337936
20
5.497195
40
0.2475536
50
359.4866256
51
15.9339782
0
ARC
8
DEFAULT_255_1_234
10
6.2844921
20
5.5108286
40
0.1950618
50
16.1714718
51
43.5284424
0
ARC
8
DEFAULT_255_1_234
10
6.292223
20
5.5185573
40
0.184134
50
43.4415429
51
83.1661404
0
ARC
8
DEFAULT_255_1_234
10
6.2788148
20
5.4448771
40
0.258926
50
82.160215
51
90.1505798
0
ARC
8
DEFAULT_255_1_234
10
6.2756576
20
5.3911865
40
0.3126255
50
89.5460705
51
102.5418777
0
ARC
8
DEFAULT_255_1_234
10
6.2513662
20
5.4942665
40
0.2067346
50
102.1739365
51
129.2061916
0
ARC
8
DEFAULT_255_1_234
10
6.2434733
20
5.5067094
40
0.1921118
50
129.7279328
51
135.7542026
0
ARC
8
DEFAULT_255_1_234
10
6.2556261
20
5.4970045
40
0.2075944
50
136.175737
51
166.3674722
0
ARC
8
DEFAULT_255_1_234
10
6.356318
20
5.4700182
40
0.3118201
50
165.9092917
51
178.8683903
0
ARC
8
DEFAULT_255_1_234
10
6.4428042
20
5.4653179
40
0.3983935
50
178.438168
51
180.0083905
0
ARC
8
DEFAULT_255_1_234
10
6.3026644
20
5.4692231
40
0.4068601
50
163.2878735
51
180.5581814
0
ARC
8
DEFAULT_255_1_234
10
6.2224905
20
5.491284
40
0.3237344
50
133.454115
51
162.9470031
0
ARC
8
DEFAULT_255_1_234
10
6.2403447
20
5.4723
40
0.349795
50
100.7869394
51
133.4384016
0
ARC
8
DEFAULT_255_1_234
10
6.2751218
20
5.3174319
40
0.5084616
50
89.6605301
51
101.3704185
0
ARC
8
DEFAULT_255_1_234
10
6.2817557
20
5.3235496
40
0.502348
50
78.2171172
51
90.4130393
0
ARC
8
DEFAULT_255_1_234
10
6.3172635
20
5.4859637
40
0.3361092
50
55.9268222
51
78.4888551
0
ARC
8
DEFAULT_255_1_234
10
6.3369075
20
5.5198324
40
0.2970617
50
47.9292255
51
55.4054003
0
ARC
8
DEFAULT_255_1_234
10
6.3470636
20
5.5301502
40
0.2825983
50
4.3347696
51
48.0560701
0
ARC
8
DEFAULT_255_1_234
10
6.237503
20
5.5131601
40
0.393225
50
359.925209
51
5.5967654
0
ARC
8
DEFAULT_255_1_234
10
6.2803921
20
5.5187816
40
0.3503892
50
337.8914096
51
358.9967724
0
ARC
8
DEFAULT_255_1_234
10
6.0090333
20
5.6234706
40
0.6412172
50
326.9135351
51
338.3505194
0
ARC
8
DEFAULT_255_1_234
10
5.6104637
20
5.8789284
40
1.1146189
50
319.6472867
51
327.095818
0
ARC
8
DEFAULT_255_1_234
10
5.227164
20
6.1951
40
1.6114559
50
317.2586784
51
319.9046139
0
LINE
8
DEFAULT_255_1_234
10
4.3098902
20
13.7473211
11
4.3098902
21
12.5779
0
LINE
8
DEFAULT_255_1_234
10
4.3098902
20
12.5779
11
4.1556808
21
12.5779
0
LINE
8
DEFAULT_255_1_234
10
4.1556808
20
12.5779
11
4.1556808
21
13.7473211
0
LINE
8
DEFAULT_255_1_234
10
4.1556808
20
13.7473211
11
4.3098902
21
13.7473211
0
LINE
8
DEFAULT_255_1_234
10
5.3194797
20
12.6991792
11
5.3194797
21
12.5779
0
LINE
8
DEFAULT_255_1_234
10
5.3194797
20
12.5779
11
4.5532519
21
12.5779
0
LINE
8
DEFAULT_255_1_234
10
4.5532519
20
12.5779
11
4.5532519
21
12.6847221
0
LINE
8
DEFAULT_255_1_234
10
4.5532519
20
12.6847221
11
4.9580515
21
13.1344995
0
LINE
8
DEFAULT_255_1_234
10
4.6793501
20
13.4027595
11
4.530763
21
13.4027595
0
LINE
8
DEFAULT_255_1_234
10
5.0455974
20
13.0389218
11
4.7323596
21
12.6991792
0
LINE
8
DEFAULT_255_1_234
10
4.7323596
20
12.6991792
11
5.3194797
21
12.6991792
0
ARC
8
DEFAULT_255_1_234
10
3.6090348
20
14.3274527
40
1.8008286
50
318.5132453
51
320.7828378
0
ARC
8
DEFAULT_255_1_234
10
4.1377322
20
13.8971426
40
1.1191493
50
320.7372736
51
323.9737074
0
ARC
8
DEFAULT_255_1_234
10
4.5297179
20
13.6131361
40
0.6350923
50
323.8961724
51
328.6421089
0
ARC
8
DEFAULT_255_1_234
10
4.7343774
20
13.4869031
40
0.3946393
50
328.8299013
51
331.789948
0
ARC
8
DEFAULT_255_1_234
10
4.8340953
20
13.4354509
40
0.2824501
50
331.4255242
51
352.9364833
0
ARC
8
DEFAULT_255_1_234
10
4.8477453
20
13.4323976
40
0.2685315
50
353.2248685
51
0.0169286
0
ARC
8
DEFAULT_255_1_234
10
4.868733
20
13.434695
40
0.2475536
50
359.4866256
51
15.9339782
0
ARC
8
DEFAULT_255_1_234
10
4.9194316
20
13.4483286
40
0.1950618
50
16.1714718
51
43.5284424
0
ARC
8
DEFAULT_255_1_234
10
4.9271624
20
13.4560573
40
0.184134
50
43.4415429
51
83.1661404
0
ARC
8
DEFAULT_255_1_234
10
4.9137542
20
13.3823771
40
0.258926
50
82.160215
51
90.1505798
0
ARC
8
DEFAULT_255_1_234
10
4.910597
20
13.3286865
40
0.3126255
50
89.5460705
51
102.5418777
0
ARC
8
DEFAULT_255_1_234
10
4.8863056
20
13.4317665
40
0.2067346
50
102.1739365
51
129.2061916
0
ARC
8
DEFAULT_255_1_234
10
4.8784127
20
13.4442094
40
0.1921118
50
129.7279328
51
135.7542026
0
ARC
8
DEFAULT_255_1_234
10
4.8905655
20
13.4345045
40
0.2075944
50
136.175737
51
166.3674722
0
ARC
8
DEFAULT_255_1_234
10
4.9912574
20
13.4075182
40
0.3118201
50
165.9092917
51
178.8683903
0
ARC
8
DEFAULT_255_1_234
10
5.0777436
20
13.4028179
40
0.3983935
50
178.438168
51
180.0083905
0
ARC
8
DEFAULT_255_1_234
10
4.9376038
20
13.4067231
40
0.4068601
50
163.2878735
51
180.5581814
0
ARC
8
DEFAULT_255_1_234
10
4.8574299
20
13.428784
40
0.3237344
50
133.454115
51
162.9470031
0
ARC
8
DEFAULT_255_1_234
10
4.8752841
20
13.4098
40
0.349795
50
100.7869394
51
133.4384016
0
ARC
8
DEFAULT_255_1_234
10
4.9100612
20
13.2549319
40
0.5084616
50
89.6605301
51
101.3704185
0
ARC
8
DEFAULT_255_1_234
10
4.9166951
20
13.2610496
40
0.502348
50
78.2171172
51
90.4130393
0
ARC
8
DEFAULT_255_1_234
10
4.9522029
20
13.4234637
40
0.3361092
50
55.9268222
51
78.4888551
0
ARC
8
DEFAULT_255_1_234
10
4.9718469
20
13.4573324
40
0.2970617
50
47.9292255
51
55.4054003
0
ARC
8
DEFAULT_255_1_234
10
4.982003
20
13.4676502
40
0.2825983
50
4.3347696
51
48.0560701
0
ARC
8
DEFAULT_255_1_234
10
4.8724424
20
13.4506601
40
0.393225
50
359.925209
51
5.5967654
0
ARC
8
DEFAULT_255_1_234
10
4.9153315
20
13.4562816
40
0.3503892
50
337.8914096
51
358.9967724
0
ARC
8
DEFAULT_255_1_234
10
4.6439727
20
13.5609706
40
0.6412172
50
326.9135351
51
338.3505194
0
ARC
8
DEFAULT_255_1_234
10
4.2454031
20
13.8164284
40
1.1146189
50
319.6472867
51
327.095818
0
ARC
8
DEFAULT_255_1_234
10
3.8621034
20
14.1326
40
1.6114559
50
317.2586784
51
319.9046139
0
ARC
8
DEFAULT_255_1_234
10
5.6024062
20
12.6567565
40
0.1070357
50
163.5417914
51
180.5078233
0
ARC
8
DEFAULT_255_1_234
10
5.5831881
20
12.6619421
40
0.0871371
50
138.1647447
51
163.2316401
0
ARC
8
DEFAULT_255_1_234
10
5.5719659
20
12.6714534
40
0.0724329
50
105.6856465
51
137.8494928
0
ARC
8
DEFAULT_255_1_234
10
5.5838091
20
12.6330129
40
0.1126485
50
92.6088068
51
106.1990587
0
ARC
8
DEFAULT_255_1_234
10
5.5868464
20
12.5934774
40
0.1522861
50
89.9660831
51
93.0733434
0
ARC
8
DEFAULT_255_1_234
10
5.5879159
20
12.615632
40
0.130135
50
78.4379222
51
90.4311858
0
ARC
8
DEFAULT_255_1_234
10
5.597574
20
12.6606588
40
0.0840873
50
56.8960528
51
78.7359558
0
ARC
8
DEFAULT_255_1_234
10
5.6038966
20
12.6716877
40
0.0713991
50
42.6499553
51
56.3125067
0
ARC
8
DEFAULT_255_1_234
10
5.5910853
20
12.6599146
40
0.0887984
50
3.8142714
51
42.6365749
0
ARC
8
DEFAULT_255_1_234
10
5.5624654
20
12.6559153
40
0.1176392
50
359.9476902
51
4.8305927
0
ARC
8
DEFAULT_255_1_234
10
5.5850814
20
12.6548541
40
0.0950282
50
340.9376387
51
0.5750546
0
ARC
8
DEFAULT_255_1_234
10
5.596331
20
12.6518192
40
0.0834082
50
316.0805399
51
340.3842391
0
ARC
8
DEFAULT_255_1_234
10
5.6021388
20
12.6464809
40
0.0755219
50
285.8514865
51
315.9414755
0
ARC
8
DEFAULT_255_1_234
10
5.5903959
20
12.6844349
40
0.115244
50
273.1292529
51
286.3135479
0
ARC
8
DEFAULT_255_1_234
10
5.5870658
20
12.7246049
40
0.1555398
50
269.9524064
51
273.5463789
0
ARC
8
DEFAULT_255_1_234
10
5.585961
20
12.7027792
40
0.1337177
50
259.0490813
51
270.4180302
0
ARC
8
DEFAULT_255_1_234
10
5.5763273
20
12.6550393
40
0.0850178
50
239.7587791
51
259.311372
0
ARC
8
DEFAULT_255_1_234
10
5.5682305
20
12.6399482
40
0.0679053
50
222.6244131
51
239.247817
0
ARC
8
DEFAULT_255_1_234
10
5.5816679
20
12.6522619
40
0.0861314
50
182.9227855
51
222.598345
0
ARC
8
DEFAULT_255_1_234
10
5.6085298
20
12.6557373
40
0.113155
50
179.9642935
51
183.9868025
0
LINE
8
DEFAULT_255_1_234
10
6.3981421
20
13.7529433
11
6.3981421
21
12.5779
0
LINE
8
DEFAULT_255_1_234
10
6.3981421
20
12.5779
11
6.2487518
21
12.5779
0
LINE
8
DEFAULT_255_1_234
10
6.2487518
20
12.5779
11
6.2487518
21
13.5682133
0
LINE
8
DEFAULT_255_1_234
10
6.2487518
20
13.5682133
11
5.949168
21
13.4581785
0
LINE
8
DEFAULT_255_1_234
10
5.949168
20
13.4581785
11
5.949168
21
13.5931117
0
LINE
8
DEFAULT_255_1_234
10
5.949168
20
13.5931117
11
6.3748501
21
13.7529433
0
LINE
8
DEFAULT_255_1_234
10
6.3748501
20
13.7529433
11
6.3981421
21
13.7529433
0
LINE
8
DEFAULT_255_1_234
10
4.3183902
20
21.6848211
11
4.3183902
21
20.5154
0
LINE
8
DEFAULT_255_1_234
10
4.3183902
20
20.5154
11
4.1641808
21
20.5154
0
LINE
8
DEFAULT_255_1_234
10
4.1641808
20
20.5154
11
4.1641808
21
21.6848211
0
LINE
8
DEFAULT_255_1_234
10
4.1641808
20
21.6848211
11
4.3183902
21
21.6848211
0
LINE
8
DEFAULT_255_1_234
10
5.3279797
20
20.6366792
11
5.3279797
21
20.5154
0
LINE
8
DEFAULT_255_1_234
10
5.3279797
20
20.5154
11
4.5617519
21
20.5154
0
LINE
8
DEFAULT_255_1_234
10
4.5617519
20
20.5154
11
4.5617519
21
20.6222221
0
LINE
8
DEFAULT_255_1_234
10
4.5617519
20
20.6222221
11
4.9665515
21
21.0719995
0
LINE
8
DEFAULT_255_1_234
10
4.6878501
20
21.3402595
11
4.539263
21
21.3402595
0
LINE
8
DEFAULT_255_1_234
10
5.0540974
20
20.9764218
11
4.7408596
21
20.6366792
0
LINE
8
DEFAULT_255_1_234
10
4.7408596
20
20.6366792
11
5.3279797
21
20.6366792
0
ARC
8
DEFAULT_255_1_234
10
3.6175348
20
22.2649527
40
1.8008286
50
318.5132453
51
320.7828378
0
ARC
8
DEFAULT_255_1_234
10
4.1462322
20
21.8346426
40
1.1191493
50
320.7372736
51
323.9737074
0
ARC
8
DEFAULT_255_1_234
10
4.5382179
20
21.5506361
40
0.6350923
50
323.8961724
51
328.6421089
0
ARC
8
DEFAULT_255_1_234
10
4.7428774
20
21.4244031
40
0.3946393
50
328.8299013
51
331.789948
0
ARC
8
DEFAULT_255_1_234
10
4.8425953
20
21.3729509
40
0.2824501
50
331.4255242
51
352.9364833
0
ARC
8
DEFAULT_255_1_234
10
4.8562453
20
21.3698976
40
0.2685315
50
353.2248685
51
0.0169286
0
ARC
8
DEFAULT_255_1_234
10
4.877233
20
21.372195
40
0.2475536
50
359.4866256
51
15.9339782
0
ARC
8
DEFAULT_255_1_234
10
4.9279316
20
21.3858286
40
0.1950618
50
16.1714718
51
43.5284424
0
ARC
8
DEFAULT_255_1_234
10
4.9356624
20
21.3935573
40
0.184134
50
43.4415429
51
83.1661404
0
ARC
8
DEFAULT_255_1_234
10
4.9222542
20
21.3198771
40
0.258926
50
82.160215
51
90.1505798
0
ARC
8
DEFAULT_255_1_234
10
4.919097
20
21.2661865
40
0.3126255
50
89.5460705
51
102.5418777
0
ARC
8
DEFAULT_255_1_234
10
4.8948056
20
21.3692665
40
0.2067346
50
102.1739365
51
129.2061916
0
ARC
8
DEFAULT_255_1_234
10
4.8869127
20
21.3817094
40
0.1921118
50
129.7279328
51
135.7542026
0
ARC
8
DEFAULT_255_1_234
10
4.8990655
20
21.3720045
40
0.2075944
50
136.175737
51
166.3674722
0
ARC
8
DEFAULT_255_1_234
10
4.9997574
20
21.3450182
40
0.3118201
50
165.9092917
51
178.8683903
0
ARC
8
DEFAULT_255_1_234
10
5.0862436
20
21.3403179
40
0.3983935
50
178.438168
51
180.0083905
0
ARC
8
DEFAULT_255_1_234
10
4.9461038
20
21.3442231
40
0.4068601
50
163.2878735
51
180.5581814
0
ARC
8
DEFAULT_255_1_234
10
4.8659299
20
21.366284
40
0.3237344
50
133.454115
51
162.9470031
0
ARC
8
DEFAULT_255_1_234
10
4.8837841
20
21.3473
40
0.349795
50
100.7869394
51
133.4384016
0
ARC
8
DEFAULT_255_1_234
10
4.9185612
20
21.1924319
40
0.5084616
50
89.6605301
51
101.3704185
0
ARC
8
DEFAULT_255_1_234
10
4.9251951
20
21.1985496
40
0.502348
50
78.2171172
51
90.4130393
0
ARC
8
DEFAULT_255_1_234
10
4.9607029
20
21.3609637
40
0.3361092
50
55.9268222
51
78.4888551
0
ARC
8
DEFAULT_255_1_234
10
4.9803469
20
21.3948324
40
0.2970617
50
47.9292255
51
55.4054003
0
ARC
8
DEFAULT_255_1_234
10
4.990503
20
21.4051502
40
0.2825983
50
4.3347696
51
48.0560701
0
ARC
8
DEFAULT_255_1_234
10
4.8809424
20
21.3881601
40
0.393225
50
359.925209
51
5.5967654
0
ARC
8
DEFAULT_255_1_234
10
4.9238315
20
21.3937816
40
0.3503892
50
337.8914096
51
358.9967724
0
ARC
8
DEFAULT_255_1_234
10
4.6524727
20
21.4984706
40
0.6412172
50
326.9135351
51
338.3505194
0
ARC
8
DEFAULT_255_1_234
10
4.2539031
20
21.7539284
40
1.1146189
50
319.6472867
51
327.095818
0
ARC
8
DEFAULT_255_1_234
10
3.8706034
20
22.0701
40
1.6114559
50
317.2586784
51
319.9046139
0
ARC
8
DEFAULT_255_1_234
10
5.6109062
20
20.5942565
40
0.1070357
50
163.5417914
51
180.5078233
0
ARC
8
DEFAULT_255_1_234
10
5.5916881
20
20.5994421
40
0.0871371
50
138.1647447
51
163.2316401
0
ARC
8
DEFAULT_255_1_234
10
5.5804659
20
20.6089534
40
0.0724329
50
105.6856465
51
137.8494928
0
ARC
8
DEFAULT_255_1_234
10
5.5923091
20
20.5705129
40
0.1126485
50
92.6088068
51
106.1990587
0
ARC
8
DEFAULT_255_1_234
10
5.5953464
20
20.5309774
40
0.1522861
50
89.9660831
51
93.0733434
0
ARC
8
DEFAULT_255_1_234
10
5.5964159
20
20.553132
40
0.130135
50
78.4379222
51
90.4311858
0
ARC
8
DEFAULT_255_1_234
10
5.606074
20
20.5981588
40
0.0840873
50
56.8960528
51
78.7359558
0
ARC
8
DEFAULT_255_1_234
10
5.6123966
20
20.6091877
40
0.0713991
50
42.6499553
51
56.3125067
0
ARC
8
DEFAULT_255_1_234
10
5.5995853
20
20.5974146
40
0.0887984
50
3.8142714
51
42.6365749
0
ARC
8
DEFAULT_255_1_234
10
5.5709654
20
20.5934153
40
0.1176392
50
359.9476902
51
4.8305927
0
ARC
8
DEFAULT_255_1_234
10
5.5935814
20
20.5923541
40
0.0950282
50
340.9376387
51
0.5750546
0
ARC
8
DEFAULT_255_1_234
10
5.604831
20
20.5893192
40
0.0834082
50
316.0805399
51
340.3842391
0
ARC
8
DEFAULT_255_1_234
10
5.6106388
20
20.5839809
40
0.0755219
50
285.8514865
51
315.9414755
0
ARC
8
DEFAULT_255_1_234
10
5.5988959
20
20.6219349
40
0.115244
50
273.1292529
51
286.3135479
0
ARC
8
DEFAULT_255_1_234
10
5.5955658
20
20.6621049
40
0.1555398
50
269.9524064
51
273.5463789
0
ARC
8
DEFAULT_255_1_234
10
5.594461
20
20.6402792
40
0.1337177
50
259.0490813
51
270.4180302
0
ARC
8
DEFAULT_255_1_234
10
5.5848273
20
20.5925393
40
0.0850178
50
239.7587791
51
259.311372
0
ARC
8
DEFAULT_255_1_234
10
5.5767305
20
20.5774482
40
0.0679053
50
222.6244131
51
239.247817
0
ARC
8
DEFAULT_255_1_234
10
5.5901679
20
20.5897619
40
0.0861314
50
182.9227855
51
222.598345
0
ARC
8
DEFAULT_255_1_234
10
5.6170298
20
20.5932373
40
0.113155
50
179.9642935
51
183.9868025
0
LINE
8
DEFAULT_255_1_234
10
6.6516102
20
21.2069327
11
6.6516102
21
21.0141709
0
LINE
8
DEFAULT_255_1_234
10
5.9134934
20
20.9940916
11
5.9134934
21
21.1924755
0
LINE
8
DEFAULT_255_1_234
10
6.503023
20
20.9740123
11
6.503023
21
21.2173739
0
LINE
8
DEFAULT_255_1_234
10
6.0620806
20
21.2286184
11
6.0620806
21
20.9908789
0
ARC
8
DEFAULT_255_1_234
10
5.4268991
20
21.0092805
40
1.2247208
50
353.8441951
51
0.2287902
0
ARC
8
DEFAULT_255_1_234
10
5.8908495
20
20.9574806
40
0.7578929
50
344.4934747
51
353.9765454
0
ARC
8
DEFAULT_255_1_234
10
6.1901085
20
20.8723981
40
0.4467846
50
329.2803592
51
344.7472793
0
ARC
8
DEFAULT_255_1_234
10
6.289391
20
20.8179018
40
0.3336173
50
324.9352394
51
328.6160465
0
ARC
8
DEFAULT_255_1_234
10
6.3271019
20
20.7915427
40
0.2876076
50
280.580143
51
324.9173126
0
ARC
8
DEFAULT_255_1_234
10
6.2869811
20
20.9586099
40
0.4592847
50
269.5977311
51
281.6734359
0
ARC
8
DEFAULT_255_1_234
10
6.2797717
20
20.9466173
40
0.4472986
50
256.6228859
51
270.51044
0
ARC
8
DEFAULT_255_1_234
10
6.2395695
20
20.7917877
40
0.2873874
50
215.8618325
51
257.2788573
0
ARC
8
DEFAULT_255_1_234
10
6.3416726
20
20.8602977
40
0.4102928
50
197.9693508
51
215.2623606
0
ARC
8
DEFAULT_255_1_234
10
6.5901842
20
20.9441709
40
0.6725652
50
187.8816417
51
198.2346507
0
ARC
8
DEFAULT_255_1_234
10
6.986005
20
21.0013079
40
1.0724845
50
180.8976217
51
188.0055519
0
ARC
8
DEFAULT_255_1_234
10
7.2660238
20
21.0116777
40
1.3526448
50
180.7449369
51
181.1510016
0
ARC
8
DEFAULT_255_1_234
10
7.1082967
20
21.1973042
40
1.1948131
50
173.7675579
51
180.231553
0
ARC
8
DEFAULT_255_1_234
10
6.6565114
20
21.2483666
40
0.7401564
50
164.3058563
51
173.9002247
0
ARC
8
DEFAULT_255_1_234
10
6.3653183
20
21.3322656
40
0.4371288
50
148.7922025
51
164.568378
0
ARC
8
DEFAULT_255_1_234
10
6.2701635
20
21.3853929
40
0.3282386
50
144.5883898
51
148.1176286
0
ARC
8
DEFAULT_255_1_234
10
6.2358533
20
21.4093315
40
0.2864044
50
101.6440918
51
144.514236
0
ARC
8
DEFAULT_255_1_234
10
6.27836
20
21.2404069
40
0.4604934
50
89.5284041
51
102.5819763
0
ARC
8
DEFAULT_255_1_234
10
6.2862687
20
21.2365018
40
0.464401
50
77.0437873
51
90.5081339
0
ARC
8
DEFAULT_255_1_234
10
6.3264689
20
21.4007615
40
0.2953195
50
48.2778575
51
77.4994676
0
ARC
8
DEFAULT_255_1_234
10
6.333732
20
21.4136746
40
0.2808655
50
36.3142134
51
47.6305865
0
ARC
8
DEFAULT_255_1_234
10
6.2468627
20
21.3551515
40
0.3855453
50
18.2931786
51
35.6769206
0
ARC
8
DEFAULT_255_1_234
10
5.9925386
20
21.2678593
40
0.654423
50
8.024666
51
18.5605216
0
ARC
8
DEFAULT_255_1_234
10
5.5762306
20
21.2063792
40
1.0752407
50
1.1274072
51
8.1718305
0
ARC
8
DEFAULT_255_1_234
10
5.2526497
20
21.1936885
40
1.3990231
50
0.5424119
51
1.3863029
0
ARC
8
DEFAULT_255_1_234
10
5.4347875
20
21.2209342
40
1.0682415
50
359.8090433
51
4.9407866
0
ARC
8
DEFAULT_255_1_234
10
5.8557889
20
21.2585113
40
0.6455691
50
4.8362157
51
12.2904523
0
ARC
8
DEFAULT_255_1_234
10
6.1313003
20
21.3198965
40
0.3633074
50
12.0805627
51
23.8173984
0
ARC
8
DEFAULT_255_1_234
10
6.2486709
20
21.3695919
40
0.2358723
50
24.2871213
51
31.3935614
0
ARC
8
DEFAULT_255_1_234
10
6.3011406
20
21.4039233
40
0.1732111
50
30.7407893
51
82.4657128
0
ARC
8
DEFAULT_255_1_234
10
6.283154
20
21.3155691
40
0.263235
50
81.1060089
51
90.2184952
0
ARC
8
DEFAULT_255_1_234
10
6.2795839
20
21.3413924
40
0.2374236
50
89.3806855
51
105.6762551
0
ARC
8
DEFAULT_255_1_234
10
6.261247
20
21.4080567
40
0.1682847
50
105.7981136
51
149.7388061
0
ARC
8
DEFAULT_255_1_234
10
6.3676548
20
21.344095
40
0.2924306
50
149.4208916
51
163.6286378
0
ARC
8
DEFAULT_255_1_234
10
6.5767436
20
21.280325
40
0.5110213
50
163.3763315
51
172.1410975
0
ARC
8
DEFAULT_255_1_234
10
6.9068155
20
21.2330518
40
0.8444586
50
172.0259487
51
178.0703232
0
ARC
8
DEFAULT_255_1_234
10
7.2098245
20
21.2186906
40
1.1477868
50
177.8631668
51
179.5044149
0
ARC
8
DEFAULT_255_1_234
10
7.1025649
20
20.9872389
40
1.0404907
50
179.7995573
51
185.2460446
0
ARC
8
DEFAULT_255_1_234
10
6.6982688
20
20.9489513
40
0.6343885
50
185.1411642
51
193.0079639
0
ARC
8
DEFAULT_255_1_234
10
6.4339161
20
20.8864641
40
0.3627568
50
192.7897626
51
205.2507664
0
ARC
8
DEFAULT_255_1_234
10
6.3292708
20
20.8397415
40
0.2481908
50
205.8005384
51
211.2537509
0
ARC
8
DEFAULT_255_1_234
10
6.2769148
20
20.804658
40
0.1852521
50
210.3789793
51
238.4008143
0
ARC
8
DEFAULT_255_1_234
10
6.274967
20
20.8093376
40
0.1882621
50
239.6520629
51
265.9793761
0
ARC
8
DEFAULT_255_1_234
10
6.2834871
20
20.8765427
40
0.2559272
50
265.1315437
51
270.060332
0
ARC
8
DEFAULT_255_1_234
10
6.2863649
20
20.8441534
40
0.2235528
50
269.3314664
51
287.2178029
0
ARC
8
DEFAULT_255_1_234
10
6.3001501
20
20.7938279
40
0.1714108
50
287.7958004
51
329.080874
0
ARC
8
DEFAULT_255_1_234
10
6.2043958
20
20.853593
40
0.2842745
50
328.6634704
51
343.3325132
0
ARC
8
DEFAULT_255_1_234
10
5.9870978
20
20.9212863
40
0.5118644
50
343.0499468
51
351.9393422
0
ARC
8
DEFAULT_255_1_234
10
5.6404278
20
20.9723949
40
0.8622784
50
351.8069023
51
357.7959224
0
ARC
8
DEFAULT_255_1_234
10
5.3168834
20
20.9891721
40
1.1862365
50
357.5871873
51
359.2677531
0
LINE
8
DEFAULT_255_1_234
10
4.3183902
20
29.6223211
11
4.3183902
21
28.4529
0
LINE
8
DEFAULT_255_1_234
10
4.3183902
20
28.4529
11
4.1641808
21
28.4529
0
LINE
8
DEFAULT_255_1_234
10
4.1641808
20
28.4529
11
4.1641808
21
29.6223211
0
LINE
8
DEFAULT_255_1_234
10
4.1641808
20
29.6223211
11
4.3183902
21
29.6223211
0
LINE
8
DEFAULT_255_1_234
10
5.0500815
20
29.6279433
11
5.0500815
21
28.4529
0
LINE
8
DEFAULT_255_1_234
10
5.0500815
20
28.4529
11
4.9006912
21
28.4529
0
LINE
8
DEFAULT_255_1_234
10
4.9006912
20
28.4529
11
4.9006912
21
29.4432133
0
LINE
8
DEFAULT_255_1_234
10
4.9006912
20
29.4432133
11
4.6011074
21
29.3331785
0
LINE
8
DEFAULT_255_1_234
10
4.6011074
20
29.3331785
11
4.6011074
21
29.4681117
0
LINE
8
DEFAULT_255_1_234
10
4.6011074
20
29.4681117
11
5.0267895
21
29.6279433
0
LINE
8
DEFAULT_255_1_234
10
5.0267895
20
29.6279433
11
5.0500815
21
29.6279433
0
ARC
8
DEFAULT_255_1_234
10
5.6109062
20
28.5317565
40
0.1070357
50
163.5417914
51
180.5078233
0
ARC
8
DEFAULT_255_1_234
10
5.5916881
20
28.5369421
40
0.0871371
50
138.1647447
51
163.2316401
0
ARC
8
DEFAULT_255_1_234
10
5.5804659
20
28.5464534
40
0.0724329
50
105.6856465
51
137.8494928
0
ARC
8
DEFAULT_255_1_234
10
5.5923091
20
28.5080129
40
0.1126485
50
92.6088068
51
106.1990587
0
ARC
8
DEFAULT_255_1_234
10
5.5953464
20
28.4684774
40
0.1522861
50
89.9660831
51
93.0733434
0
ARC
8
DEFAULT_255_1_234
10
5.5964159
20
28.490632
40
0.130135
50
78.4379222
51
90.4311858
0
ARC
8
DEFAULT_255_1_234
10
5.606074
20
28.5356588
40
0.0840873
50
56.8960528
51
78.7359558
0
ARC
8
DEFAULT_255_1_234
10
5.6123966
20
28.5466877
40
0.0713991
50
42.6499553
51
56.3125067
0
ARC
8
DEFAULT_255_1_234
10
5.5995853
20
28.5349146
40
0.0887984
50
3.8142714
51
42.6365749
0
ARC
8
DEFAULT_255_1_234
10
5.5709654
20
28.5309153
40
0.1176392
50
359.9476902
51
4.8305927
0
ARC
8
DEFAULT_255_1_234
10
5.5935814
20
28.5298541
40
0.0950282
50
340.9376387
51
0.5750546
0
ARC
8
DEFAULT_255_1_234
10
5.604831
20
28.5268192
40
0.0834082
50
316.0805399
51
340.3842391
0
ARC
8
DEFAULT_255_1_234
10
5.6106388
20
28.5214809
40
0.0755219
50
285.8514865
51
315.9414755
0
ARC
8
DEFAULT_255_1_234
10
5.5988959
20
28.5594349
40
0.115244
50
273.1292529
51
286.3135479
0
ARC
8
DEFAULT_255_1_234
10
5.5955658
20
28.5996049
40
0.1555398
50
269.9524064
51
273.5463789
0
ARC
8
DEFAULT_255_1_234
10
5.594461
20
28.5777792
40
0.1337177
50
259.0490813
51
270.4180302
0
ARC
8
DEFAULT_255_1_234
10
5.5848273
20
28.5300393
40
0.0850178
50
239.7587791
51
259.311372
0
ARC
8
DEFAULT_255_1_234
10
5.5767305
20
28.5149482
40
0.0679053
50
222.6244131
51
239.247817
0
ARC
8
DEFAULT_255_1_234
10
5.5901679
20
28.5272619
40
0.0861314
50
182.9227855
51
222.598345
0
ARC
8
DEFAULT_255_1_234
10
5.6170298
20
28.5307373
40
0.113155
50
179.9642935
51
183.9868025
0
LINE
8
DEFAULT_255_1_234
10
6.6845403
20
28.5741792
11
6.6845403
21
28.4529
0
LINE
8
DEFAULT_255_1_234
10
6.6845403
20
28.4529
11
5.9183125
21
28.4529
0
LINE
8
DEFAULT_255_1_234
10
5.9183125
20
28.4529
11
5.9183125
21
28.5597221
0
LINE
8
DEFAULT_255_1_234
10
5.9183125
20
28.5597221
11
6.3231121
21
29.0094995
0
LINE
8
DEFAULT_255_1_234
10
6.0444107
20
29.2777595
11
5.8958236
21
29.2777595
0
LINE
8
DEFAULT_255_1_234
10
6.410658
20
28.9139218
11
6.0974202
21
28.5741792
0
LINE
8
DEFAULT_255_1_234
10
6.0974202
20
28.5741792
11
6.6845403
21
28.5741792
0
ARC
8
DEFAULT_255_1_234
10
4.9740954
20
30.2024527
40
1.8008286
50
318.5132453
51
320.7828378
0
ARC
8
DEFAULT_255_1_234
10
5.5027928
20
29.7721426
40
1.1191493
50
320.7372736
51
323.9737074
0
ARC
8
DEFAULT_255_1_234
10
5.8947785
20
29.4881361
40
0.6350923
50
323.8961724
51
328.6421089
0
ARC
8
DEFAULT_255_1_234
10
6.099438
20
29.3619031
40
0.3946393
50
328.8299013
51
331.789948
0
ARC
8
DEFAULT_255_1_234
10
6.1991559
20
29.3104509
40
0.2824501
50
331.4255242
51
352.9364833
0
ARC
8
DEFAULT_255_1_234
10
6.2128059
20
29.3073976
40
0.2685315
50
353.2248685
51
0.0169286
0
ARC
8
DEFAULT_255_1_234
10
6.2337936
20
29.309695
40
0.2475536
50
359.4866256
51
15.9339782
0
ARC
8
DEFAULT_255_1_234
10
6.2844921
20
29.3233286
40
0.1950618
50
16.1714718
51
43.5284424
0
ARC
8
DEFAULT_255_1_234
10
6.292223
20
29.3310573
40
0.184134
50
43.4415429
51
83.1661404
0
ARC
8
DEFAULT_255_1_234
10
6.2788148
20
29.2573771
40
0.258926
50
82.160215
51
90.1505798
0
ARC
8
DEFAULT_255_1_234
10
6.2756576
20
29.2036865
40
0.3126255
50
89.5460705
51
102.5418777
0
ARC
8
DEFAULT_255_1_234
10
6.2513662
20
29.3067665
40
0.2067346
50
102.1739365
51
129.2061916
0
ARC
8
DEFAULT_255_1_234
10
6.2434733
20
29.3192094
40
0.1921118
50
129.7279328
51
135.7542026
0
ARC
8
DEFAULT_255_1_234
10
6.2556261
20
29.3095045
40
0.2075944
50
136.175737
51
166.3674722
0
ARC
8
DEFAULT_255_1_234
10
6.356318
20
29.2825182
40
0.3118201
50
165.9092917
51
178.8683903
0
ARC
8
DEFAULT_255_1_234
10
6.4428042
20
29.2778179
40
0.3983935
50
178.438168
51
180.0083905
0
ARC
8
DEFAULT_255_1_234
10
6.3026644
20
29.2817231
40
0.4068601
50
163.2878735
51
180.5581814
0
ARC
8
DEFAULT_255_1_234
10
6.2224905
20
29.303784
40
0.3237344
50
133.454115
51
162.9470031
0
ARC
8
DEFAULT_255_1_234
10
6.2403447
20
29.2848
40
0.349795
50
100.7869394
51
133.4384016
0
ARC
8
DEFAULT_255_1_234
10
6.2751218
20
29.1299319
40
0.5084616
50
89.6605301
51
101.3704185
0
ARC
8
DEFAULT_255_1_234
10
6.2817557
20
29.1360496
40
0.502348
50
78.2171172
51
90.4130393
0
ARC
8
DEFAULT_255_1_234
10
6.3172635
20
29.2984637
40
0.3361092
50
55.9268222
51
78.4888551
0
ARC
8
DEFAULT_255_1_234
10
6.3369075
20
29.3323324
40
0.2970617
50
47.9292255
51
55.4054003
0
ARC
8
DEFAULT_255_1_234
10
6.3470636
20
29.3426502
40
0.2825983
50
4.3347696
51
48.0560701
0
ARC
8
DEFAULT_255_1_234
10
6.237503
20
29.3256601
40
0.393225
50
359.925209
51
5.5967654
0
ARC
8
DEFAULT_255_1_234
10
6.2803921
20
29.3312816
40
0.3503892
50
337.8914096
51
358.9967724
0
ARC
8
DEFAULT_255_1_234
10
6.0090333
20
29.4359706
40
0.6412172
50
326.9135351
51
338.3505194
0
ARC
8
DEFAULT_255_1_234
10
5.6104637
20
29.6914284
40
1.1146189
50
319.6472867
51
327.095818
0
ARC
8
DEFAULT_255_1_234
10
5.227164
20
30.0076
40
1.6114559
50
317.2586784
51
319.9046139
0
LINE
8
DEFAULT_255_1_234
10
4.3098902
20
37.5598211
11
4.3098902
21
36.3904
0
LINE
8
DEFAULT_255_1_234
10
4.3098902
20
36.3904
11
4.1556808
21
36.3904
0
LINE
8
DEFAULT_255_1_234
10
4.1556808
20
36.3904
11
4.1556808
21
37.5598211
0
LINE
8
DEFAULT_255_1_234
10
4.1556808
20
37.5598211
11
4.3098902
21
37.5598211
0
LINE
8
DEFAULT_255_1_234
10
5.0415815
20
37.5654433
11
5.0415815
21
36.3904
0
LINE
8
DEFAULT_255_1_234
10
5.0415815
20
36.3904
11
4.8921912
21
36.3904
0
LINE
8
DEFAULT_255_1_234
10
4.8921912
20
36.3904
11
4.8921912
21
37.3807133
0
LINE
8
DEFAULT_255_1_234
10
4.8921912
20
37.3807133
11
4.5926074
21
37.2706785
0
LINE
8
DEFAULT_255_1_234
10
4.5926074
20
37.2706785
11
4.5926074
21
37.4056117
0
LINE
8
DEFAULT_255_1_234
10
4.5926074
20
37.4056117
11
5.0182895
21
37.5654433
0
LINE
8
DEFAULT_255_1_234
10
5.0182895
20
37.5654433
11
5.0415815
21
37.5654433
0
ARC
8
DEFAULT_255_1_234
10
5.6024062
20
36.4692565
40
0.1070357
50
163.5417914
51
180.5078233
0
ARC
8
DEFAULT_255_1_234
10
5.5831881
20
36.4744421
40
0.0871371
50
138.1647447
51
163.2316401
0
ARC
8
DEFAULT_255_1_234
10
5.5719659
20
36.4839534
40
0.0724329
50
105.6856465
51
137.8494928
0
ARC
8
DEFAULT_255_1_234
10
5.5838091
20
36.4455129
40
0.1126485
50
92.6088068
51
106.1990587
0
ARC
8
DEFAULT_255_1_234
10
5.5868464
20
36.4059774
40
0.1522861
50
89.9660831
51
93.0733434
0
ARC
8
DEFAULT_255_1_234
10
5.5879159
20
36.428132
40
0.130135
50
78.4379222
51
90.4311858
0
ARC
8
DEFAULT_255_1_234
10
5.597574
20
36.4731588
40
0.0840873
50
56.8960528
51
78.7359558
0
ARC
8
DEFAULT_255_1_234
10
5.6038966
20
36.4841877
40
0.0713991
50
42.6499553
51
56.3125067
0
ARC
8
DEFAULT_255_1_234
10
5.5910853
20
36.4724146
40
0.0887984
50
3.8142714
51
42.6365749
0
ARC
8
DEFAULT_255_1_234
10
5.5624654
20
36.4684153
40
0.1176392
50
359.9476902
51
4.8305927
0
ARC
8
DEFAULT_255_1_234
10
5.5850814
20
36.4673541
40
0.0950282
50
340.9376387
51
0.5750546
0
ARC
8
DEFAULT_255_1_234
10
5.596331
20
36.4643192
40
0.0834082
50
316.0805399
51
340.3842391
0
ARC
8
DEFAULT_255_1_234
10
5.6021388
20
36.4589809
40
0.0755219
50
285.8514865
51
315.9414755
0
ARC
8
DEFAULT_255_1_234
10
5.5903959
20
36.4969349
40
0.115244
50
273.1292529
51
286.3135479
0
ARC
8
DEFAULT_255_1_234
10
5.5870658
20
36.5371049
40
0.1555398
50
269.9524064
51
273.5463789
0
ARC
8
DEFAULT_255_1_234
10
5.585961
20
36.5152792
40
0.1337177
50
259.0490813
51
270.4180302
0
ARC
8
DEFAULT_255_1_234
10
5.5763273
20
36.4675393
40
0.0850178
50
239.7587791
51
259.311372
0
ARC
8
DEFAULT_255_1_234
10
5.5682305
20
36.4524482
40
0.0679053
50
222.6244131
51
239.247817
0
ARC
8
DEFAULT_255_1_234
10
5.5816679
20
36.4647619
40
0.0861314
50
182.9227855
51
222.598345
0
ARC
8
DEFAULT_255_1_234
10
5.6085298
20
36.4682373
40
0.113155
50
179.9642935
51
183.9868025
0
LINE
8
DEFAULT_255_1_234
10
6.3981421
20
37.5654433
11
6.3981421
21
36.3904
0
LINE
8
DEFAULT_255_1_234
10
6.3981421
20
36.3904
11
6.2487518
21
36.3904
0
LINE
8
DEFAULT_255_1_234
10
6.2487518
20
36.3904
11
6.2487518
21
37.3807133
0
LINE
8
DEFAULT_255_1_234
10
6.2487518
20
37.3807133
11
5.949168
21
37.2706785
0
LINE
8
DEFAULT_255_1_234
10
5.949168
20
37.2706785
11
5.949168
21
37.4056117
0
LINE
8
DEFAULT_255_1_234
10
5.949168
20
37.4056117
11
6.3748501
21
37.5654433
0
LINE
8
DEFAULT_255_1_234
10
6.3748501
20
37.5654433
11
6.3981421
21
37.5654433
0
LINE
8
DEFAULT_255_1_234
10
4.3183902
20
45.4973211
11
4.3183902
21
44.3279
0
LINE
8
DEFAULT_255_1_234
10
4.3183902
20
44.3279
11
4.1641808
21
44.3279
0
LINE
8
DEFAULT_255_1_234
10
4.1641808
20
44.3279
11
4.1641808
21
45.4973211
0
LINE
8
DEFAULT_255_1_234
10
4.1641808
20
45.4973211
11
4.3183902
21
45.4973211
0
LINE
8
DEFAULT_255_1_234
10
5.0500815
20
45.5029433
11
5.0500815
21
44.3279
0
LINE
8
DEFAULT_255_1_234
10
5.0500815
20
44.3279
11
4.9006912
21
44.3279
0
LINE
8
DEFAULT_255_1_234
10
4.9006912
20
44.3279
11
4.9006912
21
45.3182133
0
LINE
8
DEFAULT_255_1_234
10
4.9006912
20
45.3182133
11
4.6011074
21
45.2081785
0
LINE
8
DEFAULT_255_1_234
10
4.6011074
20
45.2081785
11
4.6011074
21
45.3431117
0
LINE
8
DEFAULT_255_1_234
10
4.6011074
20
45.3431117
11
5.0267895
21
45.5029433
0
LINE
8
DEFAULT_255_1_234
10
5.0267895
20
45.5029433
11
5.0500815
21
45.5029433
0
ARC
8
DEFAULT_255_1_234
10
5.6109062
20
44.4067565
40
0.1070357
50
163.5417914
51
180.5078233
0
ARC
8
DEFAULT_255_1_234
10
5.5916881
20
44.4119421
40
0.0871371
50
138.1647447
51
163.2316401
0
ARC
8
DEFAULT_255_1_234
10
5.5804659
20
44.4214534
40
0.0724329
50
105.6856465
51
137.8494928
0
ARC
8
DEFAULT_255_1_234
10
5.5923091
20
44.3830129
40
0.1126485
50
92.6088068
51
106.1990587
0
ARC
8
DEFAULT_255_1_234
10
5.5953464
20
44.3434774
40
0.1522861
50
89.9660831
51
93.0733434
0
ARC
8
DEFAULT_255_1_234
10
5.5964159
20
44.365632
40
0.130135
50
78.4379222
51
90.4311858
0
ARC
8
DEFAULT_255_1_234
10
5.606074
20
44.4106588
40
0.0840873
50
56.8960528
51
78.7359558
0
ARC
8
DEFAULT_255_1_234
10
5.6123966
20
44.4216877
40
0.0713991
50
42.6499553
51
56.3125067
0
ARC
8
DEFAULT_255_1_234
10
5.5995853
20
44.4099146
40
0.0887984
50
3.8142714
51
42.6365749
0
ARC
8
DEFAULT_255_1_234
10
5.5709654
20
44.4059153
40
0.1176392
50
359.9476902
51
4.8305927
0
ARC
8
DEFAULT_255_1_234
10
5.5935814
20
44.4048541
40
0.0950282
50
340.9376387
51
0.5750546
0
ARC
8
DEFAULT_255_1_234
10
5.604831
20
44.4018192
40
0.0834082
50
316.0805399
51
340.3842391
0
ARC
8
DEFAULT_255_1_234
10
5.6106388
20
44.3964809
40
0.0755219
50
285.8514865
51
315.9414755
0
ARC
8
DEFAULT_255_1_234
10
5.5988959
20
44.4344349
40
0.115244
50
273.1292529
51
286.3135479
0
ARC
8
DEFAULT_255_1_234
10
5.5955658
20
44.4746049
40
0.1555398
50
269.9524064
51
273.5463789
0
ARC
8
DEFAULT_255_1_234
10
5.594461
20
44.4527792
40
0.1337177
50
259.0490813
51
270.4180302
0
ARC
8
DEFAULT_255_1_234
10
5.5848273
20
44.4050393
40
0.0850178
50
239.7587791
51
259.311372
0
ARC
8
DEFAULT_255_1_234
10
5.5767305
20
44.3899482
40
0.0679053
50
222.6244131
51
239.247817
0
ARC
8
DEFAULT_255_1_234
10
5.5901679
20
44.4022619
40
0.0861314
50
182.9227855
51
222.598345
0
ARC
8
DEFAULT_255_1_234
10
5.6170298
20
44.4057373
40
0.113155
50
179.9642935
51
183.9868025
0
LINE
8
DEFAULT_255_1_234
10
6.6516102
20
45.0194327
11
6.6516102
21
44.8266709
0
LINE
8
DEFAULT_255_1_234
10
5.9134934
20
44.8065916
11
5.9134934
21
45.0049755
0
LINE
8
DEFAULT_255_1_234
10
6.503023
20
44.7865123
11
6.503023
21
45.0298739
0
LINE
8
DEFAULT_255_1_234
10
6.0620806
20
45.0411184
11
6.0620806
21
44.8033789
0
ARC
8
DEFAULT_255_1_234
10
5.4268991
20
44.8217805
40
1.2247208
50
353.8441951
51
0.2287902
0
ARC
8
DEFAULT_255_1_234
10
5.8908495
20
44.7699806
40
0.7578929
50
344.4934747
51
353.9765454
0
ARC
8
DEFAULT_255_1_234
10
6.1901085
20
44.6848981
40
0.4467846
50
329.2803592
51
344.7472793
0
ARC
8
DEFAULT_255_1_234
10
6.289391
20
44.6304018
40
0.3336173
50
324.9352394
51
328.6160465
0
ARC
8
DEFAULT_255_1_234
10
6.3271019
20
44.6040427
40
0.2876076
50
280.580143
51
324.9173126
0
ARC
8
DEFAULT_255_1_234
10
6.2869811
20
44.7711099
40
0.4592847
50
269.5977311
51
281.6734359
0
ARC
8
DEFAULT_255_1_234
10
6.2797717
20
44.7591173
40
0.4472986
50
256.6228859
51
270.51044
0
ARC
8
DEFAULT_255_1_234
10
6.2395695
20
44.6042877
40
0.2873874
50
215.8618325
51
257.2788573
0
ARC
8
DEFAULT_255_1_234
10
6.3416726
20
44.6727977
40
0.4102928
50
197.9693508
51
215.2623606
0
ARC
8
DEFAULT_255_1_234
10
6.5901842
20
44.7566709
40
0.6725652
50
187.8816417
51
198.2346507
0
ARC
8
DEFAULT_255_1_234
10
6.986005
20
44.8138079
40
1.0724845
50
180.8976217
51
188.0055519
0
ARC
8
DEFAULT_255_1_234
10
7.2660238
20
44.8241777
40
1.3526448
50
180.7449369
51
181.1510016
0
ARC
8
DEFAULT_255_1_234
10
7.1082967
20
45.0098042
40
1.1948131
50
173.7675579
51
180.231553
0
ARC
8
DEFAULT_255_1_234
10
6.6565114
20
45.0608666
40
0.7401564
50
164.3058563
51
173.9002247
0
ARC
8
DEFAULT_255_1_234
10
6.3653183
20
45.1447656
40
0.4371288
50
148.7922025
51
164.568378
0
ARC
8
DEFAULT_255_1_234
10
6.2701635
20
45.1978929
40
0.3282386
50
144.5883898
51
148.1176286
0
ARC
8
DEFAULT_255_1_234
10
6.2358533
20
45.2218315
40
0.2864044
50
101.6440918
51
144.514236
0
ARC
8
DEFAULT_255_1_234
10
6.27836
20
45.0529069
40
0.4604934
50
89.5284041
51
102.5819763
0
ARC
8
DEFAULT_255_1_234
10
6.2862687
20
45.0490018
40
0.464401
50
77.0437873
51
90.5081339
0
ARC
8
DEFAULT_255_1_234
10
6.3264689
20
45.2132615
40
0.2953195
50
48.2778575
51
77.4994676
0
ARC
8
DEFAULT_255_1_234
10
6.333732
20
45.2261746
40
0.2808655
50
36.3142134
51
47.6305865
0
ARC
8
DEFAULT_255_1_234
10
6.2468627
20
45.1676515
40
0.3855453
50
18.2931786
51
35.6769206
0
ARC
8
DEFAULT_255_1_234
10
5.9925386
20
45.0803593
40
0.654423
50
8.024666
51
18.5605216
0
ARC
8
DEFAULT_255_1_234
10
5.5762306
20
45.0188792
40
1.0752407
50
1.1274072
51
8.1718305
0
ARC
8
DEFAULT_255_1_234
10
5.2526497
20
45.0061885
40
1.3990231
50
0.5424119
51
1.3863029
0
ARC
8
DEFAULT_255_1_234
10
5.4347875
20
45.0334342
40
1.0682415
50
359.8090433
51
4.9407866
0
ARC
8
DEFAULT_255_1_234
10
5.8557889
20
45.0710113
40
0.6455691
50
4.8362157
51
12.2904523
0
ARC
8
DEFAULT_255_1_234
10
6.1313003
20
45.1323965
40
0.3633074
50
12.0805627
51
23.8173984
0
ARC
8
DEFAULT_255_1_234
10
6.2486709
20
45.1820919
40
0.2358723
50
24.2871213
51
31.3935614
0
ARC
8
DEFAULT_255_1_234
10
6.3011406
20
45.2164233
40
0.1732111
50
30.7407893
51
82.4657128
0
ARC
8
DEFAULT_255_1_234
10
6.283154
20
45.1280691
40
0.263235
50
81.1060089
51
90.2184952
0
ARC
8
DEFAULT_255_1_234
10
6.2795839
20
45.1538924
40
0.2374236
50
89.3806855
51
105.6762551
0
ARC
8
DEFAULT_255_1_234
10
6.261247
20
45.2205567
40
0.1682847
50
105.7981136
51
149.7388061
0
ARC
8
DEFAULT_255_1_234
10
6.3676548
20
45.156595
40
0.2924306
50
149.4208916
51
163.6286378
0
ARC
8
DEFAULT_255_1_234
10
6.5767436
20
45.092825
40
0.5110213
50
163.3763315
51
172.1410975
0
ARC
8
DEFAULT_255_1_234
10
6.9068155
20
45.0455518
40
0.8444586
50
172.0259487
51
178.0703232
0
ARC
8
DEFAULT_255_1_234
10
7.2098245
20
45.0311906
40
1.1477868
50
177.8631668
51
179.5044149
0
ARC
8
DEFAULT_255_1_234
10
7.1025649
20
44.7997389
40
1.0404907
50
179.7995573
51
185.2460446
0
ARC
8
DEFAULT_255_1_234
10
6.6982688
20
44.7614513
40
0.6343885
50
185.1411642
51
193.0079639
0
ARC
8
DEFAULT_255_1_234
10
6.4339161
20
44.6989641
40
0.3627568
50
192.7897626
51
205.2507664
0
ARC
8
DEFAULT_255_1_234
10
6.3292708
20
44.6522415
40
0.2481908
50
205.8005384
51
211.2537509
0
ARC
8
DEFAULT_255_1_234
10
6.2769148
20
44.617158
40
0.1852521
50
210.3789793
51
238.4008143
0
ARC
8
DEFAULT_255_1_234
10
6.274967
20
44.6218376
40
0.1882621
50
239.6520629
51
265.9793761
0
ARC
8
DEFAULT_255_1_234
10
6.2834871
20
44.6890427
40
0.2559272
50
265.1315437
51
270.060332
0
ARC
8
DEFAULT_255_1_234
10
6.2863649
20
44.6566534
40
0.2235528
50
269.3314664
51
287.2178029
0
ARC
8
DEFAULT_255_1_234
10
6.3001501
20
44.6063279
40
0.1714108
50
287.7958004
51
329.080874
0
ARC
8
DEFAULT_255_1_234
10
6.2043958
20
44.666093
40
0.2842745
50
328.6634704
51
343.3325132
0
ARC
8
DEFAULT_255_1_234
10
5.9870978
20
44.7337863
40
0.5118644
50
343.0499468
51
351.9393422
0
ARC
8
DEFAULT_255_1_234
10
5.6404278
20
44.7848949
40
0.8622784
50
351.8069023
51
357.7959224
0
ARC
8
DEFAULT_255_1_234
10
5.3168834
20
44.8016721
40
1.1862365
50
357.5871873
51
359.2677531
0
LINE
8
DEFAULT_255_1_234
10
22.5123137
20
53.4404433
11
22.5123137
21
52.2654
0
LINE
8
DEFAULT_255_1_234
10
22.5123137
20
52.2654
11
22.3629234
21
52.2654
0
LINE
8
DEFAULT_255_1_234
10
22.3629234
20
52.2654
11
22.3629234
21
53.2557133
0
LINE
8
DEFAULT_255_1_234
10
22.3629234
20
53.2557133
11
22.0633396
21
53.1456785
0
LINE
8
DEFAULT_255_1_234
10
22.0633396
20
53.1456785
11
22.0633396
21
53.2806117
0
LINE
8
DEFAULT_255_1_234
10
22.0633396
20
53.2806117
11
22.4890217
21
53.4404433
0
LINE
8
DEFAULT_255_1_234
10
22.4890217
20
53.4404433
11
22.5123137
21
53.4404433
0
LINE
8
DEFAULT_255_1_234
10
22.9861863
20
53.4348211
11
23.1853734
21
53.4348211
0
LINE
8
DEFAULT_255_1_234
10
23.1853734
20
53.4348211
11
23.5676841
21
52.4806506
0
LINE
8
DEFAULT_255_1_234
10
23.5676841
20
52.4806506
11
23.9499949
21
53.4348211
0
LINE
8
DEFAULT_255_1_234
10
23.9499949
20
53.4348211
11
24.1499852
21
53.4348211
0
LINE
8
DEFAULT_255_1_234
10
24.1499852
20
53.4348211
11
24.1499852
21
52.2654
0
LINE
8
DEFAULT_255_1_234
10
24.1499852
20
52.2654
11
23.9957758
21
52.2654
0
LINE
8
DEFAULT_255_1_234
10
23.9957758
20
52.2654
11
23.9957758
21
52.7207996
0
LINE
8
DEFAULT_255_1_234
10
23.9957758
20
52.7207996
11
24.0102329
21
53.2123419
0
LINE
8
DEFAULT_255_1_234
10
24.0102329
20
53.2123419
11
23.6263158
21
52.2654
0
LINE
8
DEFAULT_255_1_234
10
23.6263158
20
52.2654
11
23.5082493
21
52.2654
0
LINE
8
DEFAULT_255_1_234
10
23.5082493
20
52.2654
11
23.1251354
21
53.2099324
0
LINE
8
DEFAULT_255_1_234
10
23.1251354
20
53.2099324
11
23.1403957
21
52.7207996
0
LINE
8
DEFAULT_255_1_234
10
23.1403957
20
52.7207996
11
23.1403957
21
52.2654
0
LINE
8
DEFAULT_255_1_234
10
23.1403957
20
52.2654
11
22.9861863
21
52.2654
0
LINE
8
DEFAULT_255_1_234
10
22.9861863
20
52.2654
11
22.9861863
21
53.4348211
0
LINE
8
DEFAULT_255_1_234
10
21.8756657
20
21.1370565
11
21.8756657
21
21.0623614
0
LINE
8
DEFAULT_255_1_234
10
21.6708563
20
20.5788507
11
21.8796815
21
20.4150033
0
LINE
8
DEFAULT_255_1_234
10
21.8796815
20
20.4150033
11
21.7744658
21
20.3178192
0
LINE
8
DEFAULT_255_1_234
10
21.7744658
20
20.3178192
11
21.5278914
21
20.5137937
0
LINE
8
DEFAULT_255_1_234
10
20.9343459
20
21.0519201
11
20.9343459
21
21.1362534
0
LINE
8
DEFAULT_255_1_234
10
21.7214563
20
21.0511169
11
21.7214563
21
21.1378597
0
LINE
8
DEFAULT_255_1_234
10
21.0885553
20
21.148301
11
21.0885553
21
21.0623614
0
ARC
8
DEFAULT_255_1_234
10
20.9802909
20
21.0584707
40
0.8953833
50
351.453011
51
0.2489685
0
ARC
8
DEFAULT_255_1_234
10
21.2387709
20
21.0184933
40
0.6338333
50
338.6861641
51
351.5540711
0
ARC
8
DEFAULT_255_1_234
10
21.3321593
20
20.9854828
40
0.5348431
50
336.2887631
51
338.3442418
0
ARC
8
DEFAULT_255_1_234
10
21.3661215
20
20.9668698
40
0.4962747
50
321.1170344
51
336.6795229
0
ARC
8
DEFAULT_255_1_234
10
21.4293044
20
20.9182206
40
0.4165565
50
305.4419708
51
320.8705636
0
ARC
8
DEFAULT_255_1_234
10
21.4096514
20
20.9929707
40
0.4935497
50
271.6373023
51
283.8611969
0
ARC
8
DEFAULT_255_1_234
10
21.4058767
20
21.0585572
40
0.5592206
50
269.9930596
51
271.8318864
0
ARC
8
DEFAULT_255_1_234
10
21.402121
20
20.9777681
40
0.4784458
50
252.5219675
51
270.4416499
0
ARC
8
DEFAULT_255_1_234
10
21.3877469
20
20.9238592
40
0.422716
50
237.5352116
51
252.1857531
0
ARC
8
DEFAULT_255_1_234
10
21.3966665
20
20.9352363
40
0.4371052
50
209.063312
51
237.3492538
0
ARC
8
DEFAULT_255_1_234
10
21.4836513
20
20.9898685
40
0.5397041
50
205.1183774
51
209.6470015
0
ARC
8
DEFAULT_255_1_234
10
21.563355
20
21.023683
40
0.6262326
50
188.7215458
51
204.8240747
0
ARC
8
DEFAULT_255_1_234
10
21.7631078
20
21.0573067
40
0.8287794
50
180.3723947
51
188.9252049
0
ARC
8
DEFAULT_255_1_234
10
21.760383
20
21.1402402
40
0.8260467
50
169.5253763
51
180.2765336
0
ARC
8
DEFAULT_255_1_234
10
21.5701279
20
21.1752309
40
0.6326007
50
155.8315255
51
169.5089989
0
ARC
8
DEFAULT_255_1_234
10
21.442078
20
21.2346348
40
0.4914567
50
139.6258461
51
156.0379525
0
ARC
8
DEFAULT_255_1_234
10
21.3831113
20
21.2820799
40
0.4158054
50
122.6416387
51
139.3430715
0
ARC
8
DEFAULT_255_1_234
10
21.3931733
20
21.2637451
40
0.4366739
50
93.0223692
51
122.455762
0
ARC
8
DEFAULT_255_1_234
10
21.403973
20
21.1672709
40
0.5336137
50
89.975342
51
93.6341897
0
ARC
8
DEFAULT_255_1_234
10
21.4078616
20
21.2052375
40
0.4956606
50
73.9665422
51
90.4229648
0
ARC
8
DEFAULT_255_1_234
10
21.4262263
20
21.2767451
40
0.4218674
50
57.5178019
51
73.6813337
0
ARC
8
DEFAULT_255_1_234
10
21.4218046
20
21.2731462
40
0.4272816
50
28.7261108
51
57.2767933
0
ARC
8
DEFAULT_255_1_234
10
21.3307378
20
21.2168688
40
0.534218
50
24.2448911
51
29.3248482
0
ARC
8
DEFAULT_255_1_234
10
21.2381479
20
21.1785819
40
0.6343711
50
9.064382
51
23.9639114
0
ARC
8
DEFAULT_255_1_234
10
21.0125807
20
21.1406925
40
0.8630926
50
359.7586264
51
9.1891435
0
ARC
8
DEFAULT_255_1_234
10
20.8871287
20
21.1420343
40
0.834338
50
359.7133237
51
7.96545
0
ARC
8
DEFAULT_255_1_234
10
21.1833504
20
21.1847681
40
0.5350538
50
7.8291991
51
20.0421623
0
ARC
8
DEFAULT_255_1_234
10
21.3458067
20
21.2438606
40
0.3621841
50
20.0677553
51
35.9161685
0
ARC
8
DEFAULT_255_1_234
10
21.4233105
20
21.301467
40
0.2656263
50
35.6594382
51
85.1578074
0
ARC
8
DEFAULT_255_1_234
10
21.4048361
20
21.1899378
40
0.3784238
50
83.7959068
51
90.095906
0
ARC
8
DEFAULT_255_1_234
10
21.4005295
20
21.2632601
40
0.3051229
50
89.3102392
51
109.9889877
0
ARC
8
DEFAULT_255_1_234
10
21.3922778
20
21.2988433
40
0.2688988
50
110.9285147
51
143.9411762
0
ARC
8
DEFAULT_255_1_234
10
21.4853724
20
21.2276236
40
0.3860887
50
143.5289163
51
163.2980757
0
ARC
8
DEFAULT_255_1_234
10
21.6761545
20
21.1676433
40
0.5860659
50
163.0418846
51
174.3140048
0
ARC
8
DEFAULT_255_1_234
10
21.9165657
20
21.1398854
40
0.8280531
50
174.0509143
51
179.4176892
0
ARC
8
DEFAULT_255_1_234
10
21.8651992
20
21.0580634
40
0.7766558
50
179.6829237
51
188.9631324
0
ARC
8
DEFAULT_255_1_234
10
21.5981553
20
21.0145752
40
0.5060992
50
188.8100743
51
202.9300012
0
ARC
8
DEFAULT_255_1_234
10
21.4765182
20
20.9650855
40
0.3747967
50
203.2069261
51
215.7876482
0
ARC
8
DEFAULT_255_1_234
10
21.3916579
20
20.8979671
40
0.2667526
50
214.7521006
51
264.2834488
0
ARC
8
DEFAULT_255_1_234
10
21.4052234
20
20.983478
40
0.3532247
50
263.4755397
51
270.0949833
0
ARC
8
DEFAULT_255_1_234
10
21.4094345
20
20.9573374
40
0.3271036
50
269.3649385
51
287.5152008
0
ARC
8
DEFAULT_255_1_234
10
21.4272503
20
20.8926238
40
0.2600406
50
288.0630309
51
323.8113348
0
ARC
8
DEFAULT_255_1_234
10
21.3401345
20
20.9576049
40
0.3687189
50
323.6547608
51
342.6590488
0
ARC
8
DEFAULT_255_1_234
10
21.136996
20
21.0236952
40
0.5823286
50
342.4091907
51
353.6451149
0
ARC
8
DEFAULT_255_1_234
10
20.8538471
20
21.058919
40
0.8676442
50
353.4029884
51
359.4847795
0
LINE
8
DEFAULT_255_1_234
10
22.8410806
20
20.6366792
11
22.8410806
21
20.5154
0
LINE
8
DEFAULT_255_1_234
10
22.8410806
20
20.5154
11
22.0748528
21
20.5154
0
LINE
8
DEFAULT_255_1_234
10
22.0748528
20
20.5154
11
22.0748528
21
20.6222221
0
LINE
8
DEFAULT_255_1_234
10
22.0748528
20
20.6222221
11
22.4796524
21
21.0719995
0
LINE
8
DEFAULT_255_1_234
10
22.2009511
20
21.3402595
11
22.0523639
21
21.3402595
0
LINE
8
DEFAULT_255_1_234
10
22.5671983
20
20.9764218
11
22.2539605
21
20.6366792
0
LINE
8
DEFAULT_255_1_234
10
22.2539605
20
20.6366792
11
22.8410806
21
20.6366792
0
ARC
8
DEFAULT_255_1_234
10
21.1306357
20
22.2649527
40
1.8008286
50
318.5132453
51
320.7828378
0
ARC
8
DEFAULT_255_1_234
10
21.6593332
20
21.8346426
40
1.1191493
50
320.7372736
51
323.9737074
0
ARC
8
DEFAULT_255_1_234
10
22.0513188
20
21.5506361
40
0.6350923
50
323.8961724
51
328.6421089
0
ARC
8
DEFAULT_255_1_234
10
22.2559783
20
21.4244031
40
0.3946393
50
328.8299013
51
331.789948
0
ARC
8
DEFAULT_255_1_234
10
22.3556962
20
21.3729509
40
0.2824501
50
331.4255242
51
352.9364833
0
ARC
8
DEFAULT_255_1_234
10
22.3693463
20
21.3698976
40
0.2685315
50
353.2248685
51
0.0169286
0
ARC
8
DEFAULT_255_1_234
10
22.3903339
20
21.372195
40
0.2475536
50
359.4866256
51
15.9339782
0
ARC
8
DEFAULT_255_1_234
10
22.4410325
20
21.3858286
40
0.1950618
50
16.1714718
51
43.5284424
0
ARC
8
DEFAULT_255_1_234
10
22.4487633
20
21.3935573
40
0.184134
50
43.4415429
51
83.1661404
0
ARC
8
DEFAULT_255_1_234
10
22.4353551
20
21.3198771
40
0.258926
50
82.160215
51
90.1505798
0
ARC
8
DEFAULT_255_1_234
10
22.4321979
20
21.2661865
40
0.3126255
50
89.5460705
51
102.5418777
0
ARC
8
DEFAULT_255_1_234
10
22.4079065
20
21.3692665
40
0.2067346
50
102.1739365
51
129.2061916
0
ARC
8
DEFAULT_255_1_234
10
22.4000137
20
21.3817094
40
0.1921118
50
129.7279328
51
135.7542026
0
ARC
8
DEFAULT_255_1_234
10
22.4121664
20
21.3720045
40
0.2075944
50
136.175737
51
166.3674722
0
ARC
8
DEFAULT_255_1_234
10
22.5128584
20
21.3450182
40
0.3118201
50
165.9092917
51
178.8683903
0
ARC
8
DEFAULT_255_1_234
10
22.5993445
20
21.3403179
40
0.3983935
50
178.438168
51
180.0083905
0
ARC
8
DEFAULT_255_1_234
10
22.4592047
20
21.3442231
40
0.4068601
50
163.2878735
51
180.5581814
0
ARC
8
DEFAULT_255_1_234
10
22.3790308
20
21.366284
40
0.3237344
50
133.454115
51
162.9470031
0
ARC
8
DEFAULT_255_1_234
10
22.396885
20
21.3473
40
0.349795
50
100.7869394
51
133.4384016
0
ARC
8
DEFAULT_255_1_234
10
22.4316621
20
21.1924319
40
0.5084616
50
89.6605301
51
101.3704185
0
ARC
8
DEFAULT_255_1_234
10
22.438296
20
21.1985496
40
0.502348
50
78.2171172
51
90.4130393
0
ARC
8
DEFAULT_255_1_234
10
22.4738038
20
21.3609637
40
0.3361092
50
55.9268222
51
78.4888551
0
ARC
8
DEFAULT_255_1_234
10
22.4934478
20
21.3948324
40
0.2970617
50
47.9292255
51
55.4054003
0
ARC
8
DEFAULT_255_1_234
10
22.5036039
20
21.4051502
40
0.2825983
50
4.3347696
51
48.0560701
0
ARC
8
DEFAULT_255_1_234
10
22.3940433
20
21.3881601
40
0.393225
50
359.925209
51
5.5967654
0
ARC
8
DEFAULT_255_1_234
10
22.4369325
20
21.3937816
40
0.3503892
50
337.8914096
51
358.9967724
0
ARC
8
DEFAULT_255_1_234
10
22.1655737
20
21.4984706
40
0.6412172
50
326.9135351
51
338.3505194
0
ARC
8
DEFAULT_255_1_234
10
21.767004
20
21.7539284
40
1.1146189
50
319.6472867
51
327.095818
0
ARC
8
DEFAULT_255_1_234
10
21.3837043
20
22.0701
40
1.6114559
50
317.2586784
51
319.9046139
0
ARC
8
DEFAULT_255_1_234
10
23.1240071
20
20.5942565
40
0.1070357
50
163.5417914
51
180.5078233
0
ARC
8
DEFAULT_255_1_234
10
23.104789
20
20.5994421
40
0.0871371
50
138.1647447
51
163.2316401
0
ARC
8
DEFAULT_255_1_234
10
23.0935668
20
20.6089534
40
0.0724329
50
105.6856465
51
137.8494928
0
ARC
8
DEFAULT_255_1_234
10
23.10541
20
20.5705129
40
0.1126485
50
92.6088068
51
106.1990587
0
ARC
8
DEFAULT_255_1_234
10
23.1084474
20
20.5309774
40
0.1522861
50
89.9660831
51
93.0733434
0
ARC
8
DEFAULT_255_1_234
10
23.1095168
20
20.553132
40
0.130135
50
78.4379222
51
90.4311858
0
ARC
8
DEFAULT_255_1_234
10
23.1191749
20
20.5981588
40
0.0840873
50
56.8960528
51
78.7359558
0
ARC
8
DEFAULT_255_1_234
10
23.1254976
20
20.6091877
40
0.0713991
50
42.6499553
51
56.3125067
0
ARC
8
DEFAULT_255_1_234
10
23.1126862
20
20.5974146
40
0.0887984
50
3.8142714
51
42.6365749
0
ARC
8
DEFAULT_255_1_234
10
23.0840664
20
20.5934153
40
0.1176392
50
359.9476902
51
4.8305927
0
ARC
8
DEFAULT_255_1_234
10
23.1066823
20
20.5923541
40
0.0950282
50
340.9376387
51
0.5750546
0
ARC
8
DEFAULT_255_1_234
10
23.1179319
20
20.5893192
40
0.0834082
50
316.0805399
51
340.3842391
0
ARC
8
DEFAULT_255_1_234
10
23.1237397
20
20.5839809
40
0.0755219
50
285.8514865
51
315.9414755
0
ARC
8
DEFAULT_255_1_234
10
23.1119968
20
20.6219349
40
0.115244
50
273.1292529
51
286.3135479
0
ARC
8
DEFAULT_255_1_234
10
23.1086667
20
20.6621049
40
0.1555398
50
269.9524064
51
273.5463789
0
ARC
8
DEFAULT_255_1_234
10
23.1075619
20
20.6402792
40
0.1337177
50
259.0490813
51
270.4180302
0
ARC
8
DEFAULT_255_1_234
10
23.0979282
20
20.5925393
40
0.0850178
50
239.7587791
51
259.311372
0
ARC
8
DEFAULT_255_1_234
10
23.0898314
20
20.5774482
40
0.0679053
50
222.6244131
51
239.247817
0
ARC
8
DEFAULT_255_1_234
10
23.1032689
20
20.5897619
40
0.0861314
50
182.9227855
51
222.598345
0
ARC
8
DEFAULT_255_1_234
10
23.1301307
20
20.5932373
40
0.113155
50
179.9642935
51
183.9868025
0
LINE
8
DEFAULT_255_1_234
10
23.9197431
20
21.6904433
11
23.9197431
21
20.5154
0
LINE
8
DEFAULT_255_1_234
10
23.9197431
20
20.5154
11
23.7703527
21
20.5154
0
LINE
8
DEFAULT_255_1_234
10
23.7703527
20
20.5154
11
23.7703527
21
21.5057133
0
LINE
8
DEFAULT_255_1_234
10
23.7703527
20
21.5057133
11
23.4707689
21
21.3956785
0
LINE
8
DEFAULT_255_1_234
10
23.4707689
20
21.3956785
11
23.4707689
21
21.5306117
0
LINE
8
DEFAULT_255_1_234
10
23.4707689
20
21.5306117
11
23.896451
21
21.6904433
0
LINE
8
DEFAULT_255_1_234
10
23.896451
20
21.6904433
11
23.9197431
21
21.6904433
0
LINE
8
DEFAULT_255_1_234
10
21.8676657
20
29.0745565
11
21.8676657
21
28.9998614
0
LINE
8
DEFAULT_255_1_234
10
21.6628563
20
28.5163507
11
21.8716815
21
28.3525033
0
LINE
8
DEFAULT_255_1_234
10
21.8716815
20
28.3525033
11
21.7664658
21
28.2553192
0
LINE
8
DEFAULT_255_1_234
10
21.7664658
20
28.2553192
11
21.5198914
21
28.4512937
0
LINE
8
DEFAULT_255_1_234
10
20.9263459
20
28.9894201
11
20.9263459
21
29.0737534
0
LINE
8
DEFAULT_255_1_234
10
21.7134563
20
28.9886169
11
21.7134563
21
29.0753597
0
LINE
8
DEFAULT_255_1_234
10
21.0805553
20
29.085801
11
21.0805553
21
28.9998614
0
ARC
8
DEFAULT_255_1_234
10
20.9722909
20
28.9959707
40
0.8953833
50
351.453011
51
0.2489685
0
ARC
8
DEFAULT_255_1_234
10
21.2307709
20
28.9559933
40
0.6338333
50
338.6861641
51
351.5540711
0
ARC
8
DEFAULT_255_1_234
10
21.3241593
20
28.9229828
40
0.5348431
50
336.2887631
51
338.3442418
0
ARC
8
DEFAULT_255_1_234
10
21.3581215
20
28.9043698
40
0.4962747
50
321.1170344
51
336.6795229
0
ARC
8
DEFAULT_255_1_234
10
21.4213044
20
28.8557206
40
0.4165565
50
305.4419708
51
320.8705636
0
ARC
8
DEFAULT_255_1_234
10
21.4016514
20
28.9304707
40
0.4935497
50
271.6373023
51
283.8611969
0
ARC
8
DEFAULT_255_1_234
10
21.3978767
20
28.9960572
40
0.5592206
50
269.9930596
51
271.8318864
0
ARC
8
DEFAULT_255_1_234
10
21.394121
20
28.9152681
40
0.4784458
50
252.5219675
51
270.4416499
0
ARC
8
DEFAULT_255_1_234
10
21.3797469
20
28.8613592
40
0.422716
50
237.5352116
51
252.1857531
0
ARC
8
DEFAULT_255_1_234
10
21.3886665
20
28.8727363
40
0.4371052
50
209.063312
51
237.3492538
0
ARC
8
DEFAULT_255_1_234
10
21.4756513
20
28.9273685
40
0.5397041
50
205.1183774
51
209.6470015
0
ARC
8
DEFAULT_255_1_234
10
21.555355
20
28.961183
40
0.6262326
50
188.7215458
51
204.8240747
0
ARC
8
DEFAULT_255_1_234
10
21.7551078
20
28.9948067
40
0.8287794
50
180.3723947
51
188.9252049
0
ARC
8
DEFAULT_255_1_234
10
21.752383
20
29.0777402
40
0.8260467
50
169.5253763
51
180.2765336
0
ARC
8
DEFAULT_255_1_234
10
21.5621279
20
29.1127309
40
0.6326007
50
155.8315255
51
169.5089989
0
ARC
8
DEFAULT_255_1_234
10
21.434078
20
29.1721348
40
0.4914567
50
139.6258461
51
156.0379525
0
ARC
8
DEFAULT_255_1_234
10
21.3751113
20
29.2195799
40
0.4158054
50
122.6416387
51
139.3430715
0
ARC
8
DEFAULT_255_1_234
10
21.3851733
20
29.2012451
40
0.4366739
50
93.0223692
51
122.455762
0
ARC
8
DEFAULT_255_1_234
10
21.395973
20
29.1047709
40
0.5336137
50
89.975342
51
93.6341897
0
ARC
8
DEFAULT_255_1_234
10
21.3998616
20
29.1427375
40
0.4956606
50
73.9665422
51
90.4229648
0
ARC
8
DEFAULT_255_1_234
10
21.4182263
20
29.2142451
40
0.4218674
50
57.5178019
51
73.6813337
0
ARC
8
DEFAULT_255_1_234
10
21.4138046
20
29.2106462
40
0.4272816
50
28.7261108
51
57.2767933
0
ARC
8
DEFAULT_255_1_234
10
21.3227378
20
29.1543688
40
0.534218
50
24.2448911
51
29.3248482
0
ARC
8
DEFAULT_255_1_234
10
21.2301479
20
29.1160819
40
0.6343711
50
9.064382
51
23.9639114
0
ARC
8
DEFAULT_255_1_234
10
21.0045807
20
29.0781925
40
0.8630926
50
359.7586264
51
9.1891435
0
ARC
8
DEFAULT_255_1_234
10
20.8791287
20
29.0795343
40
0.834338
50
359.7133237
51
7.96545
0
ARC
8
DEFAULT_255_1_234
10
21.1753504
20
29.1222681
40
0.5350538
50
7.8291991
51
20.0421623
0
ARC
8
DEFAULT_255_1_234
10
21.3378067
20
29.1813606
40
0.3621841
50
20.0677553
51
35.9161685
0
ARC
8
DEFAULT_255_1_234
10
21.4153105
20
29.238967
40
0.2656263
50
35.6594382
51
85.1578074
0
ARC
8
DEFAULT_255_1_234
10
21.3968361
20
29.1274378
40
0.3784238
50
83.7959068
51
90.095906
0
ARC
8
DEFAULT_255_1_234
10
21.3925295
20
29.2007601
40
0.3051229
50
89.3102392
51
109.9889877
0
ARC
8
DEFAULT_255_1_234
10
21.3842778
20
29.2363433
40
0.2688988
50
110.9285147
51
143.9411762
0
ARC
8
DEFAULT_255_1_234
10
21.4773724
20
29.1651236
40
0.3860887
50
143.5289163
51
163.2980757
0
ARC
8
DEFAULT_255_1_234
10
21.6681545
20
29.1051433
40
0.5860659
50
163.0418846
51
174.3140048
0
ARC
8
DEFAULT_255_1_234
10
21.9085657
20
29.0773854
40
0.8280531
50
174.0509143
51
179.4176892
0
ARC
8
DEFAULT_255_1_234
10
21.8571992
20
28.9955634
40
0.7766558
50
179.6829237
51
188.9631324
0
ARC
8
DEFAULT_255_1_234
10
21.5901553
20
28.9520752
40
0.5060992
50
188.8100743
51
202.9300012
0
ARC
8
DEFAULT_255_1_234
10
21.4685182
20
28.9025855
40
0.3747967
50
203.2069261
51
215.7876482
0
ARC
8
DEFAULT_255_1_234
10
21.3836579
20
28.8354671
40
0.2667526
50
214.7521006
51
264.2834488
0
ARC
8
DEFAULT_255_1_234
10
21.3972234
20
28.920978
40
0.3532247
50
263.4755397
51
270.0949833
0
ARC
8
DEFAULT_255_1_234
10
21.4014345
20
28.8948374
40
0.3271036
50
269.3649385
51
287.5152008
0
ARC
8
DEFAULT_255_1_234
10
21.4192503
20
28.8301238
40
0.2600406
50
288.0630309
51
323.8113348
0
ARC
8
DEFAULT_255_1_234
10
21.3321345
20
28.8951049
40
0.3687189
50
323.6547608
51
342.6590488
0
ARC
8
DEFAULT_255_1_234
10
21.128996
20
28.9611952
40
0.5823286
50
342.4091907
51
353.6451149
0
ARC
8
DEFAULT_255_1_234
10
20.8458471
20
28.996419
40
0.8676442
50
353.4029884
51
359.4847795
0
LINE
8
DEFAULT_255_1_234
10
22.8330806
20
28.5741792
11
22.8330806
21
28.4529
0
LINE
8
DEFAULT_255_1_234
10
22.8330806
20
28.4529
11
22.0668528
21
28.4529
0
LINE
8
DEFAULT_255_1_234
10
22.0668528
20
28.4529
11
22.0668528
21
28.5597221
0
LINE
8
DEFAULT_255_1_234
10
22.0668528
20
28.5597221
11
22.4716524
21
29.0094995
0
LINE
8
DEFAULT_255_1_234
10
22.1929511
20
29.2777595
11
22.0443639
21
29.2777595
0
LINE
8
DEFAULT_255_1_234
10
22.5591983
20
28.9139218
11
22.2459605
21
28.5741792
0
LINE
8
DEFAULT_255_1_234
10
22.2459605
20
28.5741792
11
22.8330806
21
28.5741792
0
ARC
8
DEFAULT_255_1_234
10
21.1226357
20
30.2024527
40
1.8008286
50
318.5132453
51
320.7828378
0
ARC
8
DEFAULT_255_1_234
10
21.6513332
20
29.7721426
40
1.1191493
50
320.7372736
51
323.9737074
0
ARC
8
DEFAULT_255_1_234
10
22.0433188
20
29.4881361
40
0.6350923
50
323.8961724
51
328.6421089
0
ARC
8
DEFAULT_255_1_234
10
22.2479783
20
29.3619031
40
0.3946393
50
328.8299013
51
331.789948
0
ARC
8
DEFAULT_255_1_234
10
22.3476962
20
29.3104509
40
0.2824501
50
331.4255242
51
352.9364833
0
ARC
8
DEFAULT_255_1_234
10
22.3613463
20
29.3073976
40
0.2685315
50
353.2248685
51
0.0169286
0
ARC
8
DEFAULT_255_1_234
10
22.3823339
20
29.309695
40
0.2475536
50
359.4866256
51
15.9339782
0
ARC
8
DEFAULT_255_1_234
10
22.4330325
20
29.3233286
40
0.1950618
50
16.1714718
51
43.5284424
0
ARC
8
DEFAULT_255_1_234
10
22.4407633
20
29.3310573
40
0.184134
50
43.4415429
51
83.1661404
0
ARC
8
DEFAULT_255_1_234
10
22.4273551
20
29.2573771
40
0.258926
50
82.160215
51
90.1505798
0
ARC
8
DEFAULT_255_1_234
10
22.4241979
20
29.2036865
40
0.3126255
50
89.5460705
51
102.5418777
0
ARC
8
DEFAULT_255_1_234
10
22.3999065
20
29.3067665
40
0.2067346
50
102.1739365
51
129.2061916
0
ARC
8
DEFAULT_255_1_234
10
22.3920137
20
29.3192094
40
0.1921118
50
129.7279328
51
135.7542026
0
ARC
8
DEFAULT_255_1_234
10
22.4041664
20
29.3095045
40
0.2075944
50
136.175737
51
166.3674722
0
ARC
8
DEFAULT_255_1_234
10
22.5048584
20
29.2825182
40
0.3118201
50
165.9092917
51
178.8683903
0
ARC
8
DEFAULT_255_1_234
10
22.5913445
20
29.2778179
40
0.3983935
50
178.438168
51
180.0083905
0
ARC
8
DEFAULT_255_1_234
10
22.4512047
20
29.2817231
40
0.4068601
50
163.2878735
51
180.5581814
0
ARC
8
DEFAULT_255_1_234
10
22.3710308
20
29.303784
40
0.3237344
50
133.454115
51
162.9470031
0
ARC
8
DEFAULT_255_1_234
10
22.388885
20
29.2848
40
0.349795
50
100.7869394
51
133.4384016
0
ARC
8
DEFAULT_255_1_234
10
22.4236621
20
29.1299319
40
0.5084616
50
89.6605301
51
101.3704185
0
ARC
8
DEFAULT_255_1_234
10
22.430296
20
29.1360496
40
0.502348
50
78.2171172
51
90.4130393
0
ARC
8
DEFAULT_255_1_234
10
22.4658038
20
29.2984637
40
0.3361092
50
55.9268222
51
78.4888551
0
ARC
8
DEFAULT_255_1_234
10
22.4854478
20
29.3323324
40
0.2970617
50
47.9292255
51
55.4054003
0
ARC
8
DEFAULT_255_1_234
10
22.4956039
20
29.3426502
40
0.2825983
50
4.3347696
51
48.0560701
0
ARC
8
DEFAULT_255_1_234
10
22.3860433
20
29.3256601
40
0.393225
50
359.925209
51
5.5967654
0
ARC
8
DEFAULT_255_1_234
10
22.4289325
20
29.3312816
40
0.3503892
50
337.8914096
51
358.9967724
0
ARC
8
DEFAULT_255_1_234
10
22.1575737
20
29.4359706
40
0.6412172
50
326.9135351
51
338.3505194
0
ARC
8
DEFAULT_255_1_234
10
21.759004
20
29.6914284
40
1.1146189
50
319.6472867
51
327.095818
0
ARC
8
DEFAULT_255_1_234
10
21.3757043
20
30.0076
40
1.6114559
50
317.2586784
51
319.9046139
0
ARC
8
DEFAULT_255_1_234
10
23.1160071
20
28.5317565
40
0.1070357
50
163.5417914
51
180.5078233
0
ARC
8
DEFAULT_255_1_234
10
23.096789
20
28.5369421
40
0.0871371
50
138.1647447
51
163.2316401
0
ARC
8
DEFAULT_255_1_234
10
23.0855668
20
28.5464534
40
0.0724329
50
105.6856465
51
137.8494928
0
ARC
8
DEFAULT_255_1_234
10
23.09741
20
28.5080129
40
0.1126485
50
92.6088068
51
106.1990587
0
ARC
8
DEFAULT_255_1_234
10
23.1004474
20
28.4684774
40
0.1522861
50
89.9660831
51
93.0733434
0
ARC
8
DEFAULT_255_1_234
10
23.1015168
20
28.490632
40
0.130135
50
78.4379222
51
90.4311858
0
ARC
8
DEFAULT_255_1_234
10
23.1111749
20
28.5356588
40
0.0840873
50
56.8960528
51
78.7359558
0
ARC
8
DEFAULT_255_1_234
10
23.1174976
20
28.5466877
40
0.0713991
50
42.6499553
51
56.3125067
0
ARC
8
DEFAULT_255_1_234
10
23.1046862
20
28.5349146
40
0.0887984
50
3.8142714
51
42.6365749
0
ARC
8
DEFAULT_255_1_234
10
23.0760664
20
28.5309153
40
0.1176392
50
359.9476902
51
4.8305927
0
ARC
8
DEFAULT_255_1_234
10
23.0986823
20
28.5298541
40
0.0950282
50
340.9376387
51
0.5750546
0
ARC
8
DEFAULT_255_1_234
10
23.1099319
20
28.5268192
40
0.0834082
50
316.0805399
51
340.3842391
0
ARC
8
DEFAULT_255_1_234
10
23.1157397
20
28.5214809
40
0.0755219
50
285.8514865
51
315.9414755
0
ARC
8
DEFAULT_255_1_234
10
23.1039968
20
28.5594349
40
0.115244
50
273.1292529
51
286.3135479
0
ARC
8
DEFAULT_255_1_234
10
23.1006667
20
28.5996049
40
0.1555398
50
269.9524064
51
273.5463789
0
ARC
8
DEFAULT_255_1_234
10
23.0995619
20
28.5777792
40
0.1337177
50
259.0490813
51
270.4180302
0
ARC
8
DEFAULT_255_1_234
10
23.0899282
20
28.5300393
40
0.0850178
50
239.7587791
51
259.311372
0
ARC
8
DEFAULT_255_1_234
10
23.0818314
20
28.5149482
40
0.0679053
50
222.6244131
51
239.247817
0
ARC
8
DEFAULT_255_1_234
10
23.0952689
20
28.5272619
40
0.0861314
50
182.9227855
51
222.598345
0
ARC
8
DEFAULT_255_1_234
10
23.1221307
20
28.5307373
40
0.113155
50
179.9642935
51
183.9868025
0
LINE
8
DEFAULT_255_1_234
10
24.1567111
20
29.1444327
11
24.1567111
21
28.9516709
0
LINE
8
DEFAULT_255_1_234
10
23.4185943
20
28.9315916
11
23.4185943
21
29.1299755
0
LINE
8
DEFAULT_255_1_234
10
24.0081239
20
28.9115123
11
24.0081239
21
29.1548739
0
LINE
8
DEFAULT_255_1_234
10
23.5671815
20
29.1661184
11
23.5671815
21
28.9283789
0
ARC
8
DEFAULT_255_1_234
10
22.932
20
28.9467805
40
1.2247208
50
353.8441951
51
0.2287902
0
ARC
8
DEFAULT_255_1_234
10
23.3959504
20
28.8949806
40
0.7578929
50
344.4934747
51
353.9765454
0
ARC
8
DEFAULT_255_1_234
10
23.6952094
20
28.8098981
40
0.4467846
50
329.2803592
51
344.7472793
0
ARC
8
DEFAULT_255_1_234
10
23.7944919
20
28.7554018
40
0.3336173
50
324.9352394
51
328.6160465
0
ARC
8
DEFAULT_255_1_234
10
23.8322028
20
28.7290427
40
0.2876076
50
280.580143
51
324.9173126
0
ARC
8
DEFAULT_255_1_234
10
23.792082
20
28.8961099
40
0.4592847
50
269.5977311
51
281.6734359
0
ARC
8
DEFAULT_255_1_234
10
23.7848726
20
28.8841173
40
0.4472986
50
256.6228859
51
270.51044
0
ARC
8
DEFAULT_255_1_234
10
23.7446704
20
28.7292877
40
0.2873874
50
215.8618325
51
257.2788573
0
ARC
8
DEFAULT_255_1_234
10
23.8467735
20
28.7977977
40
0.4102928
50
197.9693508
51
215.2623606
0
ARC
8
DEFAULT_255_1_234
10
24.0952851
20
28.8816709
40
0.6725652
50
187.8816417
51
198.2346507
0
ARC
8
DEFAULT_255_1_234
10
24.4911059
20
28.9388079
40
1.0724845
50
180.8976217
51
188.0055519
0
ARC
8
DEFAULT_255_1_234
10
24.7711248
20
28.9491777
40
1.3526448
50
180.7449369
51
181.1510016
0
ARC
8
DEFAULT_255_1_234
10
24.6133977
20
29.1348042
40
1.1948131
50
173.7675579
51
180.231553
0
ARC
8
DEFAULT_255_1_234
10
24.1616123
20
29.1858666
40
0.7401564
50
164.3058563
51
173.9002247
0
ARC
8
DEFAULT_255_1_234
10
23.8704192
20
29.2697656
40
0.4371288
50
148.7922025
51
164.568378
0
ARC
8
DEFAULT_255_1_234
10
23.7752644
20
29.3228929
40
0.3282386
50
144.5883898
51
148.1176286
0
ARC
8
DEFAULT_255_1_234
10
23.7409542
20
29.3468315
40
0.2864044
50
101.6440918
51
144.514236
0
ARC
8
DEFAULT_255_1_234
10
23.7834609
20
29.1779069
40
0.4604934
50
89.5284041
51
102.5819763
0
ARC
8
DEFAULT_255_1_234
10
23.7913697
20
29.1740018
40
0.464401
50
77.0437873
51
90.5081339
0
ARC
8
DEFAULT_255_1_234
10
23.8315698
20
29.3382615
40
0.2953195
50
48.2778575
51
77.4994676
0
ARC
8
DEFAULT_255_1_234
10
23.838833
20
29.3511746
40
0.2808655
50
36.3142134
51
47.6305865
0
ARC
8
DEFAULT_255_1_234
10
23.7519637
20
29.2926515
40
0.3855453
50
18.2931786
51
35.6769206
0
ARC
8
DEFAULT_255_1_234
10
23.4976395
20
29.2053593
40
0.654423
50
8.024666
51
18.5605216
0
ARC
8
DEFAULT_255_1_234
10
23.0813315
20
29.1438792
40
1.0752407
50
1.1274072
51
8.1718305
0
ARC
8
DEFAULT_255_1_234
10
22.7577506
20
29.1311885
40
1.3990231
50
0.5424119
51
1.3863029
0
ARC
8
DEFAULT_255_1_234
10
22.9398884
20
29.1584342
40
1.0682415
50
359.8090433
51
4.9407866
0
ARC
8
DEFAULT_255_1_234
10
23.3608898
20
29.1960113
40
0.6455691
50
4.8362157
51
12.2904523
0
ARC
8
DEFAULT_255_1_234
10
23.6364013
20
29.2573965
40
0.3633074
50
12.0805627
51
23.8173984
0
ARC
8
DEFAULT_255_1_234
10
23.7537718
20
29.3070919
40
0.2358723
50
24.2871213
51
31.3935614
0
ARC
8
DEFAULT_255_1_234
10
23.8062415
20
29.3414233
40
0.1732111
50
30.7407893
51
82.4657128
0
ARC
8
DEFAULT_255_1_234
10
23.788255
20
29.2530691
40
0.263235
50
81.1060089
51
90.2184952
0
ARC
8
DEFAULT_255_1_234
10
23.7846848
20
29.2788924
40
0.2374236
50
89.3806855
51
105.6762551
0
ARC
8
DEFAULT_255_1_234
10
23.7663479
20
29.3455567
40
0.1682847
50
105.7981136
51
149.7388061
0
ARC
8
DEFAULT_255_1_234
10
23.8727557
20
29.281595
40
0.2924306
50
149.4208916
51
163.6286378
0
ARC
8
DEFAULT_255_1_234
10
24.0818445
20
29.217825
40
0.5110213
50
163.3763315
51
172.1410975
0
ARC
8
DEFAULT_255_1_234
10
24.4119164
20
29.1705518
40
0.8444586
50
172.0259487
51
178.0703232
0
ARC
8
DEFAULT_255_1_234
10
24.7149254
20
29.1561906
40
1.1477868
50
177.8631668
51
179.5044149
0
ARC
8
DEFAULT_255_1_234
10
24.6076658
20
28.9247389
40
1.0404907
50
179.7995573
51
185.2460446
0
ARC
8
DEFAULT_255_1_234
10
24.2033698
20
28.8864513
40
0.6343885
50
185.1411642
51
193.0079639
0
ARC
8
DEFAULT_255_1_234
10
23.939017
20
28.8239641
40
0.3627568
50
192.7897626
51
205.2507664
0
ARC
8
DEFAULT_255_1_234
10
23.8343717
20
28.7772415
40
0.2481908
50
205.8005384
51
211.2537509
0
ARC
8
DEFAULT_255_1_234
10
23.7820158
20
28.742158
40
0.1852521
50
210.3789793
51
238.4008143
0
ARC
8
DEFAULT_255_1_234
10
23.780068
20
28.7468376
40
0.1882621
50
239.6520629
51
265.9793761
0
ARC
8
DEFAULT_255_1_234
10
23.788588
20
28.8140427
40
0.2559272
50
265.1315437
51
270.060332
0
ARC
8
DEFAULT_255_1_234
10
23.7914659
20
28.7816534
40
0.2235528
50
269.3314664
51
287.2178029
0
ARC
8
DEFAULT_255_1_234
10
23.805251
20
28.7313279
40
0.1714108
50
287.7958004
51
329.080874
0
ARC
8
DEFAULT_255_1_234
10
23.7094967
20
28.791093
40
0.2842745
50
328.6634704
51
343.3325132
0
ARC
8
DEFAULT_255_1_234
10
23.4921987
20
28.8587863
40
0.5118644
50
343.0499468
51
351.9393422
0
ARC
8
DEFAULT_255_1_234
10
23.1455287
20
28.9098949
40
0.8622784
50
351.8069023
51
357.7959224
0
ARC
8
DEFAULT_255_1_234
10
22.8219843
20
28.9266721
40
1.1862365
50
357.5871873
51
359.2677531
0
LINE
8
DEFAULT_255_1_234
10
21.8756657
20
37.0120565
11
21.8756657
21
36.9373614
0
LINE
8
DEFAULT_255_1_234
10
21.6708563
20
36.4538507
11
21.8796815
21
36.2900033
0
LINE
8
DEFAULT_255_1_234
10
21.8796815
20
36.2900033
11
21.7744658
21
36.1928192
0
LINE
8
DEFAULT_255_1_234
10
21.7744658
20
36.1928192
11
21.5278914
21
36.3887937
0
LINE
8
DEFAULT_255_1_234
10
20.9343459
20
36.9269201
11
20.9343459
21
37.0112534
0
LINE
8
DEFAULT_255_1_234
10
21.7214563
20
36.9261169
11
21.7214563
21
37.0128597
0
LINE
8
DEFAULT_255_1_234
10
21.0885553
20
37.023301
11
21.0885553
21
36.9373614
0
ARC
8
DEFAULT_255_1_234
10
20.9802909
20
36.9334707
40
0.8953833
50
351.453011
51
0.2489685
0
ARC
8
DEFAULT_255_1_234
10
21.2387709
20
36.8934933
40
0.6338333
50
338.6861641
51
351.5540711
0
ARC
8
DEFAULT_255_1_234
10
21.3321593
20
36.8604828
40
0.5348431
50
336.2887631
51
338.3442418
0
ARC
8
DEFAULT_255_1_234
10
21.3661215
20
36.8418698
40
0.4962747
50
321.1170344
51
336.6795229
0
ARC
8
DEFAULT_255_1_234
10
21.4293044
20
36.7932206
40
0.4165565
50
305.4419708
51
320.8705636
0
ARC
8
DEFAULT_255_1_234
10
21.4096514
20
36.8679707
40
0.4935497
50
271.6373023
51
283.8611969
0
ARC
8
DEFAULT_255_1_234
10
21.4058767
20
36.9335572
40
0.5592206
50
269.9930596
51
271.8318864
0
ARC
8
DEFAULT_255_1_234
10
21.402121
20
36.8527681
40
0.4784458
50
252.5219675
51
270.4416499
0
ARC
8
DEFAULT_255_1_234
10
21.3877469
20
36.7988592
40
0.422716
50
237.5352116
51
252.1857531
0
ARC
8
DEFAULT_255_1_234
10
21.3966665
20
36.8102363
40
0.4371052
50
209.063312
51
237.3492538
0
ARC
8
DEFAULT_255_1_234
10
21.4836513
20
36.8648685
40
0.5397041
50
205.1183774
51
209.6470015
0
ARC
8
DEFAULT_255_1_234
10
21.563355
20
36.898683
40
0.6262326
50
188.7215458
51
204.8240747
0
ARC
8
DEFAULT_255_1_234
10
21.7631078
20
36.9323067
40
0.8287794
50
180.3723947
51
188.9252049
0
ARC
8
DEFAULT_255_1_234
10
21.760383
20
37.0152402
40
0.8260467
50
169.5253763
51
180.2765336
0
ARC
8
DEFAULT_255_1_234
10
21.5701279
20
37.0502309
40
0.6326007
50
155.8315255
51
169.5089989
0
ARC
8
DEFAULT_255_1_234
10
21.442078
20
37.1096348
40
0.4914567
50
139.6258461
51
156.0379525
0
ARC
8
DEFAULT_255_1_234
10
21.3831113
20
37.1570799
40
0.4158054
50
122.6416387
51
139.3430715
0
ARC
8
DEFAULT_255_1_234
10
21.3931733
20
37.1387451
40
0.4366739
50
93.0223692
51
122.455762
0
ARC
8
DEFAULT_255_1_234
10
21.403973
20
37.0422709
40
0.5336137
50
89.975342
51
93.6341897
0
ARC
8
DEFAULT_255_1_234
10
21.4078616
20
37.0802375
40
0.4956606
50
73.9665422
51
90.4229648
0
ARC
8
DEFAULT_255_1_234
10
21.4262263
20
37.1517451
40
0.4218674
50
57.5178019
51
73.6813337
0
ARC
8
DEFAULT_255_1_234
10
21.4218046
20
37.1481462
40
0.4272816
50
28.7261108
51
57.2767933
0
ARC
8
DEFAULT_255_1_234
10
21.3307378
20
37.0918688
40
0.534218
50
24.2448911
51
29.3248482
0
ARC
8
DEFAULT_255_1_234
10
21.2381479
20
37.0535819
40
0.6343711
50
9.064382
51
23.9639114
0
ARC
8
DEFAULT_255_1_234
10
21.0125807
20
37.0156925
40
0.8630926
50
359.7586264
51
9.1891435
0
ARC
8
DEFAULT_255_1_234
10
20.8871287
20
37.0170343
40
0.834338
50
359.7133237
51
7.96545
0
ARC
8
DEFAULT_255_1_234
10
21.1833504
20
37.0597681
40
0.5350538
50
7.8291991
51
20.0421623
0
ARC
8
DEFAULT_255_1_234
10
21.3458067
20
37.1188606
40
0.3621841
50
20.0677553
51
35.9161685
0
ARC
8
DEFAULT_255_1_234
10
21.4233105
20
37.176467
40
0.2656263
50
35.6594382
51
85.1578074
0
ARC
8
DEFAULT_255_1_234
10
21.4048361
20
37.0649378
40
0.3784238
50
83.7959068
51
90.095906
0
ARC
8
DEFAULT_255_1_234
10
21.4005295
20
37.1382601
40
0.3051229
50
89.3102392
51
109.9889877
0
ARC
8
DEFAULT_255_1_234
10
21.3922778
20
37.1738433
40
0.2688988
50
110.9285147
51
143.9411762
0
ARC
8
DEFAULT_255_1_234
10
21.4853724
20
37.1026236
40
0.3860887
50
143.5289163
51
163.2980757
0
ARC
8
DEFAULT_255_1_234
10
21.6761545
20
37.0426433
40
0.5860659
50
163.0418846
51
174.3140048
0
ARC
8
DEFAULT_255_1_234
10
21.9165657
20
37.0148854
40
0.8280531
50
174.0509143
51
179.4176892
0
ARC
8
DEFAULT_255_1_234
10
21.8651992
20
36.9330634
40
0.7766558
50
179.6829237
51
188.9631324
0
ARC
8
DEFAULT_255_1_234
10
21.5981553
20
36.8895752
40
0.5060992
50
188.8100743
51
202.9300012
0
ARC
8
DEFAULT_255_1_234
10
21.4765182
20
36.8400855
40
0.3747967
50
203.2069261
51
215.7876482
0
ARC
8
DEFAULT_255_1_234
10
21.3916579
20
36.7729671
40
0.2667526
50
214.7521006
51
264.2834488
0
ARC
8
DEFAULT_255_1_234
10
21.4052234
20
36.858478
40
0.3532247
50
263.4755397
51
270.0949833
0
ARC
8
DEFAULT_255_1_234
10
21.4094345
20
36.8323374
40
0.3271036
50
269.3649385
51
287.5152008
0
ARC
8
DEFAULT_255_1_234
10
21.4272503
20
36.7676238
40
0.2600406
50
288.0630309
51
323.8113348
0
ARC
8
DEFAULT_255_1_234
10
21.3401345
20
36.8326049
40
0.3687189
50
323.6547608
51
342.6590488
0
ARC
8
DEFAULT_255_1_234
10
21.136996
20
36.8986952
40
0.5823286
50
342.4091907
51
353.6451149
0
ARC
8
DEFAULT_255_1_234
10
20.8538471
20
36.933919
40
0.8676442
50
353.4029884
51
359.4847795
0
LINE
8
DEFAULT_255_1_234
10
22.5631825
20
37.5654433
11
22.5631825
21
36.3904
0
LINE
8
DEFAULT_255_1_234
10
22.5631825
20
36.3904
11
22.4137921
21
36.3904
0
LINE
8
DEFAULT_255_1_234
10
22.4137921
20
36.3904
11
22.4137921
21
37.3807133
0
LINE
8
DEFAULT_255_1_234
10
22.4137921
20
37.3807133
11
22.1142083
21
37.2706785
0
LINE
8
DEFAULT_255_1_234
10
22.1142083
20
37.2706785
11
22.1142083
21
37.4056117
0
LINE
8
DEFAULT_255_1_234
10
22.1142083
20
37.4056117
11
22.5398904
21
37.5654433
0
LINE
8
DEFAULT_255_1_234
10
22.5398904
20
37.5654433
11
22.5631825
21
37.5654433
0
ARC
8
DEFAULT_255_1_234
10
23.1240071
20
36.4692565
40
0.1070357
50
163.5417914
51
180.5078233
0
ARC
8
DEFAULT_255_1_234
10
23.104789
20
36.4744421
40
0.0871371
50
138.1647447
51
163.2316401
0
ARC
8
DEFAULT_255_1_234
10
23.0935668
20
36.4839534
40
0.0724329
50
105.6856465
51
137.8494928
0
ARC
8
DEFAULT_255_1_234
10
23.10541
20
36.4455129
40
0.1126485
50
92.6088068
51
106.1990587
0
ARC
8
DEFAULT_255_1_234
10
23.1084474
20
36.4059774
40
0.1522861
50
89.9660831
51
93.0733434
0
ARC
8
DEFAULT_255_1_234
10
23.1095168
20
36.428132
40
0.130135
50
78.4379222
51
90.4311858
0
ARC
8
DEFAULT_255_1_234
10
23.1191749
20
36.4731588
40
0.0840873
50
56.8960528
51
78.7359558
0
ARC
8
DEFAULT_255_1_234
10
23.1254976
20
36.4841877
40
0.0713991
50
42.6499553
51
56.3125067
0
ARC
8
DEFAULT_255_1_234
10
23.1126862
20
36.4724146
40
0.0887984
50
3.8142714
51
42.6365749
0
ARC
8
DEFAULT_255_1_234
10
23.0840664
20
36.4684153
40
0.1176392
50
359.9476902
51
4.8305927
0
ARC
8
DEFAULT_255_1_234
10
23.1066823
20
36.4673541
40
0.0950282
50
340.9376387
51
0.5750546
0
ARC
8
DEFAULT_255_1_234
10
23.1179319
20
36.4643192
40
0.0834082
50
316.0805399
51
340.3842391
0
ARC
8
DEFAULT_255_1_234
10
23.1237397
20
36.4589809
40
0.0755219
50
285.8514865
51
315.9414755
0
ARC
8
DEFAULT_255_1_234
10
23.1119968
20
36.4969349
40
0.115244
50
273.1292529
51
286.3135479
0
ARC
8
DEFAULT_255_1_234
10
23.1086667
20
36.5371049
40
0.1555398
50
269.9524064
51
273.5463789
0
ARC
8
DEFAULT_255_1_234
10
23.1075619
20
36.5152792
40
0.1337177
50
259.0490813
51
270.4180302
0
ARC
8
DEFAULT_255_1_234
10
23.0979282
20
36.4675393
40
0.0850178
50
239.7587791
51
259.311372
0
ARC
8
DEFAULT_255_1_234
10
23.0898314
20
36.4524482
40
0.0679053
50
222.6244131
51
239.247817
0
ARC
8
DEFAULT_255_1_234
10
23.1032689
20
36.4647619
40
0.0861314
50
182.9227855
51
222.598345
0
ARC
8
DEFAULT_255_1_234
10
23.1301307
20
36.4682373
40
0.113155
50
179.9642935
51
183.9868025
0
LINE
8
DEFAULT_255_1_234
10
23.9197431
20
37.5654433
11
23.9197431
21
36.3904
0
LINE
8
DEFAULT_255_1_234
10
23.9197431
20
36.3904
11
23.7703527
21
36.3904
0
LINE
8
DEFAULT_255_1_234
10
23.7703527
20
36.3904
11
23.7703527
21
37.3807133
0
LINE
8
DEFAULT_255_1_234
10
23.7703527
20
37.3807133
11
23.4707689
21
37.2706785
0
LINE
8
DEFAULT_255_1_234
10
23.4707689
20
37.2706785
11
23.4707689
21
37.4056117
0
LINE
8
DEFAULT_255_1_234
10
23.4707689
20
37.4056117
11
23.896451
21
37.5654433
0
LINE
8
DEFAULT_255_1_234
10
23.896451
20
37.5654433
11
23.9197431
21
37.5654433
0
LINE
8
DEFAULT_255_1_234
10
21.8676657
20
44.9495565
11
21.8676657
21
44.8748614
0
LINE
8
DEFAULT_255_1_234
10
21.6628563
20
44.3913507
11
21.8716815
21
44.2275033
0
LINE
8
DEFAULT_255_1_234
10
21.8716815
20
44.2275033
11
21.7664658
21
44.1303192
0
LINE
8
DEFAULT_255_1_234
10
21.7664658
20
44.1303192
11
21.5198914
21
44.3262937
0
LINE
8
DEFAULT_255_1_234
10
20.9263459
20
44.8644201
11
20.9263459
21
44.9487534
0
LINE
8
DEFAULT_255_1_234
10
21.7134563
20
44.8636169
11
21.7134563
21
44.9503597
0
LINE
8
DEFAULT_255_1_234
10
21.0805553
20
44.960801
11
21.0805553
21
44.8748614
0
ARC
8
DEFAULT_255_1_234
10
20.9722909
20
44.8709707
40
0.8953833
50
351.453011
51
0.2489685
0
ARC
8
DEFAULT_255_1_234
10
21.2307709
20
44.8309933
40
0.6338333
50
338.6861641
51
351.5540711
0
ARC
8
DEFAULT_255_1_234
10
21.3241593
20
44.7979828
40
0.5348431
50
336.2887631
51
338.3442418
0
ARC
8
DEFAULT_255_1_234
10
21.3581215
20
44.7793698
40
0.4962747
50
321.1170344
51
336.6795229
0
ARC
8
DEFAULT_255_1_234
10
21.4213044
20
44.7307206
40
0.4165565
50
305.4419708
51
320.8705636
0
ARC
8
DEFAULT_255_1_234
10
21.4016514
20
44.8054707
40
0.4935497
50
271.6373023
51
283.8611969
0
ARC
8
DEFAULT_255_1_234
10
21.3978767
20
44.8710572
40
0.5592206
50
269.9930596
51
271.8318864
0
ARC
8
DEFAULT_255_1_234
10
21.394121
20
44.7902681
40
0.4784458
50
252.5219675
51
270.4416499
0
ARC
8
DEFAULT_255_1_234
10
21.3797469
20
44.7363592
40
0.422716
50
237.5352116
51
252.1857531
0
ARC
8
DEFAULT_255_1_234
10
21.3886665
20
44.7477363
40
0.4371052
50
209.063312
51
237.3492538
0
ARC
8
DEFAULT_255_1_234
10
21.4756513
20
44.8023685
40
0.5397041
50
205.1183774
51
209.6470015
0
ARC
8
DEFAULT_255_1_234
10
21.555355
20
44.836183
40
0.6262326
50
188.7215458
51
204.8240747
0
ARC
8
DEFAULT_255_1_234
10
21.7551078
20
44.8698067
40
0.8287794
50
180.3723947
51
188.9252049
0
ARC
8
DEFAULT_255_1_234
10
21.752383
20
44.9527402
40
0.8260467
50
169.5253763
51
180.2765336
0
ARC
8
DEFAULT_255_1_234
10
21.5621279
20
44.9877309
40
0.6326007
50
155.8315255
51
169.5089989
0
ARC
8
DEFAULT_255_1_234
10
21.434078
20
45.0471348
40
0.4914567
50
139.6258461
51
156.0379525
0
ARC
8
DEFAULT_255_1_234
10
21.3751113
20
45.0945799
40
0.4158054
50
122.6416387
51
139.3430715
0
ARC
8
DEFAULT_255_1_234
10
21.3851733
20
45.0762451
40
0.4366739
50
93.0223692
51
122.455762
0
ARC
8
DEFAULT_255_1_234
10
21.395973
20
44.9797709
40
0.5336137
50
89.975342
51
93.6341897
0
ARC
8
DEFAULT_255_1_234
10
21.3998616
20
45.0177375
40
0.4956606
50
73.9665422
51
90.4229648
0
ARC
8
DEFAULT_255_1_234
10
21.4182263
20
45.0892451
40
0.4218674
50
57.5178019
51
73.6813337
0
ARC
8
DEFAULT_255_1_234
10
21.4138046
20
45.0856462
40
0.4272816
50
28.7261108
51
57.2767933
0
ARC
8
DEFAULT_255_1_234
10
21.3227378
20
45.0293688
40
0.534218
50
24.2448911
51
29.3248482
0
ARC
8
DEFAULT_255_1_234
10
21.2301479
20
44.9910819
40
0.6343711
50
9.064382
51
23.9639114
0
ARC
8
DEFAULT_255_1_234
10
21.0045807
20
44.9531925
40
0.8630926
50
359.7586264
51
9.1891435
0
ARC
8
DEFAULT_255_1_234
10
20.8791287
20
44.9545343
40
0.834338
50
359.7133237
51
7.96545
0
ARC
8
DEFAULT_255_1_234
10
21.1753504
20
44.9972681
40
0.5350538
50
7.8291991
51
20.0421623
0
ARC
8
DEFAULT_255_1_234
10
21.3378067
20
45.0563606
40
0.3621841
50
20.0677553
51
35.9161685
0
ARC
8
DEFAULT_255_1_234
10
21.4153105
20
45.113967
40
0.2656263
50
35.6594382
51
85.1578074
0
ARC
8
DEFAULT_255_1_234
10
21.3968361
20
45.0024378
40
0.3784238
50
83.7959068
51
90.095906
0
ARC
8
DEFAULT_255_1_234
10
21.3925295
20
45.0757601
40
0.3051229
50
89.3102392
51
109.9889877
0
ARC
8
DEFAULT_255_1_234
10
21.3842778
20
45.1113433
40
0.2688988
50
110.9285147
51
143.9411762
0
ARC
8
DEFAULT_255_1_234
10
21.4773724
20
45.0401236
40
0.3860887
50
143.5289163
51
163.2980757
0
ARC
8
DEFAULT_255_1_234
10
21.6681545
20
44.9801433
40
0.5860659
50
163.0418846
51
174.3140048
0
ARC
8
DEFAULT_255_1_234
10
21.9085657
20
44.9523854
40
0.8280531
50
174.0509143
51
179.4176892
0
ARC
8
DEFAULT_255_1_234
10
21.8571992
20
44.8705634
40
0.7766558
50
179.6829237
51
188.9631324
0
ARC
8
DEFAULT_255_1_234
10
21.5901553
20
44.8270752
40
0.5060992
50
188.8100743
51
202.9300012
0
ARC
8
DEFAULT_255_1_234
10
21.4685182
20
44.7775855
40
0.3747967
50
203.2069261
51
215.7876482
0
ARC
8
DEFAULT_255_1_234
10
21.3836579
20
44.7104671
40
0.2667526
50
214.7521006
51
264.2834488
0
ARC
8
DEFAULT_255_1_234
10
21.3972234
20
44.795978
40
0.3532247
50
263.4755397
51
270.0949833
0
ARC
8
DEFAULT_255_1_234
10
21.4014345
20
44.7698374
40
0.3271036
50
269.3649385
51
287.5152008
0
ARC
8
DEFAULT_255_1_234
10
21.4192503
20
44.7051238
40
0.2600406
50
288.0630309
51
323.8113348
0
ARC
8
DEFAULT_255_1_234
10
21.3321345
20
44.7701049
40
0.3687189
50
323.6547608
51
342.6590488
0
ARC
8
DEFAULT_255_1_234
10
21.128996
20
44.8361952
40
0.5823286
50
342.4091907
51
353.6451149
0
ARC
8
DEFAULT_255_1_234
10
20.8458471
20
44.871419
40
0.8676442
50
353.4029884
51
359.4847795
0
LINE
8
DEFAULT_255_1_234
10
22.5551825
20
45.5029433
11
22.5551825
21
44.3279
0
LINE
8
DEFAULT_255_1_234
10
22.5551825
20
44.3279
11
22.4057921
21
44.3279
0
LINE
8
DEFAULT_255_1_234
10
22.4057921
20
44.3279
11
22.4057921
21
45.3182133
0
LINE
8
DEFAULT_255_1_234
10
22.4057921
20
45.3182133
11
22.1062083
21
45.2081785
0
LINE
8
DEFAULT_255_1_234
10
22.1062083
20
45.2081785
11
22.1062083
21
45.3431117
0
LINE
8
DEFAULT_255_1_234
10
22.1062083
20
45.3431117
11
22.5318904
21
45.5029433
0
LINE
8
DEFAULT_255_1_234
10
22.5318904
20
45.5029433
11
22.5551825
21
45.5029433
0
ARC
8
DEFAULT_255_1_234
10
23.1160071
20
44.4067565
40
0.1070357
50
163.5417914
51
180.5078233
0
ARC
8
DEFAULT_255_1_234
10
23.096789
20
44.4119421
40
0.0871371
50
138.1647447
51
163.2316401
0
ARC
8
DEFAULT_255_1_234
10
23.0855668
20
44.4214534
40
0.0724329
50
105.6856465
51
137.8494928
0
ARC
8
DEFAULT_255_1_234
10
23.09741
20
44.3830129
40
0.1126485
50
92.6088068
51
106.1990587
0
ARC
8
DEFAULT_255_1_234
10
23.1004474
20
44.3434774
40
0.1522861
50
89.9660831
51
93.0733434
0
ARC
8
DEFAULT_255_1_234
10
23.1015168
20
44.365632
40
0.130135
50
78.4379222
51
90.4311858
0
ARC
8
DEFAULT_255_1_234
10
23.1111749
20
44.4106588
40
0.0840873
50
56.8960528
51
78.7359558
0
ARC
8
DEFAULT_255_1_234
10
23.1174976
20
44.4216877
40
0.0713991
50
42.6499553
51
56.3125067
0
ARC
8
DEFAULT_255_1_234
10
23.1046862
20
44.4099146
40
0.0887984
50
3.8142714
51
42.6365749
0
ARC
8
DEFAULT_255_1_234
10
23.0760664
20
44.4059153
40
0.1176392
50
359.9476902
51
4.8305927
0
ARC
8
DEFAULT_255_1_234
10
23.0986823
20
44.4048541
40
0.0950282
50
340.9376387
51
0.5750546
0
ARC
8
DEFAULT_255_1_234
10
23.1099319
20
44.4018192
40
0.0834082
50
316.0805399
51
340.3842391
0
ARC
8
DEFAULT_255_1_234
10
23.1157397
20
44.3964809
40
0.0755219
50
285.8514865
51
315.9414755
0
ARC
8
DEFAULT_255_1_234
10
23.1039968
20
44.4344349
40
0.115244
50
273.1292529
51
286.3135479
0
ARC
8
DEFAULT_255_1_234
10
23.1006667
20
44.4746049
40
0.1555398
50
269.9524064
51
273.5463789
0
ARC
8
DEFAULT_255_1_234
10
23.0995619
20
44.4527792
40
0.1337177
50
259.0490813
51
270.4180302
0
ARC
8
DEFAULT_255_1_234
10
23.0899282
20
44.4050393
40
0.0850178
50
239.7587791
51
259.311372
0
ARC
8
DEFAULT_255_1_234
10
23.0818314
20
44.3899482
40
0.0679053
50
222.6244131
51
239.247817
0
ARC
8
DEFAULT_255_1_234
10
23.0952689
20
44.4022619
40
0.0861314
50
182.9227855
51
222.598345
0
ARC
8
DEFAULT_255_1_234
10
23.1221307
20
44.4057373
40
0.113155
50
179.9642935
51
183.9868025
0
LINE
8
DEFAULT_255_1_234
10
24.1567111
20
45.0194327
11
24.1567111
21
44.8266709
0
LINE
8
DEFAULT_255_1_234
10
23.4185943
20
44.8065916
11
23.4185943
21
45.0049755
0
LINE
8
DEFAULT_255_1_234
10
24.0081239
20
44.7865123
11
24.0081239
21
45.0298739
0
LINE
8
DEFAULT_255_1_234
10
23.5671815
20
45.0411184
11
23.5671815
21
44.8033789
0
ARC
8
DEFAULT_255_1_234
10
22.932
20
44.8217805
40
1.2247208
50
353.8441951
51
0.2287902
0
ARC
8
DEFAULT_255_1_234
10
23.3959504
20
44.7699806
40
0.7578929
50
344.4934747
51
353.9765454
0
ARC
8
DEFAULT_255_1_234
10
23.6952094
20
44.6848981
40
0.4467846
50
329.2803592
51
344.7472793
0
ARC
8
DEFAULT_255_1_234
10
23.7944919
20
44.6304018
40
0.3336173
50
324.9352394
51
328.6160465
0
ARC
8
DEFAULT_255_1_234
10
23.8322028
20
44.6040427
40
0.2876076
50
280.580143
51
324.9173126
0
ARC
8
DEFAULT_255_1_234
10
23.792082
20
44.7711099
40
0.4592847
50
269.5977311
51
281.6734359
0
ARC
8
DEFAULT_255_1_234
10
23.7848726
20
44.7591173
40
0.4472986
50
256.6228859
51
270.51044
0
ARC
8
DEFAULT_255_1_234
10
23.7446704
20
44.6042877
40
0.2873874
50
215.8618325
51
257.2788573
0
ARC
8
DEFAULT_255_1_234
10
23.8467735
20
44.6727977
40
0.4102928
50
197.9693508
51
215.2623606
0
ARC
8
DEFAULT_255_1_234
10
24.0952851
20
44.7566709
40
0.6725652
50
187.8816417
51
198.2346507
0
ARC
8
DEFAULT_255_1_234
10
24.4911059
20
44.8138079
40
1.0724845
50
180.8976217
51
188.0055519
0
ARC
8
DEFAULT_255_1_234
10
24.7711248
20
44.8241777
40
1.3526448
50
180.7449369
51
181.1510016
0
ARC
8
DEFAULT_255_1_234
10
24.6133977
20
45.0098042
40
1.1948131
50
173.7675579
51
180.231553
0
ARC
8
DEFAULT_255_1_234
10
24.1616123
20
45.0608666
40
0.7401564
50
164.3058563
51
173.9002247
0
ARC
8
DEFAULT_255_1_234
10
23.8704192
20
45.1447656
40
0.4371288
50
148.7922025
51
164.568378
0
ARC
8
DEFAULT_255_1_234
10
23.7752644
20
45.1978929
40
0.3282386
50
144.5883898
51
148.1176286
0
ARC
8
DEFAULT_255_1_234
10
23.7409542
20
45.2218315
40
0.2864044
50
101.6440918
51
144.514236
0
ARC
8
DEFAULT_255_1_234
10
23.7834609
20
45.0529069
40
0.4604934
50
89.5284041
51
102.5819763
0
ARC
8
DEFAULT_255_1_234
10
23.7913697
20
45.0490018
40
0.464401
50
77.0437873
51
90.5081339
0
ARC
8
DEFAULT_255_1_234
10
23.8315698
20
45.2132615
40
0.2953195
50
48.2778575
51
77.4994676
0
ARC
8
DEFAULT_255_1_234
10
23.838833
20
45.2261746
40
0.2808655
50
36.3142134
51
47.6305865
0
ARC
8
DEFAULT_255_1_234
10
23.7519637
20
45.1676515
40
0.3855453
50
18.2931786
51
35.6769206
0
ARC
8
DEFAULT_255_1_234
10
23.4976395
20
45.0803593
40
0.654423
50
8.024666
51
18.5605216
0
ARC
8
DEFAULT_255_1_234
10
23.0813315
20
45.0188792
40
1.0752407
50
1.1274072
51
8.1718305
0
ARC
8
DEFAULT_255_1_234
10
22.7577506
20
45.0061885
40
1.3990231
50
0.5424119
51
1.3863029
0
ARC
8
DEFAULT_255_1_234
10
22.9398884
20
45.0334342
40
1.0682415
50
359.8090433
51
4.9407866
0
ARC
8
DEFAULT_255_1_234
10
23.3608898
20
45.0710113
40
0.6455691
50
4.8362157
51
12.2904523
0
ARC
8
DEFAULT_255_1_234
10
23.6364013
20
45.1323965
40
0.3633074
50
12.0805627
51
23.8173984
0
ARC
8
DEFAULT_255_1_234
10
23.7537718
20
45.1820919
40
0.2358723
50
24.2871213
51
31.3935614
0
ARC
8
DEFAULT_255_1_234
10
23.8062415
20
45.2164233
40
0.1732111
50
30.7407893
51
82.4657128
0
ARC
8
DEFAULT_255_1_234
10
23.788255
20
45.1280691
40
0.263235
50
81.1060089
51
90.2184952
0
ARC
8
DEFAULT_255_1_234
10
23.7846848
20
45.1538924
40
0.2374236
50
89.3806855
51
105.6762551
0
ARC
8
DEFAULT_255_1_234
10
23.7663479
20
45.2205567
40
0.1682847
50
105.7981136
51
149.7388061
0
ARC
8
DEFAULT_255_1_234
10
23.8727557
20
45.156595
40
0.2924306
50
149.4208916
51
163.6286378
0
ARC
8
DEFAULT_255_1_234
10
24.0818445
20
45.092825
40
0.5110213
50
163.3763315
51
172.1410975
0
ARC
8
DEFAULT_255_1_234
10
24.4119164
20
45.0455518
40
0.8444586
50
172.0259487
51
178.0703232
0
ARC
8
DEFAULT_255_1_234
10
24.7149254
20
45.0311906
40
1.1477868
50
177.8631668
51
179.5044149
0
ARC
8
DEFAULT_255_1_234
10
24.6076658
20
44.7997389
40
1.0404907
50
179.7995573
51
185.2460446
0
ARC
8
DEFAULT_255_1_234
10
24.2033698
20
44.7614513
40
0.6343885
50
185.1411642
51
193.0079639
0
ARC
8
DEFAULT_255_1_234
10
23.939017
20
44.6989641
40
0.3627568
50
192.7897626
51
205.2507664
0
ARC
8
DEFAULT_255_1_234
10
23.8343717
20
44.6522415
40
0.2481908
50
205.8005384
51
211.2537509
0
ARC
8
DEFAULT_255_1_234
10
23.7820158
20
44.617158
40
0.1852521
50
210.3789793
51
238.4008143
0
ARC
8
DEFAULT_255_1_234
10
23.780068
20
44.6218376
40
0.1882621
50
239.6520629
51
265.9793761
0
ARC
8
DEFAULT_255_1_234
10
23.788588
20
44.6890427
40
0.2559272
50
265.1315437
51
270.060332
0
ARC
8
DEFAULT_255_1_234
10
23.7914659
20
44.6566534
40
0.2235528
50
269.3314664
51
287.2178029
0
ARC
8
DEFAULT_255_1_234
10
23.805251
20
44.6063279
40
0.1714108
50
287.7958004
51
329.080874
0
ARC
8
DEFAULT_255_1_234
10
23.7094967
20
44.666093
40
0.2842745
50
328.6634704
51
343.3325132
0
ARC
8
DEFAULT_255_1_234
10
23.4921987
20
44.7337863
40
0.5118644
50
343.0499468
51
351.9393422
0
ARC
8
DEFAULT_255_1_234
10
23.1455287
20
44.7848949
40
0.8622784
50
351.8069023
51
357.7959224
0
ARC
8
DEFAULT_255_1_234
10
22.8219843
20
44.8016721
40
1.1862365
50
357.5871873
51
359.2677531
0
ENDSEC
0
EOF