0
SECTION
2
HEADER
9
$MEASUREMENT
70
1
0
ENDSEC
0
SECTION
2
TABLES
0
TABLE
2
LTYPE
0
LTYPE
72
65
70
64
2
CONTINUOUS
3
______
73
0
40
0
0
ENDTAB
0
TABLE
2
LAYER
0
LAYER
2
DEFAULT_255_2_778
70
0
62
255
6
CONTINUOUS
0
LAYER
2
DEFAULT_255_1_234
70
0
62
255
6
CONTINUOUS
0
ENDTAB
0
ENDSEC
0
SECTION
2
ENTITIES
0
ARC
8
DEFAULT_255_2_778
10
3.5695693
20
91.6802028
40
0.7914215
50
129.1312896
51
180.1450914
0
ARC
8
DEFAULT_255_2_778
10
3.5698345
20
91.6806899
40
0.7912112
50
89.854026
51
129.1684493
0
ARC
8
DEFAULT_255_2_778
10
25.7988937
20
91.6803765
40
0.7915249
50
39.4792447
51
90.147911
0
ARC
8
DEFAULT_255_2_778
10
25.7994935
20
91.6802231
40
0.7911595
50
359.8533901
51
39.5154338
0
ARC
8
DEFAULT_255_2_778
10
25.7991693
20
-1.9863495
40
0.7914836
50
309.4761667
51
0.1482649
0
ARC
8
DEFAULT_255_2_778
10
25.798898
20
-1.9867805
40
0.7913235
50
269.8517415
51
309.511178
0
ARC
8
DEFAULT_255_2_778
10
3.569842
20
-1.9867224
40
0.7913815
50
219.1282118
51
270.1454017
0
ARC
8
DEFAULT_255_2_778
10
3.5695247
20
-1.9863399
40
0.7913769
50
179.8524075
51
219.1641908
0
LINE
8
DEFAULT_255_2_778
10
3.5718503
20
92.4718987
11
25.7968503
21
92.4718987
0
LINE
8
DEFAULT_255_2_778
10
26.5906503
20
91.6781987
11
26.5906503
21
-1.9843013
0
LINE
8
DEFAULT_255_2_778
10
25.7968503
20
-2.7781013
11
3.5718503
21
-2.7781013
0
LINE
8
DEFAULT_255_2_778
10
2.7781503
20
-1.9843013
11
2.7781503
21
91.6781987
0
LINE
8
DEFAULT_255_1_234
10
9.2659835
20
0.5189243
11
9.2924882
21
0.5189243
0
LINE
8
DEFAULT_255_1_234
10
9.2924882
20
0.5189243
11
9.2924882
21
0.392826
0
LINE
8
DEFAULT_255_1_234
10
9.2924882
20
0.392826
11
9.2651803
21
0.392826
0
LINE
8
DEFAULT_255_1_234
10
8.7182189
20
-0.2063417
11
8.7182189
21
-0.1493164
0
LINE
8
DEFAULT_255_1_234
10
8.8676093
20
-0.1685925
11
8.8676093
21
-0.2232083
0
ARC
8
DEFAULT_255_1_234
10
9.2704151
20
-0.1069545
40
0.4998079
50
90.6001036
51
104.514704
0
ARC
8
DEFAULT_255_1_234
10
9.2315667
20
0.0375131
40
0.3502176
50
104.2855254
51
133.862935
0
ARC
8
DEFAULT_255_1_234
10
9.2479424
20
0.026683
40
0.3693984
50
134.5302688
51
161.6210873
0
ARC
8
DEFAULT_255_1_234
10
9.4132613
20
-0.0316105
40
0.5446739
50
161.2849839
51
174.2076652
0
ARC
8
DEFAULT_255_1_234
10
9.553955
20
-0.0510213
40
0.6866274
50
173.7810589
51
174.9254635
0
ARC
8
DEFAULT_255_1_234
10
9.0989382
20
-0.1893161
40
0.3033419
50
95.8330959
51
138.9954921
0
ARC
8
DEFAULT_255_1_234
10
9.1212738
20
-0.3171625
40
0.4328947
50
89.8753725
51
97.0544009
0
ARC
8
DEFAULT_255_1_234
10
9.1260204
20
-0.2336252
40
0.3493769
50
71.6407809
51
90.6240094
0
ARC
8
DEFAULT_255_1_234
10
9.1410777
20
-0.1781918
40
0.2920396
50
39.6367836
51
71.019018
0
ARC
8
DEFAULT_255_1_234
10
9.077425
20
-0.2332002
40
0.3761538
50
10.658731
51
39.9043955
0
ARC
8
DEFAULT_255_1_234
10
8.9226333
20
-0.2668314
40
0.5345136
50
359.682601
51
11.132623
0
ARC
8
DEFAULT_255_1_234
10
8.9186464
20
-0.273899
40
0.5385081
50
347.2486944
51
0.4369317
0
ARC
8
DEFAULT_255_1_234
10
9.0853941
20
-0.3140193
40
0.3670249
50
318.1409698
51
347.6118597
0
ARC
8
DEFAULT_255_1_234
10
9.1178934
20
-0.3407298
40
0.3250007
50
275.6342139
51
317.8248465
0
ARC
8
DEFAULT_255_1_234
10
9.0958045
20
-0.2107781
40
0.4565864
50
269.8874292
51
276.7917694
0
ARC
8
DEFAULT_255_1_234
10
9.0903116
20
-0.3133257
40
0.3540676
50
246.9140195
51
270.7437342
0
ARC
8
DEFAULT_255_1_234
10
9.0909506
20
-0.3275616
40
0.3412781
50
218.1665114
51
245.878116
0
ARC
8
DEFAULT_255_1_234
10
9.1788967
20
-0.2539721
40
0.455911
50
191.4115814
51
218.6077802
0
ARC
8
DEFAULT_255_1_234
10
9.3727056
20
-0.2105167
40
0.6545001
50
179.6345085
51
191.7836486
0
ARC
8
DEFAULT_255_1_234
10
9.9309393
20
-0.1426303
40
1.2127388
50
171.4525249
51
180.3158839
0
ARC
8
DEFAULT_255_1_234
10
9.4914269
20
-0.0742392
40
0.7679464
50
157.9802646
51
171.6246686
0
ARC
8
DEFAULT_255_1_234
10
9.270029
20
0.0140421
40
0.5296008
50
141.4298019
51
157.854097
0
ARC
8
DEFAULT_255_1_234
10
9.205861
20
0.0594381
40
0.4511509
50
102.8715806
51
140.8564722
0
ARC
8
DEFAULT_255_1_234
10
9.2706226
20
-0.1845448
40
0.7034845
50
90.3778349
51
103.5869322
0
ARC
8
DEFAULT_255_1_234
10
9.0968002
20
-0.245027
40
0.2370698
50
89.8751008
51
126.2071704
0
ARC
8
DEFAULT_255_1_234
10
9.1013792
20
-0.2604697
40
0.2522934
50
124.9745049
51
144.895901
0
ARC
8
DEFAULT_255_1_234
10
9.0837982
20
-0.246144
40
0.2296779
50
145.2974905
51
160.2660252
0
ARC
8
DEFAULT_255_1_234
10
9.3910521
20
-0.2263929
40
0.5234525
50
179.6514266
51
190.2855912
0
ARC
8
DEFAULT_255_1_234
10
9.2216658
20
-0.2583214
40
0.3510893
50
190.0945431
51
207.5098196
0
ARC
8
DEFAULT_255_1_234
10
9.1650928
20
-0.2852377
40
0.288489
50
207.9583163
51
216.3251085
0
ARC
8
DEFAULT_255_1_234
10
9.1311036
20
-0.3131895
40
0.2445587
50
215.7661442
51
232.5456785
0
ARC
8
DEFAULT_255_1_234
10
9.0928019
20
-0.3618518
40
0.1826382
50
232.8005391
51
270.6605633
0
ARC
8
DEFAULT_255_1_234
10
9.097372
20
-0.3254388
40
0.2190529
50
269.35537
51
288.4744281
0
ARC
8
DEFAULT_255_1_234
10
9.1066617
20
-0.3603882
40
0.1829749
50
289.1833337
51
322.9683818
0
ARC
8
DEFAULT_255_1_234
10
9.0455139
20
-0.3121609
40
0.2608399
50
322.6007884
51
346.5182367
0
ARC
8
DEFAULT_255_1_234
10
8.9297735
20
-0.2826384
40
0.3802777
50
346.2582162
51
358.7741648
0
ARC
8
DEFAULT_255_1_234
10
8.8279404
20
-0.2771035
40
0.4822176
50
358.3755224
51
0.0098023
0
ARC
8
DEFAULT_255_1_234
10
8.9035591
20
-0.2743343
40
0.4066078
50
359.6214041
51
11.2839074
0
ARC
8
DEFAULT_255_1_234
10
9.0312738
20
-0.2476934
40
0.2761514
50
11.0482309
51
31.8146458
0
ARC
8
DEFAULT_255_1_234
10
9.0621781
20
-0.2309416
40
0.2410679
50
32.3035391
51
38.082671
0
ARC
8
DEFAULT_255_1_234
10
9.1042441
20
-0.1928338
40
0.1844966
50
36.825067
51
85.7415724
0
ARC
8
DEFAULT_255_1_234
10
9.0975274
20
-0.2428699
40
0.2349122
50
85.0140713
51
90.0513278
0
LINE
8
DEFAULT_255_1_234
10
9.9952653
20
-0.6513
11
9.6715863
21
-0.6513
0
LINE
8
DEFAULT_255_1_234
10
9.6715863
20
-0.6513
11
9.6715863
21
0.5181211
0
LINE
8
DEFAULT_255_1_234
10
9.6715863
20
0.5181211
11
10.0016907
21
0.5181211
0
LINE
8
DEFAULT_255_1_234
10
10.5173283
20
-0.0272339
11
10.5173283
21
-0.1019291
0
LINE
8
DEFAULT_255_1_234
10
10.0057066
20
0.3912196
11
9.8257957
21
0.3912196
0
LINE
8
DEFAULT_255_1_234
10
9.8257957
20
0.3912196
11
9.8257957
21
-0.5252017
0
LINE
8
DEFAULT_255_1_234
10
9.8257957
20
-0.5252017
11
9.9880368
21
-0.5252017
0
LINE
8
DEFAULT_255_1_234
10
10.3647253
20
-0.0987164
11
10.3647253
21
-0.0304466
0
ARC
8
DEFAULT_255_1_234
10
10.005585
20
-0.0684106
40
0.5865446
50
75.4101064
51
90.3804066
0
ARC
8
DEFAULT_255_1_234
10
10.0285363
20
0.0272492
40
0.4881916
50
60.145586
51
75.1888407
0
ARC
8
DEFAULT_255_1_234
10
10.0444139
20
0.0549199
40
0.4562893
50
26.5253612
51
60.1450928
0
ARC
8
DEFAULT_255_1_234
10
9.9323888
20
-0.0044842
40
0.5830602
50
7.4030428
51
26.8320788
0
ARC
8
DEFAULT_255_1_234
10
9.7729645
20
-0.0293196
40
0.7443669
50
0.1605367
51
7.7176192
0
ARC
8
DEFAULT_255_1_234
10
9.7893549
20
-0.1057566
40
0.7279835
50
348.7289388
51
0.3012466
0
ARC
8
DEFAULT_255_1_234
10
9.954998
20
-0.1386614
40
0.559104
50
333.0706509
51
348.7181832
0
ARC
8
DEFAULT_255_1_234
10
10.0516737
20
-0.1911681
40
0.4491417
50
299.2531685
51
333.4571258
0
ARC
8
DEFAULT_255_1_234
10
10.0155877
20
-0.1226172
40
0.5265881
50
278.107187
51
299.0339503
0
ARC
8
DEFAULT_255_1_234
10
9.9899956
20
0.0281216
40
0.679442
50
270.4443897
51
278.4511052
0
ARC
8
DEFAULT_255_1_234
10
9.9920786
20
-0.0647787
40
0.4604407
50
269.4970433
51
284.0205042
0
ARC
8
DEFAULT_255_1_234
10
10.0276087
20
-0.2013022
40
0.3193797
50
283.7700273
51
318.1555492
0
ARC
8
DEFAULT_255_1_234
10
9.9938845
20
-0.1760633
40
0.3613588
50
318.7415601
51
343.6873628
0
ARC
8
DEFAULT_255_1_234
10
9.8134868
20
-0.1197168
40
0.5503313
50
343.3325091
51
355.8548958
0
ARC
8
DEFAULT_255_1_234
10
9.6036553
20
-0.0997681
40
0.7610708
50
355.4988528
51
0.0791727
0
ARC
8
DEFAULT_255_1_234
10
9.6819175
20
-0.026222
40
0.6828208
50
359.6455037
51
9.8607896
0
ARC
8
DEFAULT_255_1_234
10
9.9179873
20
0.0164099
40
0.4429406
50
9.6571907
51
26.1932807
0
ARC
8
DEFAULT_255_1_234
10
10.0107862
20
0.0595118
40
0.3406537
50
26.5777228
51
40.1532208
0
ARC
8
DEFAULT_255_1_234
10
10.0363588
20
0.0794619
40
0.308246
50
40.3840491
51
80.1431104
0
ARC
8
DEFAULT_255_1_234
10
10.0036706
20
-0.0654667
40
0.4566909
50
79.2152159
51
89.7445637
0
LINE
8
DEFAULT_255_1_234
10
11.0739278
20
-0.6513
11
10.7502487
21
-0.6513
0
LINE
8
DEFAULT_255_1_234
10
10.7502487
20
-0.6513
11
10.7502487
21
0.5181211
0
LINE
8
DEFAULT_255_1_234
10
10.7502487
20
0.5181211
11
11.0803532
21
0.5181211
0
LINE
8
DEFAULT_255_1_234
10
11.5959908
20
-0.0272339
11
11.5959908
21
-0.1019291
0
LINE
8
DEFAULT_255_1_234
10
11.084369
20
0.3912196
11
10.9044581
21
0.3912196
0
LINE
8
DEFAULT_255_1_234
10
10.9044581
20
0.3912196
11
10.9044581
21
-0.5252017
0
LINE
8
DEFAULT_255_1_234
10
10.9044581
20
-0.5252017
11
11.0666992
21
-0.5252017
0
LINE
8
DEFAULT_255_1_234
10
11.4433877
20
-0.0987164
11
11.4433877
21
-0.0304466
0
ARC
8
DEFAULT_255_1_234
10
11.0842474
20
-0.0684106
40
0.5865446
50
75.4101064
51
90.3804066
0
ARC
8
DEFAULT_255_1_234
10
11.1071988
20
0.0272492
40
0.4881916
50
60.145586
51
75.1888407
0
ARC
8
DEFAULT_255_1_234
10
11.1230763
20
0.0549199
40
0.4562893
50
26.5253612
51
60.1450928
0
ARC
8
DEFAULT_255_1_234
10
11.0110513
20
-0.0044842
40
0.5830602
50
7.4030428
51
26.8320788
0
ARC
8
DEFAULT_255_1_234
10
10.8516269
20
-0.0293196
40
0.7443669
50
0.1605367
51
7.7176192
0
ARC
8
DEFAULT_255_1_234
10
10.8680174
20
-0.1057566
40
0.7279835
50
348.7289388
51
0.3012466
0
ARC
8
DEFAULT_255_1_234
10
11.0336604
20
-0.1386614
40
0.559104
50
333.0706509
51
348.7181832
0
ARC
8
DEFAULT_255_1_234
10
11.1303362
20
-0.1911681
40
0.4491417
50
299.2531685
51
333.4571258
0
ARC
8
DEFAULT_255_1_234
10
11.0942501
20
-0.1226172
40
0.5265881
50
278.107187
51
299.0339503
0
ARC
8
DEFAULT_255_1_234
10
11.068658
20
0.0281216
40
0.679442
50
270.4443897
51
278.4511052
0
ARC
8
DEFAULT_255_1_234
10
11.070741
20
-0.0647787
40
0.4604407
50
269.4970433
51
284.0205042
0
ARC
8
DEFAULT_255_1_234
10
11.1062711
20
-0.2013022
40
0.3193797
50
283.7700273
51
318.1555492
0
ARC
8
DEFAULT_255_1_234
10
11.072547
20
-0.1760633
40
0.3613588
50
318.7415601
51
343.6873628
0
ARC
8
DEFAULT_255_1_234
10
10.8921493
20
-0.1197168
40
0.5503313
50
343.3325091
51
355.8548958
0
ARC
8
DEFAULT_255_1_234
10
10.6823177
20
-0.0997681
40
0.7610708
50
355.4988528
51
0.0791727
0
ARC
8
DEFAULT_255_1_234
10
10.76058
20
-0.026222
40
0.6828208
50
359.6455037
51
9.8607896
0
ARC
8
DEFAULT_255_1_234
10
10.9966498
20
0.0164099
40
0.4429406
50
9.6571907
51
26.1932807
0
ARC
8
DEFAULT_255_1_234
10
11.0894486
20
0.0595118
40
0.3406537
50
26.5777228
51
40.1532208
0
ARC
8
DEFAULT_255_1_234
10
11.1150213
20
0.0794619
40
0.308246
50
40.3840491
51
80.1431104
0
ARC
8
DEFAULT_255_1_234
10
11.082333
20
-0.0654667
40
0.4566909
50
79.2152159
51
89.7445637
0
LINE
8
DEFAULT_255_1_234
10
12.2786885
20
0.5237433
11
12.2786885
21
-0.6513
0
LINE
8
DEFAULT_255_1_234
10
12.2786885
20
-0.6513
11
12.1292982
21
-0.6513
0
LINE
8
DEFAULT_255_1_234
10
12.1292982
20
-0.6513
11
12.1292982
21
0.3390133
0
LINE
8
DEFAULT_255_1_234
10
12.1292982
20
0.3390133
11
11.8297144
21
0.2289785
0
LINE
8
DEFAULT_255_1_234
10
11.8297144
20
0.2289785
11
11.8297144
21
0.3639117
0
LINE
8
DEFAULT_255_1_234
10
11.8297144
20
0.3639117
11
12.2553965
21
0.5237433
0
LINE
8
DEFAULT_255_1_234
10
12.2553965
20
0.5237433
11
12.2786885
21
0.5237433
0
LINE
8
DEFAULT_255_1_234
10
13.2706082
20
0.5189243
11
13.2971129
21
0.5189243
0
LINE
8
DEFAULT_255_1_234
10
13.2971129
20
0.5189243
11
13.2971129
21
0.392826
0
LINE
8
DEFAULT_255_1_234
10
13.2971129
20
0.392826
11
13.269805
21
0.392826
0
LINE
8
DEFAULT_255_1_234
10
12.7228437
20
-0.2063417
11
12.7228437
21
-0.1493164
0
LINE
8
DEFAULT_255_1_234
10
12.872234
20
-0.1685925
11
12.872234
21
-0.2232083
0
ARC
8
DEFAULT_255_1_234
10
13.2750398
20
-0.1069545
40
0.4998079
50
90.6001036
51
104.514704
0
ARC
8
DEFAULT_255_1_234
10
13.2361914
20
0.0375131
40
0.3502176
50
104.2855254
51
133.862935
0
ARC
8
DEFAULT_255_1_234
10
13.2525671
20
0.026683
40
0.3693984
50
134.5302688
51
161.6210873
0
ARC
8
DEFAULT_255_1_234
10
13.417886
20
-0.0316105
40
0.5446739
50
161.2849839
51
174.2076652
0
ARC
8
DEFAULT_255_1_234
10
13.5585797
20
-0.0510213
40
0.6866274
50
173.7810589
51
174.9254635
0
ARC
8
DEFAULT_255_1_234
10
13.1035629
20
-0.1893161
40
0.3033419
50
95.8330959
51
138.9954921
0
ARC
8
DEFAULT_255_1_234
10
13.1258985
20
-0.3171625
40
0.4328947
50
89.8753725
51
97.0544009
0
ARC
8
DEFAULT_255_1_234
10
13.1306451
20
-0.2336252
40
0.3493769
50
71.6407809
51
90.6240094
0
ARC
8
DEFAULT_255_1_234
10
13.1457024
20
-0.1781918
40
0.2920396
50
39.6367836
51
71.019018
0
ARC
8
DEFAULT_255_1_234
10
13.0820497
20
-0.2332002
40
0.3761538
50
10.658731
51
39.9043955
0
ARC
8
DEFAULT_255_1_234
10
12.927258
20
-0.2668314
40
0.5345136
50
359.682601
51
11.132623
0
ARC
8
DEFAULT_255_1_234
10
12.9232711
20
-0.273899
40
0.5385081
50
347.2486944
51
0.4369317
0
ARC
8
DEFAULT_255_1_234
10
13.0900188
20
-0.3140193
40
0.3670249
50
318.1409698
51
347.6118597
0
ARC
8
DEFAULT_255_1_234
10
13.1225181
20
-0.3407298
40
0.3250007
50
275.6342139
51
317.8248465
0
ARC
8
DEFAULT_255_1_234
10
13.1004292
20
-0.2107781
40
0.4565864
50
269.8874292
51
276.7917694
0
ARC
8
DEFAULT_255_1_234
10
13.0949363
20
-0.3133257
40
0.3540676
50
246.9140195
51
270.7437342
0
ARC
8
DEFAULT_255_1_234
10
13.0955753
20
-0.3275616
40
0.3412781
50
218.1665114
51
245.878116
0
ARC
8
DEFAULT_255_1_234
10
13.1835214
20
-0.2539721
40
0.455911
50
191.4115814
51
218.6077802
0
ARC
8
DEFAULT_255_1_234
10
13.3773303
20
-0.2105167
40
0.6545001
50
179.6345085
51
191.7836486
0
ARC
8
DEFAULT_255_1_234
10
13.935564
20
-0.1426303
40
1.2127388
50
171.4525249
51
180.3158839
0
ARC
8
DEFAULT_255_1_234
10
13.4960516
20
-0.0742392
40
0.7679464
50
157.9802646
51
171.6246686
0
ARC
8
DEFAULT_255_1_234
10
13.2746537
20
0.0140421
40
0.5296008
50
141.4298019
51
157.854097
0
ARC
8
DEFAULT_255_1_234
10
13.2104858
20
0.0594381
40
0.4511509
50
102.8715806
51
140.8564722
0
ARC
8
DEFAULT_255_1_234
10
13.2752473
20
-0.1845448
40
0.7034845
50
90.3778349
51
103.5869322
0
ARC
8
DEFAULT_255_1_234
10
13.1014249
20
-0.245027
40
0.2370698
50
89.8751008
51
126.2071704
0
ARC
8
DEFAULT_255_1_234
10
13.1060039
20
-0.2604697
40
0.2522934
50
124.9745049
51
144.895901
0
ARC
8
DEFAULT_255_1_234
10
13.0884229
20
-0.246144
40
0.2296779
50
145.2974905
51
160.2660252
0
ARC
8
DEFAULT_255_1_234
10
13.3956768
20
-0.2263929
40
0.5234525
50
179.6514266
51
190.2855912
0
ARC
8
DEFAULT_255_1_234
10
13.2262905
20
-0.2583214
40
0.3510893
50
190.0945431
51
207.5098196
0
ARC
8
DEFAULT_255_1_234
10
13.1697175
20
-0.2852377
40
0.288489
50
207.9583163
51
216.3251085
0
ARC
8
DEFAULT_255_1_234
10
13.1357283
20
-0.3131895
40
0.2445587
50
215.7661442
51
232.5456785
0
ARC
8
DEFAULT_255_1_234
10
13.0974266
20
-0.3618518
40
0.1826382
50
232.8005391
51
270.6605633
0
ARC
8
DEFAULT_255_1_234
10
13.1019967
20
-0.3254388
40
0.2190529
50
269.35537
51
288.4744281
0
ARC
8
DEFAULT_255_1_234
10
13.1112864
20
-0.3603882
40
0.1829749
50
289.1833337
51
322.9683818
0
ARC
8
DEFAULT_255_1_234
10
13.0501386
20
-0.3121609
40
0.2608399
50
322.6007884
51
346.5182367
0
ARC
8
DEFAULT_255_1_234
10
12.9343982
20
-0.2826384
40
0.3802777
50
346.2582162
51
358.7741648
0
ARC
8
DEFAULT_255_1_234
10
12.8325651
20
-0.2771035
40
0.4822176
50
358.3755224
51
0.0098023
0
ARC
8
DEFAULT_255_1_234
10
12.9081838
20
-0.2743343
40
0.4066078
50
359.6214041
51
11.2839074
0
ARC
8
DEFAULT_255_1_234
10
13.0358985
20
-0.2476934
40
0.2761514
50
11.0482309
51
31.8146458
0
ARC
8
DEFAULT_255_1_234
10
13.0668028
20
-0.2309416
40
0.2410679
50
32.3035391
51
38.082671
0
ARC
8
DEFAULT_255_1_234
10
13.1088688
20
-0.1928338
40
0.1844966
50
36.825067
51
85.7415724
0
ARC
8
DEFAULT_255_1_234
10
13.1021521
20
-0.2428699
40
0.2349122
50
85.0140713
51
90.0513278
0
LINE
8
DEFAULT_255_1_234
10
14.3709563
20
0.0402327
11
14.3709563
21
-0.1525291
0
LINE
8
DEFAULT_255_1_234
10
13.6328396
20
-0.1726084
11
13.6328396
21
0.0257755
0
LINE
8
DEFAULT_255_1_234
10
14.2223692
20
-0.1926877
11
14.2223692
21
0.0506739
0
LINE
8
DEFAULT_255_1_234
10
13.7814268
20
0.0619184
11
13.7814268
21
-0.1758211
0
ARC
8
DEFAULT_255_1_234
10
13.1462453
20
-0.1574195
40
1.2247208
50
353.8441951
51
0.2287902
0
ARC
8
DEFAULT_255_1_234
10
13.6101957
20
-0.2092194
40
0.7578929
50
344.4934747
51
353.9765454
0
ARC
8
DEFAULT_255_1_234
10
13.9094547
20
-0.2943019
40
0.4467846
50
329.2803592
51
344.7472793
0
ARC
8
DEFAULT_255_1_234
10
14.0087372
20
-0.3487982
40
0.3336173
50
324.9352394
51
328.6160465
0
ARC
8
DEFAULT_255_1_234
10
14.0464481
20
-0.3751573
40
0.2876076
50
280.580143
51
324.9173126
0
ARC
8
DEFAULT_255_1_234
10
14.0063273
20
-0.2080901
40
0.4592847
50
269.5977311
51
281.6734359
0
ARC
8
DEFAULT_255_1_234
10
13.9991179
20
-0.2200827
40
0.4472986
50
256.6228859
51
270.51044
0
ARC
8
DEFAULT_255_1_234
10
13.9589157
20
-0.3749123
40
0.2873874
50
215.8618325
51
257.2788573
0
ARC
8
DEFAULT_255_1_234
10
14.0610188
20
-0.3064023
40
0.4102928
50
197.9693508
51
215.2623606
0
ARC
8
DEFAULT_255_1_234
10
14.3095304
20
-0.2225291
40
0.6725652
50
187.8816417
51
198.2346507
0
ARC
8
DEFAULT_255_1_234
10
14.7053512
20
-0.1653921
40
1.0724845
50
180.8976217
51
188.0055519
0
ARC
8
DEFAULT_255_1_234
10
14.98537
20
-0.1550223
40
1.3526448
50
180.7449369
51
181.1510016
0
ARC
8
DEFAULT_255_1_234
10
14.8276429
20
0.0306042
40
1.1948131
50
173.7675579
51
180.231553
0
ARC
8
DEFAULT_255_1_234
10
14.3758576
20
0.0816666
40
0.7401564
50
164.3058563
51
173.9002247
0
ARC
8
DEFAULT_255_1_234
10
14.0846645
20
0.1655656
40
0.4371288
50
148.7922025
51
164.568378
0
ARC
8
DEFAULT_255_1_234
10
13.9895097
20
0.2186929
40
0.3282386
50
144.5883898
51
148.1176286
0
ARC
8
DEFAULT_255_1_234
10
13.9551995
20
0.2426315
40
0.2864044
50
101.6440918
51
144.514236
0
ARC
8
DEFAULT_255_1_234
10
13.9977062
20
0.0737069
40
0.4604934
50
89.5284041
51
102.5819763
0
ARC
8
DEFAULT_255_1_234
10
14.0056149
20
0.0698018
40
0.464401
50
77.0437873
51
90.5081339
0
ARC
8
DEFAULT_255_1_234
10
14.0458151
20
0.2340615
40
0.2953195
50
48.2778575
51
77.4994676
0
ARC
8
DEFAULT_255_1_234
10
14.0530782
20
0.2469746
40
0.2808655
50
36.3142134
51
47.6305865
0
ARC
8
DEFAULT_255_1_234
10
13.9662089
20
0.1884515
40
0.3855453
50
18.2931786
51
35.6769206
0
ARC
8
DEFAULT_255_1_234
10
13.7118848
20
0.1011593
40
0.654423
50
8.024666
51
18.5605216
0
ARC
8
DEFAULT_255_1_234
10
13.2955768
20
0.0396792
40
1.0752407
50
1.1274072
51
8.1718305
0
ARC
8
DEFAULT_255_1_234
10
12.9719959
20
0.0269885
40
1.3990231
50
0.5424119
51
1.3863029
0
ARC
8
DEFAULT_255_1_234
10
13.1541337
20
0.0542342
40
1.0682415
50
359.8090433
51
4.9407866
0
ARC
8
DEFAULT_255_1_234
10
13.5751351
20
0.0918113
40
0.6455691
50
4.8362157
51
12.2904523
0
ARC
8
DEFAULT_255_1_234
10
13.8506465
20
0.1531965
40
0.3633074
50
12.0805627
51
23.8173984
0
ARC
8
DEFAULT_255_1_234
10
13.9680171
20
0.2028919
40
0.2358723
50
24.2871213
51
31.3935614
0
ARC
8
DEFAULT_255_1_234
10
14.0204868
20
0.2372233
40
0.1732111
50
30.7407893
51
82.4657128
0
ARC
8
DEFAULT_255_1_234
10
14.0025002
20
0.1488691
40
0.263235
50
81.1060089
51
90.2184952
0
ARC
8
DEFAULT_255_1_234
10
13.9989301
20
0.1746924
40
0.2374236
50
89.3806855
51
105.6762551
0
ARC
8
DEFAULT_255_1_234
10
13.9805932
20
0.2413567
40
0.1682847
50
105.7981136
51
149.7388061
0
ARC
8
DEFAULT_255_1_234
10
14.087001
20
0.177395
40
0.2924306
50
149.4208916
51
163.6286378
0
ARC
8
DEFAULT_255_1_234
10
14.2960898
20
0.113625
40
0.5110213
50
163.3763315
51
172.1410975
0
ARC
8
DEFAULT_255_1_234
10
14.6261617
20
0.0663518
40
0.8444586
50
172.0259487
51
178.0703232
0
ARC
8
DEFAULT_255_1_234
10
14.9291707
20
0.0519906
40
1.1477868
50
177.8631668
51
179.5044149
0
ARC
8
DEFAULT_255_1_234
10
14.8219111
20
-0.1794611
40
1.0404907
50
179.7995573
51
185.2460446
0
ARC
8
DEFAULT_255_1_234
10
14.417615
20
-0.2177487
40
0.6343885
50
185.1411642
51
193.0079639
0
ARC
8
DEFAULT_255_1_234
10
14.1532623
20
-0.2802359
40
0.3627568
50
192.7897626
51
205.2507664
0
ARC
8
DEFAULT_255_1_234
10
14.048617
20
-0.3269585
40
0.2481908
50
205.8005384
51
211.2537509
0
ARC
8
DEFAULT_255_1_234
10
13.996261
20
-0.362042
40
0.1852521
50
210.3789793
51
238.4008143
0
ARC
8
DEFAULT_255_1_234
10
13.9943132
20
-0.3573624
40
0.1882621
50
239.6520629
51
265.9793761
0
ARC
8
DEFAULT_255_1_234
10
14.0028332
20
-0.2901573
40
0.2559272
50
265.1315437
51
270.060332
0
ARC
8
DEFAULT_255_1_234
10
14.0057111
20
-0.3225466
40
0.2235528
50
269.3314664
51
287.2178029
0
ARC
8
DEFAULT_255_1_234
10
14.0194963
20
-0.3728721
40
0.1714108
50
287.7958004
51
329.080874
0
ARC
8
DEFAULT_255_1_234
10
13.923742
20
-0.313107
40
0.2842745
50
328.6634704
51
343.3325132
0
ARC
8
DEFAULT_255_1_234
10
13.706444
20
-0.2454137
40
0.5118644
50
343.0499468
51
351.9393422
0
ARC
8
DEFAULT_255_1_234
10
13.359774
20
-0.1943051
40
0.8622784
50
351.8069023
51
357.7959224
0
ARC
8
DEFAULT_255_1_234
10
13.0362296
20
-0.1775279
40
1.1862365
50
357.5871873
51
359.2677531
0
LINE
8
DEFAULT_255_1_234
10
15.3162919
20
0.5181211
11
15.3162919
21
0.434591
0
LINE
8
DEFAULT_255_1_234
10
15.3162919
20
0.434591
11
14.8319781
21
-0.6513
0
LINE
8
DEFAULT_255_1_234
10
14.8319781
20
-0.6513
11
14.6761624
21
-0.6513
0
LINE
8
DEFAULT_255_1_234
10
14.6761624
20
-0.6513
11
15.1588699
21
0.3960387
0
LINE
8
DEFAULT_255_1_234
10
15.1588699
20
0.3960387
11
14.5259689
21
0.3960387
0
LINE
8
DEFAULT_255_1_234
10
14.5259689
20
0.3960387
11
14.5259689
21
0.5181211
0
LINE
8
DEFAULT_255_1_234
10
14.5259689
20
0.5181211
11
15.3162919
21
0.5181211
0
LINE
8
DEFAULT_255_1_234
10
15.8094407
20
-0.0938974
11
15.8094407
21
-0.2151766
0
LINE
8
DEFAULT_255_1_234
10
15.8094407
20
-0.2151766
11
15.4174918
21
-0.2151766
0
LINE
8
DEFAULT_255_1_234
10
15.4174918
20
-0.2151766
11
15.4174918
21
-0.0938974
0
LINE
8
DEFAULT_255_1_234
10
15.4174918
20
-0.0938974
11
15.8094407
21
-0.0938974
0
LINE
8
DEFAULT_255_1_234
10
16.6720494
20
0.0402327
11
16.6720494
21
-0.1525291
0
LINE
8
DEFAULT_255_1_234
10
15.9339326
20
-0.1726084
11
15.9339326
21
0.0257755
0
LINE
8
DEFAULT_255_1_234
10
16.5234622
20
-0.1926877
11
16.5234622
21
0.0506739
0
LINE
8
DEFAULT_255_1_234
10
16.0825198
20
0.0619184
11
16.0825198
21
-0.1758211
0
ARC
8
DEFAULT_255_1_234
10
15.4473383
20
-0.1574195
40
1.2247208
50
353.8441951
51
0.2287902
0
ARC
8
DEFAULT_255_1_234
10
15.9112887
20
-0.2092194
40
0.7578929
50
344.4934747
51
353.9765454
0
ARC
8
DEFAULT_255_1_234
10
16.2105477
20
-0.2943019
40
0.4467846
50
329.2803592
51
344.7472793
0
ARC
8
DEFAULT_255_1_234
10
16.3098302
20
-0.3487982
40
0.3336173
50
324.9352394
51
328.6160465
0
ARC
8
DEFAULT_255_1_234
10
16.3475411
20
-0.3751573
40
0.2876076
50
280.580143
51
324.9173126
0
ARC
8
DEFAULT_255_1_234
10
16.3074203
20
-0.2080901
40
0.4592847
50
269.5977311
51
281.6734359
0
ARC
8
DEFAULT_255_1_234
10
16.3002109
20
-0.2200827
40
0.4472986
50
256.6228859
51
270.51044
0
ARC
8
DEFAULT_255_1_234
10
16.2600087
20
-0.3749123
40
0.2873874
50
215.8618325
51
257.2788573
0
ARC
8
DEFAULT_255_1_234
10
16.3621118
20
-0.3064023
40
0.4102928
50
197.9693508
51
215.2623606
0
ARC
8
DEFAULT_255_1_234
10
16.6106234
20
-0.2225291
40
0.6725652
50
187.8816417
51
198.2346507
0
ARC
8
DEFAULT_255_1_234
10
17.0064442
20
-0.1653921
40
1.0724845
50
180.8976217
51
188.0055519
0
ARC
8
DEFAULT_255_1_234
10
17.286463
20
-0.1550223
40
1.3526448
50
180.7449369
51
181.1510016
0
ARC
8
DEFAULT_255_1_234
10
17.1287359
20
0.0306042
40
1.1948131
50
173.7675579
51
180.231553
0
ARC
8
DEFAULT_255_1_234
10
16.6769506
20
0.0816666
40
0.7401564
50
164.3058563
51
173.9002247
0
ARC
8
DEFAULT_255_1_234
10
16.3857575
20
0.1655656
40
0.4371288
50
148.7922025
51
164.568378
0
ARC
8
DEFAULT_255_1_234
10
16.2906027
20
0.2186929
40
0.3282386
50
144.5883898
51
148.1176286
0
ARC
8
DEFAULT_255_1_234
10
16.2562925
20
0.2426315
40
0.2864044
50
101.6440918
51
144.514236
0
ARC
8
DEFAULT_255_1_234
10
16.2987992
20
0.0737069
40
0.4604934
50
89.5284041
51
102.5819763
0
ARC
8
DEFAULT_255_1_234
10
16.3067079
20
0.0698018
40
0.464401
50
77.0437873
51
90.5081339
0
ARC
8
DEFAULT_255_1_234
10
16.3469081
20
0.2340615
40
0.2953195
50
48.2778575
51
77.4994676
0
ARC
8
DEFAULT_255_1_234
10
16.3541712
20
0.2469746
40
0.2808655
50
36.3142134
51
47.6305865
0
ARC
8
DEFAULT_255_1_234
10
16.2673019
20
0.1884515
40
0.3855453
50
18.2931786
51
35.6769206
0
ARC
8
DEFAULT_255_1_234
10
16.0129778
20
0.1011593
40
0.654423
50
8.024666
51
18.5605216
0
ARC
8
DEFAULT_255_1_234
10
15.5966698
20
0.0396792
40
1.0752407
50
1.1274072
51
8.1718305
0
ARC
8
DEFAULT_255_1_234
10
15.2730889
20
0.0269885
40
1.3990231
50
0.5424119
51
1.3863029
0
ARC
8
DEFAULT_255_1_234
10
15.4552267
20
0.0542342
40
1.0682415
50
359.8090433
51
4.9407866
0
ARC
8
DEFAULT_255_1_234
10
15.8762281
20
0.0918113
40
0.6455691
50
4.8362157
51
12.2904523
0
ARC
8
DEFAULT_255_1_234
10
16.1517396
20
0.1531965
40
0.3633074
50
12.0805627
51
23.8173984
0
ARC
8
DEFAULT_255_1_234
10
16.2691101
20
0.2028919
40
0.2358723
50
24.2871213
51
31.3935614
0
ARC
8
DEFAULT_255_1_234
10
16.3215798
20
0.2372233
40
0.1732111
50
30.7407893
51
82.4657128
0
ARC
8
DEFAULT_255_1_234
10
16.3035932
20
0.1488691
40
0.263235
50
81.1060089
51
90.2184952
0
ARC
8
DEFAULT_255_1_234
10
16.3000231
20
0.1746924
40
0.2374236
50
89.3806855
51
105.6762551
0
ARC
8
DEFAULT_255_1_234
10
16.2816862
20
0.2413567
40
0.1682847
50
105.7981136
51
149.7388061
0
ARC
8
DEFAULT_255_1_234
10
16.388094
20
0.177395
40
0.2924306
50
149.4208916
51
163.6286378
0
ARC
8
DEFAULT_255_1_234
10
16.5971828
20
0.113625
40
0.5110213
50
163.3763315
51
172.1410975
0
ARC
8
DEFAULT_255_1_234
10
16.9272547
20
0.0663518
40
0.8444586
50
172.0259487
51
178.0703232
0
ARC
8
DEFAULT_255_1_234
10
17.2302637
20
0.0519906
40
1.1477868
50
177.8631668
51
179.5044149
0
ARC
8
DEFAULT_255_1_234
10
17.1230041
20
-0.1794611
40
1.0404907
50
179.7995573
51
185.2460446
0
ARC
8
DEFAULT_255_1_234
10
16.7187081
20
-0.2177487
40
0.6343885
50
185.1411642
51
193.0079639
0
ARC
8
DEFAULT_255_1_234
10
16.4543553
20
-0.2802359
40
0.3627568
50
192.7897626
51
205.2507664
0
ARC
8
DEFAULT_255_1_234
10
16.34971
20
-0.3269585
40
0.2481908
50
205.8005384
51
211.2537509
0
ARC
8
DEFAULT_255_1_234
10
16.2973541
20
-0.362042
40
0.1852521
50
210.3789793
51
238.4008143
0
ARC
8
DEFAULT_255_1_234
10
16.2954062
20
-0.3573624
40
0.1882621
50
239.6520629
51
265.9793761
0
ARC
8
DEFAULT_255_1_234
10
16.3039263
20
-0.2901573
40
0.2559272
50
265.1315437
51
270.060332
0
ARC
8
DEFAULT_255_1_234
10
16.3068041
20
-0.3225466
40
0.2235528
50
269.3314664
51
287.2178029
0
ARC
8
DEFAULT_255_1_234
10
16.3205893
20
-0.3728721
40
0.1714108
50
287.7958004
51
329.080874
0
ARC
8
DEFAULT_255_1_234
10
16.224835
20
-0.313107
40
0.2842745
50
328.6634704
51
343.3325132
0
ARC
8
DEFAULT_255_1_234
10
16.007537
20
-0.2454137
40
0.5118644
50
343.0499468
51
351.9393422
0
ARC
8
DEFAULT_255_1_234
10
15.660867
20
-0.1943051
40
0.8622784
50
351.8069023
51
357.7959224
0
ARC
8
DEFAULT_255_1_234
10
15.3373226
20
-0.1775279
40
1.1862365
50
357.5871873
51
359.2677531
0
LINE
8
DEFAULT_255_1_234
10
17.561966
20
0.0153343
11
17.561966
21
-0.110764
0
LINE
8
DEFAULT_255_1_234
10
17.561966
20
-0.110764
11
17.0551633
21
-0.110764
0
LINE
8
DEFAULT_255_1_234
10
17.0551633
20
-0.110764
11
17.0551633
21
-0.5252017
0
LINE
8
DEFAULT_255_1_234
10
17.0551633
20
-0.5252017
11
17.6438897
21
-0.5252017
0
LINE
8
DEFAULT_255_1_234
10
17.6438897
20
-0.5252017
11
17.6438897
21
-0.6513
0
LINE
8
DEFAULT_255_1_234
10
17.6438897
20
-0.6513
11
16.9009539
21
-0.6513
0
LINE
8
DEFAULT_255_1_234
10
16.9009539
20
-0.6513
11
16.9009539
21
0.5181211
0
LINE
8
DEFAULT_255_1_234
10
16.9009539
20
0.5181211
11
17.635858
21
0.5181211
0
LINE
8
DEFAULT_255_1_234
10
17.635858
20
0.5181211
11
17.635858
21
0.3912196
0
LINE
8
DEFAULT_255_1_234
10
17.635858
20
0.3912196
11
17.0551633
21
0.3912196
0
LINE
8
DEFAULT_255_1_234
10
17.0551633
20
0.3912196
11
17.0551633
21
0.0153343
0
LINE
8
DEFAULT_255_1_234
10
17.0551633
20
0.0153343
11
17.561966
21
0.0153343
0
LINE
8
DEFAULT_255_1_234
10
18.5932412
20
-0.6513
11
18.4816
21
-0.3460939
0
LINE
8
DEFAULT_255_1_234
10
18.4816
20
-0.3460939
11
17.991664
21
-0.3460939
0
LINE
8
DEFAULT_255_1_234
10
17.991664
20
-0.3460939
11
17.8816292
21
-0.6513
0
LINE
8
DEFAULT_255_1_234
10
17.8816292
20
-0.6513
11
17.7226007
21
-0.6513
0
LINE
8
DEFAULT_255_1_234
10
17.7226007
20
-0.6513
11
18.1691654
21
0.5181211
0
LINE
8
DEFAULT_255_1_234
10
18.1691654
20
0.5181211
11
18.3040986
21
0.5181211
0
LINE
8
DEFAULT_255_1_234
10
18.3040986
20
0.5181211
11
18.7514664
21
-0.6513
0
LINE
8
DEFAULT_255_1_234
10
18.7514664
20
-0.6513
11
18.5932412
21
-0.6513
0
LINE
8
DEFAULT_255_1_234
10
18.236632
20
0.3277689
11
18.038248
21
-0.2191925
0
LINE
8
DEFAULT_255_1_234
10
18.038248
20
-0.2191925
11
18.4358191
21
-0.2191925
0
LINE
8
DEFAULT_255_1_234
10
18.4358191
20
-0.2191925
11
18.236632
21
0.3277689
0
LINE
8
DEFAULT_255_1_234
10
19.636564
20
-0.5300208
11
19.636564
21
-0.6513
0
LINE
8
DEFAULT_255_1_234
10
19.636564
20
-0.6513
11
18.8703361
21
-0.6513
0
LINE
8
DEFAULT_255_1_234
10
18.8703361
20
-0.6513
11
18.8703361
21
-0.5444779
0
LINE
8
DEFAULT_255_1_234
10
18.8703361
20
-0.5444779
11
19.2751357
21
-0.0947005
0
LINE
8
DEFAULT_255_1_234
10
18.9964344
20
0.1735595
11
18.8478473
21
0.1735595
0
LINE
8
DEFAULT_255_1_234
10
19.3626817
20
-0.1902782
11
19.0494439
21
-0.5300208
0
LINE
8
DEFAULT_255_1_234
10
19.0494439
20
-0.5300208
11
19.636564
21
-0.5300208
0
ARC
8
DEFAULT_255_1_234
10
17.9261191
20
1.0982527
40
1.8008286
50
318.5132453
51
320.7828378
0
ARC
8
DEFAULT_255_1_234
10
18.4548165
20
0.6679426
40
1.1191493
50
320.7372736
51
323.9737074
0
ARC
8
DEFAULT_255_1_234
10
18.8468022
20
0.3839361
40
0.6350923
50
323.8961724
51
328.6421089
0
ARC
8
DEFAULT_255_1_234
10
19.0514617
20
0.2577031
40
0.3946393
50
328.8299013
51
331.789948
0
ARC
8
DEFAULT_255_1_234
10
19.1511795
20
0.2062509
40
0.2824501
50
331.4255242
51
352.9364833
0
ARC
8
DEFAULT_255_1_234
10
19.1648296
20
0.2031976
40
0.2685315
50
353.2248685
51
0.0169286
0
ARC
8
DEFAULT_255_1_234
10
19.1858173
20
0.205495
40
0.2475536
50
359.4866256
51
15.9339782
0
ARC
8
DEFAULT_255_1_234
10
19.2365158
20
0.2191286
40
0.1950618
50
16.1714718
51
43.5284424
0
ARC
8
DEFAULT_255_1_234
10
19.2442467
20
0.2268573
40
0.184134
50
43.4415429
51
83.1661404
0
ARC
8
DEFAULT_255_1_234
10
19.2308385
20
0.1531771
40
0.258926
50
82.160215
51
90.1505798
0
ARC
8
DEFAULT_255_1_234
10
19.2276812
20
0.0994865
40
0.3126255
50
89.5460705
51
102.5418777
0
ARC
8
DEFAULT_255_1_234
10
19.2033898
20
0.2025665
40
0.2067346
50
102.1739365
51
129.2061916
0
ARC
8
DEFAULT_255_1_234
10
19.195497
20
0.2150094
40
0.1921118
50
129.7279328
51
135.7542026
0
ARC
8
DEFAULT_255_1_234
10
19.2076498
20
0.2053045
40
0.2075944
50
136.175737
51
166.3674722
0
ARC
8
DEFAULT_255_1_234
10
19.3083417
20
0.1783182
40
0.3118201
50
165.9092917
51
178.8683903
0
ARC
8
DEFAULT_255_1_234
10
19.3948278
20
0.1736179
40
0.3983935
50
178.438168
51
180.0083905
0
ARC
8
DEFAULT_255_1_234
10
19.254688
20
0.1775231
40
0.4068601
50
163.2878735
51
180.5581814
0
ARC
8
DEFAULT_255_1_234
10
19.1745142
20
0.199584
40
0.3237344
50
133.454115
51
162.9470031
0
ARC
8
DEFAULT_255_1_234
10
19.1923683
20
0.1806
40
0.349795
50
100.7869394
51
133.4384016
0
ARC
8
DEFAULT_255_1_234
10
19.2271455
20
0.0257319
40
0.5084616
50
89.6605301
51
101.3704185
0
ARC
8
DEFAULT_255_1_234
10
19.2337794
20
0.0318496
40
0.502348
50
78.2171172
51
90.4130393
0
ARC
8
DEFAULT_255_1_234
10
19.2692872
20
0.1942637
40
0.3361092
50
55.9268222
51
78.4888551
0
ARC
8
DEFAULT_255_1_234
10
19.2889312
20
0.2281324
40
0.2970617
50
47.9292255
51
55.4054003
0
ARC
8
DEFAULT_255_1_234
10
19.2990873
20
0.2384502
40
0.2825983
50
4.3347696
51
48.0560701
0
ARC
8
DEFAULT_255_1_234
10
19.1895266
20
0.2214601
40
0.393225
50
359.925209
51
5.5967654
0
ARC
8
DEFAULT_255_1_234
10
19.2324158
20
0.2270816
40
0.3503892
50
337.8914096
51
358.9967724
0
ARC
8
DEFAULT_255_1_234
10
18.961057
20
0.3317706
40
0.6412172
50
326.9135351
51
338.3505194
0
ARC
8
DEFAULT_255_1_234
10
18.5624874
20
0.5872284
40
1.1146189
50
319.6472867
51
327.095818
0
ARC
8
DEFAULT_255_1_234
10
18.1791877
20
0.9034
40
1.6114559
50
317.2586784
51
319.9046139
0
ARC
8
DEFAULT_255_2_778
10
7.7537338
20
92.0262992
40
3.0484709
50
251.6854144
51
258.6071955
0
ARC
8
DEFAULT_255_2_778
10
7.539521
20
90.9446738
40
1.9458471
50
258.4992492
51
268.3986479
0
ARC
8
DEFAULT_255_2_778
10
7.5172314
20
90.5144206
40
1.5151737
50
268.7865272
51
269.9950384
0
ARC
8
DEFAULT_255_2_778
10
7.5277432
20
90.0632355
40
1.0640417
50
269.426895
51
279.6711067
0
ARC
8
DEFAULT_255_2_778
10
7.6417753
20
89.4336746
40
0.4243233
50
278.7731084
51
300.3324923
0
ARC
8
DEFAULT_255_2_778
10
7.760746
20
89.2310552
40
0.1893587
50
300.2240287
51
1.9041213
0
ARC
8
DEFAULT_255_2_778
10
7.7452705
20
89.2402089
40
0.2047497
50
359.1991369
51
359.99965
0
ARC
8
DEFAULT_255_2_778
10
7.7523233
20
89.2410378
40
0.1976988
50
359.7594145
51
47.1793976
0
ARC
8
DEFAULT_255_2_778
10
7.6187277
20
89.092431
40
0.3975169
50
47.6144502
51
60.8366176
0
ARC
8
DEFAULT_255_2_778
10
7.0190958
20
88.0764865
40
1.5771337
50
59.799464
51
64.8885807
0
ARC
8
DEFAULT_255_2_778
10
6.0948833
20
86.1474682
40
3.7160912
50
64.6076081
51
66.8386974
0
ARC
8
DEFAULT_255_2_778
10
9.6419609
20
94.5105052
40
5.368109
50
244.3032309
51
247.1393781
0
ARC
8
DEFAULT_255_2_778
10
8.5507088
20
92.250518
40
2.8584574
50
240.2323579
51
244.3709759
0
ARC
8
DEFAULT_255_2_778
10
7.7800475
20
90.9136591
40
1.315392
50
233.2209971
51
240.4606284
0
ARC
8
DEFAULT_255_2_778
10
7.3561477
20
90.3425187
40
0.6041399
50
225.6990744
51
232.9899679
0
ARC
8
DEFAULT_255_2_778
10
7.3965073
20
90.3669214
40
0.6499005
50
178.2783416
51
224.6550883
0
ARC
8
DEFAULT_255_2_778
10
7.5059624
20
90.4002974
40
0.7591885
50
157.033673
51
181.0453383
0
ARC
8
DEFAULT_255_2_778
10
7.378439
20
90.4411396
40
0.6259551
50
124.9113017
51
155.9211516
0
ARC
8
DEFAULT_255_2_778
10
7.5960466
20
90.1325681
40
1.0035357
50
100.4079723
51
125.0168617
0
ARC
8
DEFAULT_255_2_778
10
7.6991199
20
89.6385046
40
1.5081396
50
89.6483922
51
100.8684975
0
ARC
8
DEFAULT_255_2_778
10
7.7083242
20
89.2862988
40
1.8603169
50
89.5079487
51
89.9984402
0
ARC
8
DEFAULT_255_2_778
10
7.7099573
20
89.2210694
40
1.9255311
50
83.9170631
51
89.5732113
0
ARC
8
DEFAULT_255_2_778
10
7.5071517
20
87.2134957
40
3.9433074
50
80.7325723
51
84.0779772
0
ARC
8
DEFAULT_255_2_778
10
7.0208457
20
84.190582
40
7.0050837
50
78.5086351
51
80.7886813
0
ARC
8
DEFAULT_255_2_778
10
7.6620177
20
88.7900544
40
1.9415426
50
67.135818
51
78.0934208
0
ARC
8
DEFAULT_255_2_778
10
7.7851814
20
89.3604809
40
1.3579807
50
78.2126325
51
89.7333975
0
ARC
8
DEFAULT_255_2_778
10
7.7793853
20
89.7756211
40
0.9429038
50
89.2638155
51
100.5666868
0
ARC
8
DEFAULT_255_2_778
10
7.6660949
20
90.3454419
40
0.362036
50
99.4784875
51
124.329414
0
ARC
8
DEFAULT_255_2_778
10
7.5705593
20
90.493551
40
0.1859067
50
125.7571195
51
182.2824883
0
ARC
8
DEFAULT_255_2_778
10
7.5493239
20
90.4868629
40
0.1645253
50
180.2492993
51
239.8144161
0
ARC
8
DEFAULT_255_2_778
10
7.932718
20
91.0869128
40
0.876484
50
237.8725734
51
242.8068846
0
ARC
8
DEFAULT_255_2_778
10
9.4175857
20
93.9034958
40
4.0604642
50
242.3328458
51
244.031083
0
ARC
8
DEFAULT_255_2_778
10
12.3804066
20
99.9519314
40
10.7955807
50
243.950624
51
244.8024316
0
ARC
8
DEFAULT_255_2_778
10
15.4009918
20
106.3359175
40
17.8580926
50
244.7535425
51
244.9563234
0
ARC
8
DEFAULT_255_2_778
10
5.8652927
20
85.8343264
40
4.7527588
50
62.2505456
51
65.4301556
0
ARC
8
DEFAULT_255_2_778
10
6.9275435
20
87.8424172
40
2.4810291
50
57.2951304
51
62.3684211
0
ARC
8
DEFAULT_255_2_778
10
7.6807233
20
89.0057235
40
1.0952081
50
48.7345704
51
57.5685367
0
ARC
8
DEFAULT_255_2_778
10
8.0117486
20
89.3932722
40
0.5856147
50
44.3236031
51
48.0704418
0
ARC
8
DEFAULT_255_2_778
10
7.9783002
20
89.3732468
40
0.6236013
50
1.3523843
51
43.4925744
0
ARC
8
DEFAULT_255_2_778
10
7.7103531
20
89.3403151
40
0.8926473
50
359.9763756
51
3.0599076
0
ARC
8
DEFAULT_255_2_778
10
7.8645343
20
89.3252407
40
0.7386124
50
333.0361889
51
1.1408766
0
ARC
8
DEFAULT_255_2_778
10
7.8947908
20
89.3321919
40
0.7150741
50
300.8430083
51
331.4403095
0
ARC
8
DEFAULT_255_2_778
10
7.694568
20
89.6457162
40
1.0869673
50
281.4258583
51
301.4316118
0
ARC
8
DEFAULT_255_2_778
10
7.5632666
20
90.2539414
40
1.7091691
50
270.2273513
51
281.7010805
0
ARC
8
DEFAULT_255_2_778
10
7.5453797
20
90.7306043
40
2.1859577
50
269.9983113
51
270.6466065
0
LINE
8
DEFAULT_255_2_778
10
7.5453153
20
88.5446465
11
7.5438002
21
88.544647
0
ARC
8
DEFAULT_255_2_778
10
7.5509161
20
91.7275969
40
3.1829579
50
256.2431122
51
269.871909
0
ARC
8
DEFAULT_255_2_778
10
21.7538511
20
91.9521629
40
2.9720345
50
251.5709223
51
258.7508181
0
ARC
8
DEFAULT_255_2_778
10
21.5538128
20
90.9289385
40
1.9294488
50
258.6495077
51
268.8281511
0
ARC
8
DEFAULT_255_2_778
10
21.5355488
20
90.5341193
40
1.5343723
50
269.2085037
51
269.9981866
0
ARC
8
DEFAULT_255_2_778
10
21.5473849
20
90.0657184
40
1.0660376
50
269.3612297
51
279.5899087
0
ARC
8
DEFAULT_255_2_778
10
21.6608439
20
89.4342324
40
0.424527
50
278.6895227
51
300.2363944
0
ARC
8
DEFAULT_255_2_778
10
21.7799083
20
89.2307793
40
0.188796
50
300.1108484
51
1.9024905
0
ARC
8
DEFAULT_255_2_778
10
21.7439577
20
89.2414221
40
0.2246851
50
358.8842611
51
0.0019649
0
ARC
8
DEFAULT_255_2_778
10
21.7769791
20
89.2453385
40
0.1917038
50
358.831716
51
47.0900458
0
ARC
8
DEFAULT_255_2_778
10
21.6364654
20
89.085984
40
0.4041259
50
47.8812665
51
61.174665
0
ARC
8
DEFAULT_255_2_778
10
21.0418848
20
88.0660117
40
1.5846568
50
60.1210877
51
65.1917015
0
ARC
8
DEFAULT_255_2_778
10
20.1415278
20
86.1604122
40
3.6922188
50
64.9168629
51
67.1565628
0
ARC
8
DEFAULT_255_2_778
10
23.6275467
20
94.4319888
40
5.2839333
50
244.2656926
51
247.1407051
0
ARC
8
DEFAULT_255_2_778
10
22.5594997
20
92.223765
40
2.8309849
50
240.1545061
51
244.3326325
0
ARC
8
DEFAULT_255_2_778
10
21.7856548
20
90.8877346
40
1.2870531
50
232.697515
51
240.4357497
0
ARC
8
DEFAULT_255_2_778
10
21.3705506
20
90.3367218
40
0.5972006
50
225.5850892
51
232.3393736
0
ARC
8
DEFAULT_255_2_778
10
21.4133941
20
90.3662933
40
0.6483829
50
178.7795739
51
224.7095916
0
ARC
8
DEFAULT_255_2_778
10
21.6669319
20
90.3903135
40
0.9018316
50
179.997867
51
180.6487041
0
ARC
8
DEFAULT_255_2_778
10
21.5167738
20
90.4041249
40
0.7517998
50
156.9195758
51
181.050088
0
ARC
8
DEFAULT_255_2_778
10
21.3928482
20
90.4435712
40
0.6224513
50
124.7111133
51
155.7879672
0
ARC
8
DEFAULT_255_2_778
10
21.6055459
20
90.1516942
40
0.9835402
50
101.7934503
51
125.2143527
0
ARC
8
DEFAULT_255_2_778
10
21.729848
20
89.5991326
40
1.5498677
50
89.5248728
51
102.1166783
0
ARC
8
DEFAULT_255_2_778
10
21.7283109
20
89.0455834
40
2.1034129
50
83.2889725
51
89.6080411
0
ARC
8
DEFAULT_255_2_778
10
21.529975
20
87.2777668
40
3.8823067
50
79.4764054
51
83.4308492
0
ARC
8
DEFAULT_255_2_778
10
21.2186357
20
85.5245673
40
5.6628977
50
78.2224868
51
79.6190915
0
ARC
8
DEFAULT_255_2_778
10
21.6838473
20
88.8020715
40
1.9311543
50
67.1323814
51
78.3148813
0
ARC
8
DEFAULT_255_2_778
10
21.801359
20
89.3535614
40
1.3672981
50
78.4565774
51
89.7552271
0
ARC
8
DEFAULT_255_2_778
10
21.7951366
20
89.784447
40
0.9364778
50
89.2619009
51
100.5950934
0
ARC
8
DEFAULT_255_2_778
10
21.6824182
20
90.3499169
40
0.3599879
50
99.5087086
51
124.406715
0
ARC
8
DEFAULT_255_2_778
10
21.5878565
20
90.496343
40
0.1858061
50
125.8630185
51
182.2986975
0
ARC
8
DEFAULT_255_2_778
10
21.5497296
20
90.4888047
40
0.1475296
50
179.9666559
51
180.100057
0
ARC
8
DEFAULT_255_2_778
10
21.566185
20
90.488793
40
0.163985
50
180.0859454
51
239.8819968
0
ARC
8
DEFAULT_255_2_778
10
21.9379018
20
91.0755619
40
0.8584853
50
238.072871
51
243.0442008
0
ARC
8
DEFAULT_255_2_778
10
23.4872034
20
94.0405845
40
4.2038426
50
242.5409111
51
244.1884903
0
ARC
8
DEFAULT_255_2_778
10
26.6463384
20
100.535196
40
11.4260319
50
244.1076525
51
244.9219574
0
ARC
8
DEFAULT_255_2_778
10
29.9038827
20
107.458855
40
19.0777309
50
244.8743531
51
245.066969
0
ARC
8
DEFAULT_255_2_778
10
19.8865272
20
85.8666274
40
4.7250654
50
62.0340028
51
65.293009
0
ARC
8
DEFAULT_255_2_778
10
20.9507744
20
87.8615758
40
2.464003
50
57.1127289
51
62.13736
0
ARC
8
DEFAULT_255_2_778
10
21.7037139
20
89.0152906
40
1.0863604
50
48.3695509
51
57.4197129
0
ARC
8
DEFAULT_255_2_778
10
22.0286268
20
89.3920419
40
0.5889589
50
44.472493
51
47.6467012
0
ARC
8
DEFAULT_255_2_778
10
21.9979457
20
89.3749032
40
0.6229283
50
1.2061613
51
43.6203607
0
ARC
8
DEFAULT_255_2_778
10
21.7312413
20
89.3424903
40
0.890659
50
359.9779196
51
2.9299178
0
ARC
8
DEFAULT_255_2_778
10
21.8802547
20
89.3273837
40
0.7417924
50
333.172934
51
1.140392
0
ARC
8
DEFAULT_255_2_778
10
21.9146167
20
89.3320736
40
0.7135172
50
300.9808035
51
331.5913995
0
ARC
8
DEFAULT_255_2_778
10
21.7182603
20
89.6419862
40
1.0803281
50
281.9040909
51
301.4483918
0
ARC
8
DEFAULT_255_2_778
10
21.5848425
20
90.2405518
40
1.6935565
50
270.5796874
51
282.1436175
0
ARC
8
DEFAULT_255_2_778
10
21.5636722
20
90.7354735
40
2.1887267
50
269.9959074
51
271.0027751
0
LINE
8
DEFAULT_255_2_778
10
21.5635158
20
88.5467468
11
21.5625002
21
88.546747
0
ARC
8
DEFAULT_255_2_778
10
21.5700221
20
91.7355174
40
3.1887792
50
256.2556596
51
269.8648469
0
LINE
8
DEFAULT_255_2_778
10
6.7958002
20
88.637547
11
6.7958002
21
89.132247
0
LINE
8
DEFAULT_255_2_778
10
8.4164002
20
91.055247
11
8.4164002
21
90.579047
0
LINE
8
DEFAULT_255_2_778
10
6.7940002
20
88.635947
11
6.7958002
21
88.637547
0
LINE
8
DEFAULT_255_2_778
10
8.9866002
20
91.104747
11
9.6629002
21
91.104747
0
LINE
8
DEFAULT_255_2_778
10
9.6629002
20
91.104747
11
9.6629002
21
88.597347
0
LINE
8
DEFAULT_255_2_778
10
9.6629002
20
88.597347
11
8.9866002
21
88.597347
0
LINE
8
DEFAULT_255_2_778
10
8.9866002
20
88.597347
11
8.9866002
21
91.104747
0
LINE
8
DEFAULT_255_2_778
10
10.2809002
20
88.597347
11
10.2809002
21
91.104747
0
LINE
8
DEFAULT_255_2_778
10
10.2809002
20
91.104747
11
12.0132002
21
91.104747
0
LINE
8
DEFAULT_255_2_778
10
12.0132002
20
91.104747
11
12.0132002
21
90.651047
0
LINE
8
DEFAULT_255_2_778
10
12.0132002
20
90.651047
11
10.9321002
21
90.651047
0
LINE
8
DEFAULT_255_2_778
10
10.9321002
20
90.651047
11
10.9321002
21
90.084747
0
LINE
8
DEFAULT_255_2_778
10
10.9321002
20
90.084747
11
11.8735002
21
90.084747
0
LINE
8
DEFAULT_255_2_778
10
11.8735002
20
90.084747
11
11.8735002
21
89.671247
0
LINE
8
DEFAULT_255_2_778
10
11.8735002
20
89.671247
11
10.9321002
21
89.671247
0
LINE
8
DEFAULT_255_2_778
10
10.9321002
20
89.671247
11
10.9321002
21
89.075947
0
LINE
8
DEFAULT_255_2_778
10
10.9321002
20
89.075947
11
12.0412002
21
89.075947
0
LINE
8
DEFAULT_255_2_778
10
12.0412002
20
89.075947
11
12.0412002
21
88.595747
0
LINE
8
DEFAULT_255_2_778
10
12.0412002
20
88.595747
11
10.2809002
21
88.597347
0
LINE
8
DEFAULT_255_2_778
10
12.4817002
20
88.597347
11
12.4817002
21
91.104747
0
LINE
8
DEFAULT_255_2_778
10
12.4817002
20
91.104747
11
13.3575002
21
91.104747
0
LINE
8
DEFAULT_255_2_778
10
13.3575002
20
91.104747
11
13.9671002
21
89.502447
0
LINE
8
DEFAULT_255_2_778
10
13.9671002
20
89.502447
11
14.5897002
21
91.104747
0
LINE
8
DEFAULT_255_2_778
10
14.5897002
20
91.104747
11
15.4215002
21
91.104747
0
LINE
8
DEFAULT_255_2_778
10
15.4215002
20
91.104747
11
15.4215002
21
88.597347
0
LINE
8
DEFAULT_255_2_778
10
15.4215002
20
88.597347
11
14.7812002
21
88.597347
0
LINE
8
DEFAULT_255_2_778
10
14.7812002
20
88.597347
11
14.7812002
21
90.373147
0
LINE
8
DEFAULT_255_2_778
10
14.7812002
20
90.373147
11
14.0724002
21
88.572947
0
LINE
8
DEFAULT_255_2_778
10
14.0724002
20
88.572947
11
13.6515002
21
88.572947
0
LINE
8
DEFAULT_255_2_778
10
13.6515002
20
88.572947
11
12.9559002
21
90.373147
0
LINE
8
DEFAULT_255_2_778
10
12.9559002
20
90.373147
11
12.9559002
21
88.597047
0
LINE
8
DEFAULT_255_2_778
10
12.9559002
20
88.597047
11
12.4817002
21
88.597347
0
LINE
8
DEFAULT_255_2_778
10
16.0409002
20
88.597347
11
16.0409002
21
91.104747
0
LINE
8
DEFAULT_255_2_778
10
16.0409002
20
91.104747
11
17.7731002
21
91.104747
0
LINE
8
DEFAULT_255_2_778
10
17.7731002
20
91.104747
11
17.7731002
21
90.651047
0
LINE
8
DEFAULT_255_2_778
10
17.7731002
20
90.651047
11
16.6921002
21
90.651047
0
LINE
8
DEFAULT_255_2_778
10
16.6921002
20
90.651047
11
16.6921002
21
90.084747
0
LINE
8
DEFAULT_255_2_778
10
16.6921002
20
90.084747
11
17.6334002
21
90.084747
0
LINE
8
DEFAULT_255_2_778
10
17.6334002
20
90.084747
11
17.6334002
21
89.671247
0
LINE
8
DEFAULT_255_2_778
10
17.6334002
20
89.671247
11
16.6921002
21
89.671247
0
LINE
8
DEFAULT_255_2_778
10
16.6921002
20
89.671247
11
16.6921002
21
89.075947
0
LINE
8
DEFAULT_255_2_778
10
16.6921002
20
89.075947
11
17.8030002
21
89.075947
0
LINE
8
DEFAULT_255_2_778
10
17.8030002
20
89.075947
11
17.8030002
21
88.595747
0
LINE
8
DEFAULT_255_2_778
10
17.8030002
20
88.595747
11
16.0409002
21
88.597347
0
LINE
8
DEFAULT_255_2_778
10
18.2454002
20
88.597347
11
18.2454002
21
91.104747
0
LINE
8
DEFAULT_255_2_778
10
18.2454002
20
91.104747
11
19.0283002
21
91.104747
0
LINE
8
DEFAULT_255_2_778
10
19.0283002
20
91.104747
11
19.8586002
21
89.425947
0
LINE
8
DEFAULT_255_2_778
10
19.8586002
20
89.425947
11
19.8586002
21
91.104747
0
LINE
8
DEFAULT_255_2_778
10
19.8586002
20
91.104747
11
20.3343002
21
91.104747
0
LINE
8
DEFAULT_255_2_778
10
20.3343002
20
91.104747
11
20.3343002
21
88.597347
0
LINE
8
DEFAULT_255_2_778
10
20.3343002
20
88.597347
11
19.5739002
21
88.597347
0
LINE
8
DEFAULT_255_2_778
10
19.5739002
20
88.597347
11
18.7214002
21
90.298547
0
LINE
8
DEFAULT_255_2_778
10
18.7214002
20
90.298547
11
18.7214002
21
88.597347
0
LINE
8
DEFAULT_255_2_778
10
18.7214002
20
88.597347
11
18.2454002
21
88.597347
0
LINE
8
DEFAULT_255_2_778
10
20.8143002
20
88.637747
11
20.8143002
21
89.132547
0
LINE
8
DEFAULT_255_2_778
10
22.3745002
20
91.068247
11
22.4343002
21
91.057647
0
LINE
8
DEFAULT_255_2_778
10
22.4343002
20
91.057647
11
22.4343002
21
90.581447
0
LINE
8
DEFAULT_255_2_778
10
20.8124002
20
88.638047
11
20.8143002
21
88.637747
0
LINE
8
DEFAULT_255_1_234
10
9.1302023
20
86.8309849
11
8.9751897
21
86.8309849
0
LINE
8
DEFAULT_255_1_234
10
8.2828539
20
86.3386394
11
8.4378665
21
86.3386394
0
ARC
8
DEFAULT_255_1_234
10
9.041071
20
87.7256768
40
1.252368
50
248.9199003
51
254.1439814
0
ARC
8
DEFAULT_255_1_234
10
8.8730205
20
87.2930234
40
0.788226
50
241.633709
51
249.0064503
0
ARC
8
DEFAULT_255_1_234
10
8.72016
20
87.0129317
40
0.4691427
50
230.498225
51
241.8087113
0
ARC
8
DEFAULT_255_1_234
10
8.6417174
20
86.9129906
40
0.3421437
50
227.4064532
51
229.9881192
0
ARC
8
DEFAULT_255_1_234
10
8.5929694
20
86.8654088
40
0.2741476
50
200.6781896
51
228.1763934
0
ARC
8
DEFAULT_255_1_234
10
8.6002005
20
86.8639077
40
0.2804109
50
179.5061581
51
199.8694617
0
ARC
8
DEFAULT_255_1_234
10
8.5992757
20
86.871321
40
0.2795204
50
132.4834203
51
181.0242172
0
ARC
8
DEFAULT_255_1_234
10
8.6588339
20
86.8150704
40
0.3612768
50
129.2532479
51
133.4242687
0
ARC
8
DEFAULT_255_1_234
10
8.6734789
20
86.7930965
40
0.3875675
50
101.98776
51
128.8742646
0
ARC
8
DEFAULT_255_1_234
10
8.7133399
20
86.6209741
40
0.5642249
50
89.5906553
51
102.3169264
0
ARC
8
DEFAULT_255_1_234
10
8.7203891
20
86.6528148
40
0.5323783
50
77.2360837
51
90.3248275
0
ARC
8
DEFAULT_255_1_234
10
8.7410971
20
86.74954
40
0.4334697
50
63.837784
51
77.0809408
0
ARC
8
DEFAULT_255_1_234
10
8.7688732
20
86.8012911
40
0.3747796
50
45.9864267
51
64.1607727
0
ARC
8
DEFAULT_255_1_234
10
8.7949614
20
86.8310866
40
0.3352302
50
32.2747395
51
45.6547121
0
ARC
8
DEFAULT_255_1_234
10
8.8016054
20
86.832988
40
0.328603
50
359.6507365
51
32.6130309
0
ARC
8
DEFAULT_255_1_234
10
8.707315
20
86.833466
40
0.2678863
50
359.469343
51
14.9832209
0
ARC
8
DEFAULT_255_1_234
10
8.7778212
20
86.8523539
40
0.1948938
50
14.9781179
51
48.2004265
0
ARC
8
DEFAULT_255_1_234
10
8.7613856
20
86.8316983
40
0.2212521
50
48.5927837
51
74.1241538
0
ARC
8
DEFAULT_255_1_234
10
8.7280346
20
86.7216248
40
0.3362561
50
73.7888341
51
86.6652678
0
ARC
8
DEFAULT_255_1_234
10
8.7177911
20
86.6008881
40
0.4573953
50
86.2640471
51
90.0526343
0
ARC
8
DEFAULT_255_1_234
10
8.7149624
20
86.6404192
40
0.4178709
50
89.6697524
51
99.2309573
0
ARC
8
DEFAULT_255_1_234
10
8.6907075
20
86.7848964
40
0.2713749
50
99.069534
51
113.7658566
0
ARC
8
DEFAULT_255_1_234
10
8.6633266
20
86.8494677
40
0.2012469
50
114.0401004
51
127.9850673
0
ARC
8
DEFAULT_255_1_234
10
8.639283
20
86.879073
40
0.1631167
50
127.7287463
51
176.7105154
0
ARC
8
DEFAULT_255_1_234
10
8.7071547
20
86.8689693
40
0.2315392
50
175.1779447
51
180.0581938
0
ARC
8
DEFAULT_255_1_234
10
8.6228394
20
86.8677428
40
0.1472271
50
179.6142195
51
228.1246017
0
ARC
8
DEFAULT_255_1_234
10
8.6670063
20
86.9086308
40
0.2072299
50
226.5779593
51
230.8800004
0
ARC
8
DEFAULT_255_1_234
10
8.7141141
20
86.9711636
40
0.2854818
50
231.4635071
51
241.9260842
0
ARC
8
DEFAULT_255_1_234
10
8.8338319
20
87.19148
40
0.53622
50
241.7178533
51
248.3259551
0
ARC
8
DEFAULT_255_1_234
10
8.9723691
20
87.5347064
40
0.9063478
50
248.2007737
51
252.4528373
0
ARC
8
DEFAULT_255_1_234
10
9.0927416
20
87.9068441
40
1.2974635
50
252.3391078
51
254.3469452
0
ARC
8
DEFAULT_255_1_234
10
8.3385119
20
85.2091148
40
1.5037162
50
71.0197183
51
74.4087047
0
ARC
8
DEFAULT_255_1_234
10
8.5079804
20
85.6983111
40
0.9859993
50
66.1847285
51
71.086374
0
ARC
8
DEFAULT_255_1_234
10
8.6636116
20
86.04872
40
0.6025855
50
59.3536294
51
66.2691831
0
ARC
8
DEFAULT_255_1_234
10
8.7524769
20
86.1990609
40
0.4279449
50
49.1020879
51
59.3293958
0
ARC
8
DEFAULT_255_1_234
10
8.8343509
20
86.2923834
40
0.3038015
50
32.7919921
51
49.2505539
0
ARC
8
DEFAULT_255_1_234
10
8.8664599
20
86.3152191
40
0.264448
50
31.1181161
51
32.4005348
0
ARC
8
DEFAULT_255_1_234
10
8.8576136
20
86.3116779
40
0.2738556
50
8.1116974
51
30.7958831
0
ARC
8
DEFAULT_255_1_234
10
8.7765804
20
86.2978753
40
0.3560327
50
359.8389159
51
8.4706516
0
ARC
8
DEFAULT_255_1_234
10
8.8391596
20
86.2930137
40
0.2934776
50
337.4731098
51
0.7537279
0
ARC
8
DEFAULT_255_1_234
10
8.8570291
20
86.2910387
40
0.2762607
50
307.5917067
51
336.4315538
0
ARC
8
DEFAULT_255_1_234
10
8.8110119
20
86.3423102
40
0.3449979
50
307.6551545
51
308.4529766
0
ARC
8
DEFAULT_255_1_234
10
8.7879838
20
86.377825
40
0.3871988
50
284.3734338
51
307.1424381
0
ARC
8
DEFAULT_255_1_234
10
8.7384668
20
86.5599932
40
0.5759636
50
272.4382747
51
284.646547
0
ARC
8
DEFAULT_255_1_234
10
8.7257876
20
86.7399893
40
0.7563528
50
269.9708387
51
272.8178037
0
ARC
8
DEFAULT_255_1_234
10
8.7214916
20
86.5361716
40
0.5525489
50
248.2707594
51
270.4055579
0
ARC
8
DEFAULT_255_1_234
10
8.7160657
20
86.5171192
40
0.5328452
50
246.1383403
51
248.0542782
0
ARC
8
DEFAULT_255_1_234
10
8.6742036
20
86.4291843
40
0.4355005
50
233.1670131
51
246.4950969
0
ARC
8
DEFAULT_255_1_234
10
8.6187941
20
86.3543812
40
0.3424126
50
215.3403242
51
233.0843104
0
ARC
8
DEFAULT_255_1_234
10
8.5915372
20
86.3345549
40
0.3087104
50
179.2419209
51
215.2648451
0
ARC
8
DEFAULT_255_1_234
10
8.6682966
20
86.3359666
40
0.2304457
50
179.335461
51
199.1045811
0
ARC
8
DEFAULT_255_1_234
10
8.6350643
20
86.3272766
40
0.1962176
50
199.8828939
51
232.7063202
0
ARC
8
DEFAULT_255_1_234
10
8.6822911
20
86.3866788
40
0.2720938
50
232.3738199
51
255.5136649
0
ARC
8
DEFAULT_255_1_234
10
8.7163778
20
86.5110835
40
0.4010747
50
255.2446292
51
267.5320849
0
ARC
8
DEFAULT_255_1_234
10
8.7251401
20
86.6343702
40
0.5246356
50
267.1557994
51
270.0286766
0
ARC
8
DEFAULT_255_1_234
10
8.7279173
20
86.589995
40
0.4802668
50
269.7000017
51
278.1660162
0
ARC
8
DEFAULT_255_1_234
10
8.7535178
20
86.4169515
40
0.3053425
50
278.0231263
51
290.625471
0
ARC
8
DEFAULT_255_1_234
10
8.7882865
20
86.3242025
40
0.206291
50
290.6619762
51
307.0370976
0
ARC
8
DEFAULT_255_1_234
10
8.8183254
20
86.2873504
40
0.1587906
50
306.3943566
51
355.3030547
0
ARC
8
DEFAULT_255_1_234
10
8.7671186
20
86.2950113
40
0.2104809
50
354.3660432
51
0.0698737
0
ARC
8
DEFAULT_255_1_234
10
8.7813531
20
86.2972617
40
0.1962563
50
359.417946
51
16.1971788
0
ARC
8
DEFAULT_255_1_234
10
8.8268841
20
86.3097418
40
0.149053
50
16.4723299
51
52.6262157
0
ARC
8
DEFAULT_255_1_234
10
8.7447895
20
86.2013433
40
0.2850296
50
52.7386432
51
62.4979148
0
ARC
8
DEFAULT_255_1_234
10
8.6062972
20
85.9407283
40
0.5801521
50
62.2515216
51
68.1220564
0
ARC
8
DEFAULT_255_1_234
10
8.4342883
20
85.5179872
40
1.0365451
50
68.0062803
51
71.8053402
0
ARC
8
DEFAULT_255_1_234
10
8.2547255
20
84.9794758
40
1.6042013
50
71.7183119
51
73.9258742
0
LINE
8
DEFAULT_255_1_234
10
9.4956464
20
87.1691211
11
9.4956464
21
85.9997
0
LINE
8
DEFAULT_255_1_234
10
9.4956464
20
85.9997
11
9.341437
21
85.9997
0
LINE
8
DEFAULT_255_1_234
10
9.341437
20
85.9997
11
9.341437
21
87.1691211
0
LINE
8
DEFAULT_255_1_234
10
9.341437
20
87.1691211
11
9.4956464
21
87.1691211
0
LINE
8
DEFAULT_255_1_234
10
9.7775604
20
87.1691211
11
9.9767475
21
87.1691211
0
LINE
8
DEFAULT_255_1_234
10
9.9767475
20
87.1691211
11
10.3590583
21
86.2149506
0
LINE
8
DEFAULT_255_1_234
10
10.3590583
20
86.2149506
11
10.741369
21
87.1691211
0
LINE
8
DEFAULT_255_1_234
10
10.741369
20
87.1691211
11
10.9413593
21
87.1691211
0
LINE
8
DEFAULT_255_1_234
10
10.9413593
20
87.1691211
11
10.9413593
21
85.9997
0
LINE
8
DEFAULT_255_1_234
10
10.9413593
20
85.9997
11
10.7871499
21
85.9997
0
LINE
8
DEFAULT_255_1_234
10
10.7871499
20
85.9997
11
10.7871499
21
86.4550996
0
LINE
8
DEFAULT_255_1_234
10
10.7871499
20
86.4550996
11
10.801607
21
86.9466419
0
LINE
8
DEFAULT_255_1_234
10
10.801607
20
86.9466419
11
10.4176899
21
85.9997
0
LINE
8
DEFAULT_255_1_234
10
10.4176899
20
85.9997
11
10.2996234
21
85.9997
0
LINE
8
DEFAULT_255_1_234
10
10.2996234
20
85.9997
11
9.9165095
21
86.9442324
0
LINE
8
DEFAULT_255_1_234
10
9.9165095
20
86.9442324
11
9.9317698
21
86.4550996
0
LINE
8
DEFAULT_255_1_234
10
9.9317698
20
86.4550996
11
9.9317698
21
85.9997
0
LINE
8
DEFAULT_255_1_234
10
9.9317698
20
85.9997
11
9.7775604
21
85.9997
0
LINE
8
DEFAULT_255_1_234
10
9.7775604
20
85.9997
11
9.7775604
21
87.1691211
0
LINE
8
DEFAULT_255_1_234
10
11.9854853
20
85.9997
11
11.8738441
21
86.3049061
0
LINE
8
DEFAULT_255_1_234
10
11.8738441
20
86.3049061
11
11.3839081
21
86.3049061
0
LINE
8
DEFAULT_255_1_234
10
11.3839081
20
86.3049061
11
11.2738732
21
85.9997
0
LINE
8
DEFAULT_255_1_234
10
11.2738732
20
85.9997
11
11.1148448
21
85.9997
0
LINE
8
DEFAULT_255_1_234
10
11.1148448
20
85.9997
11
11.5614095
21
87.1691211
0
LINE
8
DEFAULT_255_1_234
10
11.5614095
20
87.1691211
11
11.6963427
21
87.1691211
0
LINE
8
DEFAULT_255_1_234
10
11.6963427
20
87.1691211
11
12.1437105
21
85.9997
0
LINE
8
DEFAULT_255_1_234
10
12.1437105
20
85.9997
11
11.9854853
21
85.9997
0
LINE
8
DEFAULT_255_1_234
10
11.6288761
20
86.9787689
11
11.4304921
21
86.4318075
0
LINE
8
DEFAULT_255_1_234
10
11.4304921
20
86.4318075
11
11.8280632
21
86.4318075
0
LINE
8
DEFAULT_255_1_234
10
11.8280632
20
86.4318075
11
11.6288761
21
86.9787689
0
LINE
8
DEFAULT_255_1_234
10
13.005516
20
87.1691211
11
13.005516
21
87.0422196
0
LINE
8
DEFAULT_255_1_234
10
13.005516
20
87.0422196
11
12.6296307
21
87.0422196
0
LINE
8
DEFAULT_255_1_234
10
12.6296307
20
87.0422196
11
12.6296307
21
85.9997
0
LINE
8
DEFAULT_255_1_234
10
12.6296307
20
85.9997
11
12.4762245
21
85.9997
0
LINE
8
DEFAULT_255_1_234
10
12.4762245
20
85.9997
11
12.4762245
21
87.0422196
0
LINE
8
DEFAULT_255_1_234
10
12.4762245
20
87.0422196
11
12.1011423
21
87.0422196
0
LINE
8
DEFAULT_255_1_234
10
12.1011423
20
87.0422196
11
12.1011423
21
87.1691211
0
LINE
8
DEFAULT_255_1_234
10
12.1011423
20
87.1691211
11
13.005516
21
87.1691211
0
LINE
8
DEFAULT_255_1_234
10
13.3444554
20
87.1691211
11
13.3444554
21
85.9997
0
LINE
8
DEFAULT_255_1_234
10
13.3444554
20
85.9997
11
13.190246
21
85.9997
0
LINE
8
DEFAULT_255_1_234
10
13.190246
20
85.9997
11
13.190246
21
87.1691211
0
LINE
8
DEFAULT_255_1_234
10
13.190246
20
87.1691211
11
13.3444554
21
87.1691211
0
LINE
8
DEFAULT_255_1_234
10
14.331556
20
86.3707663
11
14.4865686
21
86.3707663
0
LINE
8
DEFAULT_255_1_234
10
13.5862107
20
86.5297947
11
13.5862107
21
86.6422391
0
LINE
8
DEFAULT_255_1_234
10
14.4865686
20
86.7932357
11
14.331556
21
86.7932357
0
LINE
8
DEFAULT_255_1_234
10
13.7412232
20
86.6382232
11
13.7412232
21
86.5249757
0
ARC
8
DEFAULT_255_1_234
10
13.9385072
20
86.4304846
40
0.5513052
50
340.1774281
51
353.7814284
0
ARC
8
DEFAULT_255_1_234
10
14.0956425
20
86.3719582
40
0.3836379
50
311.4558989
51
340.4421614
0
ARC
8
DEFAULT_255_1_234
10
14.0923093
20
86.3830528
40
0.3941894
50
282.4333181
51
310.7513653
0
ARC
8
DEFAULT_255_1_234
10
14.0483832
20
86.5645679
40
0.5809175
50
269.9358511
51
282.809604
0
ARC
8
DEFAULT_255_1_234
10
14.0431899
20
86.7103212
40
0.7266847
50
270.0021091
51
270.3581957
0
ARC
8
DEFAULT_255_1_234
10
14.0379315
20
86.4502585
40
0.4666519
50
250.7884749
51
270.6489167
0
ARC
8
DEFAULT_255_1_234
10
14.021115
20
86.3865319
40
0.4009729
50
219.3627325
51
250.0611886
0
ARC
8
DEFAULT_255_1_234
10
14.1040361
20
86.4570042
40
0.5097822
50
193.5479632
51
219.5756669
0
ARC
8
DEFAULT_255_1_234
10
14.3411982
20
86.5185919
40
0.7547848
50
181.1218675
51
193.87563
0
ARC
8
DEFAULT_255_1_234
10
14.5482163
20
86.529658
40
0.9620055
50
179.9918545
51
181.5394234
0
ARC
8
DEFAULT_255_1_234
10
14.3631265
20
86.6459788
40
0.7769248
50
169.5837241
51
180.2757934
0
ARC
8
DEFAULT_255_1_234
10
14.1794203
20
86.6799229
40
0.590109
50
155.0365899
51
169.6003176
0
ARC
8
DEFAULT_255_1_234
10
14.0658667
20
86.7346677
40
0.4640625
50
136.783148
51
155.2472683
0
ARC
8
DEFAULT_255_1_234
10
14.0269144
20
86.7677562
40
0.4130255
50
121.7633186
51
136.428115
0
ARC
8
DEFAULT_255_1_234
10
14.0404106
20
86.7428227
40
0.4413323
50
95.6459699
51
121.5490577
0
ARC
8
DEFAULT_255_1_234
10
14.0561388
20
86.6319949
40
0.55319
50
89.924208
51
96.1377933
0
ARC
8
DEFAULT_255_1_234
10
14.0611821
20
86.6438542
40
0.5413475
50
76.6779277
51
90.4563316
0
ARC
8
DEFAULT_255_1_234
10
14.1005444
20
86.8029114
40
0.3775041
50
47.485847
51
76.9287264
0
ARC
8
DEFAULT_255_1_234
10
14.0858417
20
86.7929159
40
0.3948286
50
16.5424086
51
46.8933463
0
ARC
8
DEFAULT_255_1_234
10
13.9250574
20
86.7400861
40
0.564021
50
5.4072051
51
17.0365086
0
ARC
8
DEFAULT_255_1_234
10
13.7811591
20
86.7169679
40
0.5556559
50
7.8891745
51
15.9239216
0
ARC
8
DEFAULT_255_1_234
10
13.9798605
20
86.7746631
40
0.3487515
50
15.7653144
51
27.9410532
0
ARC
8
DEFAULT_255_1_234
10
14.0902822
20
86.833779
40
0.2235026
50
27.8166557
51
46.4008329
0
ARC
8
DEFAULT_255_1_234
10
14.0952465
20
86.8332082
40
0.2205286
50
47.4371857
51
75.0698205
0
ARC
8
DEFAULT_255_1_234
10
14.064386
20
86.7257765
40
0.3322915
50
74.7008593
51
87.8124495
0
ARC
8
DEFAULT_255_1_234
10
14.0570547
20
86.6201844
40
0.4380987
50
87.3814673
51
90.0240855
0
ARC
8
DEFAULT_255_1_234
10
14.0532091
20
86.7379291
40
0.3203749
50
89.3451631
51
108.5745436
0
ARC
8
DEFAULT_255_1_234
10
14.0395196
20
86.7892908
40
0.2673494
50
109.2998449
51
143.3037509
0
ARC
8
DEFAULT_255_1_234
10
14.1157268
20
86.7306881
40
0.3634757
50
143.0753173
51
163.1916937
0
ARC
8
DEFAULT_255_1_234
10
14.3108996
20
86.6690967
40
0.5681262
50
162.9373603
51
174.6208611
0
ARC
8
DEFAULT_255_1_234
10
14.5735038
20
86.640301
40
0.8322832
50
174.3419979
51
180.1430411
0
ARC
8
DEFAULT_255_1_234
10
14.4804194
20
86.5208698
40
0.7392076
50
179.6817502
51
189.150529
0
ARC
8
DEFAULT_255_1_234
10
14.2303443
20
86.479219
40
0.4856932
50
188.9910863
51
203.5773039
0
ARC
8
DEFAULT_255_1_234
10
14.1223775
20
86.4344211
40
0.3688271
50
203.9077269
51
215.1312379
0
ARC
8
DEFAULT_255_1_234
10
14.0300869
20
86.3628941
40
0.2522457
50
213.9071664
51
263.8849284
0
ARC
8
DEFAULT_255_1_234
10
14.0426198
20
86.4413518
40
0.3316174
50
263.1758525
51
270.1031083
0
ARC
8
DEFAULT_255_1_234
10
14.045829
20
86.5660365
40
0.4563091
50
269.6719807
51
279.0609165
0
ARC
8
DEFAULT_255_1_234
10
14.0725058
20
86.4047907
40
0.2928759
50
278.8750225
51
293.6346586
0
ARC
8
DEFAULT_255_1_234
10
14.1045266
20
86.32959
40
0.2111472
50
293.8553404
51
310.0518804
0
ARC
8
DEFAULT_255_1_234
10
14.105012
20
86.3233516
40
0.2060917
50
311.0646779
51
332.0108348
0
ARC
8
DEFAULT_255_1_234
10
13.9857847
20
86.3890978
40
0.3422352
50
331.6588543
51
343.2878891
0
ARC
8
DEFAULT_255_1_234
10
13.7795362
20
86.4524798
40
0.5580003
50
343.1446044
51
351.010618
0
ARC
8
DEFAULT_255_1_234
10
13.6254008
20
86.4805871
40
0.7146438
50
350.7157277
51
351.1602153
0
LINE
8
DEFAULT_255_1_234
10
15.8800751
20
86.8309849
11
15.7250626
21
86.8309849
0
LINE
8
DEFAULT_255_1_234
10
15.0327268
20
86.3386394
11
15.1877393
21
86.3386394
0
ARC
8
DEFAULT_255_1_234
10
15.7909439
20
87.7256768
40
1.252368
50
248.9199003
51
254.1439814
0
ARC
8
DEFAULT_255_1_234
10
15.6228934
20
87.2930234
40
0.788226
50
241.633709
51
249.0064503
0
ARC
8
DEFAULT_255_1_234
10
15.4700328
20
87.0129317
40
0.4691427
50
230.498225
51
241.8087113
0
ARC
8
DEFAULT_255_1_234
10
15.3915902
20
86.9129906
40
0.3421437
50
227.4064532
51
229.9881192
0
ARC
8
DEFAULT_255_1_234
10
15.3428423
20
86.8654088
40
0.2741476
50
200.6781896
51
228.1763934
0
ARC
8
DEFAULT_255_1_234
10
15.3500734
20
86.8639077
40
0.2804109
50
179.5061581
51
199.8694617
0
ARC
8
DEFAULT_255_1_234
10
15.3491485
20
86.871321
40
0.2795204
50
132.4834203
51
181.0242172
0
ARC
8
DEFAULT_255_1_234
10
15.4087068
20
86.8150704
40
0.3612768
50
129.2532479
51
133.4242687
0
ARC
8
DEFAULT_255_1_234
10
15.4233517
20
86.7930965
40
0.3875675
50
101.98776
51
128.8742646
0
ARC
8
DEFAULT_255_1_234
10
15.4632128
20
86.6209741
40
0.5642249
50
89.5906553
51
102.3169264
0
ARC
8
DEFAULT_255_1_234
10
15.470262
20
86.6528148
40
0.5323783
50
77.2360837
51
90.3248275
0
ARC
8
DEFAULT_255_1_234
10
15.4909699
20
86.74954
40
0.4334697
50
63.837784
51
77.0809408
0
ARC
8
DEFAULT_255_1_234
10
15.5187461
20
86.8012911
40
0.3747796
50
45.9864267
51
64.1607727
0
ARC
8
DEFAULT_255_1_234
10
15.5448342
20
86.8310866
40
0.3352302
50
32.2747395
51
45.6547121
0
ARC
8
DEFAULT_255_1_234
10
15.5514783
20
86.832988
40
0.328603
50
359.6507365
51
32.6130309
0
ARC
8
DEFAULT_255_1_234
10
15.4571878
20
86.833466
40
0.2678863
50
359.469343
51
14.9832209
0
ARC
8
DEFAULT_255_1_234
10
15.5276941
20
86.8523539
40
0.1948938
50
14.9781179
51
48.2004265
0
ARC
8
DEFAULT_255_1_234
10
15.5112585
20
86.8316983
40
0.2212521
50
48.5927837
51
74.1241538
0
ARC
8
DEFAULT_255_1_234
10
15.4779074
20
86.7216248
40
0.3362561
50
73.7888341
51
86.6652678
0
ARC
8
DEFAULT_255_1_234
10
15.467664
20
86.6008881
40
0.4573953
50
86.2640471
51
90.0526343
0
ARC
8
DEFAULT_255_1_234
10
15.4648352
20
86.6404192
40
0.4178709
50
89.6697524
51
99.2309573
0
ARC
8
DEFAULT_255_1_234
10
15.4405803
20
86.7848964
40
0.2713749
50
99.069534
51
113.7658566
0
ARC
8
DEFAULT_255_1_234
10
15.4131994
20
86.8494677
40
0.2012469
50
114.0401004
51
127.9850673
0
ARC
8
DEFAULT_255_1_234
10
15.3891558
20
86.879073
40
0.1631167
50
127.7287463
51
176.7105154
0
ARC
8
DEFAULT_255_1_234
10
15.4570276
20
86.8689693
40
0.2315392
50
175.1779447
51
180.0581938
0
ARC
8
DEFAULT_255_1_234
10
15.3727123
20
86.8677428
40
0.1472271
50
179.6142195
51
228.1246017
0
ARC
8
DEFAULT_255_1_234
10
15.4168791
20
86.9086308
40
0.2072299
50
226.5779593
51
230.8800004
0
ARC
8
DEFAULT_255_1_234
10
15.463987
20
86.9711636
40
0.2854818
50
231.4635071
51
241.9260842
0
ARC
8
DEFAULT_255_1_234
10
15.5837048
20
87.19148
40
0.53622
50
241.7178533
51
248.3259551
0
ARC
8
DEFAULT_255_1_234
10
15.722242
20
87.5347064
40
0.9063478
50
248.2007737
51
252.4528373
0
ARC
8
DEFAULT_255_1_234
10
15.8426145
20
87.9068441
40
1.2974635
50
252.3391078
51
254.3469452
0
ARC
8
DEFAULT_255_1_234
10
15.0883847
20
85.2091148
40
1.5037162
50
71.0197183
51
74.4087047
0
ARC
8
DEFAULT_255_1_234
10
15.2578532
20
85.6983111
40
0.9859993
50
66.1847285
51
71.086374
0
ARC
8
DEFAULT_255_1_234
10
15.4134845
20
86.04872
40
0.6025855
50
59.3536294
51
66.2691831
0
ARC
8
DEFAULT_255_1_234
10
15.5023497
20
86.1990609
40
0.4279449
50
49.1020879
51
59.3293958
0
ARC
8
DEFAULT_255_1_234
10
15.5842237
20
86.2923834
40
0.3038015
50
32.7919921
51
49.2505539
0
ARC
8
DEFAULT_255_1_234
10
15.6163327
20
86.3152191
40
0.264448
50
31.1181161
51
32.4005348
0
ARC
8
DEFAULT_255_1_234
10
15.6074865
20
86.3116779
40
0.2738556
50
8.1116974
51
30.7958831
0
ARC
8
DEFAULT_255_1_234
10
15.5264533
20
86.2978753
40
0.3560327
50
359.8389159
51
8.4706516
0
ARC
8
DEFAULT_255_1_234
10
15.5890324
20
86.2930137
40
0.2934776
50
337.4731098
51
0.7537279
0
ARC
8
DEFAULT_255_1_234
10
15.6069019
20
86.2910387
40
0.2762607
50
307.5917067
51
336.4315538
0
ARC
8
DEFAULT_255_1_234
10
15.5608847
20
86.3423102
40
0.3449979
50
307.6551545
51
308.4529766
0
ARC
8
DEFAULT_255_1_234
10
15.5378566
20
86.377825
40
0.3871988
50
284.3734338
51
307.1424381
0
ARC
8
DEFAULT_255_1_234
10
15.4883396
20
86.5599932
40
0.5759636
50
272.4382747
51
284.646547
0
ARC
8
DEFAULT_255_1_234
10
15.4756605
20
86.7399893
40
0.7563528
50
269.9708387
51
272.8178037
0
ARC
8
DEFAULT_255_1_234
10
15.4713645
20
86.5361716
40
0.5525489
50
248.2707594
51
270.4055579
0
ARC
8
DEFAULT_255_1_234
10
15.4659386
20
86.5171192
40
0.5328452
50
246.1383403
51
248.0542782
0
ARC
8
DEFAULT_255_1_234
10
15.4240765
20
86.4291843
40
0.4355005
50
233.1670131
51
246.4950969
0
ARC
8
DEFAULT_255_1_234
10
15.368667
20
86.3543812
40
0.3424126
50
215.3403242
51
233.0843104
0
ARC
8
DEFAULT_255_1_234
10
15.3414101
20
86.3345549
40
0.3087104
50
179.2419209
51
215.2648451
0
ARC
8
DEFAULT_255_1_234
10
15.4181695
20
86.3359666
40
0.2304457
50
179.335461
51
199.1045811
0
ARC
8
DEFAULT_255_1_234
10
15.3849371
20
86.3272766
40
0.1962176
50
199.8828939
51
232.7063202
0
ARC
8
DEFAULT_255_1_234
10
15.432164
20
86.3866788
40
0.2720938
50
232.3738199
51
255.5136649
0
ARC
8
DEFAULT_255_1_234
10
15.4662506
20
86.5110835
40
0.4010747
50
255.2446292
51
267.5320849
0
ARC
8
DEFAULT_255_1_234
10
15.475013
20
86.6343702
40
0.5246356
50
267.1557994
51
270.0286766
0
ARC
8
DEFAULT_255_1_234
10
15.4777902
20
86.589995
40
0.4802668
50
269.7000017
51
278.1660162
0
ARC
8
DEFAULT_255_1_234
10
15.5033907
20
86.4169515
40
0.3053425
50
278.0231263
51
290.625471
0
ARC
8
DEFAULT_255_1_234
10
15.5381594
20
86.3242025
40
0.206291
50
290.6619762
51
307.0370976
0
ARC
8
DEFAULT_255_1_234
10
15.5681983
20
86.2873504
40
0.1587906
50
306.3943566
51
355.3030547
0
ARC
8
DEFAULT_255_1_234
10
15.5169914
20
86.2950113
40
0.2104809
50
354.3660432
51
0.0698737
0
ARC
8
DEFAULT_255_1_234
10
15.531226
20
86.2972617
40
0.1962563
50
359.417946
51
16.1971788
0
ARC
8
DEFAULT_255_1_234
10
15.576757
20
86.3097418
40
0.149053
50
16.4723299
51
52.6262157
0
ARC
8
DEFAULT_255_1_234
10
15.4946624
20
86.2013433
40
0.2850296
50
52.7386432
51
62.4979148
0
ARC
8
DEFAULT_255_1_234
10
15.3561701
20
85.9407283
40
0.5801521
50
62.2515216
51
68.1220564
0
ARC
8
DEFAULT_255_1_234
10
15.1841612
20
85.5179872
40
1.0365451
50
68.0062803
51
71.8053402
0
ARC
8
DEFAULT_255_1_234
10
15.0045983
20
84.9794758
40
1.6042013
50
71.7183119
51
73.9258742
0
LINE
8
DEFAULT_255_1_234
10
16.7964965
20
87.1691211
11
16.7964965
21
87.085591
0
LINE
8
DEFAULT_255_1_234
10
16.7964965
20
87.085591
11
16.3121827
21
85.9997
0
LINE
8
DEFAULT_255_1_234
10
16.3121827
20
85.9997
11
16.1563669
21
85.9997
0
LINE
8
DEFAULT_255_1_234
10
16.1563669
20
85.9997
11
16.6390744
21
87.0470387
0
LINE
8
DEFAULT_255_1_234
10
16.6390744
20
87.0470387
11
16.0061734
21
87.0470387
0
LINE
8
DEFAULT_255_1_234
10
16.0061734
20
87.0470387
11
16.0061734
21
87.1691211
0
LINE
8
DEFAULT_255_1_234
10
16.0061734
20
87.1691211
11
16.7964965
21
87.1691211
0
LINE
8
DEFAULT_255_1_234
10
17.2896452
20
86.5571026
11
17.2896452
21
86.4358234
0
LINE
8
DEFAULT_255_1_234
10
17.2896452
20
86.4358234
11
16.8976964
21
86.4358234
0
LINE
8
DEFAULT_255_1_234
10
16.8976964
20
86.4358234
11
16.8976964
21
86.5571026
0
LINE
8
DEFAULT_255_1_234
10
16.8976964
20
86.5571026
11
17.2896452
21
86.5571026
0
LINE
8
DEFAULT_255_1_234
10
18.046235
20
87.1691211
11
18.046235
21
86.392452
0
LINE
8
DEFAULT_255_1_234
10
18.046235
20
86.392452
11
18.2084761
21
86.392452
0
LINE
8
DEFAULT_255_1_234
10
18.2084761
20
86.392452
11
18.2084761
21
86.2711728
0
LINE
8
DEFAULT_255_1_234
10
18.2084761
20
86.2711728
11
18.046235
21
86.2711728
0
LINE
8
DEFAULT_255_1_234
10
18.046235
20
86.2711728
11
18.046235
21
85.9997
0
LINE
8
DEFAULT_255_1_234
10
18.046235
20
85.9997
11
17.8968446
21
85.9997
0
LINE
8
DEFAULT_255_1_234
10
17.8968446
20
85.9997
11
17.8968446
21
86.2711728
0
LINE
8
DEFAULT_255_1_234
10
17.8968446
20
86.2711728
11
17.3643404
21
86.2711728
0
LINE
8
DEFAULT_255_1_234
10
17.3643404
20
86.2711728
11
17.3643404
21
86.3587187
0
LINE
8
DEFAULT_255_1_234
10
17.3643404
20
86.3587187
11
17.8880097
21
87.1691211
0
LINE
8
DEFAULT_255_1_234
10
17.8880097
20
87.1691211
11
18.046235
21
87.1691211
0
LINE
8
DEFAULT_255_1_234
10
17.8791748
20
86.9337912
11
17.5330069
21
86.392452
0
LINE
8
DEFAULT_255_1_234
10
17.5330069
20
86.392452
11
17.8968446
21
86.392452
0
LINE
8
DEFAULT_255_1_234
10
17.8968446
20
86.392452
11
17.8968446
21
86.9659181
0
LINE
8
DEFAULT_255_1_234
10
17.8968446
20
86.9659181
11
17.8791748
21
86.9337912
0
LINE
8
DEFAULT_255_1_234
10
19.0759038
20
86.6912327
11
19.0759038
21
86.4984709
0
LINE
8
DEFAULT_255_1_234
10
18.3377871
20
86.4783916
11
18.3377871
21
86.6767755
0
LINE
8
DEFAULT_255_1_234
10
18.9273167
20
86.4583123
11
18.9273167
21
86.7016739
0
LINE
8
DEFAULT_255_1_234
10
18.4863742
20
86.7129184
11
18.4863742
21
86.4751789
0
ARC
8
DEFAULT_255_1_234
10
17.8511928
20
86.4935805
40
1.2247208
50
353.8441951
51
0.2287902
0
ARC
8
DEFAULT_255_1_234
10
18.3151431
20
86.4417806
40
0.7578929
50
344.4934747
51
353.9765454
0
ARC
8
DEFAULT_255_1_234
10
18.6144022
20
86.3566981
40
0.4467846
50
329.2803592
51
344.7472793
0
ARC
8
DEFAULT_255_1_234
10
18.7136846
20
86.3022018
40
0.3336173
50
324.9352394
51
328.6160465
0
ARC
8
DEFAULT_255_1_234
10
18.7513955
20
86.2758427
40
0.2876076
50
280.580143
51
324.9173126
0
ARC
8
DEFAULT_255_1_234
10
18.7112748
20
86.4429099
40
0.4592847
50
269.5977311
51
281.6734359
0
ARC
8
DEFAULT_255_1_234
10
18.7040653
20
86.4309173
40
0.4472986
50
256.6228859
51
270.51044
0
ARC
8
DEFAULT_255_1_234
10
18.6638631
20
86.2760877
40
0.2873874
50
215.8618325
51
257.2788573
0
ARC
8
DEFAULT_255_1_234
10
18.7659663
20
86.3445977
40
0.4102928
50
197.9693508
51
215.2623606
0
ARC
8
DEFAULT_255_1_234
10
19.0144778
20
86.4284709
40
0.6725652
50
187.8816417
51
198.2346507
0
ARC
8
DEFAULT_255_1_234
10
19.4102987
20
86.4856079
40
1.0724845
50
180.8976217
51
188.0055519
0
ARC
8
DEFAULT_255_1_234
10
19.6903175
20
86.4959777
40
1.3526448
50
180.7449369
51
181.1510016
0
ARC
8
DEFAULT_255_1_234
10
19.5325904
20
86.6816042
40
1.1948131
50
173.7675579
51
180.231553
0
ARC
8
DEFAULT_255_1_234
10
19.080805
20
86.7326666
40
0.7401564
50
164.3058563
51
173.9002247
0
ARC
8
DEFAULT_255_1_234
10
18.7896119
20
86.8165656
40
0.4371288
50
148.7922025
51
164.568378
0
ARC
8
DEFAULT_255_1_234
10
18.6944571
20
86.8696929
40
0.3282386
50
144.5883898
51
148.1176286
0
ARC
8
DEFAULT_255_1_234
10
18.6601469
20
86.8936315
40
0.2864044
50
101.6440918
51
144.514236
0
ARC
8
DEFAULT_255_1_234
10
18.7026536
20
86.7247069
40
0.4604934
50
89.5284041
51
102.5819763
0
ARC
8
DEFAULT_255_1_234
10
18.7105624
20
86.7208018
40
0.464401
50
77.0437873
51
90.5081339
0
ARC
8
DEFAULT_255_1_234
10
18.7507626
20
86.8850615
40
0.2953195
50
48.2778575
51
77.4994676
0
ARC
8
DEFAULT_255_1_234
10
18.7580257
20
86.8979746
40
0.2808655
50
36.3142134
51
47.6305865
0
ARC
8
DEFAULT_255_1_234
10
18.6711564
20
86.8394515
40
0.3855453
50
18.2931786
51
35.6769206
0
ARC
8
DEFAULT_255_1_234
10
18.4168323
20
86.7521593
40
0.654423
50
8.024666
51
18.5605216
0
ARC
8
DEFAULT_255_1_234
10
18.0005243
20
86.6906792
40
1.0752407
50
1.1274072
51
8.1718305
0
ARC
8
DEFAULT_255_1_234
10
17.6769433
20
86.6779885
40
1.3990231
50
0.5424119
51
1.3863029
0
ARC
8
DEFAULT_255_1_234
10
17.8590811
20
86.7052342
40
1.0682415
50
359.8090433
51
4.9407866
0
ARC
8
DEFAULT_255_1_234
10
18.2800825
20
86.7428113
40
0.6455691
50
4.8362157
51
12.2904523
0
ARC
8
DEFAULT_255_1_234
10
18.555594
20
86.8041965
40
0.3633074
50
12.0805627
51
23.8173984
0
ARC
8
DEFAULT_255_1_234
10
18.6729645
20
86.8538919
40
0.2358723
50
24.2871213
51
31.3935614
0
ARC
8
DEFAULT_255_1_234
10
18.7254342
20
86.8882233
40
0.1732111
50
30.7407893
51
82.4657128
0
ARC
8
DEFAULT_255_1_234
10
18.7074477
20
86.7998691
40
0.263235
50
81.1060089
51
90.2184952
0
ARC
8
DEFAULT_255_1_234
10
18.7038776
20
86.8256924
40
0.2374236
50
89.3806855
51
105.6762551
0
ARC
8
DEFAULT_255_1_234
10
18.6855406
20
86.8923567
40
0.1682847
50
105.7981136
51
149.7388061
0
ARC
8
DEFAULT_255_1_234
10
18.7919485
20
86.828395
40
0.2924306
50
149.4208916
51
163.6286378
0
ARC
8
DEFAULT_255_1_234
10
19.0010373
20
86.764625
40
0.5110213
50
163.3763315
51
172.1410975
0
ARC
8
DEFAULT_255_1_234
10
19.3311092
20
86.7173518
40
0.8444586
50
172.0259487
51
178.0703232
0
ARC
8
DEFAULT_255_1_234
10
19.6341181
20
86.7029906
40
1.1477868
50
177.8631668
51
179.5044149
0
ARC
8
DEFAULT_255_1_234
10
19.5268586
20
86.4715389
40
1.0404907
50
179.7995573
51
185.2460446
0
ARC
8
DEFAULT_255_1_234
10
19.1225625
20
86.4332513
40
0.6343885
50
185.1411642
51
193.0079639
0
ARC
8
DEFAULT_255_1_234
10
18.8582097
20
86.3707641
40
0.3627568
50
192.7897626
51
205.2507664
0
ARC
8
DEFAULT_255_1_234
10
18.7535644
20
86.3240415
40
0.2481908
50
205.8005384
51
211.2537509
0
ARC
8
DEFAULT_255_1_234
10
18.7012085
20
86.288958
40
0.1852521
50
210.3789793
51
238.4008143
0
ARC
8
DEFAULT_255_1_234
10
18.6992607
20
86.2936376
40
0.1882621
50
239.6520629
51
265.9793761
0
ARC
8
DEFAULT_255_1_234
10
18.7077807
20
86.3608427
40
0.2559272
50
265.1315437
51
270.060332
0
ARC
8
DEFAULT_255_1_234
10
18.7106586
20
86.3284534
40
0.2235528
50
269.3314664
51
287.2178029
0
ARC
8
DEFAULT_255_1_234
10
18.7244438
20
86.2781279
40
0.1714108
50
287.7958004
51
329.080874
0
ARC
8
DEFAULT_255_1_234
10
18.6286894
20
86.337893
40
0.2842745
50
328.6634704
51
343.3325132
0
ARC
8
DEFAULT_255_1_234
10
18.4113915
20
86.4055863
40
0.5118644
50
343.0499468
51
351.9393422
0
ARC
8
DEFAULT_255_1_234
10
18.0647215
20
86.4566949
40
0.8622784
50
351.8069023
51
357.7959224
0
ARC
8
DEFAULT_255_1_234
10
17.7411771
20
86.4734721
40
1.1862365
50
357.5871873
51
359.2677531
0
LINE
8
DEFAULT_255_1_234
10
19.9995537
20
86.6912327
11
19.9995537
21
86.4984709
0
LINE
8
DEFAULT_255_1_234
10
19.261437
20
86.4783916
11
19.261437
21
86.6767755
0
LINE
8
DEFAULT_255_1_234
10
19.8509666
20
86.4583123
11
19.8509666
21
86.7016739
0
LINE
8
DEFAULT_255_1_234
10
19.4100241
20
86.7129184
11
19.4100241
21
86.4751789
0
ARC
8
DEFAULT_255_1_234
10
18.7748427
20
86.4935805
40
1.2247208
50
353.8441951
51
0.2287902
0
ARC
8
DEFAULT_255_1_234
10
19.238793
20
86.4417806
40
0.7578929
50
344.4934747
51
353.9765454
0
ARC
8
DEFAULT_255_1_234
10
19.5380521
20
86.3566981
40
0.4467846
50
329.2803592
51
344.7472793
0
ARC
8
DEFAULT_255_1_234
10
19.6373345
20
86.3022018
40
0.3336173
50
324.9352394
51
328.6160465
0
ARC
8
DEFAULT_255_1_234
10
19.6750454
20
86.2758427
40
0.2876076
50
280.580143
51
324.9173126
0
ARC
8
DEFAULT_255_1_234
10
19.6349247
20
86.4429099
40
0.4592847
50
269.5977311
51
281.6734359
0
ARC
8
DEFAULT_255_1_234
10
19.6277152
20
86.4309173
40
0.4472986
50
256.6228859
51
270.51044
0
ARC
8
DEFAULT_255_1_234
10
19.587513
20
86.2760877
40
0.2873874
50
215.8618325
51
257.2788573
0
ARC
8
DEFAULT_255_1_234
10
19.6896162
20
86.3445977
40
0.4102928
50
197.9693508
51
215.2623606
0
ARC
8
DEFAULT_255_1_234
10
19.9381277
20
86.4284709
40
0.6725652
50
187.8816417
51
198.2346507
0
ARC
8
DEFAULT_255_1_234
10
20.3339486
20
86.4856079
40
1.0724845
50
180.8976217
51
188.0055519
0
ARC
8
DEFAULT_255_1_234
10
20.6139674
20
86.4959777
40
1.3526448
50
180.7449369
51
181.1510016
0
ARC
8
DEFAULT_255_1_234
10
20.4562403
20
86.6816042
40
1.1948131
50
173.7675579
51
180.231553
0
ARC
8
DEFAULT_255_1_234
10
20.0044549
20
86.7326666
40
0.7401564
50
164.3058563
51
173.9002247
0
ARC
8
DEFAULT_255_1_234
10
19.7132618
20
86.8165656
40
0.4371288
50
148.7922025
51
164.568378
0
ARC
8
DEFAULT_255_1_234
10
19.618107
20
86.8696929
40
0.3282386
50
144.5883898
51
148.1176286
0
ARC
8
DEFAULT_255_1_234
10
19.5837968
20
86.8936315
40
0.2864044
50
101.6440918
51
144.514236
0
ARC
8
DEFAULT_255_1_234
10
19.6263035
20
86.7247069
40
0.4604934
50
89.5284041
51
102.5819763
0
ARC
8
DEFAULT_255_1_234
10
19.6342123
20
86.7208018
40
0.464401
50
77.0437873
51
90.5081339
0
ARC
8
DEFAULT_255_1_234
10
19.6744125
20
86.8850615
40
0.2953195
50
48.2778575
51
77.4994676
0
ARC
8
DEFAULT_255_1_234
10
19.6816756
20
86.8979746
40
0.2808655
50
36.3142134
51
47.6305865
0
ARC
8
DEFAULT_255_1_234
10
19.5948063
20
86.8394515
40
0.3855453
50
18.2931786
51
35.6769206
0
ARC
8
DEFAULT_255_1_234
10
19.3404822
20
86.7521593
40
0.654423
50
8.024666
51
18.5605216
0
ARC
8
DEFAULT_255_1_234
10
18.9241742
20
86.6906792
40
1.0752407
50
1.1274072
51
8.1718305
0
ARC
8
DEFAULT_255_1_234
10
18.6005932
20
86.6779885
40
1.3990231
50
0.5424119
51
1.3863029
0
ARC
8
DEFAULT_255_1_234
10
18.782731
20
86.7052342
40
1.0682415
50
359.8090433
51
4.9407866
0
ARC
8
DEFAULT_255_1_234
10
19.2037324
20
86.7428113
40
0.6455691
50
4.8362157
51
12.2904523
0
ARC
8
DEFAULT_255_1_234
10
19.4792439
20
86.8041965
40
0.3633074
50
12.0805627
51
23.8173984
0
ARC
8
DEFAULT_255_1_234
10
19.5966144
20
86.8538919
40
0.2358723
50
24.2871213
51
31.3935614
0
ARC
8
DEFAULT_255_1_234
10
19.6490841
20
86.8882233
40
0.1732111
50
30.7407893
51
82.4657128
0
ARC
8
DEFAULT_255_1_234
10
19.6310976
20
86.7998691
40
0.263235
50
81.1060089
51
90.2184952
0
ARC
8
DEFAULT_255_1_234
10
19.6275275
20
86.8256924
40
0.2374236
50
89.3806855
51
105.6762551
0
ARC
8
DEFAULT_255_1_234
10
19.6091905
20
86.8923567
40
0.1682847
50
105.7981136
51
149.7388061
0
ARC
8
DEFAULT_255_1_234
10
19.7155984
20
86.828395
40
0.2924306
50
149.4208916
51
163.6286378
0
ARC
8
DEFAULT_255_1_234
10
19.9246872
20
86.764625
40
0.5110213
50
163.3763315
51
172.1410975
0
ARC
8
DEFAULT_255_1_234
10
20.2547591
20
86.7173518
40
0.8444586
50
172.0259487
51
178.0703232
0
ARC
8
DEFAULT_255_1_234
10
20.557768
20
86.7029906
40
1.1477868
50
177.8631668
51
179.5044149
0
ARC
8
DEFAULT_255_1_234
10
20.4505085
20
86.4715389
40
1.0404907
50
179.7995573
51
185.2460446
0
ARC
8
DEFAULT_255_1_234
10
20.0462124
20
86.4332513
40
0.6343885
50
185.1411642
51
193.0079639
0
ARC
8
DEFAULT_255_1_234
10
19.7818596
20
86.3707641
40
0.3627568
50
192.7897626
51
205.2507664
0
ARC
8
DEFAULT_255_1_234
10
19.6772143
20
86.3240415
40
0.2481908
50
205.8005384
51
211.2537509
0
ARC
8
DEFAULT_255_1_234
10
19.6248584
20
86.288958
40
0.1852521
50
210.3789793
51
238.4008143
0
ARC
8
DEFAULT_255_1_234
10
19.6229106
20
86.2936376
40
0.1882621
50
239.6520629
51
265.9793761
0
ARC
8
DEFAULT_255_1_234
10
19.6314306
20
86.3608427
40
0.2559272
50
265.1315437
51
270.060332
0
ARC
8
DEFAULT_255_1_234
10
19.6343085
20
86.3284534
40
0.2235528
50
269.3314664
51
287.2178029
0
ARC
8
DEFAULT_255_1_234
10
19.6480937
20
86.2781279
40
0.1714108
50
287.7958004
51
329.080874
0
ARC
8
DEFAULT_255_1_234
10
19.5523394
20
86.337893
40
0.2842745
50
328.6634704
51
343.3325132
0
ARC
8
DEFAULT_255_1_234
10
19.3350414
20
86.4055863
40
0.5118644
50
343.0499468
51
351.9393422
0
ARC
8
DEFAULT_255_1_234
10
18.9883714
20
86.4566949
40
0.8622784
50
351.8069023
51
357.7959224
0
ARC
8
DEFAULT_255_1_234
10
18.664827
20
86.4734721
40
1.1862365
50
357.5871873
51
359.2677531
0
LINE
8
DEFAULT_255_1_234
10
4.2454489
20
85.1848211
11
4.2454489
21
84.1414983
0
LINE
8
DEFAULT_255_1_234
10
4.2454489
20
84.1414983
11
4.7996389
21
84.1414983
0
LINE
8
DEFAULT_255_1_234
10
4.7996389
20
84.1414983
11
4.7996389
21
84.0154
0
LINE
8
DEFAULT_255_1_234
10
4.7996389
20
84.0154
11
4.0904364
21
84.0154
0
LINE
8
DEFAULT_255_1_234
10
4.0904364
20
84.0154
11
4.0904364
21
85.1848211
0
LINE
8
DEFAULT_255_1_234
10
4.0904364
20
85.1848211
11
4.2454489
21
85.1848211
0
LINE
8
DEFAULT_255_1_234
10
5.377924
20
84.9840276
11
5.377924
21
84.6426788
0
LINE
8
DEFAULT_255_1_234
10
5.377924
20
84.6426788
11
5.7040126
21
84.6426788
0
LINE
8
DEFAULT_255_1_234
10
5.7040126
20
84.6426788
11
5.7040126
21
84.5021233
0
LINE
8
DEFAULT_255_1_234
10
5.7040126
20
84.5021233
11
5.377924
21
84.5021233
0
LINE
8
DEFAULT_255_1_234
10
5.377924
20
84.5021233
11
5.377924
21
84.1326634
0
LINE
8
DEFAULT_255_1_234
10
5.377924
20
84.1326634
11
5.2285337
21
84.1326634
0
LINE
8
DEFAULT_255_1_234
10
5.2285337
20
84.1326634
11
5.2285337
21
84.5021233
0
LINE
8
DEFAULT_255_1_234
10
5.2285337
20
84.5021233
11
4.9024451
21
84.5021233
0
LINE
8
DEFAULT_255_1_234
10
4.9024451
20
84.5021233
11
4.9024451
21
84.6426788
0
LINE
8
DEFAULT_255_1_234
10
4.9024451
20
84.6426788
11
5.2285337
21
84.6426788
0
LINE
8
DEFAULT_255_1_234
10
5.2285337
20
84.6426788
11
5.2285337
21
84.9840276
0
LINE
8
DEFAULT_255_1_234
10
5.2285337
20
84.9840276
11
5.377924
21
84.9840276
0
LINE
8
DEFAULT_255_1_234
10
4.3086299
20
5.8098211
11
4.5905439
21
5.3616501
0
LINE
8
DEFAULT_255_1_234
10
4.5905439
20
5.3616501
11
4.8708516
21
5.8098211
0
LINE
8
DEFAULT_255_1_234
10
4.8708516
20
5.8098211
11
5.0523689
21
5.8098211
0
LINE
8
DEFAULT_255_1_234
10
5.0523689
20
5.8098211
11
4.6829089
21
5.2299296
0
LINE
8
DEFAULT_255_1_234
10
4.6829089
20
5.2299296
11
5.0612038
21
4.6404
0
LINE
8
DEFAULT_255_1_234
10
5.0612038
20
4.6404
11
4.8780802
21
4.6404
0
LINE
8
DEFAULT_255_1_234
10
4.8780802
20
4.6404
11
4.5905439
21
5.0966027
0
LINE
8
DEFAULT_255_1_234
10
4.5905439
20
5.0966027
11
4.3014014
21
4.6404
0
LINE
8
DEFAULT_255_1_234
10
4.3014014
20
4.6404
11
4.1190809
21
4.6404
0
LINE
8
DEFAULT_255_1_234
10
4.1190809
20
4.6404
11
4.498179
21
5.2299296
0
LINE
8
DEFAULT_255_1_234
10
4.498179
20
5.2299296
11
4.1279158
21
5.8098211
0
LINE
8
DEFAULT_255_1_234
10
4.1279158
20
5.8098211
11
4.3086299
21
5.8098211
0
LINE
8
DEFAULT_255_1_234
10
5.3888987
20
5.1961963
11
5.270029
21
5.2267169
0
LINE
8
DEFAULT_255_1_234
10
5.270029
20
5.2267169
11
5.3294639
21
5.8098211
0
LINE
8
DEFAULT_255_1_234
10
5.3294639
20
5.8098211
11
5.9286315
21
5.8098211
0
LINE
8
DEFAULT_255_1_234
10
5.9286315
20
5.8098211
11
5.9286315
21
5.6724784
0
LINE
8
DEFAULT_255_1_234
10
5.9286315
20
5.6724784
11
5.4555622
21
5.6724784
0
LINE
8
DEFAULT_255_1_234
10
5.4555622
20
5.6724784
11
5.4202225
21
5.3536184
0
LINE
8
DEFAULT_255_1_234
10
5.228264
20
4.9480156
11
5.3688194
21
4.9480156
0
LINE
8
DEFAULT_255_1_234
10
5.4282542
20
5.2283232
11
5.3888987
21
5.1961963
0
ARC
8
DEFAULT_255_1_234
10
5.6057009
20
5.035623
40
0.3681349
50
93.7182161
51
120.2538958
0
ARC
8
DEFAULT_255_1_234
10
5.6151272
20
4.9548394
40
0.449379
50
89.9660152
51
94.2496022
0
ARC
8
DEFAULT_255_1_234
10
5.6192006
20
5.0137549
40
0.390482
50
73.8043271
51
90.5585896
0
ARC
8
DEFAULT_255_1_234
10
5.6426903
20
5.0995602
40
0.3015334
50
41.3071453
51
73.5430202
0
ARC
8
DEFAULT_255_1_234
10
5.601073
20
5.0637324
40
0.3564457
50
13.5075983
51
41.2174222
0
ARC
8
DEFAULT_255_1_234
10
5.4368934
20
5.0207486
40
0.5261351
50
1.1331335
51
13.8829381
0
ARC
8
DEFAULT_255_1_234
10
5.2957303
20
5.0131665
40
0.6674378
50
359.9919444
51
1.544251
0
ARC
8
DEFAULT_255_1_234
10
5.4234129
20
5.009028
40
0.5397702
50
347.8572367
51
0.4293338
0
ARC
8
DEFAULT_255_1_234
10
5.5984447
20
4.9693736
40
0.3603188
50
323.673004
51
348.1672506
0
ARC
8
DEFAULT_255_1_234
10
5.6278955
20
4.9514168
40
0.3259678
50
316.8171152
51
323.1492751
0
ARC
8
DEFAULT_255_1_234
10
5.6340144
20
4.947746
40
0.3189975
50
281.8396411
51
316.5457803
0
ARC
8
DEFAULT_255_1_234
10
5.5964408
20
5.1032762
40
0.4789527
50
269.5770101
51
282.4214771
0
ARC
8
DEFAULT_255_1_234
10
5.5893219
20
5.0819125
40
0.45759
50
256.2427136
51
270.4486331
0
ARC
8
DEFAULT_255_1_234
10
5.5594121
20
4.9619229
40
0.3339303
50
228.9023911
51
256.3314342
0
ARC
8
DEFAULT_255_1_234
10
5.5520354
20
4.9502746
40
0.32031
50
193.753695
51
228.5271154
0
ARC
8
DEFAULT_255_1_234
10
5.6758308
20
4.98658
40
0.4492253
50
184.924711
51
194.497588
0
ARC
8
DEFAULT_255_1_234
10
5.6950875
20
4.9901591
40
0.3289787
50
187.3600538
51
198.6732863
0
ARC
8
DEFAULT_255_1_234
10
5.5901169
20
4.9537674
40
0.217884
50
198.4451669
51
217.794479
0
ARC
8
DEFAULT_255_1_234
10
5.5605344
20
4.9328085
40
0.1816698
50
218.2887171
51
228.5612368
0
ARC
8
DEFAULT_255_1_234
10
5.5703131
20
4.9459963
40
0.1980329
50
228.9654866
51
258.1234728
0
ARC
8
DEFAULT_255_1_234
10
5.5908841
20
5.0340833
40
0.2884748
50
257.7258293
51
270.401361
0
ARC
8
DEFAULT_255_1_234
10
5.5953727
20
4.9895821
40
0.2439788
50
269.4204404
51
286.4209037
0
ARC
8
DEFAULT_255_1_234
10
5.6102215
20
4.9356657
40
0.1880666
50
286.7251356
51
320.600362
0
ARC
8
DEFAULT_255_1_234
10
5.571904
20
4.9667595
40
0.2374121
50
320.6712579
51
344.5441685
0
ARC
8
DEFAULT_255_1_234
10
5.4562366
20
5.0007045
40
0.3579479
50
344.2412205
51
356.7357071
0
ARC
8
DEFAULT_255_1_234
10
5.3313515
20
5.0110444
40
0.4832297
50
356.3548756
51
0.0500261
0
ARC
8
DEFAULT_255_1_234
10
5.4650024
20
5.014165
40
0.3495889
50
359.5576869
51
12.953486
0
ARC
8
DEFAULT_255_1_234
10
5.5704921
20
5.0397434
40
0.2410532
50
12.6490276
51
41.6081334
0
ARC
8
DEFAULT_255_1_234
10
5.5935292
20
5.0593321
40
0.2108218
50
41.7850273
51
85.9892764
0
ARC
8
DEFAULT_255_1_234
10
5.5812029
20
4.9780462
40
0.2928454
50
84.6957577
51
90.0676183
0
ARC
8
DEFAULT_255_1_234
10
5.5788513
20
4.9111716
40
0.3597255
50
89.6804936
51
99.1614436
0
ARC
8
DEFAULT_255_1_234
10
5.5583144
20
5.0339131
40
0.235281
50
98.9830931
51
113.8908934
0
ARC
8
DEFAULT_255_1_234
10
5.5353554
20
5.0880587
40
0.176479
50
114.1950727
51
127.3641004
0
LINE
8
DEFAULT_255_1_234
10
4.4145299
20
13.7473211
11
4.6964439
21
13.2991501
0
LINE
8
DEFAULT_255_1_234
10
4.6964439
20
13.2991501
11
4.9767516
21
13.7473211
0
LINE
8
DEFAULT_255_1_234
10
4.9767516
20
13.7473211
11
5.1582689
21
13.7473211
0
LINE
8
DEFAULT_255_1_234
10
5.1582689
20
13.7473211
11
4.7888089
21
13.1674296
0
LINE
8
DEFAULT_255_1_234
10
4.7888089
20
13.1674296
11
5.1671038
21
12.5779
0
LINE
8
DEFAULT_255_1_234
10
5.1671038
20
12.5779
11
4.9839802
21
12.5779
0
LINE
8
DEFAULT_255_1_234
10
4.9839802
20
12.5779
11
4.6964439
21
13.0341027
0
LINE
8
DEFAULT_255_1_234
10
4.6964439
20
13.0341027
11
4.4073014
21
12.5779
0
LINE
8
DEFAULT_255_1_234
10
4.4073014
20
12.5779
11
4.2249809
21
12.5779
0
LINE
8
DEFAULT_255_1_234
10
4.2249809
20
12.5779
11
4.604079
21
13.1674296
0
LINE
8
DEFAULT_255_1_234
10
4.604079
20
13.1674296
11
4.2338158
21
13.7473211
0
LINE
8
DEFAULT_255_1_234
10
4.2338158
20
13.7473211
11
4.4145299
21
13.7473211
0
LINE
8
DEFAULT_255_1_234
10
5.934938
20
13.7473211
11
5.934938
21
12.970652
0
LINE
8
DEFAULT_255_1_234
10
5.934938
20
12.970652
11
6.0971791
21
12.970652
0
LINE
8
DEFAULT_255_1_234
10
6.0971791
20
12.970652
11
6.0971791
21
12.8493728
0
LINE
8
DEFAULT_255_1_234
10
6.0971791
20
12.8493728
11
5.934938
21
12.8493728
0
LINE
8
DEFAULT_255_1_234
10
5.934938
20
12.8493728
11
5.934938
21
12.5779
0
LINE
8
DEFAULT_255_1_234
10
5.934938
20
12.5779
11
5.7855477
21
12.5779
0
LINE
8
DEFAULT_255_1_234
10
5.7855477
20
12.5779
11
5.7855477
21
12.8493728
0
LINE
8
DEFAULT_255_1_234
10
5.7855477
20
12.8493728
11
5.2530434
21
12.8493728
0
LINE
8
DEFAULT_255_1_234
10
5.2530434
20
12.8493728
11
5.2530434
21
12.9369187
0
LINE
8
DEFAULT_255_1_234
10
5.2530434
20
12.9369187
11
5.7767127
21
13.7473211
0
LINE
8
DEFAULT_255_1_234
10
5.7767127
20
13.7473211
11
5.934938
21
13.7473211
0
LINE
8
DEFAULT_255_1_234
10
5.7678778
20
13.5119912
11
5.4217099
21
12.970652
0
LINE
8
DEFAULT_255_1_234
10
5.4217099
20
12.970652
11
5.7855477
21
12.970652
0
LINE
8
DEFAULT_255_1_234
10
5.7855477
20
12.970652
11
5.7855477
21
13.5441181
0
LINE
8
DEFAULT_255_1_234
10
5.7855477
20
13.5441181
11
5.7678778
21
13.5119912
0
LINE
8
DEFAULT_255_1_234
10
4.3086299
20
21.6848211
11
4.5905439
21
21.2366501
0
LINE
8
DEFAULT_255_1_234
10
4.5905439
20
21.2366501
11
4.8708516
21
21.6848211
0
LINE
8
DEFAULT_255_1_234
10
4.8708516
20
21.6848211
11
5.0523689
21
21.6848211
0
LINE
8
DEFAULT_255_1_234
10
5.0523689
20
21.6848211
11
4.6829089
21
21.1049296
0
LINE
8
DEFAULT_255_1_234
10
4.6829089
20
21.1049296
11
5.0612038
21
20.5154
0
LINE
8
DEFAULT_255_1_234
10
5.0612038
20
20.5154
11
4.8780802
21
20.5154
0
LINE
8
DEFAULT_255_1_234
10
4.8780802
20
20.5154
11
4.5905439
21
20.9716027
0
LINE
8
DEFAULT_255_1_234
10
4.5905439
20
20.9716027
11
4.3014014
21
20.5154
0
LINE
8
DEFAULT_255_1_234
10
4.3014014
20
20.5154
11
4.1190809
21
20.5154
0
LINE
8
DEFAULT_255_1_234
10
4.1190809
20
20.5154
11
4.498179
21
21.1049296
0
LINE
8
DEFAULT_255_1_234
10
4.498179
20
21.1049296
11
4.1279158
21
21.6848211
0
LINE
8
DEFAULT_255_1_234
10
4.1279158
20
21.6848211
11
4.3086299
21
21.6848211
0
LINE
8
DEFAULT_255_1_234
10
5.417813
20
21.0511169
11
5.417813
21
21.1723962
0
LINE
8
DEFAULT_255_1_234
10
5.417813
20
21.1723962
11
5.5294542
21
21.1723962
0
LINE
8
DEFAULT_255_1_234
10
5.339102
20
21.3780087
11
5.1905148
21
21.3780087
0
LINE
8
DEFAULT_255_1_234
10
5.1800735
20
20.8238188
11
5.3294639
21
20.8238188
0
LINE
8
DEFAULT_255_1_234
10
5.5294542
20
21.0511169
11
5.417813
21
21.0511169
0
ARC
8
DEFAULT_255_1_234
10
5.5265408
20
21.5116713
40
0.3392876
50
270.4919872
51
281.8951556
0
ARC
8
DEFAULT_255_1_234
10
5.550667
20
21.4014702
40
0.2264817
50
281.6691735
51
301.2943132
0
ARC
8
DEFAULT_255_1_234
10
5.567688
20
21.3703304
40
0.1910381
50
301.7833094
51
311.7545298
0
ARC
8
DEFAULT_255_1_234
10
5.5768456
20
21.3601748
40
0.1773635
50
311.7323931
51
354.2802411
0
ARC
8
DEFAULT_255_1_234
10
5.5042081
20
21.3726722
40
0.2509385
50
353.0937916
51
0.1181479
0
ARC
8
DEFAULT_255_1_234
10
5.4580866
20
21.3774386
40
0.2970898
50
359.1805295
51
15.0453146
0
ARC
8
DEFAULT_255_1_234
10
5.5926703
20
21.4166992
40
0.1569564
50
13.9577229
51
77.6713066
0
ARC
8
DEFAULT_255_1_234
10
5.5540232
20
21.2781949
40
0.3006298
50
76.1116566
51
90.7026153
0
ARC
8
DEFAULT_255_1_234
10
5.548107
20
21.3055545
40
0.2732568
50
89.5324876
51
103.531937
0
ARC
8
DEFAULT_255_1_234
10
5.5280514
20
21.3854884
40
0.1908508
50
103.2931773
51
133.5619022
0
ARC
8
DEFAULT_255_1_234
10
5.5236003
20
21.3914375
40
0.1834746
50
133.8349307
51
173.5344437
0
ARC
8
DEFAULT_255_1_234
10
5.5959046
20
21.3786213
40
0.2568033
50
172.5096846
51
180.1366907
0
ARC
8
DEFAULT_255_1_234
10
5.500794
20
21.3820622
40
0.3103056
50
155.3484492
51
180.7484736
0
ARC
8
DEFAULT_255_1_234
10
5.4959029
20
21.3791846
40
0.3070957
50
131.5744599
51
154.4798489
0
ARC
8
DEFAULT_255_1_234
10
5.5272176
20
21.347531
40
0.3515643
50
96.9875458
51
131.9690667
0
ARC
8
DEFAULT_255_1_234
10
5.5491656
20
21.2229636
40
0.4779224
50
89.8596053
51
97.7825159
0
ARC
8
DEFAULT_255_1_234
10
5.5539719
20
21.1967616
40
0.5041361
50
78.3655447
51
90.4131539
0
ARC
8
DEFAULT_255_1_234
10
5.5897637
20
21.3626887
40
0.3344039
50
56.6229102
51
78.638727
0
ARC
8
DEFAULT_255_1_234
10
5.6112581
20
21.4002805
40
0.2912001
50
47.0253525
51
56.0854072
0
ARC
8
DEFAULT_255_1_234
10
5.6132361
20
21.4042223
40
0.2869704
50
10.9208013
51
46.7778124
0
ARC
8
DEFAULT_255_1_234
10
5.4768427
20
21.3726857
40
0.426899
50
359.6364486
51
11.6087304
0
ARC
8
DEFAULT_255_1_234
10
5.6603271
20
21.3711752
40
0.243409
50
332.3549906
51
359.7179418
0
ARC
8
DEFAULT_255_1_234
10
5.5952873
20
21.4020142
40
0.3153459
50
325.2333722
51
332.8745602
0
ARC
8
DEFAULT_255_1_234
10
5.6105496
20
21.3913828
40
0.2967456
50
292.9802137
51
325.2392345
0
ARC
8
DEFAULT_255_1_234
10
5.583087
20
21.4447863
40
0.3566604
50
292.5402179
51
293.6924929
0
ARC
8
DEFAULT_255_1_234
10
5.6223466
20
20.7993091
40
0.3307468
50
57.6435486
51
72.8625112
0
ARC
8
DEFAULT_255_1_234
10
5.6577966
20
20.8567549
40
0.2632492
50
36.7248896
51
57.4697979
0
ARC
8
DEFAULT_255_1_234
10
5.6566598
20
20.858022
40
0.2634081
50
8.0545065
51
36.356114
0
ARC
8
DEFAULT_255_1_234
10
5.5703784
20
20.8425174
40
0.3510261
50
359.8320645
51
8.5869982
0
ARC
8
DEFAULT_255_1_234
10
5.532856
20
20.8377101
40
0.3885653
50
343.9829931
51
0.5571613
0
ARC
8
DEFAULT_255_1_234
10
5.6214757
20
20.8134438
40
0.2966924
50
311.6359546
51
343.7651759
0
ARC
8
DEFAULT_255_1_234
10
5.5836326
20
20.8561102
40
0.3537231
50
279.7829875
51
311.6255694
0
ARC
8
DEFAULT_255_1_234
10
5.5535102
20
20.999828
40
0.5004971
50
269.7286406
51
280.3856417
0
ARC
8
DEFAULT_255_1_234
10
5.5473175
20
20.9956996
40
0.4963778
50
256.6828919
51
270.4412052
0
ARC
8
DEFAULT_255_1_234
10
5.5134471
20
20.8572394
40
0.3538406
50
229.4223008
51
256.8556159
0
ARC
8
DEFAULT_255_1_234
10
5.4719864
20
20.8105736
40
0.2914296
50
181.818294
51
229.6455059
0
ARC
8
DEFAULT_255_1_234
10
5.575982
20
20.8236496
40
0.3959084
50
179.9755256
51
183.2323064
0
ARC
8
DEFAULT_255_1_234
10
5.5587566
20
20.8216037
40
0.2293034
50
179.4465117
51
196.2869258
0
ARC
8
DEFAULT_255_1_234
10
5.5099974
20
20.8082651
40
0.1787621
50
196.5661473
51
227.705904
0
ARC
8
DEFAULT_255_1_234
10
5.5264069
20
20.8266155
40
0.2033784
50
227.7652068
51
257.8762805
0
ARC
8
DEFAULT_255_1_234
10
5.5489039
20
20.9209156
40
0.3003081
50
257.4584385
51
270.426602
0
ARC
8
DEFAULT_255_1_234
10
5.5534605
20
20.9498996
40
0.329292
50
269.5962073
51
280.8789248
0
ARC
8
DEFAULT_255_1_234
10
5.5764134
20
20.8352685
40
0.2123908
50
280.6346389
51
299.8595945
0
ARC
8
DEFAULT_255_1_234
10
5.595504
20
20.7990212
40
0.171457
50
300.3576302
51
314.5517981
0
ARC
8
DEFAULT_255_1_234
10
5.5872101
20
20.8050919
40
0.1816095
50
315.0728369
51
345.0431014
0
ARC
8
DEFAULT_255_1_234
10
5.4948915
20
20.8319841
40
0.2777492
50
344.5986631
51
357.9269593
0
ARC
8
DEFAULT_255_1_234
10
5.4053241
20
20.8381276
40
0.3674917
50
357.4748886
51
0.0231117
0
ARC
8
DEFAULT_255_1_234
10
5.5076351
20
20.8405679
40
0.2651907
50
359.5047933
51
13.4239635
0
ARC
8
DEFAULT_255_1_234
10
5.5942994
20
20.8627478
40
0.1757509
50
12.9498199
51
48.7551375
0
ARC
8
DEFAULT_255_1_234
10
5.5760728
20
20.83784
40
0.2065134
50
49.5088623
51
72.1836453
0
ARC
8
DEFAULT_255_1_234
10
5.5402881
20
20.7316291
40
0.3185836
50
71.9010081
51
84.3554254
0
ARC
8
DEFAULT_255_1_234
10
5.5241513
20
20.5955326
40
0.4556151
50
84.0193428
51
89.333121
0
LINE
8
DEFAULT_255_1_234
10
4.3086299
20
29.6223211
11
4.5905439
21
29.1741501
0
LINE
8
DEFAULT_255_1_234
10
4.5905439
20
29.1741501
11
4.8708516
21
29.6223211
0
LINE
8
DEFAULT_255_1_234
10
4.8708516
20
29.6223211
11
5.0523689
21
29.6223211
0
LINE
8
DEFAULT_255_1_234
10
5.0523689
20
29.6223211
11
4.6829089
21
29.0424296
0
LINE
8
DEFAULT_255_1_234
10
4.6829089
20
29.0424296
11
5.0612038
21
28.4529
0
LINE
8
DEFAULT_255_1_234
10
5.0612038
20
28.4529
11
4.8780802
21
28.4529
0
LINE
8
DEFAULT_255_1_234
10
4.8780802
20
28.4529
11
4.5905439
21
28.9091027
0
LINE
8
DEFAULT_255_1_234
10
4.5905439
20
28.9091027
11
4.3014014
21
28.4529
0
LINE
8
DEFAULT_255_1_234
10
4.3014014
20
28.4529
11
4.1190809
21
28.4529
0
LINE
8
DEFAULT_255_1_234
10
4.1190809
20
28.4529
11
4.498179
21
29.0424296
0
LINE
8
DEFAULT_255_1_234
10
4.498179
20
29.0424296
11
4.1279158
21
29.6223211
0
LINE
8
DEFAULT_255_1_234
10
4.1279158
20
29.6223211
11
4.3086299
21
29.6223211
0
LINE
8
DEFAULT_255_1_234
10
5.9679871
20
28.5741792
11
5.9679871
21
28.4529
0
LINE
8
DEFAULT_255_1_234
10
5.9679871
20
28.4529
11
5.2017592
21
28.4529
0
LINE
8
DEFAULT_255_1_234
10
5.2017592
20
28.4529
11
5.2017592
21
28.5597221
0
LINE
8
DEFAULT_255_1_234
10
5.2017592
20
28.5597221
11
5.6065588
21
29.0094995
0
LINE
8
DEFAULT_255_1_234
10
5.3278575
20
29.2777595
11
5.1792704
21
29.2777595
0
LINE
8
DEFAULT_255_1_234
10
5.6941048
20
28.9139218
11
5.380867
21
28.5741792
0
LINE
8
DEFAULT_255_1_234
10
5.380867
20
28.5741792
11
5.9679871
21
28.5741792
0
ARC
8
DEFAULT_255_1_234
10
4.2575422
20
30.2024527
40
1.8008286
50
318.5132453
51
320.7828378
0
ARC
8
DEFAULT_255_1_234
10
4.7862396
20
29.7721426
40
1.1191493
50
320.7372736
51
323.9737074
0
ARC
8
DEFAULT_255_1_234
10
5.1782252
20
29.4881361
40
0.6350923
50
323.8961724
51
328.6421089
0
ARC
8
DEFAULT_255_1_234
10
5.3828848
20
29.3619031
40
0.3946393
50
328.8299013
51
331.789948
0
ARC
8
DEFAULT_255_1_234
10
5.4826026
20
29.3104509
40
0.2824501
50
331.4255242
51
352.9364833
0
ARC
8
DEFAULT_255_1_234
10
5.4962527
20
29.3073976
40
0.2685315
50
353.2248685
51
0.0169286
0
ARC
8
DEFAULT_255_1_234
10
5.5172404
20
29.309695
40
0.2475536
50
359.4866256
51
15.9339782
0
ARC
8
DEFAULT_255_1_234
10
5.5679389
20
29.3233286
40
0.1950618
50
16.1714718
51
43.5284424
0
ARC
8
DEFAULT_255_1_234
10
5.5756698
20
29.3310573
40
0.184134
50
43.4415429
51
83.1661404
0
ARC
8
DEFAULT_255_1_234
10
5.5622616
20
29.2573771
40
0.258926
50
82.160215
51
90.1505798
0
ARC
8
DEFAULT_255_1_234
10
5.5591043
20
29.2036865
40
0.3126255
50
89.5460705
51
102.5418777
0
ARC
8
DEFAULT_255_1_234
10
5.5348129
20
29.3067665
40
0.2067346
50
102.1739365
51
129.2061916
0
ARC
8
DEFAULT_255_1_234
10
5.5269201
20
29.3192094
40
0.1921118
50
129.7279328
51
135.7542026
0
ARC
8
DEFAULT_255_1_234
10
5.5390729
20
29.3095045
40
0.2075944
50
136.175737
51
166.3674722
0
ARC
8
DEFAULT_255_1_234
10
5.6397648
20
29.2825182
40
0.3118201
50
165.9092917
51
178.8683903
0
ARC
8
DEFAULT_255_1_234
10
5.7262509
20
29.2778179
40
0.3983935
50
178.438168
51
180.0083905
0
ARC
8
DEFAULT_255_1_234
10
5.5861111
20
29.2817231
40
0.4068601
50
163.2878735
51
180.5581814
0
ARC
8
DEFAULT_255_1_234
10
5.5059373
20
29.303784
40
0.3237344
50
133.454115
51
162.9470031
0
ARC
8
DEFAULT_255_1_234
10
5.5237914
20
29.2848
40
0.349795
50
100.7869394
51
133.4384016
0
ARC
8
DEFAULT_255_1_234
10
5.5585686
20
29.1299319
40
0.5084616
50
89.6605301
51
101.3704185
0
ARC
8
DEFAULT_255_1_234
10
5.5652024
20
29.1360496
40
0.502348
50
78.2171172
51
90.4130393
0
ARC
8
DEFAULT_255_1_234
10
5.6007103
20
29.2984637
40
0.3361092
50
55.9268222
51
78.4888551
0
ARC
8
DEFAULT_255_1_234
10
5.6203543
20
29.3323324
40
0.2970617
50
47.9292255
51
55.4054003
0
ARC
8
DEFAULT_255_1_234
10
5.6305103
20
29.3426502
40
0.2825983
50
4.3347696
51
48.0560701
0
ARC
8
DEFAULT_255_1_234
10
5.5209497
20
29.3256601
40
0.393225
50
359.925209
51
5.5967654
0
ARC
8
DEFAULT_255_1_234
10
5.5638389
20
29.3312816
40
0.3503892
50
337.8914096
51
358.9967724
0
ARC
8
DEFAULT_255_1_234
10
5.2924801
20
29.4359706
40
0.6412172
50
326.9135351
51
338.3505194
0
ARC
8
DEFAULT_255_1_234
10
4.8939105
20
29.6914284
40
1.1146189
50
319.6472867
51
327.095818
0
ARC
8
DEFAULT_255_1_234
10
4.5106108
20
30.0076
40
1.6114559
50
317.2586784
51
319.9046139
0
LINE
8
DEFAULT_255_1_234
10
5.0120879
20
37.5598211
11
5.0120879
21
36.3904
0
LINE
8
DEFAULT_255_1_234
10
5.0120879
20
36.3904
11
4.8570753
21
36.3904
0
LINE
8
DEFAULT_255_1_234
10
4.8570753
20
36.3904
11
4.8570753
21
36.930936
0
LINE
8
DEFAULT_255_1_234
10
4.8570753
20
36.930936
11
4.2675458
21
36.930936
0
LINE
8
DEFAULT_255_1_234
10
4.2675458
20
36.930936
11
4.2675458
21
36.3904
0
LINE
8
DEFAULT_255_1_234
10
4.2675458
20
36.3904
11
4.1133364
21
36.3904
0
LINE
8
DEFAULT_255_1_234
10
4.1133364
20
36.3904
11
4.1133364
21
37.5598211
0
LINE
8
DEFAULT_255_1_234
10
4.1133364
20
37.5598211
11
4.2675458
21
37.5598211
0
LINE
8
DEFAULT_255_1_234
10
4.2675458
20
37.5598211
11
4.2675458
21
37.0570343
0
LINE
8
DEFAULT_255_1_234
10
4.2675458
20
37.0570343
11
4.8570753
21
37.0570343
0
LINE
8
DEFAULT_255_1_234
10
4.8570753
20
37.0570343
11
4.8570753
21
37.5598211
0
LINE
8
DEFAULT_255_1_234
10
4.8570753
20
37.5598211
11
5.0120879
21
37.5598211
0
LINE
8
DEFAULT_255_1_234
10
5.8040173
20
37.5606243
11
5.830522
21
37.5606243
0
LINE
8
DEFAULT_255_1_234
10
5.830522
20
37.5606243
11
5.830522
21
37.434526
0
LINE
8
DEFAULT_255_1_234
10
5.830522
20
37.434526
11
5.8032141
21
37.434526
0
LINE
8
DEFAULT_255_1_234
10
5.2562527
20
36.8353583
11
5.2562527
21
36.8923836
0
LINE
8
DEFAULT_255_1_234
10
5.4056431
20
36.8731075
11
5.4056431
21
36.8184917
0
ARC
8
DEFAULT_255_1_234
10
5.8084489
20
36.9347455
40
0.4998079
50
90.6001036
51
104.514704
0
ARC
8
DEFAULT_255_1_234
10
5.7696004
20
37.0792131
40
0.3502176
50
104.2855254
51
133.862935
0
ARC
8
DEFAULT_255_1_234
10
5.7859762
20
37.068383
40
0.3693984
50
134.5302688
51
161.6210873
0
ARC
8
DEFAULT_255_1_234
10
5.951295
20
37.0100895
40
0.5446739
50
161.2849839
51
174.2076652
0
ARC
8
DEFAULT_255_1_234
10
6.0919888
20
36.9906787
40
0.6866274
50
173.7810589
51
174.9254635
0
ARC
8
DEFAULT_255_1_234
10
5.636972
20
36.8523839
40
0.3033419
50
95.8330959
51
138.9954921
0
ARC
8
DEFAULT_255_1_234
10
5.6593076
20
36.7245375
40
0.4328947
50
89.8753725
51
97.0544009
0
ARC
8
DEFAULT_255_1_234
10
5.6640542
20
36.8080748
40
0.3493769
50
71.6407809
51
90.6240094
0
ARC
8
DEFAULT_255_1_234
10
5.6791115
20
36.8635082
40
0.2920396
50
39.6367836
51
71.019018
0
ARC
8
DEFAULT_255_1_234
10
5.6154588
20
36.8084998
40
0.3761538
50
10.658731
51
39.9043955
0
ARC
8
DEFAULT_255_1_234
10
5.4606671
20
36.7748686
40
0.5345136
50
359.682601
51
11.132623
0
ARC
8
DEFAULT_255_1_234
10
5.4566802
20
36.767801
40
0.5385081
50
347.2486944
51
0.4369317
0
ARC
8
DEFAULT_255_1_234
10
5.6234279
20
36.7276807
40
0.3670249
50
318.1409698
51
347.6118597
0
ARC
8
DEFAULT_255_1_234
10
5.6559272
20
36.7009702
40
0.3250007
50
275.6342139
51
317.8248465
0
ARC
8
DEFAULT_255_1_234
10
5.6338383
20
36.8309219
40
0.4565864
50
269.8874292
51
276.7917694
0
ARC
8
DEFAULT_255_1_234
10
5.6283454
20
36.7283743
40
0.3540676
50
246.9140195
51
270.7437342
0
ARC
8
DEFAULT_255_1_234
10
5.6289844
20
36.7141384
40
0.3412781
50
218.1665114
51
245.878116
0
ARC
8
DEFAULT_255_1_234
10
5.7169305
20
36.7877279
40
0.455911
50
191.4115814
51
218.6077802
0
ARC
8
DEFAULT_255_1_234
10
5.9107394
20
36.8311833
40
0.6545001
50
179.6345085
51
191.7836486
0
ARC
8
DEFAULT_255_1_234
10
6.4689731
20
36.8990697
40
1.2127388
50
171.4525249
51
180.3158839
0
ARC
8
DEFAULT_255_1_234
10
6.0294606
20
36.9674608
40
0.7679464
50
157.9802646
51
171.6246686
0
ARC
8
DEFAULT_255_1_234
10
5.8080627
20
37.0557421
40
0.5296008
50
141.4298019
51
157.854097
0
ARC
8
DEFAULT_255_1_234
10
5.7438948
20
37.1011381
40
0.4511509
50
102.8715806
51
140.8564722
0
ARC
8
DEFAULT_255_1_234
10
5.8086564
20
36.8571552
40
0.7034845
50
90.3778349
51
103.5869322
0
ARC
8
DEFAULT_255_1_234
10
5.634834
20
36.796673
40
0.2370698
50
89.8751008
51
126.2071704
0
ARC
8
DEFAULT_255_1_234
10
5.639413
20
36.7812303
40
0.2522934
50
124.9745049
51
144.895901
0
ARC
8
DEFAULT_255_1_234
10
5.621832
20
36.795556
40
0.2296779
50
145.2974905
51
160.2660252
0
ARC
8
DEFAULT_255_1_234
10
5.9290859
20
36.8153071
40
0.5234525
50
179.6514266
51
190.2855912
0
ARC
8
DEFAULT_255_1_234
10
5.7596996
20
36.7833786
40
0.3510893
50
190.0945431
51
207.5098196
0
ARC
8
DEFAULT_255_1_234
10
5.7031266
20
36.7564623
40
0.288489
50
207.9583163
51
216.3251085
0
ARC
8
DEFAULT_255_1_234
10
5.6691374
20
36.7285105
40
0.2445587
50
215.7661442
51
232.5456785
0
ARC
8
DEFAULT_255_1_234
10
5.6308357
20
36.6798482
40
0.1826382
50
232.8005391
51
270.6605633
0
ARC
8
DEFAULT_255_1_234
10
5.6354058
20
36.7162612
40
0.2190529
50
269.35537
51
288.4744281
0
ARC
8
DEFAULT_255_1_234
10
5.6446955
20
36.6813118
40
0.1829749
50
289.1833337
51
322.9683818
0
ARC
8
DEFAULT_255_1_234
10
5.5835477
20
36.7295391
40
0.2608399
50
322.6007884
51
346.5182367
0
ARC
8
DEFAULT_255_1_234
10
5.4678073
20
36.7590616
40
0.3802777
50
346.2582162
51
358.7741648
0
ARC
8
DEFAULT_255_1_234
10
5.3659742
20
36.7645965
40
0.4822176
50
358.3755224
51
0.0098023
0
ARC
8
DEFAULT_255_1_234
10
5.4415929
20
36.7673657
40
0.4066078
50
359.6214041
51
11.2839074
0
ARC
8
DEFAULT_255_1_234
10
5.5693076
20
36.7940066
40
0.2761514
50
11.0482309
51
31.8146458
0
ARC
8
DEFAULT_255_1_234
10
5.6002119
20
36.8107584
40
0.2410679
50
32.3035391
51
38.082671
0
ARC
8
DEFAULT_255_1_234
10
5.6422779
20
36.8488662
40
0.1844966
50
36.825067
51
85.7415724
0
ARC
8
DEFAULT_255_1_234
10
5.6355612
20
36.7988301
40
0.2349122
50
85.0140713
51
90.0513278
0
LINE
8
DEFAULT_255_1_234
10
5.0120879
20
45.4973211
11
5.0120879
21
44.3279
0
LINE
8
DEFAULT_255_1_234
10
5.0120879
20
44.3279
11
4.8570753
21
44.3279
0
LINE
8
DEFAULT_255_1_234
10
4.8570753
20
44.3279
11
4.8570753
21
44.868436
0
LINE
8
DEFAULT_255_1_234
10
4.8570753
20
44.868436
11
4.2675458
21
44.868436
0
LINE
8
DEFAULT_255_1_234
10
4.2675458
20
44.868436
11
4.2675458
21
44.3279
0
LINE
8
DEFAULT_255_1_234
10
4.2675458
20
44.3279
11
4.1133364
21
44.3279
0
LINE
8
DEFAULT_255_1_234
10
4.1133364
20
44.3279
11
4.1133364
21
45.4973211
0
LINE
8
DEFAULT_255_1_234
10
4.1133364
20
45.4973211
11
4.2675458
21
45.4973211
0
LINE
8
DEFAULT_255_1_234
10
4.2675458
20
45.4973211
11
4.2675458
21
44.9945343
0
LINE
8
DEFAULT_255_1_234
10
4.2675458
20
44.9945343
11
4.8570753
21
44.9945343
0
LINE
8
DEFAULT_255_1_234
10
4.8570753
20
44.9945343
11
4.8570753
21
45.4973211
0
LINE
8
DEFAULT_255_1_234
10
4.8570753
20
45.4973211
11
5.0120879
21
45.4973211
0
LINE
8
DEFAULT_255_1_234
10
5.4345573
20
44.8836963
11
5.3156876
21
44.9142169
0
LINE
8
DEFAULT_255_1_234
10
5.3156876
20
44.9142169
11
5.3751225
21
45.4973211
0
LINE
8
DEFAULT_255_1_234
10
5.3751225
20
45.4973211
11
5.9742901
21
45.4973211
0
LINE
8
DEFAULT_255_1_234
10
5.9742901
20
45.4973211
11
5.9742901
21
45.3599784
0
LINE
8
DEFAULT_255_1_234
10
5.9742901
20
45.3599784
11
5.5012208
21
45.3599784
0
LINE
8
DEFAULT_255_1_234
10
5.5012208
20
45.3599784
11
5.4658811
21
45.0411184
0
LINE
8
DEFAULT_255_1_234
10
5.2739226
20
44.6355156
11
5.414478
21
44.6355156
0
LINE
8
DEFAULT_255_1_234
10
5.4739128
20
44.9158232
11
5.4345573
21
44.8836963
0
ARC
8
DEFAULT_255_1_234
10
5.6513595
20
44.723123
40
0.3681349
50
93.7182161
51
120.2538958
0
ARC
8
DEFAULT_255_1_234
10
5.6607858
20
44.6423394
40
0.449379
50
89.9660152
51
94.2496022
0
ARC
8
DEFAULT_255_1_234
10
5.6648592
20
44.7012549
40
0.390482
50
73.8043271
51
90.5585896
0
ARC
8
DEFAULT_255_1_234
10
5.6883489
20
44.7870602
40
0.3015334
50
41.3071453
51
73.5430202
0
ARC
8
DEFAULT_255_1_234
10
5.6467316
20
44.7512324
40
0.3564457
50
13.5075983
51
41.2174222
0
ARC
8
DEFAULT_255_1_234
10
5.482552
20
44.7082486
40
0.5261351
50
1.1331335
51
13.8829381
0
ARC
8
DEFAULT_255_1_234
10
5.3413889
20
44.7006665
40
0.6674378
50
359.9919444
51
1.544251
0
ARC
8
DEFAULT_255_1_234
10
5.4690715
20
44.696528
40
0.5397702
50
347.8572367
51
0.4293338
0
ARC
8
DEFAULT_255_1_234
10
5.6441033
20
44.6568736
40
0.3603188
50
323.673004
51
348.1672506
0
ARC
8
DEFAULT_255_1_234
10
5.6735541
20
44.6389168
40
0.3259678
50
316.8171152
51
323.1492751
0
ARC
8
DEFAULT_255_1_234
10
5.679673
20
44.635246
40
0.3189975
50
281.8396411
51
316.5457803
0
ARC
8
DEFAULT_255_1_234
10
5.6420993
20
44.7907762
40
0.4789527
50
269.5770101
51
282.4214771
0
ARC
8
DEFAULT_255_1_234
10
5.6349805
20
44.7694125
40
0.45759
50
256.2427136
51
270.4486331
0
ARC
8
DEFAULT_255_1_234
10
5.6050707
20
44.6494229
40
0.3339303
50
228.9023911
51
256.3314342
0
ARC
8
DEFAULT_255_1_234
10
5.597694
20
44.6377746
40
0.32031
50
193.753695
51
228.5271154
0
ARC
8
DEFAULT_255_1_234
10
5.7214894
20
44.67408
40
0.4492253
50
184.924711
51
194.497588
0
ARC
8
DEFAULT_255_1_234
10
5.7407461
20
44.6776591
40
0.3289787
50
187.3600538
51
198.6732863
0
ARC
8
DEFAULT_255_1_234
10
5.6357755
20
44.6412674
40
0.217884
50
198.4451669
51
217.794479
0
ARC
8
DEFAULT_255_1_234
10
5.606193
20
44.6203085
40
0.1816698
50
218.2887171
51
228.5612368
0
ARC
8
DEFAULT_255_1_234
10
5.6159717
20
44.6334963
40
0.1980329
50
228.9654866
51
258.1234728
0
ARC
8
DEFAULT_255_1_234
10
5.6365427
20
44.7215833
40
0.2884748
50
257.7258293
51
270.401361
0
ARC
8
DEFAULT_255_1_234
10
5.6410313
20
44.6770821
40
0.2439788
50
269.4204404
51
286.4209037
0
ARC
8
DEFAULT_255_1_234
10
5.6558801
20
44.6231657
40
0.1880666
50
286.7251356
51
320.600362
0
ARC
8
DEFAULT_255_1_234
10
5.6175626
20
44.6542595
40
0.2374121
50
320.6712579
51
344.5441685
0
ARC
8
DEFAULT_255_1_234
10
5.5018952
20
44.6882045
40
0.3579479
50
344.2412205
51
356.7357071
0
ARC
8
DEFAULT_255_1_234
10
5.3770101
20
44.6985444
40
0.4832297
50
356.3548756
51
0.0500261
0
ARC
8
DEFAULT_255_1_234
10
5.510661
20
44.701665
40
0.3495889
50
359.5576869
51
12.953486
0
ARC
8
DEFAULT_255_1_234
10
5.6161507
20
44.7272434
40
0.2410532
50
12.6490276
51
41.6081334
0
ARC
8
DEFAULT_255_1_234
10
5.6391878
20
44.7468321
40
0.2108218
50
41.7850273
51
85.9892764
0
ARC
8
DEFAULT_255_1_234
10
5.6268615
20
44.6655462
40
0.2928454
50
84.6957577
51
90.0676183
0
ARC
8
DEFAULT_255_1_234
10
5.6245099
20
44.5986716
40
0.3597255
50
89.6804936
51
99.1614436
0
ARC
8
DEFAULT_255_1_234
10
5.603973
20
44.7214131
40
0.235281
50
98.9830931
51
113.8908934
0
ARC
8
DEFAULT_255_1_234
10
5.581014
20
44.7755587
40
0.176479
50
114.1950727
51
127.3641004
0
LINE
8
DEFAULT_255_1_234
10
5.1179879
20
53.4348211
11
5.1179879
21
52.2654
0
LINE
8
DEFAULT_255_1_234
10
5.1179879
20
52.2654
11
4.9629753
21
52.2654
0
LINE
8
DEFAULT_255_1_234
10
4.9629753
20
52.2654
11
4.9629753
21
52.805936
0
LINE
8
DEFAULT_255_1_234
10
4.9629753
20
52.805936
11
4.3734458
21
52.805936
0
LINE
8
DEFAULT_255_1_234
10
4.3734458
20
52.805936
11
4.3734458
21
52.2654
0
LINE
8
DEFAULT_255_1_234
10
4.3734458
20
52.2654
11
4.2192364
21
52.2654
0
LINE
8
DEFAULT_255_1_234
10
4.2192364
20
52.2654
11
4.2192364
21
53.4348211
0
LINE
8
DEFAULT_255_1_234
10
4.2192364
20
53.4348211
11
4.3734458
21
53.4348211
0
LINE
8
DEFAULT_255_1_234
10
4.3734458
20
53.4348211
11
4.3734458
21
52.9320343
0
LINE
8
DEFAULT_255_1_234
10
4.3734458
20
52.9320343
11
4.9629753
21
52.9320343
0
LINE
8
DEFAULT_255_1_234
10
4.9629753
20
52.9320343
11
4.9629753
21
53.4348211
0
LINE
8
DEFAULT_255_1_234
10
4.9629753
20
53.4348211
11
5.1179879
21
53.4348211
0
LINE
8
DEFAULT_255_1_234
10
5.9805966
20
53.4348211
11
5.9805966
21
52.658152
0
LINE
8
DEFAULT_255_1_234
10
5.9805966
20
52.658152
11
6.1428377
21
52.658152
0
LINE
8
DEFAULT_255_1_234
10
6.1428377
20
52.658152
11
6.1428377
21
52.5368728
0
LINE
8
DEFAULT_255_1_234
10
6.1428377
20
52.5368728
11
5.9805966
21
52.5368728
0
LINE
8
DEFAULT_255_1_234
10
5.9805966
20
52.5368728
11
5.9805966
21
52.2654
0
LINE
8
DEFAULT_255_1_234
10
5.9805966
20
52.2654
11
5.8312063
21
52.2654
0
LINE
8
DEFAULT_255_1_234
10
5.8312063
20
52.2654
11
5.8312063
21
52.5368728
0
LINE
8
DEFAULT_255_1_234
10
5.8312063
20
52.5368728
11
5.298702
21
52.5368728
0
LINE
8
DEFAULT_255_1_234
10
5.298702
20
52.5368728
11
5.298702
21
52.6244187
0
LINE
8
DEFAULT_255_1_234
10
5.298702
20
52.6244187
11
5.8223713
21
53.4348211
0
LINE
8
DEFAULT_255_1_234
10
5.8223713
20
53.4348211
11
5.9805966
21
53.4348211
0
LINE
8
DEFAULT_255_1_234
10
5.8135364
20
53.1994912
11
5.4673685
21
52.658152
0
LINE
8
DEFAULT_255_1_234
10
5.4673685
20
52.658152
11
5.8312063
21
52.658152
0
LINE
8
DEFAULT_255_1_234
10
5.8312063
20
52.658152
11
5.8312063
21
53.2316181
0
LINE
8
DEFAULT_255_1_234
10
5.8312063
20
53.2316181
11
5.8135364
21
53.1994912
0
LINE
8
DEFAULT_255_1_234
10
5.0120879
20
61.3723211
11
5.0120879
21
60.2029
0
LINE
8
DEFAULT_255_1_234
10
5.0120879
20
60.2029
11
4.8570753
21
60.2029
0
LINE
8
DEFAULT_255_1_234
10
4.8570753
20
60.2029
11
4.8570753
21
60.743436
0
LINE
8
DEFAULT_255_1_234
10
4.8570753
20
60.743436
11
4.2675458
21
60.743436
0
LINE
8
DEFAULT_255_1_234
10
4.2675458
20
60.743436
11
4.2675458
21
60.2029
0
LINE
8
DEFAULT_255_1_234
10
4.2675458
20
60.2029
11
4.1133364
21
60.2029
0
LINE
8
DEFAULT_255_1_234
10
4.1133364
20
60.2029
11
4.1133364
21
61.3723211
0
LINE
8
DEFAULT_255_1_234
10
4.1133364
20
61.3723211
11
4.2675458
21
61.3723211
0
LINE
8
DEFAULT_255_1_234
10
4.2675458
20
61.3723211
11
4.2675458
21
60.8695343
0
LINE
8
DEFAULT_255_1_234
10
4.2675458
20
60.8695343
11
4.8570753
21
60.8695343
0
LINE
8
DEFAULT_255_1_234
10
4.8570753
20
60.8695343
11
4.8570753
21
61.3723211
0
LINE
8
DEFAULT_255_1_234
10
4.8570753
20
61.3723211
11
5.0120879
21
61.3723211
0
LINE
8
DEFAULT_255_1_234
10
5.4634716
20
60.7386169
11
5.4634716
21
60.8598962
0
LINE
8
DEFAULT_255_1_234
10
5.4634716
20
60.8598962
11
5.5751127
21
60.8598962
0
LINE
8
DEFAULT_255_1_234
10
5.3847605
20
61.0655087
11
5.2361734
21
61.0655087
0
LINE
8
DEFAULT_255_1_234
10
5.2257321
20
60.5113188
11
5.3751225
21
60.5113188
0
LINE
8
DEFAULT_255_1_234
10
5.5751127
20
60.7386169
11
5.4634716
21
60.7386169
0
ARC
8
DEFAULT_255_1_234
10
5.5721994
20
61.1991713
40
0.3392876
50
270.4919872
51
281.8951556
0
ARC
8
DEFAULT_255_1_234
10
5.5963255
20
61.0889702
40
0.2264817
50
281.6691735
51
301.2943132
0
ARC
8
DEFAULT_255_1_234
10
5.6133466
20
61.0578304
40
0.1910381
50
301.7833094
51
311.7545298
0
ARC
8
DEFAULT_255_1_234
10
5.6225041
20
61.0476748
40
0.1773635
50
311.7323931
51
354.2802411
0
ARC
8
DEFAULT_255_1_234
10
5.5498667
20
61.0601722
40
0.2509385
50
353.0937916
51
0.1181479
0
ARC
8
DEFAULT_255_1_234
10
5.5037452
20
61.0649386
40
0.2970898
50
359.1805295
51
15.0453146
0
ARC
8
DEFAULT_255_1_234
10
5.6383289
20
61.1041992
40
0.1569564
50
13.9577229
51
77.6713066
0
ARC
8
DEFAULT_255_1_234
10
5.5996818
20
60.9656949
40
0.3006298
50
76.1116566
51
90.7026153
0
ARC
8
DEFAULT_255_1_234
10
5.5937656
20
60.9930545
40
0.2732568
50
89.5324876
51
103.531937
0
ARC
8
DEFAULT_255_1_234
10
5.57371
20
61.0729884
40
0.1908508
50
103.2931773
51
133.5619022
0
ARC
8
DEFAULT_255_1_234
10
5.5692589
20
61.0789375
40
0.1834746
50
133.8349307
51
173.5344437
0
ARC
8
DEFAULT_255_1_234
10
5.6415632
20
61.0661213
40
0.2568033
50
172.5096846
51
180.1366907
0
ARC
8
DEFAULT_255_1_234
10
5.5464525
20
61.0695622
40
0.3103056
50
155.3484492
51
180.7484736
0
ARC
8
DEFAULT_255_1_234
10
5.5415615
20
61.0666846
40
0.3070957
50
131.5744599
51
154.4798489
0
ARC
8
DEFAULT_255_1_234
10
5.5728762
20
61.035031
40
0.3515643
50
96.9875458
51
131.9690667
0
ARC
8
DEFAULT_255_1_234
10
5.5948242
20
60.9104636
40
0.4779224
50
89.8596053
51
97.7825159
0
ARC
8
DEFAULT_255_1_234
10
5.5996305
20
60.8842616
40
0.5041361
50
78.3655447
51
90.4131539
0
ARC
8
DEFAULT_255_1_234
10
5.6354223
20
61.0501887
40
0.3344039
50
56.6229102
51
78.638727
0
ARC
8
DEFAULT_255_1_234
10
5.6569166
20
61.0877805
40
0.2912001
50
47.0253525
51
56.0854072
0
ARC
8
DEFAULT_255_1_234
10
5.6588946
20
61.0917223
40
0.2869704
50
10.9208013
51
46.7778124
0
ARC
8
DEFAULT_255_1_234
10
5.5225013
20
61.0601857
40
0.426899
50
359.6364486
51
11.6087304
0
ARC
8
DEFAULT_255_1_234
10
5.7059857
20
61.0586752
40
0.243409
50
332.3549906
51
359.7179418
0
ARC
8
DEFAULT_255_1_234
10
5.6409459
20
61.0895142
40
0.3153459
50
325.2333722
51
332.8745602
0
ARC
8
DEFAULT_255_1_234
10
5.6562082
20
61.0788828
40
0.2967456
50
292.9802137
51
325.2392345
0
ARC
8
DEFAULT_255_1_234
10
5.6287456
20
61.1322863
40
0.3566604
50
292.5402179
51
293.6924929
0
ARC
8
DEFAULT_255_1_234
10
5.6680052
20
60.4868091
40
0.3307468
50
57.6435486
51
72.8625112
0
ARC
8
DEFAULT_255_1_234
10
5.7034552
20
60.5442549
40
0.2632492
50
36.7248896
51
57.4697979
0
ARC
8
DEFAULT_255_1_234
10
5.7023184
20
60.545522
40
0.2634081
50
8.0545065
51
36.356114
0
ARC
8
DEFAULT_255_1_234
10
5.616037
20
60.5300174
40
0.3510261
50
359.8320645
51
8.5869982
0
ARC
8
DEFAULT_255_1_234
10
5.5785146
20
60.5252101
40
0.3885653
50
343.9829931
51
0.5571613
0
ARC
8
DEFAULT_255_1_234
10
5.6671343
20
60.5009438
40
0.2966924
50
311.6359546
51
343.7651759
0
ARC
8
DEFAULT_255_1_234
10
5.6292912
20
60.5436102
40
0.3537231
50
279.7829875
51
311.6255694
0
ARC
8
DEFAULT_255_1_234
10
5.5991688
20
60.687328
40
0.5004971
50
269.7286406
51
280.3856417
0
ARC
8
DEFAULT_255_1_234
10
5.5929761
20
60.6831996
40
0.4963778
50
256.6828919
51
270.4412052
0
ARC
8
DEFAULT_255_1_234
10
5.5591057
20
60.5447394
40
0.3538406
50
229.4223008
51
256.8556159
0
ARC
8
DEFAULT_255_1_234
10
5.517645
20
60.4980736
40
0.2914296
50
181.818294
51
229.6455059
0
ARC
8
DEFAULT_255_1_234
10
5.6216406
20
60.5111496
40
0.3959084
50
179.9755256
51
183.2323064
0
ARC
8
DEFAULT_255_1_234
10
5.6044152
20
60.5091037
40
0.2293034
50
179.4465117
51
196.2869258
0
ARC
8
DEFAULT_255_1_234
10
5.555656
20
60.4957651
40
0.1787621
50
196.5661473
51
227.705904
0
ARC
8
DEFAULT_255_1_234
10
5.5720655
20
60.5141155
40
0.2033784
50
227.7652068
51
257.8762805
0
ARC
8
DEFAULT_255_1_234
10
5.5945625
20
60.6084156
40
0.3003081
50
257.4584385
51
270.426602
0
ARC
8
DEFAULT_255_1_234
10
5.5991191
20
60.6373996
40
0.329292
50
269.5962073
51
280.8789248
0
ARC
8
DEFAULT_255_1_234
10
5.622072
20
60.5227685
40
0.2123908
50
280.6346389
51
299.8595945
0
ARC
8
DEFAULT_255_1_234
10
5.6411626
20
60.4865212
40
0.171457
50
300.3576302
51
314.5517981
0
ARC
8
DEFAULT_255_1_234
10
5.6328686
20
60.4925919
40
0.1816095
50
315.0728369
51
345.0431014
0
ARC
8
DEFAULT_255_1_234
10
5.5405501
20
60.5194841
40
0.2777492
50
344.5986631
51
357.9269593
0
ARC
8
DEFAULT_255_1_234
10
5.4509827
20
60.5256276
40
0.3674917
50
357.4748886
51
0.0231117
0
ARC
8
DEFAULT_255_1_234
10
5.5532936
20
60.5280679
40
0.2651907
50
359.5047933
51
13.4239635
0
ARC
8
DEFAULT_255_1_234
10
5.639958
20
60.5502478
40
0.1757509
50
12.9498199
51
48.7551375
0
ARC
8
DEFAULT_255_1_234
10
5.6217314
20
60.52534
40
0.2065134
50
49.5088623
51
72.1836453
0
ARC
8
DEFAULT_255_1_234
10
5.5859467
20
60.4191291
40
0.3185836
50
71.9010081
51
84.3554254
0
ARC
8
DEFAULT_255_1_234
10
5.5698099
20
60.2830326
40
0.4556151
50
84.0193428
51
89.333121
0
LINE
8
DEFAULT_255_1_234
10
5.0120879
20
69.3098211
11
5.0120879
21
68.1404
0
LINE
8
DEFAULT_255_1_234
10
5.0120879
20
68.1404
11
4.8570753
21
68.1404
0
LINE
8
DEFAULT_255_1_234
10
4.8570753
20
68.1404
11
4.8570753
21
68.680936
0
LINE
8
DEFAULT_255_1_234
10
4.8570753
20
68.680936
11
4.2675458
21
68.680936
0
LINE
8
DEFAULT_255_1_234
10
4.2675458
20
68.680936
11
4.2675458
21
68.1404
0
LINE
8
DEFAULT_255_1_234
10
4.2675458
20
68.1404
11
4.1133364
21
68.1404
0
LINE
8
DEFAULT_255_1_234
10
4.1133364
20
68.1404
11
4.1133364
21
69.3098211
0
LINE
8
DEFAULT_255_1_234
10
4.1133364
20
69.3098211
11
4.2675458
21
69.3098211
0
LINE
8
DEFAULT_255_1_234
10
4.2675458
20
69.3098211
11
4.2675458
21
68.8070343
0
LINE
8
DEFAULT_255_1_234
10
4.2675458
20
68.8070343
11
4.8570753
21
68.8070343
0
LINE
8
DEFAULT_255_1_234
10
4.8570753
20
68.8070343
11
4.8570753
21
69.3098211
0
LINE
8
DEFAULT_255_1_234
10
4.8570753
20
69.3098211
11
5.0120879
21
69.3098211
0
LINE
8
DEFAULT_255_1_234
10
6.0136457
20
68.2616792
11
6.0136457
21
68.1404
0
LINE
8
DEFAULT_255_1_234
10
6.0136457
20
68.1404
11
5.2474178
21
68.1404
0
LINE
8
DEFAULT_255_1_234
10
5.2474178
20
68.1404
11
5.2474178
21
68.2472221
0
LINE
8
DEFAULT_255_1_234
10
5.2474178
20
68.2472221
11
5.6522174
21
68.6969995
0
LINE
8
DEFAULT_255_1_234
10
5.3735161
20
68.9652595
11
5.224929
21
68.9652595
0
LINE
8
DEFAULT_255_1_234
10
5.7397634
20
68.6014218
11
5.4265256
21
68.2616792
0
LINE
8
DEFAULT_255_1_234
10
5.4265256
20
68.2616792
11
6.0136457
21
68.2616792
0
ARC
8
DEFAULT_255_1_234
10
4.3032008
20
69.8899527
40
1.8008286
50
318.5132453
51
320.7828378
0
ARC
8
DEFAULT_255_1_234
10
4.8318982
20
69.4596426
40
1.1191493
50
320.7372736
51
323.9737074
0
ARC
8
DEFAULT_255_1_234
10
5.2238838
20
69.1756361
40
0.6350923
50
323.8961724
51
328.6421089
0
ARC
8
DEFAULT_255_1_234
10
5.4285434
20
69.0494031
40
0.3946393
50
328.8299013
51
331.789948
0
ARC
8
DEFAULT_255_1_234
10
5.5282612
20
68.9979509
40
0.2824501
50
331.4255242
51
352.9364833
0
ARC
8
DEFAULT_255_1_234
10
5.5419113
20
68.9948976
40
0.2685315
50
353.2248685
51
0.0169286
0
ARC
8
DEFAULT_255_1_234
10
5.562899
20
68.997195
40
0.2475536
50
359.4866256
51
15.9339782
0
ARC
8
DEFAULT_255_1_234
10
5.6135975
20
69.0108286
40
0.1950618
50
16.1714718
51
43.5284424
0
ARC
8
DEFAULT_255_1_234
10
5.6213284
20
69.0185573
40
0.184134
50
43.4415429
51
83.1661404
0
ARC
8
DEFAULT_255_1_234
10
5.6079202
20
68.9448771
40
0.258926
50
82.160215
51
90.1505798
0
ARC
8
DEFAULT_255_1_234
10
5.6047629
20
68.8911865
40
0.3126255
50
89.5460705
51
102.5418777
0
ARC
8
DEFAULT_255_1_234
10
5.5804715
20
68.9942665
40
0.2067346
50
102.1739365
51
129.2061916
0
ARC
8
DEFAULT_255_1_234
10
5.5725787
20
69.0067094
40
0.1921118
50
129.7279328
51
135.7542026
0
ARC
8
DEFAULT_255_1_234
10
5.5847315
20
68.9970045
40
0.2075944
50
136.175737
51
166.3674722
0
ARC
8
DEFAULT_255_1_234
10
5.6854234
20
68.9700182
40
0.3118201
50
165.9092917
51
178.8683903
0
ARC
8
DEFAULT_255_1_234
10
5.7719095
20
68.9653179
40
0.3983935
50
178.438168
51
180.0083905
0
ARC
8
DEFAULT_255_1_234
10
5.6317697
20
68.9692231
40
0.4068601
50
163.2878735
51
180.5581814
0
ARC
8
DEFAULT_255_1_234
10
5.5515959
20
68.991284
40
0.3237344
50
133.454115
51
162.9470031
0
ARC
8
DEFAULT_255_1_234
10
5.56945
20
68.9723
40
0.349795
50
100.7869394
51
133.4384016
0
ARC
8
DEFAULT_255_1_234
10
5.6042271
20
68.8174319
40
0.5084616
50
89.6605301
51
101.3704185
0
ARC
8
DEFAULT_255_1_234
10
5.610861
20
68.8235496
40
0.502348
50
78.2171172
51
90.4130393
0
ARC
8
DEFAULT_255_1_234
10
5.6463689
20
68.9859637
40
0.3361092
50
55.9268222
51
78.4888551
0
ARC
8
DEFAULT_255_1_234
10
5.6660129
20
69.0198324
40
0.2970617
50
47.9292255
51
55.4054003
0
ARC
8
DEFAULT_255_1_234
10
5.6761689
20
69.0301502
40
0.2825983
50
4.3347696
51
48.0560701
0
ARC
8
DEFAULT_255_1_234
10
5.5666083
20
69.0131601
40
0.393225
50
359.925209
51
5.5967654
0
ARC
8
DEFAULT_255_1_234
10
5.6094975
20
69.0187816
40
0.3503892
50
337.8914096
51
358.9967724
0
ARC
8
DEFAULT_255_1_234
10
5.3381387
20
69.1234706
40
0.6412172
50
326.9135351
51
338.3505194
0
ARC
8
DEFAULT_255_1_234
10
4.9395691
20
69.3789284
40
1.1146189
50
319.6472867
51
327.095818
0
ARC
8
DEFAULT_255_1_234
10
4.5562694
20
69.6951
40
1.6114559
50
317.2586784
51
319.9046139
0
LINE
8
DEFAULT_255_1_234
10
5.0034879
20
77.2473211
11
5.0034879
21
76.0779
0
LINE
8
DEFAULT_255_1_234
10
5.0034879
20
76.0779
11
4.8484753
21
76.0779
0
LINE
8
DEFAULT_255_1_234
10
4.8484753
20
76.0779
11
4.8484753
21
76.618436
0
LINE
8
DEFAULT_255_1_234
10
4.8484753
20
76.618436
11
4.2589458
21
76.618436
0
LINE
8
DEFAULT_255_1_234
10
4.2589458
20
76.618436
11
4.2589458
21
76.0779
0
LINE
8
DEFAULT_255_1_234
10
4.2589458
20
76.0779
11
4.1047364
21
76.0779
0
LINE
8
DEFAULT_255_1_234
10
4.1047364
20
76.0779
11
4.1047364
21
77.2473211
0
LINE
8
DEFAULT_255_1_234
10
4.1047364
20
77.2473211
11
4.2589458
21
77.2473211
0
LINE
8
DEFAULT_255_1_234
10
4.2589458
20
77.2473211
11
4.2589458
21
76.7445343
0
LINE
8
DEFAULT_255_1_234
10
4.2589458
20
76.7445343
11
4.8484753
21
76.7445343
0
LINE
8
DEFAULT_255_1_234
10
4.8484753
20
76.7445343
11
4.8484753
21
77.2473211
0
LINE
8
DEFAULT_255_1_234
10
4.8484753
20
77.2473211
11
5.0034879
21
77.2473211
0
LINE
8
DEFAULT_255_1_234
10
5.7271475
20
77.2529433
11
5.7271475
21
76.0779
0
LINE
8
DEFAULT_255_1_234
10
5.7271475
20
76.0779
11
5.5777572
21
76.0779
0
LINE
8
DEFAULT_255_1_234
10
5.5777572
20
76.0779
11
5.5777572
21
77.0682133
0
LINE
8
DEFAULT_255_1_234
10
5.5777572
20
77.0682133
11
5.2781733
21
76.9581785
0
LINE
8
DEFAULT_255_1_234
10
5.2781733
20
76.9581785
11
5.2781733
21
77.0931117
0
LINE
8
DEFAULT_255_1_234
10
5.2781733
20
77.0931117
11
5.7038555
21
77.2529433
0
LINE
8
DEFAULT_255_1_234
10
5.7038555
20
77.2529433
11
5.7271475
21
77.2529433
0
LINE
8
DEFAULT_255_1_234
10
23.0434364
20
85.1848211
11
23.2426235
21
85.1848211
0
LINE
8
DEFAULT_255_1_234
10
23.2426235
20
85.1848211
11
23.6249342
21
84.2306506
0
LINE
8
DEFAULT_255_1_234
10
23.6249342
20
84.2306506
11
24.007245
21
85.1848211
0
LINE
8
DEFAULT_255_1_234
10
24.007245
20
85.1848211
11
24.2072353
21
85.1848211
0
LINE
8
DEFAULT_255_1_234
10
24.2072353
20
85.1848211
11
24.2072353
21
84.0154
0
LINE
8
DEFAULT_255_1_234
10
24.2072353
20
84.0154
11
24.0530259
21
84.0154
0
LINE
8
DEFAULT_255_1_234
10
24.0530259
20
84.0154
11
24.0530259
21
84.4707996
0
LINE
8
DEFAULT_255_1_234
10
24.0530259
20
84.4707996
11
24.067483
21
84.9623419
0
LINE
8
DEFAULT_255_1_234
10
24.067483
20
84.9623419
11
23.6835659
21
84.0154
0
LINE
8
DEFAULT_255_1_234
10
23.6835659
20
84.0154
11
23.5654994
21
84.0154
0
LINE
8
DEFAULT_255_1_234
10
23.5654994
20
84.0154
11
23.1823854
21
84.9599324
0
LINE
8
DEFAULT_255_1_234
10
23.1823854
20
84.9599324
11
23.1976458
21
84.4707996
0
LINE
8
DEFAULT_255_1_234
10
23.1976458
20
84.4707996
11
23.1976458
21
84.0154
0
LINE
8
DEFAULT_255_1_234
10
23.1976458
20
84.0154
11
23.0434364
21
84.0154
0
LINE
8
DEFAULT_255_1_234
10
23.0434364
20
84.0154
11
23.0434364
21
85.1848211
0
ENDSEC
0
EOF