0
SECTION
2
HEADER
9
$MEASUREMENT
70
1
0
ENDSEC
0
SECTION
2
TABLES
0
TABLE
2
LTYPE
0
LTYPE
72
65
70
64
2
CONTINUOUS
3
______
73
0
40
0
0
ENDTAB
0
TABLE
2
LAYER
0
LAYER
2
DEFAULT_255_2_778
70
0
62
255
6
CONTINUOUS
0
ENDTAB
0
ENDSEC
0
SECTION
2
ENTITIES
0
LINE
8
DEFAULT_255_2_778
10
0.9703601
20
274.0161069
11
0.7309601
21
274.0437069
0
LINE
8
DEFAULT_255_2_778
10
0.7309601
20
274.0437069
11
0.5613601
21
274.1333069
0
LINE
8
DEFAULT_255_2_778
10
0.5613601
20
274.1333069
11
0.4684601
21
274.3233069
0
LINE
8
DEFAULT_255_2_778
10
0.4684601
20
274.3233069
11
0.4814601
21
274.5577069
0
LINE
8
DEFAULT_255_2_778
10
0.4814601
20
274.5577069
11
0.5814601
21
274.7123069
0
LINE
8
DEFAULT_255_2_778
10
0.5814601
20
274.7123069
11
0.7467601
21
274.7874069
0
LINE
8
DEFAULT_255_2_778
10
0.7467601
20
274.7874069
11
0.9801601
21
274.8115069
0
LINE
8
DEFAULT_255_2_778
10
0.9801601
20
274.8115069
11
49.2689601
21
274.8120069
0
LINE
8
DEFAULT_255_2_778
10
49.2689601
20
274.8120069
11
49.4928601
21
274.7937069
0
LINE
8
DEFAULT_255_2_778
10
49.4928601
20
274.7937069
11
49.6587601
21
274.7345069
0
LINE
8
DEFAULT_255_2_778
10
49.6587601
20
274.7345069
11
49.7645601
21
274.6189069
0
LINE
8
DEFAULT_255_2_778
10
49.7645601
20
274.6189069
11
49.8103601
21
274.4262069
0
LINE
8
DEFAULT_255_2_778
10
49.8103601
20
274.4262069
11
49.7701601
21
274.2191069
0
LINE
8
DEFAULT_255_2_778
10
49.7701601
20
274.2191069
11
49.6632601
21
274.0950069
0
LINE
8
DEFAULT_255_2_778
10
49.6632601
20
274.0950069
11
49.4973601
21
274.0336069
0
LINE
8
DEFAULT_255_2_778
10
49.4973601
20
274.0336069
11
49.2742601
21
274.0145069
0
LINE
8
DEFAULT_255_2_778
10
49.2742601
20
274.0145069
11
0.9703601
21
274.0153069
0
LINE
8
DEFAULT_255_2_778
10
5.4479601
20
202.7937069
11
5.5831601
21
202.7937069
0
LINE
8
DEFAULT_255_2_778
10
5.5831601
20
202.7937069
11
5.9969601
21
202.7115069
0
LINE
8
DEFAULT_255_2_778
10
5.9969601
20
202.7115069
11
6.3506601
21
202.4747069
0
LINE
8
DEFAULT_255_2_778
10
6.3506601
20
202.4747069
11
6.5874601
21
202.1191069
0
LINE
8
DEFAULT_255_2_778
10
6.5874601
20
202.1191069
11
6.6702601
21
201.7010069
0
LINE
8
DEFAULT_255_2_778
10
6.6702601
20
201.7010069
11
6.6702601
21
193.3867069
0
LINE
8
DEFAULT_255_2_778
10
6.6702601
20
193.3867069
11
6.5874601
21
192.9690069
0
LINE
8
DEFAULT_255_2_778
10
6.5874601
20
192.9690069
11
6.3506601
21
192.6131069
0
LINE
8
DEFAULT_255_2_778
10
6.3506601
20
192.6131069
11
5.9969601
21
192.3760069
0
LINE
8
DEFAULT_255_2_778
10
5.9969601
20
192.3760069
11
5.5828601
21
192.2935069
0
LINE
8
DEFAULT_255_2_778
10
5.5828601
20
192.2935069
11
5.4476601
21
192.2935069
0
LINE
8
DEFAULT_255_2_778
10
5.4476601
20
192.2935069
11
5.0338601
21
192.3758069
0
LINE
8
DEFAULT_255_2_778
10
5.0338601
20
192.3758069
11
4.6798601
21
192.6126069
0
LINE
8
DEFAULT_255_2_778
10
4.6798601
20
192.6126069
11
4.4430601
21
192.9684069
0
LINE
8
DEFAULT_255_2_778
10
4.4430601
20
192.9684069
11
4.3602601
21
193.3865069
0
LINE
8
DEFAULT_255_2_778
10
4.3602601
20
193.3865069
11
4.3602601
21
201.7007069
0
LINE
8
DEFAULT_255_2_778
10
4.3602601
20
201.7007069
11
4.4430601
21
202.1185069
0
LINE
8
DEFAULT_255_2_778
10
4.4430601
20
202.1185069
11
4.6798601
21
202.4744069
0
LINE
8
DEFAULT_255_2_778
10
4.6798601
20
202.4744069
11
5.0335601
21
202.7112069
0
LINE
8
DEFAULT_255_2_778
10
5.0335601
20
202.7112069
11
5.4476601
21
202.7937069
0
LINE
8
DEFAULT_255_2_778
10
5.4479601
20
180.2938069
11
5.5831601
21
180.2938069
0
LINE
8
DEFAULT_255_2_778
10
5.5831601
20
180.2938069
11
5.9969601
21
180.2116069
0
LINE
8
DEFAULT_255_2_778
10
5.9969601
20
180.2116069
11
6.3506601
21
179.9748069
0
LINE
8
DEFAULT_255_2_778
10
6.3506601
20
179.9748069
11
6.5874601
21
179.6192069
0
LINE
8
DEFAULT_255_2_778
10
6.5874601
20
179.6192069
11
6.6702601
21
179.2011069
0
LINE
8
DEFAULT_255_2_778
10
6.6702601
20
179.2011069
11
6.6702601
21
170.8868069
0
LINE
8
DEFAULT_255_2_778
10
6.6702601
20
170.8868069
11
6.5874601
21
170.4691069
0
LINE
8
DEFAULT_255_2_778
10
6.5874601
20
170.4691069
11
6.3506601
21
170.1132069
0
LINE
8
DEFAULT_255_2_778
10
6.3506601
20
170.1132069
11
5.9969601
21
169.8761069
0
LINE
8
DEFAULT_255_2_778
10
5.9969601
20
169.8761069
11
5.5828601
21
169.7936069
0
LINE
8
DEFAULT_255_2_778
10
5.5828601
20
169.7936069
11
5.4476601
21
169.7936069
0
LINE
8
DEFAULT_255_2_778
10
5.4476601
20
169.7936069
11
5.0338601
21
169.8759069
0
LINE
8
DEFAULT_255_2_778
10
5.0338601
20
169.8759069
11
4.6798601
21
170.1127069
0
LINE
8
DEFAULT_255_2_778
10
4.6798601
20
170.1127069
11
4.4430601
21
170.4685069
0
LINE
8
DEFAULT_255_2_778
10
4.4430601
20
170.4685069
11
4.3602601
21
170.8866069
0
LINE
8
DEFAULT_255_2_778
10
4.3602601
20
170.8866069
11
4.3602601
21
179.2008069
0
LINE
8
DEFAULT_255_2_778
10
4.3602601
20
179.2008069
11
4.4430601
21
179.6186069
0
LINE
8
DEFAULT_255_2_778
10
4.4430601
20
179.6186069
11
4.6798601
21
179.9745069
0
LINE
8
DEFAULT_255_2_778
10
4.6798601
20
179.9745069
11
5.0335601
21
180.2113069
0
LINE
8
DEFAULT_255_2_778
10
5.0335601
20
180.2113069
11
5.4476601
21
180.2938069
0
ARC
8
DEFAULT_255_2_778
10
1.7582178
20
1.2369461
40
1.4931507
50
240.1405188
51
270.0824445
0
ARC
8
DEFAULT_255_2_778
10
1.7612383
20
1.244259
40
1.500997
50
187.8797423
51
240.179506
0
ARC
8
DEFAULT_255_2_778
10
1.7738096
20
1.2434685
40
1.5133435
50
179.9913477
51
187.7848446
0
ARC
8
DEFAULT_255_2_778
10
1.7610736
20
288.2438252
40
1.5006073
50
135.0171572
51
179.9972588
0
ARC
8
DEFAULT_255_2_778
10
1.7604381
20
288.2431897
40
1.5006073
50
90.0027412
51
134.9828428
0
ARC
8
DEFAULT_255_2_778
10
48.5125352
20
288.2505438
40
1.4932547
50
60.1850302
51
90.0832178
0
ARC
8
DEFAULT_255_2_778
10
48.5094487
20
288.2432307
40
1.5011348
50
7.8886658
51
60.2216004
0
ARC
8
DEFAULT_255_2_778
10
48.496649
20
288.2439452
40
1.5137174
50
359.9981772
51
7.7953851
0
ARC
8
DEFAULT_255_2_778
10
48.5168814
20
1.2420208
40
1.4934862
50
330.1402842
51
0.0758155
0
ARC
8
DEFAULT_255_2_778
10
48.5098631
20
1.2448675
40
1.5009904
50
277.8783281
51
330.1794258
0
ARC
8
DEFAULT_255_2_778
10
48.5105967
20
1.257724
40
1.5136271
50
269.9912778
51
277.7841148
0
LINE
8
DEFAULT_255_2_778
10
0.2604663
20
1.243697
11
0.2604663
21
288.243897
0
LINE
8
DEFAULT_255_2_778
10
1.7603663
20
289.743797
11
48.5103663
21
289.743797
0
LINE
8
DEFAULT_255_2_778
10
50.0103663
20
288.243897
11
50.0103663
21
1.243997
0
LINE
8
DEFAULT_255_2_778
10
48.5103663
20
-0.255903
11
1.7603663
21
-0.255903
0
ARC
8
DEFAULT_255_2_778
10
12.575818
20
280.9474089
40
3.0152539
50
162.1238259
51
180.0698758
0
ARC
8
DEFAULT_255_2_778
10
12.5545768
20
280.9496797
40
2.9943443
50
105.6411039
51
162.0404171
0
ARC
8
DEFAULT_255_2_778
10
12.5576514
20
280.9220494
40
3.0217837
50
89.9428337
51
105.5559944
0
ARC
8
DEFAULT_255_2_778
10
12.5643436
20
280.92858
40
3.0152539
50
72.1238259
51
90.0698758
0
ARC
8
DEFAULT_255_2_778
10
12.5666144
20
280.9498212
40
2.9943443
50
15.6411039
51
72.0404171
0
ARC
8
DEFAULT_255_2_778
10
12.5389841
20
280.9467466
40
3.0217837
50
359.9428337
51
15.5559944
0
ARC
8
DEFAULT_255_2_778
10
12.5455147
20
280.9400543
40
3.0152539
50
342.1238259
51
0.0698758
0
ARC
8
DEFAULT_255_2_778
10
12.5667559
20
280.9377835
40
2.9943443
50
285.6411039
51
342.0404171
0
ARC
8
DEFAULT_255_2_778
10
12.5636813
20
280.9654138
40
3.0217837
50
269.9428337
51
285.5559944
0
ARC
8
DEFAULT_255_2_778
10
12.5569972
20
280.9585726
40
3.0149432
50
252.1217587
51
270.0697282
0
ARC
8
DEFAULT_255_2_778
10
12.554932
20
280.9378453
40
2.994586
50
195.6424528
51
252.0376162
0
ARC
8
DEFAULT_255_2_778
10
12.5819427
20
280.9407314
40
3.0213778
50
179.9431063
51
195.557046
0
LINE
8
DEFAULT_255_2_778
10
13.6605663
20
201.7438316
11
8.6604663
21
201.7438316
0
LINE
8
DEFAULT_255_2_778
10
8.6604663
20
201.7438316
11
8.6604663
21
193.3439316
0
LINE
8
DEFAULT_255_2_778
10
8.6604663
20
193.3439316
11
13.6605663
21
193.3439316
0
LINE
8
DEFAULT_255_2_778
10
13.6605663
20
193.3439316
11
13.6605663
21
201.7438316
0
LINE
8
DEFAULT_255_2_778
10
13.6605663
20
179.2437316
11
8.6604663
21
179.2437316
0
LINE
8
DEFAULT_255_2_778
10
8.6604663
20
179.2437316
11
8.6604663
21
170.8437316
0
LINE
8
DEFAULT_255_2_778
10
8.6604663
20
170.8437316
11
13.6605663
21
170.8437316
0
LINE
8
DEFAULT_255_2_778
10
13.6605663
20
170.8437316
11
13.6605663
21
179.2437316
0
LINE
8
DEFAULT_255_2_778
10
39.6606663
20
272.9437316
11
9.2605663
21
272.9437316
0
LINE
8
DEFAULT_255_2_778
10
9.2605663
20
272.9437316
11
9.2605663
21
264.6438316
0
LINE
8
DEFAULT_255_2_778
10
9.2605663
20
264.6438316
11
39.6606663
21
264.6438316
0
LINE
8
DEFAULT_255_2_778
10
39.6606663
20
264.6438316
11
39.6606663
21
272.9437316
0
LINE
8
DEFAULT_255_2_778
10
48.9361663
20
160.3262316
11
48.9191663
21
160.2627316
0
LINE
8
DEFAULT_255_2_778
10
1.3346663
20
160.3265316
11
1.3515663
21
160.2627316
0
LINE
8
DEFAULT_255_2_778
10
0.2604663
20
161.7436316
11
1.7812663
21
161.7436316
0
LINE
8
DEFAULT_255_2_778
10
48.5027663
20
161.7436316
11
50.0103663
21
161.7436316
0
LINE
8
DEFAULT_255_2_778
10
9.5605663
20
280.9437316
11
9.5605663
21
280.9437316
0
ARC
8
DEFAULT_255_2_778
10
11.5199854
20
219.8483145
40
0.4989492
50
89.8676947
51
180.1322858
0
ARC
8
DEFAULT_255_2_778
10
11.5222114
20
219.8483361
40
0.4989275
50
359.8652243
51
90.1233177
0
ARC
8
DEFAULT_255_2_778
10
11.5222327
20
219.8460673
40
0.4989061
50
269.8742308
51
0.1257692
0
ARC
8
DEFAULT_255_2_778
10
11.5199639
20
219.8460886
40
0.4989275
50
179.8766742
51
270.1347757
0
LINE
8
DEFAULT_255_2_778
10
11.0210375
20
219.8471625
11
11.0210375
21
219.8471625
0
ARC
8
DEFAULT_255_2_778
10
17.9959464
20
172.6045165
40
1.8590267
50
128.7827657
51
155.4607929
0
ARC
8
DEFAULT_255_2_778
10
18.0020483
20
172.6014726
40
1.8658418
50
155.4535834
51
179.9882168
0
ARC
8
DEFAULT_255_2_778
10
17.9943036
20
172.6018361
40
1.8580971
50
179.9993782
51
184.8558334
0
ARC
8
DEFAULT_255_2_778
10
17.9961078
20
172.6021534
40
1.8599216
50
184.8608668
51
197.5058292
0
ARC
8
DEFAULT_255_2_778
10
18.0101708
20
172.6062619
40
1.8745692
50
197.496295
51
199.8616483
0
ARC
8
DEFAULT_255_2_778
10
17.9969236
20
172.6006039
40
1.8601878
50
199.8363705
51
234.7002157
0
ARC
8
DEFAULT_255_2_778
10
17.9982297
20
172.5999338
40
1.8603961
50
234.6554602
51
270.0157829
0
ARC
8
DEFAULT_255_2_778
10
17.9987219
20
172.6193149
40
1.8797772
50
270.000619
51
270.9140488
0
ARC
8
DEFAULT_255_2_778
10
17.9997593
20
172.5997632
40
1.8602115
50
270.8917068
51
306.1917686
0
ARC
8
DEFAULT_255_2_778
10
18.000826
20
172.6008422
40
1.860453
50
306.1456332
51
341.8439128
0
ARC
8
DEFAULT_255_2_778
10
17.9655363
20
172.6131511
40
1.8978214
50
341.8227927
51
341.9645975
0
ARC
8
DEFAULT_255_2_778
10
17.99707
20
172.6031862
40
1.864752
50
341.9557562
51
352.6369901
0
ARC
8
DEFAULT_255_2_778
10
18.0038299
20
172.6020458
40
1.8579018
50
352.645154
51
354.3758065
0
ARC
8
DEFAULT_255_2_778
10
18.0044492
20
172.601969
40
1.857278
50
354.3762909
51
0.0004108
0
ARC
8
DEFAULT_255_2_778
10
17.9986436
20
172.6019503
40
1.8630835
50
0.0009844
51
48.7467828
0
ARC
8
DEFAULT_255_2_778
10
17.9934853
20
172.5947649
40
1.871887
50
48.7731052
51
53.0232251
0
LINE
8
DEFAULT_255_2_778
10
48.936109
20
160.3259769
11
48.940809
21
160.3807769
0
LINE
8
DEFAULT_255_2_778
10
48.940809
20
160.3807769
11
48.949809
21
160.5477769
0
LINE
8
DEFAULT_255_2_778
10
48.949809
20
160.5477769
11
48.953309
21
160.7450769
0
LINE
8
DEFAULT_255_2_778
10
48.953309
20
160.7450769
11
48.949809
21
160.9549769
0
LINE
8
DEFAULT_255_2_778
10
48.949809
20
160.9549769
11
48.939009
21
161.1462769
0
LINE
8
DEFAULT_255_2_778
10
48.939009
20
161.1462769
11
48.921309
21
161.2917769
0
LINE
8
DEFAULT_255_2_778
10
48.921309
20
161.2917769
11
48.888509
21
161.4179769
0
LINE
8
DEFAULT_255_2_778
10
48.888509
20
161.4179769
11
48.817309
21
161.5507769
0
LINE
8
DEFAULT_255_2_778
10
48.817309
20
161.5507769
11
48.695809
21
161.6671769
0
LINE
8
DEFAULT_255_2_778
10
48.695809
20
161.6671769
11
48.522809
21
161.7412769
0
LINE
8
DEFAULT_255_2_778
10
48.522809
20
161.7412769
11
48.418309
21
161.7523769
0
LINE
8
DEFAULT_255_2_778
10
48.418309
20
161.7523769
11
1.852409
21
161.7523769
0
LINE
8
DEFAULT_255_2_778
10
1.852409
20
161.7523769
11
1.729109
21
161.7367769
0
LINE
8
DEFAULT_255_2_778
10
1.729109
20
161.7367769
11
1.555609
21
161.6534769
0
LINE
8
DEFAULT_255_2_778
10
1.555609
20
161.6534769
11
1.436509
21
161.5261769
0
LINE
8
DEFAULT_255_2_778
10
1.436509
20
161.5261769
11
1.371109
21
161.3845769
0
LINE
8
DEFAULT_255_2_778
10
1.371109
20
161.3845769
11
1.345709
21
161.2687769
0
LINE
8
DEFAULT_255_2_778
10
1.345709
20
161.2687769
11
1.330909
21
161.1350769
0
LINE
8
DEFAULT_255_2_778
10
1.330909
20
161.1350769
11
1.321109
21
160.9575769
0
LINE
8
DEFAULT_255_2_778
10
1.321109
20
160.9575769
11
1.317709
21
160.7408769
0
LINE
8
DEFAULT_255_2_778
10
1.317709
20
160.7408769
11
1.322209
21
160.5172769
0
LINE
8
DEFAULT_255_2_778
10
1.322209
20
160.5172769
11
1.334609
21
160.3259769
0
LINE
8
DEFAULT_255_2_778
10
1.3182278
20
160.7162257
11
1.1542278
21
160.6088257
0
LINE
8
DEFAULT_255_2_778
10
1.1542278
20
160.6088257
11
1.0478278
21
160.4498257
0
LINE
8
DEFAULT_255_2_778
10
1.0478278
20
160.4498257
11
1.0105278
21
160.2627257
0
LINE
8
DEFAULT_255_2_778
10
1.0105278
20
160.2627257
11
1.0105278
21
159.2528257
0
LINE
8
DEFAULT_255_2_778
10
1.0105278
20
159.2528257
11
1.2730278
21
159.2528257
0
LINE
8
DEFAULT_255_2_778
10
1.2730278
20
159.2528257
11
1.2730278
21
158.2527257
0
LINE
8
DEFAULT_255_2_778
10
1.2730278
20
158.2527257
11
1.0105278
21
158.2527257
0
LINE
8
DEFAULT_255_2_778
10
1.0105278
20
158.2527257
11
1.0105278
21
157.7426257
0
LINE
8
DEFAULT_255_2_778
10
1.0105278
20
157.7426257
11
1.0478278
21
157.5555257
0
LINE
8
DEFAULT_255_2_778
10
1.0478278
20
157.5555257
11
1.1542278
21
157.3965257
0
LINE
8
DEFAULT_255_2_778
10
1.1542278
20
157.3965257
11
1.3137278
21
157.2902257
0
LINE
8
DEFAULT_255_2_778
10
1.3137278
20
157.2902257
11
1.5024278
21
157.2528257
0
LINE
8
DEFAULT_255_2_778
10
1.5024278
20
157.2528257
11
48.7686278
21
157.2528257
0
LINE
8
DEFAULT_255_2_778
10
48.7686278
20
157.2528257
11
48.9572278
21
157.2902257
0
LINE
8
DEFAULT_255_2_778
10
48.9572278
20
157.2902257
11
49.1168278
21
157.3965257
0
LINE
8
DEFAULT_255_2_778
10
49.1168278
20
157.3965257
11
49.2231278
21
157.5555257
0
LINE
8
DEFAULT_255_2_778
10
49.2231278
20
157.5555257
11
49.2604278
21
157.7426257
0
LINE
8
DEFAULT_255_2_778
10
49.2604278
20
157.7426257
11
49.2604278
21
160.2625257
0
LINE
8
DEFAULT_255_2_778
10
49.2604278
20
160.2625257
11
49.2231278
21
160.4495257
0
LINE
8
DEFAULT_255_2_778
10
49.2231278
20
160.4495257
11
49.1168278
21
160.6086257
0
LINE
8
DEFAULT_255_2_778
10
49.1168278
20
160.6086257
11
48.9527278
21
160.7160257
0
LINE
8
DEFAULT_255_2_778
10
9.7105278
20
175.9888257
11
12.7106278
21
175.9888257
0
LINE
8
DEFAULT_255_2_778
10
9.7105278
20
174.5079257
11
9.7105278
21
178.4637257
0
LINE
8
DEFAULT_255_2_778
10
9.7105278
20
178.4637257
11
12.7106278
21
178.4637257
0
LINE
8
DEFAULT_255_2_778
10
12.7106278
20
178.4637257
11
12.7106278
21
174.5079257
0
LINE
8
DEFAULT_255_2_778
10
9.2568167
20
171.6208
11
13.1642167
21
171.6208
0
LINE
8
DEFAULT_255_2_778
10
13.1675959
20
171.6253177
11
13.3604959
21
172.0952177
0
LINE
8
DEFAULT_255_2_778
10
13.3604959
20
172.0952177
11
13.3604959
21
174.5079177
0
LINE
8
DEFAULT_255_2_778
10
13.3604959
20
174.5079177
11
9.0604959
21
174.5079177
0
LINE
8
DEFAULT_255_2_778
10
9.0604959
20
174.5079177
11
9.0604959
21
172.0952177
0
LINE
8
DEFAULT_255_2_778
10
9.0604959
20
172.0952177
11
9.2533959
21
171.6253177
0
LINE
8
DEFAULT_255_2_778
10
9.7106167
20
198.488727
11
12.7107167
21
198.488727
0
LINE
8
DEFAULT_255_2_778
10
9.7106167
20
197.007827
11
9.7106167
21
200.963627
0
LINE
8
DEFAULT_255_2_778
10
9.7106167
20
200.963627
11
12.7107167
21
200.963627
0
LINE
8
DEFAULT_255_2_778
10
12.7107167
20
200.963627
11
12.7107167
21
197.007827
0
LINE
8
DEFAULT_255_2_778
10
9.2568167
20
194.120927
11
13.1642167
21
194.120927
0
LINE
8
DEFAULT_255_2_778
10
13.1675959
20
194.1255177
11
13.3604959
21
194.5954177
0
LINE
8
DEFAULT_255_2_778
10
13.3604959
20
194.5954177
11
13.3604959
21
197.0081177
0
LINE
8
DEFAULT_255_2_778
10
13.3604959
20
197.0081177
11
9.0604959
21
197.0081177
0
LINE
8
DEFAULT_255_2_778
10
9.0604959
20
197.0081177
11
9.0604959
21
194.5954177
0
LINE
8
DEFAULT_255_2_778
10
9.0604959
20
194.5954177
11
9.2533959
21
194.1255177
0
ARC
8
DEFAULT_255_2_778
10
4.7574993
20
280.9461407
40
0.9471211
50
138.5969044
51
180.1465178
0
ARC
8
DEFAULT_255_2_778
10
4.7577332
20
280.9470146
40
0.9467189
50
92.2461493
51
138.6459367
0
ARC
8
DEFAULT_255_2_778
10
4.760448
20
280.9177997
40
0.976019
50
89.9980462
51
92.3381798
0
ARC
8
DEFAULT_255_2_778
10
4.7630191
20
280.9466916
40
0.9471305
50
49.1137343
51
90.1535204
0
ARC
8
DEFAULT_255_2_778
10
4.7637647
20
280.9465803
40
0.9467268
50
2.2652623
51
49.1522587
0
ARC
8
DEFAULT_255_2_778
10
4.7341888
20
280.9437595
40
0.9763924
50
359.9976072
51
2.3620595
0
ARC
8
DEFAULT_255_2_778
10
4.7634541
20
280.9411809
40
0.9471305
50
319.1137343
51
0.1535204
0
ARC
8
DEFAULT_255_2_778
10
4.7633428
20
280.9404353
40
0.9467268
50
272.2652623
51
319.1522587
0
ARC
8
DEFAULT_255_2_778
10
4.7605221
20
280.9700112
40
0.9763924
50
269.9976072
51
272.3620595
0
ARC
8
DEFAULT_255_2_778
10
4.7579435
20
280.9407459
40
0.9471305
50
229.1137343
51
270.1535204
0
ARC
8
DEFAULT_255_2_778
10
4.7571979
20
280.9408572
40
0.9467268
50
182.2652623
51
229.1522587
0
ARC
8
DEFAULT_255_2_778
10
4.7867738
20
280.9436779
40
0.9763924
50
179.9976072
51
182.3620595
0
LINE
8
DEFAULT_255_2_778
10
3.8103813
20
280.9437187
11
3.8103813
21
280.9437187
0
LINE
8
DEFAULT_255_2_778
10
7.3105459
20
283.4937541
11
2.2104459
21
283.4937541
0
LINE
8
DEFAULT_255_2_778
10
2.2104459
20
283.4937541
11
2.2104459
21
278.3936541
0
LINE
8
DEFAULT_255_2_778
10
2.2104459
20
278.3936541
11
7.3105459
21
278.3936541
0
LINE
8
DEFAULT_255_2_778
10
7.3105459
20
278.3936541
11
7.3105459
21
283.4937541
0
ARC
8
DEFAULT_255_2_778
10
29.7575125
20
280.9461407
40
0.9471211
50
138.5969044
51
180.1465178
0
ARC
8
DEFAULT_255_2_778
10
29.7577464
20
280.9470146
40
0.9467189
50
92.2461493
51
138.6459367
0
ARC
8
DEFAULT_255_2_778
10
29.7604612
20
280.9177997
40
0.976019
50
89.9980462
51
92.3381798
0
ARC
8
DEFAULT_255_2_778
10
29.7630323
20
280.9466916
40
0.9471305
50
49.1137343
51
90.1535204
0
ARC
8
DEFAULT_255_2_778
10
29.7637779
20
280.9465803
40
0.9467268
50
2.2652623
51
49.1522587
0
ARC
8
DEFAULT_255_2_778
10
29.734202
20
280.9437595
40
0.9763924
50
359.9976072
51
2.3620595
0
ARC
8
DEFAULT_255_2_778
10
29.7634674
20
280.9411809
40
0.9471305
50
319.1137343
51
0.1535204
0
ARC
8
DEFAULT_255_2_778
10
29.763356
20
280.9404353
40
0.9467268
50
272.2652623
51
319.1522587
0
ARC
8
DEFAULT_255_2_778
10
29.7605353
20
280.9700112
40
0.9763924
50
269.9976072
51
272.3620595
0
ARC
8
DEFAULT_255_2_778
10
29.7579567
20
280.9407459
40
0.9471305
50
229.1137343
51
270.1535204
0
ARC
8
DEFAULT_255_2_778
10
29.7572111
20
280.9408572
40
0.9467268
50
182.2652623
51
229.1522587
0
ARC
8
DEFAULT_255_2_778
10
29.786787
20
280.9436779
40
0.9763924
50
179.9976072
51
182.3620595
0
LINE
8
DEFAULT_255_2_778
10
28.8103945
20
280.9437187
11
28.8103945
21
280.9437187
0
LINE
8
DEFAULT_255_2_778
10
32.3105459
20
283.4937541
11
27.2104459
21
283.4937541
0
LINE
8
DEFAULT_255_2_778
10
27.2104459
20
283.4937541
11
27.2104459
21
278.3936541
0
LINE
8
DEFAULT_255_2_778
10
27.2104459
20
278.3936541
11
32.3105459
21
278.3936541
0
LINE
8
DEFAULT_255_2_778
10
32.3105459
20
278.3936541
11
32.3105459
21
283.4937541
0
ARC
8
DEFAULT_255_2_778
10
11.5199854
20
254.8482145
40
0.4989492
50
89.8676947
51
180.1322858
0
ARC
8
DEFAULT_255_2_778
10
11.5222114
20
254.8482361
40
0.4989275
50
359.8652243
51
90.1233177
0
ARC
8
DEFAULT_255_2_778
10
11.5222327
20
254.8459673
40
0.4989061
50
269.8742308
51
0.1257692
0
ARC
8
DEFAULT_255_2_778
10
11.5199639
20
254.8459886
40
0.4989275
50
179.8766742
51
270.1347757
0
LINE
8
DEFAULT_255_2_778
10
11.0210375
20
254.8470625
11
11.0210375
21
254.8470625
0
ARC
8
DEFAULT_255_2_778
10
11.5199854
20
259.8483145
40
0.4989492
50
89.8676947
51
180.1322858
0
ARC
8
DEFAULT_255_2_778
10
11.5222114
20
259.8483361
40
0.4989275
50
359.8652243
51
90.1233177
0
ARC
8
DEFAULT_255_2_778
10
11.5222327
20
259.8460673
40
0.4989061
50
269.8742308
51
0.1257692
0
ARC
8
DEFAULT_255_2_778
10
11.5199639
20
259.8460886
40
0.4989275
50
179.8766742
51
270.1347757
0
LINE
8
DEFAULT_255_2_778
10
11.0210375
20
259.8471625
11
11.0210375
21
259.8471625
0
LINE
8
DEFAULT_255_2_778
10
13.3210396
20
258.3472405
11
9.7211396
21
258.3472405
0
LINE
8
DEFAULT_255_2_778
10
9.7211396
20
256.3472405
11
13.3210396
21
256.3472405
0
LINE
8
DEFAULT_255_2_778
10
13.3210396
20
253.3471405
11
9.7211396
21
253.3471405
0
LINE
8
DEFAULT_255_2_778
10
9.7211396
20
251.3471405
11
13.3210396
21
251.3471405
0
ARC
8
DEFAULT_255_2_778
10
11.5199854
20
244.8482145
40
0.4989492
50
89.8676947
51
180.1322858
0
ARC
8
DEFAULT_255_2_778
10
11.5222114
20
244.8482361
40
0.4989275
50
359.8652243
51
90.1233177
0
ARC
8
DEFAULT_255_2_778
10
11.5222327
20
244.8459673
40
0.4989061
50
269.8742308
51
0.1257692
0
ARC
8
DEFAULT_255_2_778
10
11.5199639
20
244.8459886
40
0.4989275
50
179.8766742
51
270.1347757
0
LINE
8
DEFAULT_255_2_778
10
11.0210375
20
244.8470625
11
11.0210375
21
244.8470625
0
ARC
8
DEFAULT_255_2_778
10
11.5199854
20
249.8483145
40
0.4989492
50
89.8676947
51
180.1322858
0
ARC
8
DEFAULT_255_2_778
10
11.5222114
20
249.8483361
40
0.4989275
50
359.8652243
51
90.1233177
0
ARC
8
DEFAULT_255_2_778
10
11.5222327
20
249.8460673
40
0.4989061
50
269.8742308
51
0.1257692
0
ARC
8
DEFAULT_255_2_778
10
11.5199639
20
249.8460886
40
0.4989275
50
179.8766742
51
270.1347757
0
LINE
8
DEFAULT_255_2_778
10
11.0210375
20
249.8471625
11
11.0210375
21
249.8471625
0
LINE
8
DEFAULT_255_2_778
10
13.3210396
20
248.3473405
11
9.7211396
21
248.3473405
0
LINE
8
DEFAULT_255_2_778
10
9.7211396
20
246.3473405
11
13.3210396
21
246.3473405
0
LINE
8
DEFAULT_255_2_778
10
13.3210396
20
243.3472405
11
9.7211396
21
243.3472405
0
LINE
8
DEFAULT_255_2_778
10
9.7211396
20
241.3472405
11
13.3210396
21
241.3472405
0
ARC
8
DEFAULT_255_2_778
10
11.5199854
20
234.8483145
40
0.4989492
50
89.8676947
51
180.1322858
0
ARC
8
DEFAULT_255_2_778
10
11.5222114
20
234.8483361
40
0.4989275
50
359.8652243
51
90.1233177
0
ARC
8
DEFAULT_255_2_778
10
11.5222327
20
234.8460673
40
0.4989061
50
269.8742308
51
0.1257692
0
ARC
8
DEFAULT_255_2_778
10
11.5199639
20
234.8460886
40
0.4989275
50
179.8766742
51
270.1347757
0
LINE
8
DEFAULT_255_2_778
10
11.0210375
20
234.8471625
11
11.0210375
21
234.8471625
0
ARC
8
DEFAULT_255_2_778
10
11.5199854
20
239.8481145
40
0.4989492
50
89.8676947
51
180.1322858
0
ARC
8
DEFAULT_255_2_778
10
11.5222114
20
239.8481361
40
0.4989275
50
359.8652243
51
90.1233177
0
ARC
8
DEFAULT_255_2_778
10
11.5222327
20
239.8458673
40
0.4989061
50
269.8742308
51
0.1257692
0
ARC
8
DEFAULT_255_2_778
10
11.5199639
20
239.8458886
40
0.4989275
50
179.8766742
51
270.1347757
0
LINE
8
DEFAULT_255_2_778
10
11.0210375
20
239.8469625
11
11.0210375
21
239.8469625
0
LINE
8
DEFAULT_255_2_778
10
13.3210396
20
238.3471082
11
9.7211396
21
238.3471082
0
LINE
8
DEFAULT_255_2_778
10
9.7211396
20
236.3471082
11
13.3210396
21
236.3471082
0
LINE
8
DEFAULT_255_2_778
10
13.3210396
20
233.3473082
11
9.7211396
21
233.3473082
0
LINE
8
DEFAULT_255_2_778
10
9.7211396
20
231.3473082
11
13.3210396
21
231.3473082
0
LINE
8
DEFAULT_255_2_778
10
13.3210396
20
261.7971607
11
9.7211396
21
261.7971607
0
LINE
8
DEFAULT_255_2_778
10
9.7211396
20
261.7971607
11
9.7211396
21
207.8970607
0
LINE
8
DEFAULT_255_2_778
10
9.7211396
20
207.8970607
11
13.3210396
21
207.8970607
0
LINE
8
DEFAULT_255_2_778
10
13.3210396
20
207.8970607
11
13.3210396
21
261.7971607
0
ARC
8
DEFAULT_255_2_778
10
11.5199854
20
224.8484145
40
0.4989492
50
89.8676947
51
180.1322858
0
ARC
8
DEFAULT_255_2_778
10
11.5222114
20
224.8484361
40
0.4989275
50
359.8652243
51
90.1233177
0
ARC
8
DEFAULT_255_2_778
10
11.5222327
20
224.8461673
40
0.4989061
50
269.8742308
51
0.1257692
0
ARC
8
DEFAULT_255_2_778
10
11.5199639
20
224.8461886
40
0.4989275
50
179.8766742
51
270.1347757
0
LINE
8
DEFAULT_255_2_778
10
11.0210375
20
224.8472625
11
11.0210375
21
224.8472625
0
ARC
8
DEFAULT_255_2_778
10
11.5199854
20
229.8482145
40
0.4989492
50
89.8676947
51
180.1322858
0
ARC
8
DEFAULT_255_2_778
10
11.5222114
20
229.8482361
40
0.4989275
50
359.8652243
51
90.1233177
0
ARC
8
DEFAULT_255_2_778
10
11.5222327
20
229.8459673
40
0.4989061
50
269.8742308
51
0.1257692
0
ARC
8
DEFAULT_255_2_778
10
11.5199639
20
229.8459886
40
0.4989275
50
179.8766742
51
270.1347757
0
LINE
8
DEFAULT_255_2_778
10
11.0210375
20
229.8470625
11
11.0210375
21
229.8470625
0
LINE
8
DEFAULT_255_2_778
10
13.3210396
20
228.3471405
11
9.7211396
21
228.3471405
0
LINE
8
DEFAULT_255_2_778
10
9.7211396
20
226.3471405
11
13.3210396
21
226.3471405
0
LINE
8
DEFAULT_255_2_778
10
13.3210396
20
223.3470405
11
9.7211396
21
223.3470405
0
LINE
8
DEFAULT_255_2_778
10
9.7211396
20
221.3470405
11
13.3210396
21
221.3470405
0
ARC
8
DEFAULT_255_2_778
10
11.5199854
20
214.8482145
40
0.4989492
50
89.8676947
51
180.1322858
0
ARC
8
DEFAULT_255_2_778
10
11.5222114
20
214.8482361
40
0.4989275
50
359.8652243
51
90.1233177
0
ARC
8
DEFAULT_255_2_778
10
11.5222327
20
214.8459673
40
0.4989061
50
269.8742308
51
0.1257692
0
ARC
8
DEFAULT_255_2_778
10
11.5199639
20
214.8459886
40
0.4989275
50
179.8766742
51
270.1347757
0
LINE
8
DEFAULT_255_2_778
10
11.0210375
20
214.8470625
11
11.0210375
21
214.8470625
0
ARC
8
DEFAULT_255_2_778
10
11.5199854
20
209.8484145
40
0.4989492
50
89.8676947
51
180.1322858
0
ARC
8
DEFAULT_255_2_778
10
11.5222114
20
209.8484361
40
0.4989275
50
359.8652243
51
90.1233177
0
ARC
8
DEFAULT_255_2_778
10
11.5222327
20
209.8461673
40
0.4989061
50
269.8742308
51
0.1257692
0
ARC
8
DEFAULT_255_2_778
10
11.5199639
20
209.8461886
40
0.4989275
50
179.8766742
51
270.1347757
0
LINE
8
DEFAULT_255_2_778
10
11.0210375
20
209.8472625
11
11.0210375
21
209.8472625
0
LINE
8
DEFAULT_255_2_778
10
13.3211368
20
218.3472294
11
9.7212368
21
218.3472294
0
LINE
8
DEFAULT_255_2_778
10
9.7212368
20
216.3472294
11
13.3211368
21
216.3472294
0
LINE
8
DEFAULT_255_2_778
10
13.3211368
20
213.3471294
11
9.7212368
21
213.3471294
0
LINE
8
DEFAULT_255_2_778
10
9.7212368
20
211.3471294
11
13.3211368
21
211.3471294
0
LINE
8
DEFAULT_255_2_778
10
28.7606368
20
270.8937294
11
25.7605368
21
270.8937294
0
LINE
8
DEFAULT_255_2_778
10
25.7605368
20
270.8937294
11
25.7605368
21
266.8938294
0
LINE
8
DEFAULT_255_2_778
10
25.7605368
20
266.8938294
11
28.7606368
21
266.8938294
0
LINE
8
DEFAULT_255_2_778
10
28.7606368
20
266.8938294
11
28.7606368
21
267.4044294
0
LINE
8
DEFAULT_255_2_778
10
28.7606368
20
267.4044294
11
26.2606368
21
267.4044294
0
LINE
8
DEFAULT_255_2_778
10
26.2606368
20
267.4044294
11
26.2606368
21
268.7662294
0
LINE
8
DEFAULT_255_2_778
10
26.2606368
20
268.7662294
11
28.4272368
21
268.7662294
0
LINE
8
DEFAULT_255_2_778
10
28.4272368
20
268.7662294
11
28.4272368
21
269.2769294
0
LINE
8
DEFAULT_255_2_778
10
28.4272368
20
269.2769294
11
26.2606368
21
269.2769294
0
LINE
8
DEFAULT_255_2_778
10
26.2606368
20
269.2769294
11
26.2606368
21
270.3834294
0
LINE
8
DEFAULT_255_2_778
10
26.2606368
20
270.3834294
11
28.7606368
21
270.3834294
0
LINE
8
DEFAULT_255_2_778
10
28.7606368
20
270.3834294
11
28.7606368
21
270.8940294
0
LINE
8
DEFAULT_255_2_778
10
21.8439368
20
270.8937294
11
21.0938368
21
270.8937294
0
LINE
8
DEFAULT_255_2_778
10
21.0938368
20
270.8937294
11
21.0938368
21
266.8938294
0
LINE
8
DEFAULT_255_2_778
10
21.0938368
20
266.8938294
11
21.5938368
21
266.8938294
0
LINE
8
DEFAULT_255_2_778
10
21.5938368
20
266.8938294
11
21.5938368
21
270.0426294
0
LINE
8
DEFAULT_255_2_778
10
21.5938368
20
270.0426294
11
22.7604368
21
266.8938294
0
LINE
8
DEFAULT_255_2_778
10
22.7604368
20
266.8938294
11
23.4271368
21
266.8938294
0
LINE
8
DEFAULT_255_2_778
10
23.4271368
20
266.8938294
11
24.5937368
21
270.0426294
0
LINE
8
DEFAULT_255_2_778
10
24.5937368
20
270.0426294
11
24.5937368
21
266.8938294
0
LINE
8
DEFAULT_255_2_778
10
24.5937368
20
266.8938294
11
25.0938368
21
266.8938294
0
LINE
8
DEFAULT_255_2_778
10
25.0938368
20
266.8938294
11
25.0938368
21
270.8937294
0
LINE
8
DEFAULT_255_2_778
10
25.0938368
20
270.8937294
11
24.3437368
21
270.8937294
0
LINE
8
DEFAULT_255_2_778
10
24.3437368
20
270.8937294
11
23.0938368
21
267.3192294
0
LINE
8
DEFAULT_255_2_778
10
23.0938368
20
267.3192294
11
21.8439368
21
270.8937294
0
LINE
8
DEFAULT_255_2_778
10
16.7604368
20
270.8937294
11
16.2604368
21
270.8937294
0
LINE
8
DEFAULT_255_2_778
10
16.2604368
20
270.8937294
11
16.2604368
21
266.8938294
0
LINE
8
DEFAULT_255_2_778
10
16.2604368
20
266.8938294
11
16.7604368
21
266.8938294
0
LINE
8
DEFAULT_255_2_778
10
16.7604368
20
266.8938294
11
16.7604368
21
270.8937294
0
LINE
8
DEFAULT_255_2_778
10
20.4273368
20
270.8937294
11
17.4272368
21
270.8937294
0
LINE
8
DEFAULT_255_2_778
10
17.4272368
20
270.8937294
11
17.4272368
21
266.8938294
0
LINE
8
DEFAULT_255_2_778
10
17.4272368
20
266.8938294
11
20.4273368
21
266.8938294
0
LINE
8
DEFAULT_255_2_778
10
20.4273368
20
266.8938294
11
20.4273368
21
267.4044294
0
LINE
8
DEFAULT_255_2_778
10
20.4273368
20
267.4044294
11
17.9273368
21
267.4044294
0
LINE
8
DEFAULT_255_2_778
10
17.9273368
20
267.4044294
11
17.9273368
21
268.7662294
0
LINE
8
DEFAULT_255_2_778
10
17.9273368
20
268.7662294
11
20.0939368
21
268.7662294
0
LINE
8
DEFAULT_255_2_778
10
20.0939368
20
268.7662294
11
20.0939368
21
269.2769294
0
LINE
8
DEFAULT_255_2_778
10
20.0939368
20
269.2769294
11
17.9273368
21
269.2769294
0
LINE
8
DEFAULT_255_2_778
10
17.9273368
20
269.2769294
11
17.9273368
21
270.3834294
0
LINE
8
DEFAULT_255_2_778
10
17.9273368
20
270.3834294
11
20.4273368
21
270.3834294
0
LINE
8
DEFAULT_255_2_778
10
20.4273368
20
270.3834294
11
20.4273368
21
270.8940294
0
LINE
8
DEFAULT_255_2_778
10
14.2604368
20
270.8937294
11
13.8437368
21
270.8937294
0
LINE
8
DEFAULT_255_2_778
10
13.8437368
20
270.8937294
11
13.5103368
21
270.8085294
0
LINE
8
DEFAULT_255_2_778
10
13.5103368
20
270.8085294
11
13.1769368
21
270.6384294
0
LINE
8
DEFAULT_255_2_778
10
13.1769368
20
270.6384294
11
12.8435368
21
270.2979294
0
LINE
8
DEFAULT_255_2_778
10
12.8435368
20
270.2979294
11
12.7602368
21
269.9574294
0
LINE
8
DEFAULT_255_2_778
10
12.7602368
20
269.9574294
11
12.7602368
21
269.6169294
0
LINE
8
DEFAULT_255_2_778
10
12.7602368
20
269.6169294
11
12.8435368
21
269.2763294
0
LINE
8
DEFAULT_255_2_778
10
12.8435368
20
269.2763294
11
13.1769368
21
268.9358294
0
LINE
8
DEFAULT_255_2_778
10
13.1769368
20
268.9358294
11
13.5103368
21
268.7657294
0
LINE
8
DEFAULT_255_2_778
10
13.5103368
20
268.7657294
11
13.8437368
21
268.6805294
0
LINE
8
DEFAULT_255_2_778
10
13.8437368
20
268.6805294
11
14.3437368
21
268.6805294
0
LINE
8
DEFAULT_255_2_778
10
14.3437368
20
268.6805294
11
14.6771368
21
268.5953294
0
LINE
8
DEFAULT_255_2_778
10
14.6771368
20
268.5953294
11
14.9271368
21
268.4252294
0
LINE
8
DEFAULT_255_2_778
10
14.9271368
20
268.4252294
11
15.0938368
21
268.1699294
0
LINE
8
DEFAULT_255_2_778
10
15.0938368
20
268.1699294
11
15.0938368
21
267.9145294
0
LINE
8
DEFAULT_255_2_778
10
15.0938368
20
267.9145294
11
14.9271368
21
267.6592294
0
LINE
8
DEFAULT_255_2_778
10
14.9271368
20
267.6592294
11
14.6771368
21
267.4891294
0
LINE
8
DEFAULT_255_2_778
10
14.6771368
20
267.4891294
11
14.3437368
21
267.4039294
0
LINE
8
DEFAULT_255_2_778
10
14.3437368
20
267.4039294
11
13.6770368
21
267.4039294
0
LINE
8
DEFAULT_255_2_778
10
13.6770368
20
267.4039294
11
13.3436368
21
267.4891294
0
LINE
8
DEFAULT_255_2_778
10
13.3436368
20
267.4891294
11
13.0936368
21
267.7444294
0
LINE
8
DEFAULT_255_2_778
10
13.0936368
20
267.7444294
11
13.0102368
21
267.9997294
0
LINE
8
DEFAULT_255_2_778
10
13.0102368
20
267.9997294
11
12.5102368
21
267.9997294
0
LINE
8
DEFAULT_255_2_778
10
12.5102368
20
267.9997294
11
12.5935368
21
267.6592294
0
LINE
8
DEFAULT_255_2_778
10
12.5935368
20
267.6592294
11
12.8435368
21
267.2338294
0
LINE
8
DEFAULT_255_2_778
10
12.8435368
20
267.2338294
11
13.2603368
21
266.9784294
0
LINE
8
DEFAULT_255_2_778
10
13.2603368
20
266.9784294
11
13.6770368
21
266.8932294
0
LINE
8
DEFAULT_255_2_778
10
13.6770368
20
266.8932294
11
14.3437368
21
266.8932294
0
LINE
8
DEFAULT_255_2_778
10
14.3437368
20
266.8932294
11
14.7605368
21
266.9784294
0
LINE
8
DEFAULT_255_2_778
10
14.7605368
20
266.9784294
11
15.0938368
21
267.1486294
0
LINE
8
DEFAULT_255_2_778
10
15.0938368
20
267.1486294
11
15.4272368
21
267.4891294
0
LINE
8
DEFAULT_255_2_778
10
15.4272368
20
267.4891294
11
15.5939368
21
267.8296294
0
LINE
8
DEFAULT_255_2_778
10
15.5939368
20
267.8296294
11
15.5939368
21
268.2550294
0
LINE
8
DEFAULT_255_2_778
10
15.5939368
20
268.2550294
11
15.4272368
21
268.5956294
0
LINE
8
DEFAULT_255_2_778
10
15.4272368
20
268.5956294
11
15.0938368
21
268.9361294
0
LINE
8
DEFAULT_255_2_778
10
15.0938368
20
268.9361294
11
14.7605368
21
269.1062294
0
LINE
8
DEFAULT_255_2_778
10
14.7605368
20
269.1062294
11
14.3437368
21
269.1914294
0
LINE
8
DEFAULT_255_2_778
10
14.3437368
20
269.1914294
11
13.8437368
21
269.1914294
0
LINE
8
DEFAULT_255_2_778
10
13.8437368
20
269.1914294
11
13.5936368
21
269.2766294
0
LINE
8
DEFAULT_255_2_778
10
13.5936368
20
269.2766294
11
13.3436368
21
269.4467294
0
LINE
8
DEFAULT_255_2_778
10
13.3436368
20
269.4467294
11
13.2603368
21
269.7021294
0
LINE
8
DEFAULT_255_2_778
10
13.2603368
20
269.7021294
11
13.2603368
21
269.8722294
0
LINE
8
DEFAULT_255_2_778
10
13.2603368
20
269.8722294
11
13.3436368
21
270.1275294
0
LINE
8
DEFAULT_255_2_778
10
13.3436368
20
270.1275294
11
13.5936368
21
270.2976294
0
LINE
8
DEFAULT_255_2_778
10
13.5936368
20
270.2976294
11
13.8437368
21
270.3828294
0
LINE
8
DEFAULT_255_2_778
10
13.8437368
20
270.3828294
11
14.3437368
21
270.3828294
0
LINE
8
DEFAULT_255_2_778
10
14.3437368
20
270.3828294
11
14.5938368
21
270.2976294
0
LINE
8
DEFAULT_255_2_778
10
14.5938368
20
270.2976294
11
14.7605368
21
270.1275294
0
LINE
8
DEFAULT_255_2_778
10
14.7605368
20
270.1275294
11
14.8438368
21
269.9574294
0
LINE
8
DEFAULT_255_2_778
10
14.8438368
20
269.9574294
11
15.3439368
21
269.9574294
0
LINE
8
DEFAULT_255_2_778
10
15.3439368
20
269.9574294
11
15.2605368
21
270.2127294
0
LINE
8
DEFAULT_255_2_778
10
15.2605368
20
270.2127294
11
15.0105368
21
270.5532294
0
LINE
8
DEFAULT_255_2_778
10
15.0105368
20
270.5532294
11
14.6771368
21
270.8085294
0
LINE
8
DEFAULT_255_2_778
10
14.6771368
20
270.8085294
11
14.2604368
21
270.8937294
0
LINE
8
DEFAULT_255_2_778
10
30.1772368
20
270.8937294
11
29.4271368
21
270.8937294
0
LINE
8
DEFAULT_255_2_778
10
29.4271368
20
270.8937294
11
29.4271368
21
266.8938294
0
LINE
8
DEFAULT_255_2_778
10
29.4271368
20
266.8938294
11
29.9272368
21
266.8938294
0
LINE
8
DEFAULT_255_2_778
10
29.9272368
20
266.8938294
11
29.9272368
21
270.3831294
0
LINE
8
DEFAULT_255_2_778
10
29.9272368
20
270.3831294
11
32.0105368
21
266.8938294
0
LINE
8
DEFAULT_255_2_778
10
32.0105368
20
266.8938294
11
32.7606368
21
266.8938294
0
LINE
8
DEFAULT_255_2_778
10
32.7606368
20
266.8938294
11
32.7606368
21
270.8937294
0
LINE
8
DEFAULT_255_2_778
10
32.7606368
20
270.8937294
11
32.2605368
21
270.8937294
0
LINE
8
DEFAULT_255_2_778
10
32.2605368
20
270.8937294
11
32.2605368
21
267.4896294
0
LINE
8
DEFAULT_255_2_778
10
32.2605368
20
267.4896294
11
30.1772368
21
270.8937294
0
LINE
8
DEFAULT_255_2_778
10
35.5937368
20
270.8085294
11
35.1770368
21
270.8937294
0
LINE
8
DEFAULT_255_2_778
10
35.1770368
20
270.8937294
11
34.7603368
21
270.8937294
0
LINE
8
DEFAULT_255_2_778
10
34.7603368
20
270.8937294
11
34.4269368
21
270.8085294
0
LINE
8
DEFAULT_255_2_778
10
34.4269368
20
270.8085294
11
34.0936368
21
270.6384294
0
LINE
8
DEFAULT_255_2_778
10
34.0936368
20
270.6384294
11
33.7602368
21
270.2979294
0
LINE
8
DEFAULT_255_2_778
10
33.7602368
20
270.2979294
11
33.6768368
21
269.9574294
0
LINE
8
DEFAULT_255_2_778
10
33.6768368
20
269.9574294
11
33.6768368
21
269.6169294
0
LINE
8
DEFAULT_255_2_778
10
33.6768368
20
269.6169294
11
33.7602368
21
269.2763294
0
LINE
8
DEFAULT_255_2_778
10
33.7602368
20
269.2763294
11
34.0936368
21
268.9358294
0
LINE
8
DEFAULT_255_2_778
10
34.0936368
20
268.9358294
11
34.4269368
21
268.7657294
0
LINE
8
DEFAULT_255_2_778
10
34.4269368
20
268.7657294
11
34.7603368
21
268.6805294
0
LINE
8
DEFAULT_255_2_778
10
34.7603368
20
268.6805294
11
35.2604368
21
268.6805294
0
LINE
8
DEFAULT_255_2_778
10
35.2604368
20
268.6805294
11
35.5937368
21
268.5953294
0
LINE
8
DEFAULT_255_2_778
10
35.5937368
20
268.5953294
11
35.8438368
21
268.4252294
0
LINE
8
DEFAULT_255_2_778
10
35.8438368
20
268.4252294
11
36.0105368
21
268.1699294
0
LINE
8
DEFAULT_255_2_778
10
36.0105368
20
268.1699294
11
36.0105368
21
267.9145294
0
LINE
8
DEFAULT_255_2_778
10
36.0105368
20
267.9145294
11
35.8438368
21
267.6592294
0
LINE
8
DEFAULT_255_2_778
10
35.8438368
20
267.6592294
11
35.5937368
21
267.4891294
0
LINE
8
DEFAULT_255_2_778
10
35.5937368
20
267.4891294
11
35.2604368
21
267.4039294
0
LINE
8
DEFAULT_255_2_778
10
35.2604368
20
267.4039294
11
34.5936368
21
267.4039294
0
LINE
8
DEFAULT_255_2_778
10
34.5936368
20
267.4039294
11
34.2602368
21
267.4891294
0
LINE
8
DEFAULT_255_2_778
10
34.2602368
20
267.4891294
11
34.0102368
21
267.7444294
0
LINE
8
DEFAULT_255_2_778
10
34.0102368
20
267.7444294
11
33.9269368
21
267.9997294
0
LINE
8
DEFAULT_255_2_778
10
33.9269368
20
267.9997294
11
33.4268368
21
267.9997294
0
LINE
8
DEFAULT_255_2_778
10
33.4268368
20
267.9997294
11
33.5102368
21
267.6592294
0
LINE
8
DEFAULT_255_2_778
10
33.5102368
20
267.6592294
11
33.7602368
21
267.2338294
0
LINE
8
DEFAULT_255_2_778
10
33.7602368
20
267.2338294
11
34.1769368
21
266.9784294
0
LINE
8
DEFAULT_255_2_778
10
34.1769368
20
266.9784294
11
34.5936368
21
266.8932294
0
LINE
8
DEFAULT_255_2_778
10
34.5936368
20
266.8932294
11
35.2604368
21
266.8932294
0
LINE
8
DEFAULT_255_2_778
10
35.2604368
20
266.8932294
11
35.6771368
21
266.9784294
0
LINE
8
DEFAULT_255_2_778
10
35.6771368
20
266.9784294
11
36.0105368
21
267.1486294
0
LINE
8
DEFAULT_255_2_778
10
36.0105368
20
267.1486294
11
36.3438368
21
267.4891294
0
LINE
8
DEFAULT_255_2_778
10
36.3438368
20
267.4891294
11
36.5105368
21
267.8296294
0
LINE
8
DEFAULT_255_2_778
10
36.5105368
20
267.8296294
11
36.5105368
21
268.2550294
0
LINE
8
DEFAULT_255_2_778
10
36.5105368
20
268.2550294
11
36.3438368
21
268.5956294
0
LINE
8
DEFAULT_255_2_778
10
36.3438368
20
268.5956294
11
36.0105368
21
268.9361294
0
LINE
8
DEFAULT_255_2_778
10
36.0105368
20
268.9361294
11
35.6771368
21
269.1062294
0
LINE
8
DEFAULT_255_2_778
10
35.6771368
20
269.1062294
11
35.2604368
21
269.1914294
0
LINE
8
DEFAULT_255_2_778
10
35.2604368
20
269.1914294
11
34.7603368
21
269.1914294
0
LINE
8
DEFAULT_255_2_778
10
34.7603368
20
269.1914294
11
34.5103368
21
269.2766294
0
LINE
8
DEFAULT_255_2_778
10
34.5103368
20
269.2766294
11
34.2602368
21
269.4467294
0
LINE
8
DEFAULT_255_2_778
10
34.2602368
20
269.4467294
11
34.1769368
21
269.7021294
0
LINE
8
DEFAULT_255_2_778
10
34.1769368
20
269.7021294
11
34.1769368
21
269.8722294
0
LINE
8
DEFAULT_255_2_778
10
34.1769368
20
269.8722294
11
34.2602368
21
270.1275294
0
LINE
8
DEFAULT_255_2_778
10
34.2602368
20
270.1275294
11
34.5103368
21
270.2976294
0
LINE
8
DEFAULT_255_2_778
10
34.5103368
20
270.2976294
11
34.7603368
21
270.3828294
0
LINE
8
DEFAULT_255_2_778
10
34.7603368
20
270.3828294
11
35.2604368
21
270.3828294
0
LINE
8
DEFAULT_255_2_778
10
35.2604368
20
270.3828294
11
35.5104368
21
270.2976294
0
LINE
8
DEFAULT_255_2_778
10
35.5104368
20
270.2976294
11
35.6771368
21
270.1275294
0
LINE
8
DEFAULT_255_2_778
10
35.6771368
20
270.1275294
11
35.7604368
21
269.9574294
0
LINE
8
DEFAULT_255_2_778
10
35.7604368
20
269.9574294
11
36.2605368
21
269.9574294
0
LINE
8
DEFAULT_255_2_778
10
36.2605368
20
269.9574294
11
36.1772368
21
270.2127294
0
LINE
8
DEFAULT_255_2_778
10
36.1772368
20
270.2127294
11
35.9271368
21
270.5532294
0
LINE
8
DEFAULT_255_2_778
10
35.9271368
20
270.5532294
11
35.5937368
21
270.8085294
0
ARC
8
DEFAULT_255_2_778
10
2.5763965
20
287.0482842
40
0.529988
50
67.3921843
51
91.4065166
0
ARC
8
DEFAULT_255_2_778
10
2.6369696
20
287.2122598
40
0.3553984
50
48.1061923
51
66.2446951
0
ARC
8
DEFAULT_255_2_778
10
2.643846
20
287.2224662
40
0.3432133
50
357.7200555
51
47.8229463
0
ARC
8
DEFAULT_255_2_778
10
2.6201833
20
287.1946409
40
0.366878
50
326.5062431
51
2.2137386
0
ARC
8
DEFAULT_255_2_778
10
2.6811568
20
287.1653377
40
0.3
50
310.6751197
51
324.7468624
0
ARC
8
DEFAULT_255_2_778
10
2.6236061
20
287.2485698
40
0.4007746
50
276.5601715
51
309.1594407
0
ARC
8
DEFAULT_255_2_778
10
2.5649757
20
287.5721316
40
0.7292269
50
269.7337908
51
278.2324505
0
ARC
8
DEFAULT_255_2_778
10
2.5759493
20
287.2985699
40
0.3258075
50
267.7551664
51
296.9182772
0
ARC
8
DEFAULT_255_2_778
10
2.6251765
20
287.1846834
40
0.2021197
50
299.0916359
51
311.4177065
0
ARC
8
DEFAULT_255_2_778
10
2.6076805
20
287.1924755
40
0.219682
50
313.495679
51
3.7680485
0
ARC
8
DEFAULT_255_2_778
10
2.5995859
20
287.2172447
40
0.2275364
50
357.397355
51
45.563758
0
ARC
8
DEFAULT_255_2_778
10
2.5814816
20
287.1796812
40
0.2673675
50
48.430475
51
91.8926217
0
ARC
8
DEFAULT_255_2_778
10
2.3033765
20
274.4487691
40
13.0009226
50
88.8132057
51
88.8152505
0
ARC
8
DEFAULT_255_2_778
10
3.8358687
20
287.9600029
40
1.0909794
50
244.1546563
51
254.5964663
0
ARC
8
DEFAULT_255_2_778
10
3.573103
20
287.4212115
40
0.4915328
50
228.5286314
51
244.3411261
0
ARC
8
DEFAULT_255_2_778
10
3.4311766
20
287.2603744
40
0.2770296
50
179.0200148
51
228.493451
0
ARC
8
DEFAULT_255_2_778
10
3.446703
20
287.2695654
40
0.2925494
50
127.5797088
51
180.8721432
0
ARC
8
DEFAULT_255_2_778
10
3.5363048
20
287.158935
40
0.434884
50
91.3679169
51
128.0461529
0
ARC
8
DEFAULT_255_2_778
10
3.5646974
20
286.9215804
40
0.6732323
50
89.9667959
51
93.3017339
0
ARC
8
DEFAULT_255_2_778
10
3.5741654
20
287.1012788
40
0.4936172
50
64.4466939
51
91.0537621
0
ARC
8
DEFAULT_255_2_778
10
3.632012
20
287.2178065
40
0.3635406
50
32.6263655
51
64.7499232
0
ARC
8
DEFAULT_255_2_778
10
3.6513934
20
287.2308206
40
0.3402013
50
359.6281191
51
32.5403313
0
ARC
8
DEFAULT_255_2_778
10
3.6122054
20
287.2399406
40
0.2196744
50
357.0440624
51
47.1195217
0
ARC
8
DEFAULT_255_2_778
10
3.5893482
20
287.1928342
40
0.2701804
50
50.3669878
51
90.0427208
0
ARC
8
DEFAULT_255_2_778
10
3.5651543
20
286.981911
40
0.4817014
50
87.1450499
51
90.0317304
0
ARC
8
DEFAULT_255_2_778
10
3.5521093
20
287.1448245
40
0.319044
50
87.7046001
51
117.2912334
0
ARC
8
DEFAULT_255_2_778
10
3.5052414
20
287.2531405
40
0.2014548
50
119.570932
51
128.0815461
0
ARC
8
DEFAULT_255_2_778
10
3.4876742
20
287.2758149
40
0.1727721
50
128.1337651
51
182.6547566
0
ARC
8
DEFAULT_255_2_778
10
3.4707344
20
287.2677597
40
0.1556468
50
179.9805655
51
233.3328832
0
ARC
8
DEFAULT_255_2_778
10
3.6240139
20
287.4684883
40
0.4081998
50
232.900531
51
249.8252383
0
ARC
8
DEFAULT_255_2_778
10
3.8778011
20
288.0930804
40
1.0822377
50
248.6178702
51
254.6374101
0
ARC
8
DEFAULT_255_2_778
10
3.2687311
20
285.8579772
40
1.2343703
50
66.3526617
51
74.861661
0
ARC
8
DEFAULT_255_2_778
10
3.5125553
20
286.4262433
40
0.6160382
50
59.3304783
51
65.9262912
0
ARC
8
DEFAULT_255_2_778
10
3.6519819
20
286.6444744
40
0.3573168
50
32.6049927
51
60.7108368
0
ARC
8
DEFAULT_255_2_778
10
3.690171
20
286.6844126
40
0.3039067
50
358.6047082
51
30.1408492
0
ARC
8
DEFAULT_255_2_778
10
3.7117091
20
286.6688642
40
0.282396
50
306.4502565
51
1.6534455
0
ARC
8
DEFAULT_255_2_778
10
3.6181842
20
286.7984038
40
0.442163
50
274.5558966
51
306.2255994
0
ARC
8
DEFAULT_255_2_778
10
3.5747922
20
287.0846271
40
0.7312167
50
269.8664293
51
276.1639639
0
ARC
8
DEFAULT_255_2_778
10
3.5684769
20
286.9215526
40
0.5681588
50
246.3749603
51
270.4649654
0
ARC
8
DEFAULT_255_2_778
10
3.4891431
20
286.7614071
40
0.3897353
50
216.1116349
51
247.6256024
0
ARC
8
DEFAULT_255_2_778
10
3.4355929
20
286.715963
40
0.3197323
50
179.2563917
51
215.188261
0
ARC
8
DEFAULT_255_2_778
10
3.4837445
20
286.7119704
40
0.2080164
50
177.7567701
51
232.4219776
0
ARC
8
DEFAULT_255_2_778
10
3.5495559
20
286.8105108
40
0.3263431
50
233.8155939
51
269.7643816
0
ARC
8
DEFAULT_255_2_778
10
3.5728616
20
287.0280171
40
0.5444048
50
267.4050707
51
270.0237785
0
ARC
8
DEFAULT_255_2_778
10
3.5853881
20
286.8538794
40
0.3704712
50
268.0972869
51
292.4101945
0
ARC
8
DEFAULT_255_2_778
10
3.6421368
20
286.6986917
40
0.2054783
50
294.2787801
51
307.2416189
0
ARC
8
DEFAULT_255_2_778
10
3.6663527
20
286.6693179
40
0.1674457
50
306.7277457
51
2.0858707
0
ARC
8
DEFAULT_255_2_778
10
3.6701012
20
286.6840432
40
0.1638138
50
356.9799089
51
51.7632906
0
ARC
8
DEFAULT_255_2_778
10
3.5263262
20
286.4740193
40
0.4181114
50
54.1012898
51
69.4402361
0
ARC
8
DEFAULT_255_2_778
10
3.1968792
20
285.6652048
40
1.2913369
50
68.3566546
51
74.3243354
0
LINE
8
DEFAULT_255_2_778
10
2.5615875
20
286.8426125
11
2.2768875
21
286.8426125
0
LINE
8
DEFAULT_255_2_778
10
2.2768875
20
286.8426125
11
2.2768875
21
286.3695125
0
LINE
8
DEFAULT_255_2_778
10
2.2768875
20
286.3695125
11
2.1175875
21
286.3695125
0
LINE
8
DEFAULT_255_2_778
10
2.1175875
20
286.3695125
11
2.1175875
21
287.5781125
0
LINE
8
DEFAULT_255_2_778
10
2.1175875
20
287.5781125
11
2.5633875
21
287.5781125
0
LINE
8
DEFAULT_255_2_778
10
2.5615875
20
286.8429125
11
2.5615875
21
286.8426125
0
LINE
8
DEFAULT_255_2_778
10
2.2768875
20
287.4469125
11
2.2768875
21
286.9730125
0
LINE
8
DEFAULT_255_2_778
10
2.2768875
20
286.9730125
11
2.5631875
21
286.9730125
0
LINE
8
DEFAULT_255_2_778
10
2.5721875
20
287.4469125
11
2.2768875
21
287.4469125
0
LINE
8
DEFAULT_255_2_778
10
2.2768875
20
287.4469125
11
2.2768875
21
287.4469125
0
LINE
8
DEFAULT_255_2_778
10
3.9915875
20
287.2286125
11
3.8315875
21
287.2286125
0
LINE
8
DEFAULT_255_2_778
10
3.1158875
20
286.7201125
11
3.2758875
21
286.7201125
0
LINE
8
DEFAULT_255_2_778
10
3.5457875
20
286.9085125
11
3.5460875
21
286.9082125
0
LINE
8
DEFAULT_255_2_778
10
5.2280021
20
287.5781083
11
5.2280021
21
286.7754083
0
LINE
8
DEFAULT_255_2_778
10
5.2280021
20
286.7754083
11
5.3958021
21
286.7754083
0
LINE
8
DEFAULT_255_2_778
10
5.3958021
20
286.7754083
11
5.3958021
21
286.6499083
0
LINE
8
DEFAULT_255_2_778
10
5.3958021
20
286.6499083
11
5.2280021
21
286.6499083
0
LINE
8
DEFAULT_255_2_778
10
5.2280021
20
286.6499083
11
5.2280021
21
286.3695083
0
LINE
8
DEFAULT_255_2_778
10
5.2280021
20
286.3695083
11
5.0735021
21
286.3695083
0
LINE
8
DEFAULT_255_2_778
10
5.0735021
20
286.3695083
11
5.0735021
21
286.6499083
0
LINE
8
DEFAULT_255_2_778
10
5.0735021
20
286.6499083
11
4.5232021
21
286.6499083
0
LINE
8
DEFAULT_255_2_778
10
4.5232021
20
286.6499083
11
4.5232021
21
286.7404083
0
LINE
8
DEFAULT_255_2_778
10
4.5232021
20
286.7404083
11
5.0645021
21
287.5781083
0
LINE
8
DEFAULT_255_2_778
10
5.0645021
20
287.5781083
11
5.2280021
21
287.5781083
0
LINE
8
DEFAULT_255_2_778
10
5.2280021
20
287.5781083
11
5.2280021
21
287.5781083
0
LINE
8
DEFAULT_255_2_778
10
5.0553021
20
287.3349083
11
4.6976021
21
286.7754083
0
LINE
8
DEFAULT_255_2_778
10
4.6976021
20
286.7754083
11
5.0735021
21
286.7754083
0
LINE
8
DEFAULT_255_2_778
10
5.0735021
20
286.7754083
11
5.0735021
21
287.3680083
0
LINE
8
DEFAULT_255_2_778
10
5.0735021
20
287.3680083
11
5.0553021
21
287.3349083
0
LINE
8
DEFAULT_255_2_778
10
5.0553021
20
287.3349083
11
5.0553021
21
287.3349083
0
ARC
8
DEFAULT_255_2_778
10
5.176204
20
286.8735685
40
1.115828
50
349.7841513
51
0.5995676
0
ARC
8
DEFAULT_255_2_778
10
5.7727691
20
286.7594914
40
0.5085293
50
328.8088568
51
350.5124165
0
ARC
8
DEFAULT_255_2_778
10
5.9224192
20
286.6793297
40
0.3391143
50
324.9015641
51
327.3000393
0
ARC
8
DEFAULT_255_2_778
10
5.9449371
20
286.6691699
40
0.3148834
50
270.4859447
51
324.0581696
0
ARC
8
DEFAULT_255_2_778
10
5.9122083
20
286.8970553
40
0.5439106
50
269.9539158
51
273.7316195
0
ARC
8
DEFAULT_255_2_778
10
5.8981733
20
286.731797
40
0.3788963
50
239.7410861
51
272.0566263
0
ARC
8
DEFAULT_255_2_778
10
5.8617775
20
286.6507286
40
0.2906851
50
215.6168128
51
237.8852281
0
ARC
8
DEFAULT_255_2_778
10
6.0247589
20
286.7543511
40
0.4836412
50
190.5392739
51
214.351916
0
ARC
8
DEFAULT_255_2_778
10
6.5528139
20
286.8677995
40
1.0236478
50
180.1765788
51
191.375991
0
ARC
8
DEFAULT_255_2_778
10
6.6030485
20
287.081924
40
1.0739479
50
169.2120111
51
180.6551188
0
ARC
8
DEFAULT_255_2_778
10
6.0232008
20
287.198764
40
0.4825189
50
147.082183
51
169.9531984
0
ARC
8
DEFAULT_255_2_778
10
5.8904352
20
287.2738854
40
0.3303702
50
144.5612453
51
145.5057377
0
ARC
8
DEFAULT_255_2_778
10
5.8744194
20
287.2788457
40
0.3144891
50
91.1711102
51
143.6056002
0
ARC
8
DEFAULT_255_2_778
10
5.9095702
20
287.0456351
40
0.5492101
50
89.9373433
51
94.3417815
0
ARC
8
DEFAULT_255_2_778
10
5.9235499
20
287.2000572
40
0.3950142
50
61.8861137
51
91.9409689
0
ARC
8
DEFAULT_255_2_778
10
5.9680789
20
287.3018258
40
0.2844022
50
36.2372984
51
60.1369998
0
ARC
8
DEFAULT_255_2_778
10
5.8217149
20
287.2092148
40
0.457354
50
10.9198729
51
34.7560513
0
ARC
8
DEFAULT_255_2_778
10
5.2592557
20
287.0862941
40
1.0330112
50
359.9234474
51
11.7044456
0
LINE
8
DEFAULT_255_2_778
10
6.2922659
20
287.0849139
11
6.2922708
21
287.0844448
0
ARC
8
DEFAULT_255_2_778
10
5.2340667
20
287.1068439
40
0.9044773
50
359.271546
51
10.0025747
0
ARC
8
DEFAULT_255_2_778
10
5.7813737
20
287.2074461
40
0.3480386
50
9.3424284
51
29.6734618
0
ARC
8
DEFAULT_255_2_778
10
5.9231484
20
287.2806723
40
0.1887192
50
31.666414
51
93.9431324
0
ARC
8
DEFAULT_255_2_778
10
5.897375
20
287.2833993
40
0.1859862
50
86.0549219
51
148.6920255
0
ARC
8
DEFAULT_255_2_778
10
6.0730681
20
287.1932126
40
0.3832252
50
150.8219166
51
172.8549165
0
ARC
8
DEFAULT_255_2_778
10
6.6024933
20
287.1059761
40
0.9196229
50
171.5646275
51
179.9396496
0
ARC
8
DEFAULT_255_2_778
10
6.5567494
20
286.8490005
40
0.873963
50
179.2038103
51
190.8676318
0
ARC
8
DEFAULT_255_2_778
10
6.0481732
20
286.749153
40
0.3556891
50
190.5181723
51
209.88171
0
ARC
8
DEFAULT_255_2_778
10
5.9025552
20
286.6666162
40
0.188312
50
210.1812506
51
272.8964758
0
ARC
8
DEFAULT_255_2_778
10
5.9229085
20
286.6635406
40
0.185313
50
266.6472611
51
328.474601
0
ARC
8
DEFAULT_255_2_778
10
5.7588493
20
286.7520821
40
0.3715978
50
330.0643423
51
352.3011993
0
ARC
8
DEFAULT_255_2_778
10
5.2093675
20
286.8472705
40
0.9291094
50
351.0234216
51
359.794911
0
LINE
8
DEFAULT_255_2_778
10
6.2919708
20
287.0844448
11
6.2919708
21
286.8852448
0
LINE
8
DEFAULT_255_2_778
10
5.5291708
20
286.8646448
11
5.5291708
21
287.0696448
0
LINE
8
DEFAULT_255_2_778
10
6.2922708
20
287.0844448
11
6.2919708
21
287.0844448
0
LINE
8
DEFAULT_255_2_778
10
6.1384708
20
286.8436448
11
6.1384708
21
287.0953448
0
LINE
8
DEFAULT_255_2_778
10
5.6828708
20
287.1069448
11
5.6828708
21
286.8611448
0
LINE
8
DEFAULT_255_2_778
10
6.1384708
20
286.8439448
11
6.1384708
21
286.8436448
0
LINE
8
DEFAULT_255_2_778
10
7.2690156
20
287.5781083
11
7.2690156
21
287.4918083
0
LINE
8
DEFAULT_255_2_778
10
7.2690156
20
287.4918083
11
6.7684156
21
286.3695083
0
LINE
8
DEFAULT_255_2_778
10
6.7684156
20
286.3695083
11
6.6072156
21
286.3695083
0
LINE
8
DEFAULT_255_2_778
10
6.6072156
20
286.3695083
11
7.1062156
21
287.4519083
0
LINE
8
DEFAULT_255_2_778
10
7.1062156
20
287.4519083
11
6.4522156
21
287.4519083
0
LINE
8
DEFAULT_255_2_778
10
6.4522156
20
287.4519083
11
6.4522156
21
287.5781083
0
LINE
8
DEFAULT_255_2_778
10
6.4522156
20
287.5781083
11
7.2690156
21
287.5781083
0
LINE
8
DEFAULT_255_2_778
10
7.2690156
20
287.5781083
11
7.2690156
21
287.5781083
0
LINE
8
DEFAULT_255_2_778
10
8.3689604
20
287.5839187
11
8.3689604
21
286.3695187
0
LINE
8
DEFAULT_255_2_778
10
8.3689604
20
286.3695187
11
8.2144604
21
286.3695187
0
LINE
8
DEFAULT_255_2_778
10
8.2144604
20
286.3695187
11
8.2144604
21
287.3929187
0
LINE
8
DEFAULT_255_2_778
10
8.2144604
20
287.3929187
11
7.9048604
21
287.2791187
0
LINE
8
DEFAULT_255_2_778
10
7.9048604
20
287.2791187
11
7.9048604
21
287.4185187
0
LINE
8
DEFAULT_255_2_778
10
7.9048604
20
287.4185187
11
8.3448604
21
287.5836187
0
LINE
8
DEFAULT_255_2_778
10
8.3448604
20
287.5836187
11
8.3689604
21
287.5836187
0
LINE
8
DEFAULT_255_2_778
10
8.3689604
20
287.5836187
11
8.3689604
21
287.5839187
0
ARC
8
DEFAULT_255_2_778
10
8.461004
20
286.8735685
40
1.115828
50
349.7841513
51
0.5995676
0
ARC
8
DEFAULT_255_2_778
10
9.0575691
20
286.7594914
40
0.5085293
50
328.8088568
51
350.5124165
0
ARC
8
DEFAULT_255_2_778
10
9.2072192
20
286.6793297
40
0.3391143
50
324.9015641
51
327.3000393
0
ARC
8
DEFAULT_255_2_778
10
9.2297371
20
286.6691699
40
0.3148834
50
270.4859447
51
324.0581696
0
ARC
8
DEFAULT_255_2_778
10
9.1970083
20
286.8970553
40
0.5439106
50
269.9539158
51
273.7316195
0
ARC
8
DEFAULT_255_2_778
10
9.1829733
20
286.731797
40
0.3788963
50
239.7410861
51
272.0566263
0
ARC
8
DEFAULT_255_2_778
10
9.1465775
20
286.6507286
40
0.2906851
50
215.6168128
51
237.8852281
0
ARC
8
DEFAULT_255_2_778
10
9.3095589
20
286.7543511
40
0.4836412
50
190.5392739
51
214.351916
0
ARC
8
DEFAULT_255_2_778
10
9.8376139
20
286.8677995
40
1.0236478
50
180.1765788
51
191.375991
0
ARC
8
DEFAULT_255_2_778
10
9.8878485
20
287.081924
40
1.0739479
50
169.2120111
51
180.6551188
0
ARC
8
DEFAULT_255_2_778
10
9.3080008
20
287.198764
40
0.4825189
50
147.082183
51
169.9531984
0
ARC
8
DEFAULT_255_2_778
10
9.1752352
20
287.2738854
40
0.3303702
50
144.5612453
51
145.5057377
0
ARC
8
DEFAULT_255_2_778
10
9.1592194
20
287.2788457
40
0.3144891
50
91.1711102
51
143.6056002
0
ARC
8
DEFAULT_255_2_778
10
9.1943702
20
287.0456351
40
0.5492101
50
89.9373433
51
94.3417815
0
ARC
8
DEFAULT_255_2_778
10
9.2083499
20
287.2000572
40
0.3950142
50
61.8861137
51
91.9409689
0
ARC
8
DEFAULT_255_2_778
10
9.2528789
20
287.3018258
40
0.2844022
50
36.2372984
51
60.1369998
0
ARC
8
DEFAULT_255_2_778
10
9.1065149
20
287.2092148
40
0.457354
50
10.9198729
51
34.7560513
0
ARC
8
DEFAULT_255_2_778
10
8.5440557
20
287.0862941
40
1.0330112
50
359.9234474
51
11.7044456
0
LINE
8
DEFAULT_255_2_778
10
9.5770659
20
287.0849139
11
9.5770708
21
287.0844448
0
ARC
8
DEFAULT_255_2_778
10
8.5188667
20
287.1068439
40
0.9044773
50
359.271546
51
10.0025747
0
ARC
8
DEFAULT_255_2_778
10
9.0661737
20
287.2074461
40
0.3480386
50
9.3424284
51
29.6734618
0
ARC
8
DEFAULT_255_2_778
10
9.2079484
20
287.2806723
40
0.1887192
50
31.666414
51
93.9431324
0
ARC
8
DEFAULT_255_2_778
10
9.182175
20
287.2833993
40
0.1859862
50
86.0549219
51
148.6920255
0
ARC
8
DEFAULT_255_2_778
10
9.3578681
20
287.1932126
40
0.3832252
50
150.8219166
51
172.8549165
0
ARC
8
DEFAULT_255_2_778
10
9.8872933
20
287.1059761
40
0.9196229
50
171.5646275
51
179.9396496
0
ARC
8
DEFAULT_255_2_778
10
9.8415494
20
286.8490005
40
0.873963
50
179.2038103
51
190.8676318
0
ARC
8
DEFAULT_255_2_778
10
9.3329732
20
286.749153
40
0.3556891
50
190.5181723
51
209.88171
0
ARC
8
DEFAULT_255_2_778
10
9.1873552
20
286.6666162
40
0.188312
50
210.1812506
51
272.8964758
0
ARC
8
DEFAULT_255_2_778
10
9.2077085
20
286.6635406
40
0.185313
50
266.6472611
51
328.474601
0
ARC
8
DEFAULT_255_2_778
10
9.0436493
20
286.7520821
40
0.3715978
50
330.0643423
51
352.3011993
0
ARC
8
DEFAULT_255_2_778
10
8.4941675
20
286.8472705
40
0.9291094
50
351.0234216
51
359.794911
0
LINE
8
DEFAULT_255_2_778
10
9.5767708
20
287.0844448
11
9.5767708
21
286.8852448
0
LINE
8
DEFAULT_255_2_778
10
8.8139708
20
286.8646448
11
8.8139708
21
287.0696448
0
LINE
8
DEFAULT_255_2_778
10
9.5770708
20
287.0844448
11
9.5767708
21
287.0844448
0
LINE
8
DEFAULT_255_2_778
10
9.4232708
20
286.8436448
11
9.4232708
21
287.0953448
0
LINE
8
DEFAULT_255_2_778
10
8.9676708
20
287.1069448
11
8.9676708
21
286.8611448
0
LINE
8
DEFAULT_255_2_778
10
9.4232708
20
286.8439448
11
9.4232708
21
286.8436448
0
LINE
8
DEFAULT_255_2_778
10
10.5961521
20
286.3695083
11
10.4808521
21
286.6849083
0
LINE
8
DEFAULT_255_2_778
10
10.4808521
20
286.6849083
11
9.9744521
21
286.6849083
0
LINE
8
DEFAULT_255_2_778
10
9.9744521
20
286.6849083
11
9.8606521
21
286.3695083
0
LINE
8
DEFAULT_255_2_778
10
9.8606521
20
286.3695083
11
9.6963521
21
286.3695083
0
LINE
8
DEFAULT_255_2_778
10
9.6963521
20
286.3695083
11
10.1577521
21
287.5781083
0
LINE
8
DEFAULT_255_2_778
10
10.1577521
20
287.5781083
11
10.2972521
21
287.5781083
0
LINE
8
DEFAULT_255_2_778
10
10.2972521
20
287.5781083
11
10.7594521
21
286.3695083
0
LINE
8
DEFAULT_255_2_778
10
10.7594521
20
286.3695083
11
10.5959521
21
286.3695083
0
LINE
8
DEFAULT_255_2_778
10
10.5959521
20
286.3695083
11
10.5961521
21
286.3695083
0
LINE
8
DEFAULT_255_2_778
10
10.2276521
20
287.3813083
11
10.0225521
21
286.8158083
0
LINE
8
DEFAULT_255_2_778
10
10.0225521
20
286.8158083
11
10.4334521
21
286.8158083
0
LINE
8
DEFAULT_255_2_778
10
10.4334521
20
286.8158083
11
10.2276521
21
287.3813083
0
LINE
8
DEFAULT_255_2_778
10
10.2276521
20
287.3813083
11
10.2276521
21
287.3813083
0
LINE
8
DEFAULT_255_2_778
10
2.9978021
20
277.4017083
11
2.9978021
21
276.5990083
0
LINE
8
DEFAULT_255_2_778
10
2.9978021
20
276.5990083
11
3.1656021
21
276.5990083
0
LINE
8
DEFAULT_255_2_778
10
3.1656021
20
276.5990083
11
3.1656021
21
276.4735083
0
LINE
8
DEFAULT_255_2_778
10
3.1656021
20
276.4735083
11
2.9978021
21
276.4735083
0
LINE
8
DEFAULT_255_2_778
10
2.9978021
20
276.4735083
11
2.9978021
21
276.1931083
0
LINE
8
DEFAULT_255_2_778
10
2.9978021
20
276.1931083
11
2.8433021
21
276.1931083
0
LINE
8
DEFAULT_255_2_778
10
2.8433021
20
276.1931083
11
2.8433021
21
276.4735083
0
LINE
8
DEFAULT_255_2_778
10
2.8433021
20
276.4735083
11
2.2930021
21
276.4735083
0
LINE
8
DEFAULT_255_2_778
10
2.2930021
20
276.4735083
11
2.2930021
21
276.5640083
0
LINE
8
DEFAULT_255_2_778
10
2.2930021
20
276.5640083
11
2.8343021
21
277.4017083
0
LINE
8
DEFAULT_255_2_778
10
2.8343021
20
277.4017083
11
2.9978021
21
277.4017083
0
LINE
8
DEFAULT_255_2_778
10
2.9978021
20
277.4017083
11
2.9978021
21
277.4017083
0
LINE
8
DEFAULT_255_2_778
10
2.8251021
20
277.1585083
11
2.4674021
21
276.5990083
0
LINE
8
DEFAULT_255_2_778
10
2.4674021
20
276.5990083
11
2.8433021
21
276.5990083
0
LINE
8
DEFAULT_255_2_778
10
2.8433021
20
276.5990083
11
2.8433021
21
277.1916083
0
LINE
8
DEFAULT_255_2_778
10
2.8433021
20
277.1916083
11
2.8251021
21
277.1585083
0
LINE
8
DEFAULT_255_2_778
10
2.8251021
20
277.1585083
11
2.8251021
21
277.1585083
0
ARC
8
DEFAULT_255_2_778
10
2.946004
20
276.6971685
40
1.115828
50
349.7841513
51
0.5995676
0
ARC
8
DEFAULT_255_2_778
10
3.5425691
20
276.5830914
40
0.5085293
50
328.8088568
51
350.5124165
0
ARC
8
DEFAULT_255_2_778
10
3.6922192
20
276.5029297
40
0.3391143
50
324.9015641
51
327.3000393
0
ARC
8
DEFAULT_255_2_778
10
3.7147371
20
276.4927699
40
0.3148834
50
270.4859447
51
324.0581696
0
ARC
8
DEFAULT_255_2_778
10
3.6820083
20
276.7206553
40
0.5439106
50
269.9539158
51
273.7316195
0
ARC
8
DEFAULT_255_2_778
10
3.6679733
20
276.555397
40
0.3788963
50
239.7410861
51
272.0566263
0
ARC
8
DEFAULT_255_2_778
10
3.6315775
20
276.4743286
40
0.2906851
50
215.6168128
51
237.8852281
0
ARC
8
DEFAULT_255_2_778
10
3.7945589
20
276.5779511
40
0.4836412
50
190.5392739
51
214.351916
0
ARC
8
DEFAULT_255_2_778
10
4.3226139
20
276.6913995
40
1.0236478
50
180.1765788
51
191.375991
0
ARC
8
DEFAULT_255_2_778
10
4.3728485
20
276.905524
40
1.0739479
50
169.2120111
51
180.6551188
0
ARC
8
DEFAULT_255_2_778
10
3.7930008
20
277.022364
40
0.4825189
50
147.082183
51
169.9531984
0
ARC
8
DEFAULT_255_2_778
10
3.6602352
20
277.0974854
40
0.3303702
50
144.5612453
51
145.5057377
0
ARC
8
DEFAULT_255_2_778
10
3.6442194
20
277.1024457
40
0.3144891
50
91.1711102
51
143.6056002
0
ARC
8
DEFAULT_255_2_778
10
3.6793702
20
276.8692351
40
0.5492101
50
89.9373433
51
94.3417815
0
ARC
8
DEFAULT_255_2_778
10
3.6933499
20
277.0236572
40
0.3950142
50
61.8861137
51
91.9409689
0
ARC
8
DEFAULT_255_2_778
10
3.7378789
20
277.1254258
40
0.2844022
50
36.2372984
51
60.1369998
0
ARC
8
DEFAULT_255_2_778
10
3.5915149
20
277.0328148
40
0.457354
50
10.9198729
51
34.7560513
0
ARC
8
DEFAULT_255_2_778
10
3.0290557
20
276.9098941
40
1.0330112
50
359.9234474
51
11.7044456
0
LINE
8
DEFAULT_255_2_778
10
4.0620659
20
276.9085139
11
4.0620708
21
276.9080448
0
ARC
8
DEFAULT_255_2_778
10
3.0038667
20
276.9304439
40
0.9044773
50
359.271546
51
10.0025747
0
ARC
8
DEFAULT_255_2_778
10
3.5511737
20
277.0310461
40
0.3480386
50
9.3424284
51
29.6734618
0
ARC
8
DEFAULT_255_2_778
10
3.6929484
20
277.1042723
40
0.1887192
50
31.666414
51
93.9431324
0
ARC
8
DEFAULT_255_2_778
10
3.667175
20
277.1069993
40
0.1859862
50
86.0549219
51
148.6920255
0
ARC
8
DEFAULT_255_2_778
10
3.8428681
20
277.0168126
40
0.3832252
50
150.8219166
51
172.8549165
0
ARC
8
DEFAULT_255_2_778
10
4.3722933
20
276.9295761
40
0.9196229
50
171.5646275
51
179.9396496
0
ARC
8
DEFAULT_255_2_778
10
4.3265494
20
276.6726005
40
0.873963
50
179.2038103
51
190.8676318
0
ARC
8
DEFAULT_255_2_778
10
3.8179732
20
276.572753
40
0.3556891
50
190.5181723
51
209.88171
0
ARC
8
DEFAULT_255_2_778
10
3.6723552
20
276.4902162
40
0.188312
50
210.1812506
51
272.8964758
0
ARC
8
DEFAULT_255_2_778
10
3.6927085
20
276.4871406
40
0.185313
50
266.6472611
51
328.474601
0
ARC
8
DEFAULT_255_2_778
10
3.5286493
20
276.5756821
40
0.3715978
50
330.0643423
51
352.3011993
0
ARC
8
DEFAULT_255_2_778
10
2.9791675
20
276.6708705
40
0.9291094
50
351.0234216
51
359.794911
0
LINE
8
DEFAULT_255_2_778
10
4.0617708
20
276.9080448
11
4.0617708
21
276.7088448
0
LINE
8
DEFAULT_255_2_778
10
3.2989708
20
276.6882448
11
3.2989708
21
276.8932448
0
LINE
8
DEFAULT_255_2_778
10
4.0620708
20
276.9080448
11
4.0617708
21
276.9080448
0
LINE
8
DEFAULT_255_2_778
10
3.9082708
20
276.6672448
11
3.9082708
21
276.9189448
0
LINE
8
DEFAULT_255_2_778
10
3.4526708
20
276.9305448
11
3.4526708
21
276.6847448
0
LINE
8
DEFAULT_255_2_778
10
3.9082708
20
276.6675448
11
3.9082708
21
276.6672448
0
LINE
8
DEFAULT_255_2_778
10
5.0389156
20
277.4017083
11
5.0389156
21
277.3154083
0
LINE
8
DEFAULT_255_2_778
10
5.0389156
20
277.3154083
11
4.5383156
21
276.1931083
0
LINE
8
DEFAULT_255_2_778
10
4.5383156
20
276.1931083
11
4.3771156
21
276.1931083
0
LINE
8
DEFAULT_255_2_778
10
4.3771156
20
276.1931083
11
4.8761156
21
277.2755083
0
LINE
8
DEFAULT_255_2_778
10
4.8761156
20
277.2755083
11
4.2221156
21
277.2755083
0
LINE
8
DEFAULT_255_2_778
10
4.2221156
20
277.2755083
11
4.2221156
21
277.4017083
0
LINE
8
DEFAULT_255_2_778
10
4.2221156
20
277.4017083
11
5.0389156
21
277.4017083
0
LINE
8
DEFAULT_255_2_778
10
5.0389156
20
277.4017083
11
5.0389156
21
277.4017083
0
LINE
8
DEFAULT_255_2_778
10
5.5484615
20
276.7694062
11
5.5484615
21
276.6440062
0
LINE
8
DEFAULT_255_2_778
10
5.5484615
20
276.6440062
11
5.1433615
21
276.6440062
0
LINE
8
DEFAULT_255_2_778
10
5.1433615
20
276.6440062
11
5.1433615
21
276.7694062
0
LINE
8
DEFAULT_255_2_778
10
5.1433615
20
276.7694062
11
5.5484615
21
276.7694062
0
LINE
8
DEFAULT_255_2_778
10
5.5484615
20
276.7694062
11
5.5484615
21
276.7694062
0
ARC
8
DEFAULT_255_2_778
10
5.324304
20
276.6971685
40
1.115828
50
349.7841513
51
0.5995676
0
ARC
8
DEFAULT_255_2_778
10
5.9208691
20
276.5830914
40
0.5085293
50
328.8088568
51
350.5124165
0
ARC
8
DEFAULT_255_2_778
10
6.0705192
20
276.5029297
40
0.3391143
50
324.9015641
51
327.3000393
0
ARC
8
DEFAULT_255_2_778
10
6.0930371
20
276.4927699
40
0.3148834
50
270.4859447
51
324.0581696
0
ARC
8
DEFAULT_255_2_778
10
6.0603083
20
276.7206553
40
0.5439106
50
269.9539158
51
273.7316195
0
ARC
8
DEFAULT_255_2_778
10
6.0462733
20
276.555397
40
0.3788963
50
239.7410861
51
272.0566263
0
ARC
8
DEFAULT_255_2_778
10
6.0098775
20
276.4743286
40
0.2906851
50
215.6168128
51
237.8852281
0
ARC
8
DEFAULT_255_2_778
10
6.1728589
20
276.5779511
40
0.4836412
50
190.5392739
51
214.351916
0
ARC
8
DEFAULT_255_2_778
10
6.7009139
20
276.6913995
40
1.0236478
50
180.1765788
51
191.375991
0
ARC
8
DEFAULT_255_2_778
10
6.7511485
20
276.905524
40
1.0739479
50
169.2120111
51
180.6551188
0
ARC
8
DEFAULT_255_2_778
10
6.1713008
20
277.022364
40
0.4825189
50
147.082183
51
169.9531984
0
ARC
8
DEFAULT_255_2_778
10
6.0385352
20
277.0974854
40
0.3303702
50
144.5612453
51
145.5057377
0
ARC
8
DEFAULT_255_2_778
10
6.0225194
20
277.1024457
40
0.3144891
50
91.1711102
51
143.6056002
0
ARC
8
DEFAULT_255_2_778
10
6.0576702
20
276.8692351
40
0.5492101
50
89.9373433
51
94.3417815
0
ARC
8
DEFAULT_255_2_778
10
6.0716499
20
277.0236572
40
0.3950142
50
61.8861137
51
91.9409689
0
ARC
8
DEFAULT_255_2_778
10
6.1161789
20
277.1254258
40
0.2844022
50
36.2372984
51
60.1369998
0
ARC
8
DEFAULT_255_2_778
10
5.9698149
20
277.0328148
40
0.457354
50
10.9198729
51
34.7560513
0
ARC
8
DEFAULT_255_2_778
10
5.4073557
20
276.9098941
40
1.0330112
50
359.9234474
51
11.7044456
0
LINE
8
DEFAULT_255_2_778
10
6.4403659
20
276.9085139
11
6.4403708
21
276.9080448
0
ARC
8
DEFAULT_255_2_778
10
5.3821667
20
276.9304439
40
0.9044773
50
359.271546
51
10.0025747
0
ARC
8
DEFAULT_255_2_778
10
5.9294737
20
277.0310461
40
0.3480386
50
9.3424284
51
29.6734618
0
ARC
8
DEFAULT_255_2_778
10
6.0712484
20
277.1042723
40
0.1887192
50
31.666414
51
93.9431324
0
ARC
8
DEFAULT_255_2_778
10
6.045475
20
277.1069993
40
0.1859862
50
86.0549219
51
148.6920255
0
ARC
8
DEFAULT_255_2_778
10
6.2211681
20
277.0168126
40
0.3832252
50
150.8219166
51
172.8549165
0
ARC
8
DEFAULT_255_2_778
10
6.7505933
20
276.9295761
40
0.9196229
50
171.5646275
51
179.9396496
0
ARC
8
DEFAULT_255_2_778
10
6.7048494
20
276.6726005
40
0.873963
50
179.2038103
51
190.8676318
0
ARC
8
DEFAULT_255_2_778
10
6.1962732
20
276.572753
40
0.3556891
50
190.5181723
51
209.88171
0
ARC
8
DEFAULT_255_2_778
10
6.0506552
20
276.4902162
40
0.188312
50
210.1812506
51
272.8964758
0
ARC
8
DEFAULT_255_2_778
10
6.0710085
20
276.4871406
40
0.185313
50
266.6472611
51
328.474601
0
ARC
8
DEFAULT_255_2_778
10
5.9069493
20
276.5756821
40
0.3715978
50
330.0643423
51
352.3011993
0
ARC
8
DEFAULT_255_2_778
10
5.3574675
20
276.6708705
40
0.9291094
50
351.0234216
51
359.794911
0
LINE
8
DEFAULT_255_2_778
10
6.4400708
20
276.9080448
11
6.4400708
21
276.7088448
0
LINE
8
DEFAULT_255_2_778
10
5.6772708
20
276.6882448
11
5.6772708
21
276.8932448
0
LINE
8
DEFAULT_255_2_778
10
6.4403708
20
276.9080448
11
6.4400708
21
276.9080448
0
LINE
8
DEFAULT_255_2_778
10
6.2865708
20
276.6672448
11
6.2865708
21
276.9189448
0
LINE
8
DEFAULT_255_2_778
10
5.8309708
20
276.9305448
11
5.8309708
21
276.6847448
0
LINE
8
DEFAULT_255_2_778
10
6.2865708
20
276.6675448
11
6.2865708
21
276.6672448
0
LINE
8
DEFAULT_255_2_778
10
7.4121469
20
276.1931083
11
6.9837469
21
276.7551083
0
LINE
8
DEFAULT_255_2_778
10
6.9837469
20
276.7551083
11
6.8361469
21
276.6016083
0
LINE
8
DEFAULT_255_2_778
10
6.8361469
20
276.6016083
11
6.8361469
21
276.1931083
0
LINE
8
DEFAULT_255_2_778
10
6.8361469
20
276.1931083
11
6.6768469
21
276.1931083
0
LINE
8
DEFAULT_255_2_778
10
6.6768469
20
276.1931083
11
6.6768469
21
277.4017083
0
LINE
8
DEFAULT_255_2_778
10
6.6768469
20
277.4017083
11
6.8361469
21
277.4017083
0
LINE
8
DEFAULT_255_2_778
10
6.8361469
20
277.4017083
11
6.8361469
21
276.8040083
0
LINE
8
DEFAULT_255_2_778
10
6.8361469
20
276.8040083
11
7.3732469
21
277.4017083
0
LINE
8
DEFAULT_255_2_778
10
7.3732469
20
277.4017083
11
7.5658469
21
277.4017083
0
LINE
8
DEFAULT_255_2_778
10
7.5658469
20
277.4017083
11
7.0901469
21
276.8680083
0
LINE
8
DEFAULT_255_2_778
10
7.0901469
20
276.8680083
11
7.6031469
21
276.1931083
0
LINE
8
DEFAULT_255_2_778
10
7.6031469
20
276.1931083
11
7.4121469
21
276.1931083
0
LINE
8
DEFAULT_255_2_778
10
7.4121469
20
276.1931083
11
7.4121469
21
276.1931083
0
LINE
8
DEFAULT_255_2_778
10
8.5252521
20
276.1931083
11
8.4099521
21
276.5085083
0
LINE
8
DEFAULT_255_2_778
10
8.4099521
20
276.5085083
11
7.9035521
21
276.5085083
0
LINE
8
DEFAULT_255_2_778
10
7.9035521
20
276.5085083
11
7.7897521
21
276.1931083
0
LINE
8
DEFAULT_255_2_778
10
7.7897521
20
276.1931083
11
7.6254521
21
276.1931083
0
LINE
8
DEFAULT_255_2_778
10
7.6254521
20
276.1931083
11
8.0868521
21
277.4017083
0
LINE
8
DEFAULT_255_2_778
10
8.0868521
20
277.4017083
11
8.2263521
21
277.4017083
0
LINE
8
DEFAULT_255_2_778
10
8.2263521
20
277.4017083
11
8.6885521
21
276.1931083
0
LINE
8
DEFAULT_255_2_778
10
8.6885521
20
276.1931083
11
8.5250521
21
276.1931083
0
LINE
8
DEFAULT_255_2_778
10
8.5250521
20
276.1931083
11
8.5252521
21
276.1931083
0
LINE
8
DEFAULT_255_2_778
10
8.1567521
20
277.2049083
11
7.9516521
21
276.6394083
0
LINE
8
DEFAULT_255_2_778
10
7.9516521
20
276.6394083
11
8.3625521
21
276.6394083
0
LINE
8
DEFAULT_255_2_778
10
8.3625521
20
276.6394083
11
8.1567521
21
277.2049083
0
LINE
8
DEFAULT_255_2_778
10
8.1567521
20
277.2049083
11
8.1567521
21
277.2049083
0
ARC
8
DEFAULT_255_2_778
10
8.453604
20
276.6971685
40
1.115828
50
349.7841513
51
0.5995676
0
ARC
8
DEFAULT_255_2_778
10
9.0501691
20
276.5830914
40
0.5085293
50
328.8088568
51
350.5124165
0
ARC
8
DEFAULT_255_2_778
10
9.1998192
20
276.5029297
40
0.3391143
50
324.9015641
51
327.3000393
0
ARC
8
DEFAULT_255_2_778
10
9.2223371
20
276.4927699
40
0.3148834
50
270.4859447
51
324.0581696
0
ARC
8
DEFAULT_255_2_778
10
9.1896083
20
276.7206553
40
0.5439106
50
269.9539158
51
273.7316195
0
ARC
8
DEFAULT_255_2_778
10
9.1755733
20
276.555397
40
0.3788963
50
239.7410861
51
272.0566263
0
ARC
8
DEFAULT_255_2_778
10
9.1391775
20
276.4743286
40
0.2906851
50
215.6168128
51
237.8852281
0
ARC
8
DEFAULT_255_2_778
10
9.3021589
20
276.5779511
40
0.4836412
50
190.5392739
51
214.351916
0
ARC
8
DEFAULT_255_2_778
10
9.8302139
20
276.6913995
40
1.0236478
50
180.1765788
51
191.375991
0
ARC
8
DEFAULT_255_2_778
10
9.8804485
20
276.905524
40
1.0739479
50
169.2120111
51
180.6551188
0
ARC
8
DEFAULT_255_2_778
10
9.3006008
20
277.022364
40
0.4825189
50
147.082183
51
169.9531984
0
ARC
8
DEFAULT_255_2_778
10
9.1678352
20
277.0974854
40
0.3303702
50
144.5612453
51
145.5057377
0
ARC
8
DEFAULT_255_2_778
10
9.1518194
20
277.1024457
40
0.3144891
50
91.1711102
51
143.6056002
0
ARC
8
DEFAULT_255_2_778
10
9.1869702
20
276.8692351
40
0.5492101
50
89.9373433
51
94.3417815
0
ARC
8
DEFAULT_255_2_778
10
9.2009499
20
277.0236572
40
0.3950142
50
61.8861137
51
91.9409689
0
ARC
8
DEFAULT_255_2_778
10
9.2454789
20
277.1254258
40
0.2844022
50
36.2372984
51
60.1369998
0
ARC
8
DEFAULT_255_2_778
10
9.0991149
20
277.0328148
40
0.457354
50
10.9198729
51
34.7560513
0
ARC
8
DEFAULT_255_2_778
10
8.5366557
20
276.9098941
40
1.0330112
50
359.9234474
51
11.7044456
0
LINE
8
DEFAULT_255_2_778
10
9.5696659
20
276.9085139
11
9.5696708
21
276.9080448
0
ARC
8
DEFAULT_255_2_778
10
8.5114667
20
276.9304439
40
0.9044773
50
359.271546
51
10.0025747
0
ARC
8
DEFAULT_255_2_778
10
9.0587737
20
277.0310461
40
0.3480386
50
9.3424284
51
29.6734618
0
ARC
8
DEFAULT_255_2_778
10
9.2005484
20
277.1042723
40
0.1887192
50
31.666414
51
93.9431324
0
ARC
8
DEFAULT_255_2_778
10
9.174775
20
277.1069993
40
0.1859862
50
86.0549219
51
148.6920255
0
ARC
8
DEFAULT_255_2_778
10
9.3504681
20
277.0168126
40
0.3832252
50
150.8219166
51
172.8549165
0
ARC
8
DEFAULT_255_2_778
10
9.8798933
20
276.9295761
40
0.9196229
50
171.5646275
51
179.9396496
0
ARC
8
DEFAULT_255_2_778
10
9.8341494
20
276.6726005
40
0.873963
50
179.2038103
51
190.8676318
0
ARC
8
DEFAULT_255_2_778
10
9.3255732
20
276.572753
40
0.3556891
50
190.5181723
51
209.88171
0
ARC
8
DEFAULT_255_2_778
10
9.1799552
20
276.4902162
40
0.188312
50
210.1812506
51
272.8964758
0
ARC
8
DEFAULT_255_2_778
10
9.2003085
20
276.4871406
40
0.185313
50
266.6472611
51
328.474601
0
ARC
8
DEFAULT_255_2_778
10
9.0362493
20
276.5756821
40
0.3715978
50
330.0643423
51
352.3011993
0
ARC
8
DEFAULT_255_2_778
10
8.4867675
20
276.6708705
40
0.9291094
50
351.0234216
51
359.794911
0
LINE
8
DEFAULT_255_2_778
10
9.5693708
20
276.9080448
11
9.5693708
21
276.7088448
0
LINE
8
DEFAULT_255_2_778
10
8.8065708
20
276.6882448
11
8.8065708
21
276.8932448
0
LINE
8
DEFAULT_255_2_778
10
9.5696708
20
276.9080448
11
9.5693708
21
276.9080448
0
LINE
8
DEFAULT_255_2_778
10
9.4158708
20
276.6672448
11
9.4158708
21
276.9189448
0
LINE
8
DEFAULT_255_2_778
10
8.9602708
20
276.9305448
11
8.9602708
21
276.6847448
0
LINE
8
DEFAULT_255_2_778
10
9.4158708
20
276.6675448
11
9.4158708
21
276.6672448
0
ARC
8
DEFAULT_255_2_778
10
9.142962
20
277.7026142
40
1.3991184
50
318.1057942
51
324.2255013
0
ARC
8
DEFAULT_255_2_778
10
9.8402793
20
277.1981174
40
0.5384436
50
324.4022567
51
331.3362198
0
ARC
8
DEFAULT_255_2_778
10
10.0617986
20
277.077342
40
0.2861396
50
331.2798256
51
359.7998989
0
ARC
8
DEFAULT_255_2_778
10
10.1307481
20
277.084635
40
0.2173466
50
357.8134951
51
42.5609786
0
ARC
8
DEFAULT_255_2_778
10
10.1471963
20
277.0923848
40
0.2000631
50
44.1125177
51
92.5955248
0
ARC
8
DEFAULT_255_2_778
10
10.1238357
20
277.0554459
40
0.2372282
50
86.543963
51
133.6340355
0
ARC
8
DEFAULT_255_2_778
10
10.1435096
20
277.0614296
40
0.2471569
50
137.8960749
51
182.8205012
0
ARC
8
DEFAULT_255_2_778
10
10.3164023
20
277.0456719
40
0.4197657
50
179.5091974
51
180.0039932
0
ARC
8
DEFAULT_255_2_778
10
10.0995665
20
277.0601288
40
0.3567243
50
134.2749451
51
182.3273475
0
ARC
8
DEFAULT_255_2_778
10
10.1132478
20
277.0297113
40
0.3882227
50
90.0135841
51
132.5865133
0
ARC
8
DEFAULT_255_2_778
10
10.1379622
20
276.8134985
40
0.6049442
50
89.9834973
51
92.3501419
0
ARC
8
DEFAULT_255_2_778
10
10.1515579
20
276.9932642
40
0.4253903
50
62.5519892
51
91.8080242
0
ARC
8
DEFAULT_255_2_778
10
10.1978522
20
277.1008835
40
0.3086642
50
47.9381399
51
60.9696173
0
ARC
8
DEFAULT_255_2_778
10
10.20153
20
277.1075263
40
0.3012736
50
357.5871318
51
47.6110781
0
ARC
8
DEFAULT_255_2_778
10
10.0988552
20
277.1078321
40
0.4038902
50
331.6128874
51
358.1570136
0
ARC
8
DEFAULT_255_2_778
10
9.627416
20
277.3442521
40
0.9311816
50
320.4246658
51
332.6062055
0
ARC
8
DEFAULT_255_2_778
10
9.1117125
20
277.7485941
40
1.5863727
50
317.1604053
51
321.0346642
0
LINE
8
DEFAULT_255_2_778
10
10.5580365
20
276.3185427
11
10.5580365
21
276.1931427
0
LINE
8
DEFAULT_255_2_778
10
10.5580365
20
276.1931427
11
9.7661365
21
276.1931427
0
LINE
8
DEFAULT_255_2_778
10
9.7661365
20
276.1931427
11
9.7661365
21
276.3034427
0
LINE
8
DEFAULT_255_2_778
10
9.7661365
20
276.3034427
11
10.1844365
21
276.7683427
0
LINE
8
DEFAULT_255_2_778
10
9.8966365
20
277.0456427
11
9.7431365
21
277.0456427
0
LINE
8
DEFAULT_255_2_778
10
10.2749365
20
276.6699427
11
9.9511365
21
276.3188427
0
LINE
8
DEFAULT_255_2_778
10
9.9511365
20
276.3188427
11
10.5578365
21
276.3188427
0
LINE
8
DEFAULT_255_2_778
10
10.5578365
20
276.3188427
11
10.5580365
21
276.3185427
0
LINE
8
DEFAULT_255_2_778
10
11.0562365
20
276.7694427
11
11.0562365
21
276.6440427
0
LINE
8
DEFAULT_255_2_778
10
11.0562365
20
276.6440427
11
10.6511365
21
276.6440427
0
LINE
8
DEFAULT_255_2_778
10
10.6511365
20
276.6440427
11
10.6511365
21
276.7694427
0
LINE
8
DEFAULT_255_2_778
10
10.6511365
20
276.7694427
11
11.0562365
21
276.7694427
0
LINE
8
DEFAULT_255_2_778
10
11.0562365
20
276.7694427
11
11.0562365
21
276.7694427
0
ARC
8
DEFAULT_255_2_778
10
10.831904
20
276.6971685
40
1.115828
50
349.7841513
51
0.5995676
0
ARC
8
DEFAULT_255_2_778
10
11.4284691
20
276.5830914
40
0.5085293
50
328.8088568
51
350.5124165
0
ARC
8
DEFAULT_255_2_778
10
11.5781192
20
276.5029297
40
0.3391143
50
324.9015641
51
327.3000393
0
ARC
8
DEFAULT_255_2_778
10
11.6006371
20
276.4927699
40
0.3148834
50
270.4859447
51
324.0581696
0
ARC
8
DEFAULT_255_2_778
10
11.5679083
20
276.7206553
40
0.5439106
50
269.9539158
51
273.7316195
0
ARC
8
DEFAULT_255_2_778
10
11.5538733
20
276.555397
40
0.3788963
50
239.7410861
51
272.0566263
0
ARC
8
DEFAULT_255_2_778
10
11.5174775
20
276.4743286
40
0.2906851
50
215.6168128
51
237.8852281
0
ARC
8
DEFAULT_255_2_778
10
11.6804589
20
276.5779511
40
0.4836412
50
190.5392739
51
214.351916
0
ARC
8
DEFAULT_255_2_778
10
12.2085139
20
276.6913995
40
1.0236478
50
180.1765788
51
191.375991
0
ARC
8
DEFAULT_255_2_778
10
12.2587485
20
276.905524
40
1.0739479
50
169.2120111
51
180.6551188
0
ARC
8
DEFAULT_255_2_778
10
11.6789008
20
277.022364
40
0.4825189
50
147.082183
51
169.9531984
0
ARC
8
DEFAULT_255_2_778
10
11.5461352
20
277.0974854
40
0.3303702
50
144.5612453
51
145.5057377
0
ARC
8
DEFAULT_255_2_778
10
11.5301194
20
277.1024457
40
0.3144891
50
91.1711102
51
143.6056002
0
ARC
8
DEFAULT_255_2_778
10
11.5652702
20
276.8692351
40
0.5492101
50
89.9373433
51
94.3417815
0
ARC
8
DEFAULT_255_2_778
10
11.5792499
20
277.0236572
40
0.3950142
50
61.8861137
51
91.9409689
0
ARC
8
DEFAULT_255_2_778
10
11.6237789
20
277.1254258
40
0.2844022
50
36.2372984
51
60.1369998
0
ARC
8
DEFAULT_255_2_778
10
11.4774149
20
277.0328148
40
0.457354
50
10.9198729
51
34.7560513
0
ARC
8
DEFAULT_255_2_778
10
10.9149557
20
276.9098941
40
1.0330112
50
359.9234474
51
11.7044456
0
LINE
8
DEFAULT_255_2_778
10
11.9479659
20
276.9085139
11
11.9479708
21
276.9080448
0
ARC
8
DEFAULT_255_2_778
10
10.8897667
20
276.9304439
40
0.9044773
50
359.271546
51
10.0025747
0
ARC
8
DEFAULT_255_2_778
10
11.4370737
20
277.0310461
40
0.3480386
50
9.3424284
51
29.6734618
0
ARC
8
DEFAULT_255_2_778
10
11.5788484
20
277.1042723
40
0.1887192
50
31.666414
51
93.9431324
0
ARC
8
DEFAULT_255_2_778
10
11.553075
20
277.1069993
40
0.1859862
50
86.0549219
51
148.6920255
0
ARC
8
DEFAULT_255_2_778
10
11.7287681
20
277.0168126
40
0.3832252
50
150.8219166
51
172.8549165
0
ARC
8
DEFAULT_255_2_778
10
12.2581933
20
276.9295761
40
0.9196229
50
171.5646275
51
179.9396496
0
ARC
8
DEFAULT_255_2_778
10
12.2124494
20
276.6726005
40
0.873963
50
179.2038103
51
190.8676318
0
ARC
8
DEFAULT_255_2_778
10
11.7038732
20
276.572753
40
0.3556891
50
190.5181723
51
209.88171
0
ARC
8
DEFAULT_255_2_778
10
11.5582552
20
276.4902162
40
0.188312
50
210.1812506
51
272.8964758
0
ARC
8
DEFAULT_255_2_778
10
11.5786085
20
276.4871406
40
0.185313
50
266.6472611
51
328.474601
0
ARC
8
DEFAULT_255_2_778
10
11.4145493
20
276.5756821
40
0.3715978
50
330.0643423
51
352.3011993
0
ARC
8
DEFAULT_255_2_778
10
10.8650675
20
276.6708705
40
0.9291094
50
351.0234216
51
359.794911
0
LINE
8
DEFAULT_255_2_778
10
11.9476708
20
276.9080448
11
11.9476708
21
276.7088448
0
LINE
8
DEFAULT_255_2_778
10
11.1848708
20
276.6882448
11
11.1848708
21
276.8932448
0
LINE
8
DEFAULT_255_2_778
10
11.9479708
20
276.9080448
11
11.9476708
21
276.9080448
0
LINE
8
DEFAULT_255_2_778
10
11.7941708
20
276.6672448
11
11.7941708
21
276.9189448
0
LINE
8
DEFAULT_255_2_778
10
11.3385708
20
276.9305448
11
11.3385708
21
276.6847448
0
LINE
8
DEFAULT_255_2_778
10
11.7941708
20
276.6675448
11
11.7941708
21
276.6672448
0
LINE
8
DEFAULT_255_2_778
10
12.9670521
20
276.1931083
11
12.8517521
21
276.5085083
0
LINE
8
DEFAULT_255_2_778
10
12.8517521
20
276.5085083
11
12.3453521
21
276.5085083
0
LINE
8
DEFAULT_255_2_778
10
12.3453521
20
276.5085083
11
12.2315521
21
276.1931083
0
LINE
8
DEFAULT_255_2_778
10
12.2315521
20
276.1931083
11
12.0672521
21
276.1931083
0
LINE
8
DEFAULT_255_2_778
10
12.0672521
20
276.1931083
11
12.5286521
21
277.4017083
0
LINE
8
DEFAULT_255_2_778
10
12.5286521
20
277.4017083
11
12.6681521
21
277.4017083
0
LINE
8
DEFAULT_255_2_778
10
12.6681521
20
277.4017083
11
13.1303521
21
276.1931083
0
LINE
8
DEFAULT_255_2_778
10
13.1303521
20
276.1931083
11
12.9668521
21
276.1931083
0
LINE
8
DEFAULT_255_2_778
10
12.9668521
20
276.1931083
11
12.9670521
21
276.1931083
0
LINE
8
DEFAULT_255_2_778
10
12.5985521
20
277.2049083
11
12.3934521
21
276.6394083
0
LINE
8
DEFAULT_255_2_778
10
12.3934521
20
276.6394083
11
12.8043521
21
276.6394083
0
LINE
8
DEFAULT_255_2_778
10
12.8043521
20
276.6394083
11
12.5985521
21
277.2049083
0
LINE
8
DEFAULT_255_2_778
10
12.5985521
20
277.2049083
11
12.5985521
21
277.2049083
0
LINE
8
DEFAULT_255_2_778
10
14.0759521
20
276.1931083
11
13.9606521
21
276.5085083
0
LINE
8
DEFAULT_255_2_778
10
13.9606521
20
276.5085083
11
13.4542521
21
276.5085083
0
LINE
8
DEFAULT_255_2_778
10
13.4542521
20
276.5085083
11
13.3404521
21
276.1931083
0
LINE
8
DEFAULT_255_2_778
10
13.3404521
20
276.1931083
11
13.1761521
21
276.1931083
0
LINE
8
DEFAULT_255_2_778
10
13.1761521
20
276.1931083
11
13.6375521
21
277.4017083
0
LINE
8
DEFAULT_255_2_778
10
13.6375521
20
277.4017083
11
13.7770521
21
277.4017083
0
LINE
8
DEFAULT_255_2_778
10
13.7770521
20
277.4017083
11
14.2392521
21
276.1931083
0
LINE
8
DEFAULT_255_2_778
10
14.2392521
20
276.1931083
11
14.0757521
21
276.1931083
0
LINE
8
DEFAULT_255_2_778
10
14.0757521
20
276.1931083
11
14.0759521
21
276.1931083
0
LINE
8
DEFAULT_255_2_778
10
13.7074521
20
277.2049083
11
13.5023521
21
276.6394083
0
LINE
8
DEFAULT_255_2_778
10
13.5023521
20
276.6394083
11
13.9132521
21
276.6394083
0
LINE
8
DEFAULT_255_2_778
10
13.9132521
20
276.6394083
11
13.7074521
21
277.2049083
0
LINE
8
DEFAULT_255_2_778
10
13.7074521
20
277.2049083
11
13.7074521
21
277.2049083
0
ARC
8
DEFAULT_255_2_778
10
14.004504
20
276.6971685
40
1.115828
50
349.7841513
51
0.5995676
0
ARC
8
DEFAULT_255_2_778
10
14.6010691
20
276.5830914
40
0.5085293
50
328.8088568
51
350.5124165
0
ARC
8
DEFAULT_255_2_778
10
14.7507192
20
276.5029297
40
0.3391143
50
324.9015641
51
327.3000393
0
ARC
8
DEFAULT_255_2_778
10
14.7732371
20
276.4927699
40
0.3148834
50
270.4859447
51
324.0581696
0
ARC
8
DEFAULT_255_2_778
10
14.7405083
20
276.7206553
40
0.5439106
50
269.9539158
51
273.7316195
0
ARC
8
DEFAULT_255_2_778
10
14.7264733
20
276.555397
40
0.3788963
50
239.7410861
51
272.0566263
0
ARC
8
DEFAULT_255_2_778
10
14.6900775
20
276.4743286
40
0.2906851
50
215.6168128
51
237.8852281
0
ARC
8
DEFAULT_255_2_778
10
14.8530589
20
276.5779511
40
0.4836412
50
190.5392739
51
214.351916
0
ARC
8
DEFAULT_255_2_778
10
15.3811139
20
276.6913995
40
1.0236478
50
180.1765788
51
191.375991
0
ARC
8
DEFAULT_255_2_778
10
15.4313485
20
276.905524
40
1.0739479
50
169.2120111
51
180.6551188
0
ARC
8
DEFAULT_255_2_778
10
14.8515008
20
277.022364
40
0.4825189
50
147.082183
51
169.9531984
0
ARC
8
DEFAULT_255_2_778
10
14.7187352
20
277.0974854
40
0.3303702
50
144.5612453
51
145.5057377
0
ARC
8
DEFAULT_255_2_778
10
14.7027194
20
277.1024457
40
0.3144891
50
91.1711102
51
143.6056002
0
ARC
8
DEFAULT_255_2_778
10
14.7378702
20
276.8692351
40
0.5492101
50
89.9373433
51
94.3417815
0
ARC
8
DEFAULT_255_2_778
10
14.7518499
20
277.0236572
40
0.3950142
50
61.8861137
51
91.9409689
0
ARC
8
DEFAULT_255_2_778
10
14.7963789
20
277.1254258
40
0.2844022
50
36.2372984
51
60.1369998
0
ARC
8
DEFAULT_255_2_778
10
14.6500149
20
277.0328148
40
0.457354
50
10.9198729
51
34.7560513
0
ARC
8
DEFAULT_255_2_778
10
14.0875557
20
276.9098941
40
1.0330112
50
359.9234474
51
11.7044456
0
LINE
8
DEFAULT_255_2_778
10
15.1205659
20
276.9085139
11
15.1205708
21
276.9080448
0
ARC
8
DEFAULT_255_2_778
10
14.0623667
20
276.9304439
40
0.9044773
50
359.271546
51
10.0025747
0
ARC
8
DEFAULT_255_2_778
10
14.6096737
20
277.0310461
40
0.3480386
50
9.3424284
51
29.6734618
0
ARC
8
DEFAULT_255_2_778
10
14.7514484
20
277.1042723
40
0.1887192
50
31.666414
51
93.9431324
0
ARC
8
DEFAULT_255_2_778
10
14.725675
20
277.1069993
40
0.1859862
50
86.0549219
51
148.6920255
0
ARC
8
DEFAULT_255_2_778
10
14.9013681
20
277.0168126
40
0.3832252
50
150.8219166
51
172.8549165
0
ARC
8
DEFAULT_255_2_778
10
15.4307933
20
276.9295761
40
0.9196229
50
171.5646275
51
179.9396496
0
ARC
8
DEFAULT_255_2_778
10
15.3850494
20
276.6726005
40
0.873963
50
179.2038103
51
190.8676318
0
ARC
8
DEFAULT_255_2_778
10
14.8764732
20
276.572753
40
0.3556891
50
190.5181723
51
209.88171
0
ARC
8
DEFAULT_255_2_778
10
14.7308552
20
276.4902162
40
0.188312
50
210.1812506
51
272.8964758
0
ARC
8
DEFAULT_255_2_778
10
14.7512085
20
276.4871406
40
0.185313
50
266.6472611
51
328.474601
0
ARC
8
DEFAULT_255_2_778
10
14.5871493
20
276.5756821
40
0.3715978
50
330.0643423
51
352.3011993
0
ARC
8
DEFAULT_255_2_778
10
14.0376675
20
276.6708705
40
0.9291094
50
351.0234216
51
359.794911
0
LINE
8
DEFAULT_255_2_778
10
15.1202708
20
276.9080448
11
15.1202708
21
276.7088448
0
LINE
8
DEFAULT_255_2_778
10
14.3574708
20
276.6882448
11
14.3574708
21
276.8932448
0
LINE
8
DEFAULT_255_2_778
10
15.1205708
20
276.9080448
11
15.1202708
21
276.9080448
0
LINE
8
DEFAULT_255_2_778
10
14.9667708
20
276.6672448
11
14.9667708
21
276.9189448
0
LINE
8
DEFAULT_255_2_778
10
14.5111708
20
276.9305448
11
14.5111708
21
276.6847448
0
LINE
8
DEFAULT_255_2_778
10
14.9667708
20
276.6675448
11
14.9667708
21
276.6672448
0
LINE
8
DEFAULT_255_2_778
10
14.6183959
20
261.388576
11
14.6183959
21
259.824576
0
LINE
8
DEFAULT_255_2_778
10
14.6183959
20
259.824576
11
14.4119959
21
259.824576
0
LINE
8
DEFAULT_255_2_778
10
14.4119959
20
259.824576
11
14.4119959
21
261.388576
0
LINE
8
DEFAULT_255_2_778
10
14.4119959
20
261.388576
11
14.6183959
21
261.388576
0
LINE
8
DEFAULT_255_2_778
10
14.6183959
20
261.388576
11
14.6183959
21
261.388576
0
LINE
8
DEFAULT_255_2_778
10
16.1973959
20
261.388576
11
16.1973959
21
259.824576
0
LINE
8
DEFAULT_255_2_778
10
16.1973959
20
259.824576
11
15.9899959
21
259.824576
0
LINE
8
DEFAULT_255_2_778
10
15.9899959
20
259.824576
11
15.2025959
21
261.029776
0
LINE
8
DEFAULT_255_2_778
10
15.2025959
20
261.029776
11
15.2025959
21
259.824576
0
LINE
8
DEFAULT_255_2_778
10
15.2025959
20
259.824576
11
14.9950959
21
259.824576
0
LINE
8
DEFAULT_255_2_778
10
14.9950959
20
259.824576
11
14.9950959
21
261.388576
0
LINE
8
DEFAULT_255_2_778
10
14.9950959
20
261.388576
11
15.2025959
21
261.388576
0
LINE
8
DEFAULT_255_2_778
10
15.2025959
20
261.388576
11
15.9920959
21
260.177876
0
LINE
8
DEFAULT_255_2_778
10
15.9920959
20
260.177876
11
15.9920959
21
261.388576
0
LINE
8
DEFAULT_255_2_778
10
15.9920959
20
261.388576
11
16.1970959
21
261.388576
0
LINE
8
DEFAULT_255_2_778
10
16.1970959
20
261.388576
11
16.1973959
21
261.388576
0
LINE
8
DEFAULT_255_2_778
10
17.6131625
20
261.388576
11
17.6131625
21
261.218976
0
LINE
8
DEFAULT_255_2_778
10
17.6131625
20
261.218976
11
17.1104625
21
261.218976
0
LINE
8
DEFAULT_255_2_778
10
17.1104625
20
261.218976
11
17.1104625
21
259.824576
0
LINE
8
DEFAULT_255_2_778
10
17.1104625
20
259.824576
11
16.9053625
21
259.824576
0
LINE
8
DEFAULT_255_2_778
10
16.9053625
20
259.824576
11
16.9053625
21
261.218976
0
LINE
8
DEFAULT_255_2_778
10
16.9053625
20
261.218976
11
16.4037625
21
261.218976
0
LINE
8
DEFAULT_255_2_778
10
16.4037625
20
261.218976
11
16.4037625
21
261.388576
0
LINE
8
DEFAULT_255_2_778
10
16.4037625
20
261.388576
11
17.6134625
21
261.388576
0
LINE
8
DEFAULT_255_2_778
10
17.6134625
20
261.388576
11
17.6131625
21
261.388576
0
LINE
8
DEFAULT_255_2_778
10
18.7077479
20
260.683976
11
18.7077479
21
260.515476
0
LINE
8
DEFAULT_255_2_778
10
18.7077479
20
260.515476
11
18.0513479
21
260.515476
0
LINE
8
DEFAULT_255_2_778
10
18.0513479
20
260.515476
11
18.0513479
21
259.824576
0
LINE
8
DEFAULT_255_2_778
10
18.0513479
20
259.824576
11
17.8449479
21
259.824576
0
LINE
8
DEFAULT_255_2_778
10
17.8449479
20
259.824576
11
17.8449479
21
261.388576
0
LINE
8
DEFAULT_255_2_778
10
17.8449479
20
261.388576
11
18.8138479
21
261.388576
0
LINE
8
DEFAULT_255_2_778
10
18.8138479
20
261.388576
11
18.8138479
21
261.218976
0
LINE
8
DEFAULT_255_2_778
10
18.8138479
20
261.218976
11
18.0510479
21
261.218976
0
LINE
8
DEFAULT_255_2_778
10
18.0510479
20
261.218976
11
18.0510479
21
260.683976
0
LINE
8
DEFAULT_255_2_778
10
18.0510479
20
260.683976
11
18.7074479
21
260.683976
0
LINE
8
DEFAULT_255_2_778
10
18.7074479
20
260.683976
11
18.7077479
21
260.683976
0
ARC
8
DEFAULT_255_2_778
10
15.1391108
20
250.5697737
40
0.8552945
50
76.1694721
51
90.8409146
0
ARC
8
DEFAULT_255_2_778
10
15.2426596
20
250.9815435
40
0.4307149
50
51.7252859
51
76.4505044
0
ARC
8
DEFAULT_255_2_778
10
15.2760427
20
251.045719
40
0.3599101
50
2.0516376
51
49.568485
0
ARC
8
DEFAULT_255_2_778
10
15.0332879
20
251.0090274
40
0.6044708
50
359.9287775
51
4.7044702
0
ARC
8
DEFAULT_255_2_778
10
15.3193852
20
251.0033811
40
0.3184107
50
323.5655309
51
0.8808401
0
ARC
8
DEFAULT_255_2_778
10
15.255376
20
251.0552175
40
0.4007113
50
292.0730058
51
323.0380515
0
ARC
8
DEFAULT_255_2_778
10
15.3151667
20
250.3329151
40
0.3625144
50
36.5844092
51
75.4958647
0
ARC
8
DEFAULT_255_2_778
10
15.2928492
20
250.3217272
40
0.387127
50
358.5862516
51
35.9453674
0
ARC
8
DEFAULT_255_2_778
10
15.2335711
20
250.2974687
40
0.4465296
50
326.9384915
51
1.8874859
0
ARC
8
DEFAULT_255_2_778
10
15.2866143
20
250.2744968
40
0.389663
50
311.2150688
51
325.5143112
0
ARC
8
DEFAULT_255_2_778
10
15.2308008
20
250.3523848
40
0.4851183
50
277.7762105
51
310.1125758
0
ARC
8
DEFAULT_255_2_778
10
15.1620413
20
250.7054397
40
0.8444755
50
269.6958405
51
279.1575444
0
ARC
8
DEFAULT_255_2_778
10
15.1752844
20
250.3831708
40
0.3535536
50
267.8074811
51
300.611103
0
ARC
8
DEFAULT_255_2_778
10
15.2153939
20
250.298431
40
0.2603419
50
302.5107673
51
311.8407921
0
ARC
8
DEFAULT_255_2_778
10
15.2109505
20
250.2963055
40
0.261765
50
312.8757704
51
2.993608
0
ARC
8
DEFAULT_255_2_778
10
15.1566701
20
250.322861
40
0.3159511
50
357.6627379
51
29.1161109
0
ARC
8
DEFAULT_255_2_778
10
15.2289751
20
250.343409
40
0.2433954
50
33.1756711
51
83.684546
0
ARC
8
DEFAULT_255_2_778
10
15.1687601
20
250.0678409
40
0.5247469
50
80.4578303
51
90.3823476
0
ARC
8
DEFAULT_255_2_778
10
15.1461492
20
251.1021141
40
0.3444024
50
267.7550478
51
301.3441056
0
ARC
8
DEFAULT_255_2_778
10
15.1842582
20
251.0230034
40
0.2571579
50
303.2615254
51
309.8844274
0
ARC
8
DEFAULT_255_2_778
10
15.2038826
20
250.9996825
40
0.2266788
50
309.8580632
51
2.425602
0
ARC
8
DEFAULT_255_2_778
10
15.1768948
20
251.0223556
40
0.2538008
50
357.0459537
51
33.3363491
0
ARC
8
DEFAULT_255_2_778
10
15.2491694
20
251.0601385
40
0.1728471
50
36.0398342
51
52.179164
0
ARC
8
DEFAULT_255_2_778
10
15.1842723
20
250.955672
40
0.2954403
50
54.6611069
51
84.8698013
0
ARC
8
DEFAULT_255_2_778
10
15.1295159
20
250.6133861
40
0.6416978
50
82.7326456
51
90.2819342
0
LINE
8
DEFAULT_255_2_778
10
15.1575583
20
249.860976
11
14.6151583
21
249.860976
0
LINE
8
DEFAULT_255_2_778
10
14.6151583
20
249.860976
11
14.6151583
21
251.424976
0
LINE
8
DEFAULT_255_2_778
10
14.6151583
20
251.424976
11
15.1265583
21
251.424976
0
LINE
8
DEFAULT_255_2_778
10
15.1575583
20
249.860976
11
15.1575583
21
249.860976
0
LINE
8
DEFAULT_255_2_778
10
15.1649583
20
250.592576
11
14.8212583
21
250.592576
0
LINE
8
DEFAULT_255_2_778
10
14.8212583
20
250.592576
11
14.8212583
21
250.029876
0
LINE
8
DEFAULT_255_2_778
10
14.8212583
20
250.029876
11
15.1617583
21
250.029876
0
LINE
8
DEFAULT_255_2_778
10
15.1652583
20
250.592576
11
15.1649583
21
250.592576
0
LINE
8
DEFAULT_255_2_778
10
14.8212583
20
251.255376
11
14.8212583
21
250.757976
0
LINE
8
DEFAULT_255_2_778
10
14.8212583
20
250.757976
11
15.1326583
21
250.757976
0
LINE
8
DEFAULT_255_2_778
10
15.1263583
20
251.255076
11
14.8212583
21
251.255076
0
LINE
8
DEFAULT_255_2_778
10
14.8212583
20
251.255076
11
14.8212583
21
251.255376
0
LINE
8
DEFAULT_255_2_778
10
16.9976834
20
249.860976
11
16.8484834
21
250.269276
0
LINE
8
DEFAULT_255_2_778
10
16.8484834
20
250.269276
11
16.1930834
21
250.269276
0
LINE
8
DEFAULT_255_2_778
10
16.1930834
20
250.269276
11
16.0459834
21
249.860976
0
LINE
8
DEFAULT_255_2_778
10
16.0459834
20
249.860976
11
15.8332834
21
249.860976
0
LINE
8
DEFAULT_255_2_778
10
15.8332834
20
249.860976
11
16.4304834
21
251.424976
0
LINE
8
DEFAULT_255_2_778
10
16.4304834
20
251.424976
11
16.6108834
21
251.424976
0
LINE
8
DEFAULT_255_2_778
10
16.6108834
20
251.424976
11
17.2090834
21
249.860976
0
LINE
8
DEFAULT_255_2_778
10
17.2090834
20
249.860976
11
16.9974834
21
249.860976
0
LINE
8
DEFAULT_255_2_778
10
16.9974834
20
249.860976
11
16.9976834
21
249.860976
0
LINE
8
DEFAULT_255_2_778
10
16.5206834
20
251.170476
11
16.2552834
21
250.438876
0
LINE
8
DEFAULT_255_2_778
10
16.2552834
20
250.438876
11
16.7870834
21
250.438876
0
LINE
8
DEFAULT_255_2_778
10
16.7870834
20
250.438876
11
16.5206834
21
251.170476
0
LINE
8
DEFAULT_255_2_778
10
16.5206834
20
251.170476
11
16.5206834
21
251.170476
0
LINE
8
DEFAULT_255_2_778
10
18.2825479
20
250.720376
11
18.2825479
21
250.551876
0
LINE
8
DEFAULT_255_2_778
10
18.2825479
20
250.551876
11
17.6261479
21
250.551876
0
LINE
8
DEFAULT_255_2_778
10
17.6261479
20
250.551876
11
17.6261479
21
249.860976
0
LINE
8
DEFAULT_255_2_778
10
17.6261479
20
249.860976
11
17.4197479
21
249.860976
0
LINE
8
DEFAULT_255_2_778
10
17.4197479
20
249.860976
11
17.4197479
21
251.424976
0
LINE
8
DEFAULT_255_2_778
10
17.4197479
20
251.424976
11
18.3886479
21
251.424976
0
LINE
8
DEFAULT_255_2_778
10
18.3886479
20
251.424976
11
18.3886479
21
251.255376
0
LINE
8
DEFAULT_255_2_778
10
18.3886479
20
251.255376
11
17.6258479
21
251.255376
0
LINE
8
DEFAULT_255_2_778
10
17.6258479
20
251.255376
11
17.6258479
21
250.720376
0
LINE
8
DEFAULT_255_2_778
10
17.6258479
20
250.720376
11
18.2822479
21
250.720376
0
LINE
8
DEFAULT_255_2_778
10
18.2822479
20
250.720376
11
18.2825479
21
250.720376
0
ARC
8
DEFAULT_255_2_778
10
15.0103108
20
245.7434737
40
0.8552945
50
76.1694721
51
90.8409146
0
ARC
8
DEFAULT_255_2_778
10
15.1138596
20
246.1552435
40
0.4307149
50
51.7252859
51
76.4505044
0
ARC
8
DEFAULT_255_2_778
10
15.1472427
20
246.219419
40
0.3599101
50
2.0516376
51
49.568485
0
ARC
8
DEFAULT_255_2_778
10
14.9044879
20
246.1827274
40
0.6044708
50
359.9287775
51
4.7044702
0
ARC
8
DEFAULT_255_2_778
10
15.1905852
20
246.1770811
40
0.3184107
50
323.5655309
51
0.8808401
0
ARC
8
DEFAULT_255_2_778
10
15.126576
20
246.2289175
40
0.4007113
50
292.0730058
51
323.0380515
0
ARC
8
DEFAULT_255_2_778
10
15.1863667
20
245.5066151
40
0.3625144
50
36.5844092
51
75.4958647
0
ARC
8
DEFAULT_255_2_778
10
15.1640492
20
245.4954272
40
0.387127
50
358.5862516
51
35.9453674
0
ARC
8
DEFAULT_255_2_778
10
15.1047711
20
245.4711687
40
0.4465296
50
326.9384915
51
1.8874859
0
ARC
8
DEFAULT_255_2_778
10
15.1578143
20
245.4481968
40
0.389663
50
311.2150688
51
325.5143112
0
ARC
8
DEFAULT_255_2_778
10
15.1020008
20
245.5260848
40
0.4851183
50
277.7762105
51
310.1125758
0
ARC
8
DEFAULT_255_2_778
10
15.0332413
20
245.8791397
40
0.8444755
50
269.6958405
51
279.1575444
0
ARC
8
DEFAULT_255_2_778
10
15.0464844
20
245.5568708
40
0.3535536
50
267.8074811
51
300.611103
0
ARC
8
DEFAULT_255_2_778
10
15.0865939
20
245.472131
40
0.2603419
50
302.5107673
51
311.8407921
0
ARC
8
DEFAULT_255_2_778
10
15.0821505
20
245.4700055
40
0.261765
50
312.8757704
51
2.993608
0
ARC
8
DEFAULT_255_2_778
10
15.0278701
20
245.496561
40
0.3159511
50
357.6627379
51
29.1161109
0
ARC
8
DEFAULT_255_2_778
10
15.1001751
20
245.517109
40
0.2433954
50
33.1756711
51
83.684546
0
ARC
8
DEFAULT_255_2_778
10
15.0399601
20
245.2415409
40
0.5247469
50
80.4578303
51
90.3823476
0
ARC
8
DEFAULT_255_2_778
10
15.0173492
20
246.2758141
40
0.3444024
50
267.7550478
51
301.3441056
0
ARC
8
DEFAULT_255_2_778
10
15.0554582
20
246.1967034
40
0.2571579
50
303.2615254
51
309.8844274
0
ARC
8
DEFAULT_255_2_778
10
15.0750826
20
246.1733825
40
0.2266788
50
309.8580632
51
2.425602
0
ARC
8
DEFAULT_255_2_778
10
15.0480948
20
246.1960556
40
0.2538008
50
357.0459537
51
33.3363491
0
ARC
8
DEFAULT_255_2_778
10
15.1203694
20
246.2338385
40
0.1728471
50
36.0398342
51
52.179164
0
ARC
8
DEFAULT_255_2_778
10
15.0554723
20
246.129372
40
0.2954403
50
54.6611069
51
84.8698013
0
ARC
8
DEFAULT_255_2_778
10
15.0007159
20
245.7870861
40
0.6416978
50
82.7326456
51
90.2819342
0
LINE
8
DEFAULT_255_2_778
10
15.0287583
20
245.034676
11
14.4863583
21
245.034676
0
LINE
8
DEFAULT_255_2_778
10
14.4863583
20
245.034676
11
14.4863583
21
246.598676
0
LINE
8
DEFAULT_255_2_778
10
14.4863583
20
246.598676
11
14.9977583
21
246.598676
0
LINE
8
DEFAULT_255_2_778
10
15.0287583
20
245.034676
11
15.0287583
21
245.034676
0
LINE
8
DEFAULT_255_2_778
10
15.0361583
20
245.766276
11
14.6924583
21
245.766276
0
LINE
8
DEFAULT_255_2_778
10
14.6924583
20
245.766276
11
14.6924583
21
245.203576
0
LINE
8
DEFAULT_255_2_778
10
14.6924583
20
245.203576
11
15.0329583
21
245.203576
0
LINE
8
DEFAULT_255_2_778
10
15.0364583
20
245.766276
11
15.0361583
21
245.766276
0
LINE
8
DEFAULT_255_2_778
10
14.6924583
20
246.429076
11
14.6924583
21
245.931676
0
LINE
8
DEFAULT_255_2_778
10
14.6924583
20
245.931676
11
15.0038583
21
245.931676
0
LINE
8
DEFAULT_255_2_778
10
14.9975583
20
246.428776
11
14.6924583
21
246.428776
0
LINE
8
DEFAULT_255_2_778
10
14.6924583
20
246.428776
11
14.6924583
21
246.429076
0
LINE
8
DEFAULT_255_2_778
10
16.8688834
20
245.034676
11
16.7196834
21
245.442976
0
LINE
8
DEFAULT_255_2_778
10
16.7196834
20
245.442976
11
16.0642834
21
245.442976
0
LINE
8
DEFAULT_255_2_778
10
16.0642834
20
245.442976
11
15.9171834
21
245.034676
0
LINE
8
DEFAULT_255_2_778
10
15.9171834
20
245.034676
11
15.7044834
21
245.034676
0
LINE
8
DEFAULT_255_2_778
10
15.7044834
20
245.034676
11
16.3016834
21
246.598676
0
LINE
8
DEFAULT_255_2_778
10
16.3016834
20
246.598676
11
16.4820834
21
246.598676
0
LINE
8
DEFAULT_255_2_778
10
16.4820834
20
246.598676
11
17.0802834
21
245.034676
0
LINE
8
DEFAULT_255_2_778
10
17.0802834
20
245.034676
11
16.8686834
21
245.034676
0
LINE
8
DEFAULT_255_2_778
10
16.8686834
20
245.034676
11
16.8688834
21
245.034676
0
LINE
8
DEFAULT_255_2_778
10
16.3918834
20
246.344176
11
16.1264834
21
245.612576
0
LINE
8
DEFAULT_255_2_778
10
16.1264834
20
245.612576
11
16.6582834
21
245.612576
0
LINE
8
DEFAULT_255_2_778
10
16.6582834
20
245.612576
11
16.3918834
21
246.344176
0
LINE
8
DEFAULT_255_2_778
10
16.3918834
20
246.344176
11
16.3918834
21
246.344176
0
LINE
8
DEFAULT_255_2_778
10
18.2333625
20
246.598676
11
18.2333625
21
246.429076
0
LINE
8
DEFAULT_255_2_778
10
18.2333625
20
246.429076
11
17.7306625
21
246.429076
0
LINE
8
DEFAULT_255_2_778
10
17.7306625
20
246.429076
11
17.7306625
21
245.034676
0
LINE
8
DEFAULT_255_2_778
10
17.7306625
20
245.034676
11
17.5255625
21
245.034676
0
LINE
8
DEFAULT_255_2_778
10
17.5255625
20
245.034676
11
17.5255625
21
246.429076
0
LINE
8
DEFAULT_255_2_778
10
17.5255625
20
246.429076
11
17.0239625
21
246.429076
0
LINE
8
DEFAULT_255_2_778
10
17.0239625
20
246.429076
11
17.0239625
21
246.598676
0
LINE
8
DEFAULT_255_2_778
10
17.0239625
20
246.598676
11
18.2336625
21
246.598676
0
LINE
8
DEFAULT_255_2_778
10
18.2336625
20
246.598676
11
18.2333625
21
246.598676
0
LINE
8
DEFAULT_255_2_778
10
19.5631625
20
246.598676
11
19.5631625
21
246.429076
0
LINE
8
DEFAULT_255_2_778
10
19.5631625
20
246.429076
11
19.0604625
21
246.429076
0
LINE
8
DEFAULT_255_2_778
10
19.0604625
20
246.429076
11
19.0604625
21
245.034676
0
LINE
8
DEFAULT_255_2_778
10
19.0604625
20
245.034676
11
18.8553625
21
245.034676
0
LINE
8
DEFAULT_255_2_778
10
18.8553625
20
245.034676
11
18.8553625
21
246.429076
0
LINE
8
DEFAULT_255_2_778
10
18.8553625
20
246.429076
11
18.3537625
21
246.429076
0
LINE
8
DEFAULT_255_2_778
10
18.3537625
20
246.429076
11
18.3537625
21
246.598676
0
LINE
8
DEFAULT_255_2_778
10
18.3537625
20
246.598676
11
19.5634625
21
246.598676
0
LINE
8
DEFAULT_255_2_778
10
19.5634625
20
246.598676
11
19.5631625
21
246.598676
0
LINE
8
DEFAULT_255_2_778
10
20.3967979
20
246.6061125
11
20.3967979
21
245.0345125
0
LINE
8
DEFAULT_255_2_778
10
20.3967979
20
245.0345125
11
20.1970979
21
245.0345125
0
LINE
8
DEFAULT_255_2_778
10
20.1970979
20
245.0345125
11
20.1970979
21
246.3590125
0
LINE
8
DEFAULT_255_2_778
10
20.1970979
20
246.3590125
11
19.7964979
21
246.2119125
0
LINE
8
DEFAULT_255_2_778
10
19.7964979
20
246.2119125
11
19.7964979
21
246.3923125
0
LINE
8
DEFAULT_255_2_778
10
19.7964979
20
246.3923125
11
20.3658979
21
246.6061125
0
LINE
8
DEFAULT_255_2_778
10
20.3658979
20
246.6061125
11
20.3970979
21
246.6061125
0
LINE
8
DEFAULT_255_2_778
10
20.3970979
20
246.6061125
11
20.3967979
21
246.6061125
0
LINE
8
DEFAULT_255_2_778
10
21.8930479
20
245.894076
11
21.8930479
21
245.725576
0
LINE
8
DEFAULT_255_2_778
10
21.8930479
20
245.725576
11
21.2366479
21
245.725576
0
LINE
8
DEFAULT_255_2_778
10
21.2366479
20
245.725576
11
21.2366479
21
245.034676
0
LINE
8
DEFAULT_255_2_778
10
21.2366479
20
245.034676
11
21.0302479
21
245.034676
0
LINE
8
DEFAULT_255_2_778
10
21.0302479
20
245.034676
11
21.0302479
21
246.598676
0
LINE
8
DEFAULT_255_2_778
10
21.0302479
20
246.598676
11
21.9991479
21
246.598676
0
LINE
8
DEFAULT_255_2_778
10
21.9991479
20
246.598676
11
21.9991479
21
246.429076
0
LINE
8
DEFAULT_255_2_778
10
21.9991479
20
246.429076
11
21.2363479
21
246.429076
0
LINE
8
DEFAULT_255_2_778
10
21.2363479
20
246.429076
11
21.2363479
21
245.894076
0
LINE
8
DEFAULT_255_2_778
10
21.2363479
20
245.894076
11
21.8927479
21
245.894076
0
LINE
8
DEFAULT_255_2_778
10
21.8927479
20
245.894076
11
21.8930479
21
245.894076
0
ARC
8
DEFAULT_255_2_778
10
15.1616108
20
240.4446737
40
0.8552945
50
76.1694721
51
90.8409146
0
ARC
8
DEFAULT_255_2_778
10
15.2651596
20
240.8564435
40
0.4307149
50
51.7252859
51
76.4505044
0
ARC
8
DEFAULT_255_2_778
10
15.2985427
20
240.920619
40
0.3599101
50
2.0516376
51
49.568485
0
ARC
8
DEFAULT_255_2_778
10
15.0557879
20
240.8839274
40
0.6044708
50
359.9287775
51
4.7044702
0
ARC
8
DEFAULT_255_2_778
10
15.3418852
20
240.8782811
40
0.3184107
50
323.5655309
51
0.8808401
0
ARC
8
DEFAULT_255_2_778
10
15.277876
20
240.9301175
40
0.4007113
50
292.0730058
51
323.0380515
0
ARC
8
DEFAULT_255_2_778
10
15.3376667
20
240.2078151
40
0.3625144
50
36.5844092
51
75.4958647
0
ARC
8
DEFAULT_255_2_778
10
15.3153492
20
240.1966272
40
0.387127
50
358.5862516
51
35.9453674
0
ARC
8
DEFAULT_255_2_778
10
15.2560711
20
240.1723687
40
0.4465296
50
326.9384915
51
1.8874859
0
ARC
8
DEFAULT_255_2_778
10
15.3091143
20
240.1493968
40
0.389663
50
311.2150688
51
325.5143112
0
ARC
8
DEFAULT_255_2_778
10
15.2533008
20
240.2272848
40
0.4851183
50
277.7762105
51
310.1125758
0
ARC
8
DEFAULT_255_2_778
10
15.1845413
20
240.5803397
40
0.8444755
50
269.6958405
51
279.1575444
0
ARC
8
DEFAULT_255_2_778
10
15.1977844
20
240.2580708
40
0.3535536
50
267.8074811
51
300.611103
0
ARC
8
DEFAULT_255_2_778
10
15.2378939
20
240.173331
40
0.2603419
50
302.5107673
51
311.8407921
0
ARC
8
DEFAULT_255_2_778
10
15.2334505
20
240.1712055
40
0.261765
50
312.8757704
51
2.993608
0
ARC
8
DEFAULT_255_2_778
10
15.1791701
20
240.197761
40
0.3159511
50
357.6627379
51
29.1161109
0
ARC
8
DEFAULT_255_2_778
10
15.2514751
20
240.218309
40
0.2433954
50
33.1756711
51
83.684546
0
ARC
8
DEFAULT_255_2_778
10
15.1912601
20
239.9427409
40
0.5247469
50
80.4578303
51
90.3823476
0
ARC
8
DEFAULT_255_2_778
10
15.1686492
20
240.9770141
40
0.3444024
50
267.7550478
51
301.3441056
0
ARC
8
DEFAULT_255_2_778
10
15.2067582
20
240.8979034
40
0.2571579
50
303.2615254
51
309.8844274
0
ARC
8
DEFAULT_255_2_778
10
15.2263826
20
240.8745825
40
0.2266788
50
309.8580632
51
2.425602
0
ARC
8
DEFAULT_255_2_778
10
15.1993948
20
240.8972556
40
0.2538008
50
357.0459537
51
33.3363491
0
ARC
8
DEFAULT_255_2_778
10
15.2716694
20
240.9350385
40
0.1728471
50
36.0398342
51
52.179164
0
ARC
8
DEFAULT_255_2_778
10
15.2067723
20
240.830572
40
0.2954403
50
54.6611069
51
84.8698013
0
ARC
8
DEFAULT_255_2_778
10
15.1520159
20
240.4882861
40
0.6416978
50
82.7326456
51
90.2819342
0
LINE
8
DEFAULT_255_2_778
10
15.1800583
20
239.735876
11
14.6376583
21
239.735876
0
LINE
8
DEFAULT_255_2_778
10
14.6376583
20
239.735876
11
14.6376583
21
241.299876
0
LINE
8
DEFAULT_255_2_778
10
14.6376583
20
241.299876
11
15.1490583
21
241.299876
0
LINE
8
DEFAULT_255_2_778
10
15.1800583
20
239.735876
11
15.1800583
21
239.735876
0
LINE
8
DEFAULT_255_2_778
10
15.1874583
20
240.467476
11
14.8437583
21
240.467476
0
LINE
8
DEFAULT_255_2_778
10
14.8437583
20
240.467476
11
14.8437583
21
239.904776
0
LINE
8
DEFAULT_255_2_778
10
14.8437583
20
239.904776
11
15.1842583
21
239.904776
0
LINE
8
DEFAULT_255_2_778
10
15.1877583
20
240.467476
11
15.1874583
21
240.467476
0
LINE
8
DEFAULT_255_2_778
10
14.8437583
20
241.130276
11
14.8437583
21
240.632876
0
LINE
8
DEFAULT_255_2_778
10
14.8437583
20
240.632876
11
15.1551583
21
240.632876
0
LINE
8
DEFAULT_255_2_778
10
15.1488583
20
241.129976
11
14.8437583
21
241.129976
0
LINE
8
DEFAULT_255_2_778
10
14.8437583
20
241.129976
11
14.8437583
21
241.130276
0
LINE
8
DEFAULT_255_2_778
10
17.0201834
20
239.735876
11
16.8709834
21
240.144176
0
LINE
8
DEFAULT_255_2_778
10
16.8709834
20
240.144176
11
16.2155834
21
240.144176
0
LINE
8
DEFAULT_255_2_778
10
16.2155834
20
240.144176
11
16.0684834
21
239.735876
0
LINE
8
DEFAULT_255_2_778
10
16.0684834
20
239.735876
11
15.8557834
21
239.735876
0
LINE
8
DEFAULT_255_2_778
10
15.8557834
20
239.735876
11
16.4529834
21
241.299876
0
LINE
8
DEFAULT_255_2_778
10
16.4529834
20
241.299876
11
16.6333834
21
241.299876
0
LINE
8
DEFAULT_255_2_778
10
16.6333834
20
241.299876
11
17.2315834
21
239.735876
0
LINE
8
DEFAULT_255_2_778
10
17.2315834
20
239.735876
11
17.0199834
21
239.735876
0
LINE
8
DEFAULT_255_2_778
10
17.0199834
20
239.735876
11
17.0201834
21
239.735876
0
LINE
8
DEFAULT_255_2_778
10
16.5431834
20
241.045376
11
16.2777834
21
240.313776
0
LINE
8
DEFAULT_255_2_778
10
16.2777834
20
240.313776
11
16.8095834
21
240.313776
0
LINE
8
DEFAULT_255_2_778
10
16.8095834
20
240.313776
11
16.5431834
21
241.045376
0
LINE
8
DEFAULT_255_2_778
10
16.5431834
20
241.045376
11
16.5431834
21
241.045376
0
LINE
8
DEFAULT_255_2_778
10
18.3846625
20
241.299876
11
18.3846625
21
241.130276
0
LINE
8
DEFAULT_255_2_778
10
18.3846625
20
241.130276
11
17.8819625
21
241.130276
0
LINE
8
DEFAULT_255_2_778
10
17.8819625
20
241.130276
11
17.8819625
21
239.735876
0
LINE
8
DEFAULT_255_2_778
10
17.8819625
20
239.735876
11
17.6768625
21
239.735876
0
LINE
8
DEFAULT_255_2_778
10
17.6768625
20
239.735876
11
17.6768625
21
241.130276
0
LINE
8
DEFAULT_255_2_778
10
17.6768625
20
241.130276
11
17.1752625
21
241.130276
0
LINE
8
DEFAULT_255_2_778
10
17.1752625
20
241.130276
11
17.1752625
21
241.299876
0
LINE
8
DEFAULT_255_2_778
10
17.1752625
20
241.299876
11
18.3849625
21
241.299876
0
LINE
8
DEFAULT_255_2_778
10
18.3849625
20
241.299876
11
18.3846625
21
241.299876
0
LINE
8
DEFAULT_255_2_778
10
19.7144625
20
241.299876
11
19.7144625
21
241.130276
0
LINE
8
DEFAULT_255_2_778
10
19.7144625
20
241.130276
11
19.2117625
21
241.130276
0
LINE
8
DEFAULT_255_2_778
10
19.2117625
20
241.130276
11
19.2117625
21
239.735876
0
LINE
8
DEFAULT_255_2_778
10
19.2117625
20
239.735876
11
19.0066625
21
239.735876
0
LINE
8
DEFAULT_255_2_778
10
19.0066625
20
239.735876
11
19.0066625
21
241.130276
0
LINE
8
DEFAULT_255_2_778
10
19.0066625
20
241.130276
11
18.5050625
21
241.130276
0
LINE
8
DEFAULT_255_2_778
10
18.5050625
20
241.130276
11
18.5050625
21
241.299876
0
LINE
8
DEFAULT_255_2_778
10
18.5050625
20
241.299876
11
19.7147625
21
241.299876
0
LINE
8
DEFAULT_255_2_778
10
19.7147625
20
241.299876
11
19.7144625
21
241.299876
0
ARC
8
DEFAULT_255_2_778
10
18.9882658
20
241.7731489
40
1.9412887
50
318.2385785
51
323.3426943
0
ARC
8
DEFAULT_255_2_778
10
19.9437536
20
241.0645953
40
0.7517532
50
323.1875078
51
331.1526994
0
ARC
8
DEFAULT_255_2_778
10
20.2787451
20
240.880021
40
0.3692785
50
331.1596141
51
359.7782277
0
ARC
8
DEFAULT_255_2_778
10
20.3679119
20
240.8892971
40
0.2803135
50
357.8112882
51
42.6992444
0
ARC
8
DEFAULT_255_2_778
10
20.3879296
20
240.8988489
40
0.2592073
50
44.1483589
51
92.5890038
0
ARC
8
DEFAULT_255_2_778
10
20.3622789
20
240.8302217
40
0.3278665
50
87.5628675
51
123.9877268
0
ARC
8
DEFAULT_255_2_778
10
20.3294873
20
240.8944826
40
0.2564017
50
125.9396761
51
135.7517371
0
ARC
8
DEFAULT_255_2_778
10
20.3747506
20
240.8633656
40
0.3106763
50
137.4659363
51
180.0874013
0
ARC
8
DEFAULT_255_2_778
10
20.5830432
20
240.8389092
40
0.5195224
50
177.3541382
51
180.0239967
0
ARC
8
DEFAULT_255_2_778
10
20.3258988
20
240.8572386
40
0.4614508
50
134.2295438
51
182.3034896
0
ARC
8
DEFAULT_255_2_778
10
20.3387546
20
240.8267846
40
0.492387
50
92.6531988
51
132.829453
0
ARC
8
DEFAULT_255_2_778
10
20.3754443
20
240.5664386
40
0.7545535
50
89.9410345
51
94.5214021
0
ARC
8
DEFAULT_255_2_778
10
20.3894383
20
240.7398054
40
0.5813366
50
67.5023965
51
91.30281
0
ARC
8
DEFAULT_255_2_778
10
20.4499234
20
240.905204
40
0.4054488
50
48.0381452
51
66.4556145
0
ARC
8
DEFAULT_255_2_778
10
20.457991
20
240.9186376
40
0.3900767
50
357.5836462
51
47.5999572
0
ARC
8
DEFAULT_255_2_778
10
20.3470594
20
240.9151785
40
0.5008298
50
334.0205076
51
358.5141181
0
ARC
8
DEFAULT_255_2_778
10
19.8371143
20
241.1483888
40
1.0614921
50
322.6545009
51
334.761981
0
ARC
8
DEFAULT_255_2_778
10
19.1558981
20
241.6507982
40
1.9078752
50
317.1009824
51
323.0697709
0
LINE
8
DEFAULT_255_2_778
10
20.9197208
20
239.8977916
11
20.9197208
21
239.7355916
0
LINE
8
DEFAULT_255_2_778
10
20.9197208
20
239.7355916
11
19.8950208
21
239.7355916
0
LINE
8
DEFAULT_255_2_778
10
19.8950208
20
239.7355916
11
19.8950208
21
239.8784916
0
LINE
8
DEFAULT_255_2_778
10
19.8950208
20
239.8784916
11
20.4363208
21
240.4801916
0
LINE
8
DEFAULT_255_2_778
10
20.0635208
20
240.8386916
11
19.8648208
21
240.8386916
0
LINE
8
DEFAULT_255_2_778
10
20.5535208
20
240.3520916
11
20.1347208
21
239.8977916
0
LINE
8
DEFAULT_255_2_778
10
20.1347208
20
239.8977916
11
20.9200208
21
239.8977916
0
LINE
8
DEFAULT_255_2_778
10
20.9200208
20
239.8977916
11
20.9197208
21
239.8977916
0
LINE
8
DEFAULT_255_2_778
10
22.0444479
20
240.595276
11
22.0444479
21
240.426776
0
LINE
8
DEFAULT_255_2_778
10
22.0444479
20
240.426776
11
21.3880479
21
240.426776
0
LINE
8
DEFAULT_255_2_778
10
21.3880479
20
240.426776
11
21.3880479
21
239.735876
0
LINE
8
DEFAULT_255_2_778
10
21.3880479
20
239.735876
11
21.1816479
21
239.735876
0
LINE
8
DEFAULT_255_2_778
10
21.1816479
20
239.735876
11
21.1816479
21
241.299876
0
LINE
8
DEFAULT_255_2_778
10
21.1816479
20
241.299876
11
22.1505479
21
241.299876
0
LINE
8
DEFAULT_255_2_778
10
22.1505479
20
241.299876
11
22.1505479
21
241.130276
0
LINE
8
DEFAULT_255_2_778
10
22.1505479
20
241.130276
11
21.3877479
21
241.130276
0
LINE
8
DEFAULT_255_2_778
10
21.3877479
20
241.130276
11
21.3877479
21
240.595276
0
LINE
8
DEFAULT_255_2_778
10
21.3877479
20
240.595276
11
22.0441479
21
240.595276
0
LINE
8
DEFAULT_255_2_778
10
22.0441479
20
240.595276
11
22.0444479
21
240.595276
0
ARC
8
DEFAULT_255_2_778
10
15.0353539
20
225.5928237
40
0.7110908
50
60.8042055
51
91.1307786
0
ARC
8
DEFAULT_255_2_778
10
15.0787929
20
225.6844655
40
0.6099397
50
26.5269541
51
60.1671128
0
ARC
8
DEFAULT_255_2_778
10
14.8844084
20
225.5889934
40
0.8265011
50
0.1645926
51
26.4302783
0
ARC
8
DEFAULT_255_2_778
10
14.6244409
20
225.5690724
40
1.086694
50
0.2901762
51
1.1755951
0
ARC
8
DEFAULT_255_2_778
10
14.8359577
20
225.4608372
40
0.875271
50
338.8892408
51
0.8993865
0
ARC
8
DEFAULT_255_2_778
10
14.996336
20
225.4092168
40
0.7071294
50
332.8625304
51
338.1107363
0
ARC
8
DEFAULT_255_2_778
10
15.0874766
20
225.3560191
40
0.6017848
50
299.2717619
51
333.4118739
0
ARC
8
DEFAULT_255_2_778
10
15.0236722
20
225.4898471
40
0.7497855
50
270.4067128
51
298.5245208
0
ARC
8
DEFAULT_255_2_778
10
15.0022419
20
225.738577
40
0.9988548
50
270.5953613
51
271.5347495
0
ARC
8
DEFAULT_255_2_778
10
15.0167344
20
225.4471991
40
0.5389975
50
268.5420833
51
296.1588531
0
ARC
8
DEFAULT_255_2_778
10
15.0615077
20
225.3352045
40
0.4188359
50
297.4156692
51
318.2988531
0
ARC
8
DEFAULT_255_2_778
10
14.9820377
20
225.3932238
40
0.5168552
50
319.3574003
51
351.0105497
0
ARC
8
DEFAULT_255_2_778
10
14.6005594
20
225.4728026
40
0.9062812
50
349.8096208
51
0.3776459
0
ARC
8
DEFAULT_255_2_778
10
14.6946981
20
225.582899
40
0.812224
50
359.0954049
51
16.4159448
0
ARC
8
DEFAULT_255_2_778
10
15.007114
20
225.6727382
40
0.487159
50
16.6646272
51
39.7391997
0
ARC
8
DEFAULT_255_2_778
10
15.0563167
20
225.701054
40
0.4313305
50
41.0253137
51
88.3406295
0
ARC
8
DEFAULT_255_2_778
10
15.0208577
20
225.4556775
40
0.6782231
50
85.9459051
51
89.513126
0
LINE
8
DEFAULT_255_2_778
10
15.0126208
20
224.739776
11
14.5797208
21
224.739776
0
LINE
8
DEFAULT_255_2_778
10
14.5797208
20
224.739776
11
14.5797208
21
226.303776
0
LINE
8
DEFAULT_255_2_778
10
14.5797208
20
226.303776
11
15.0213208
21
226.303776
0
LINE
8
DEFAULT_255_2_778
10
15.7111208
20
225.574576
11
15.7111208
21
225.474576
0
LINE
8
DEFAULT_255_2_778
10
15.0126208
20
224.739776
11
15.0126208
21
224.739776
0
LINE
8
DEFAULT_255_2_778
10
15.0266208
20
226.134176
11
14.7861208
21
226.134176
0
LINE
8
DEFAULT_255_2_778
10
14.7861208
20
226.134176
11
14.7861208
21
224.908376
0
LINE
8
DEFAULT_255_2_778
10
14.7861208
20
224.908376
11
15.0030208
21
224.908376
0
LINE
8
DEFAULT_255_2_778
10
15.5068208
20
225.478776
11
15.5068208
21
225.570076
0
LINE
8
DEFAULT_255_2_778
10
15.0266208
20
226.133876
11
15.0266208
21
226.134176
0
ARC
8
DEFAULT_255_2_778
10
16.5159365
20
225.2995749
40
0.6602712
50
330.6214152
51
354.4752908
0
ARC
8
DEFAULT_255_2_778
10
16.6644586
20
225.2252106
40
0.4944336
50
311.1851885
51
329.6872643
0
ARC
8
DEFAULT_255_2_778
10
16.6310343
20
225.2774765
40
0.555855
50
275.0428546
51
310.2304331
0
ARC
8
DEFAULT_255_2_778
10
16.582159
20
225.5787763
40
0.860571
50
269.8722761
51
276.5211737
0
ARC
8
DEFAULT_255_2_778
10
16.5602263
20
225.269326
40
0.551482
50
219.7202247
51
272.0798317
0
ARC
8
DEFAULT_255_2_778
10
16.6842519
20
225.3645229
40
0.7077396
50
188.6400718
51
219.2317084
0
ARC
8
DEFAULT_255_2_778
10
17.0795777
20
225.4431993
40
1.1105508
50
179.7158285
51
189.5891529
0
ARC
8
DEFAULT_255_2_778
10
16.9059441
20
225.6123012
40
0.9369977
50
160.923978
51
180.8129267
0
ARC
8
DEFAULT_255_2_778
10
16.7158157
20
225.6680833
40
0.7391393
50
154.8330913
51
160.1938018
0
ARC
8
DEFAULT_255_2_778
10
16.5778029
20
225.7440605
40
0.5820052
50
122.2262325
51
155.8248806
0
ARC
8
DEFAULT_255_2_778
10
16.5855946
20
225.7103799
40
0.6147574
50
88.8212959
51
121.1665536
0
ARC
8
DEFAULT_255_2_778
10
16.6116386
20
225.6788515
40
0.6462947
50
66.8977029
51
91.1878521
0
ARC
8
DEFAULT_255_2_778
10
16.6664538
20
225.8282366
40
0.4874502
50
47.1851015
51
65.9343459
0
ARC
8
DEFAULT_255_2_778
10
16.614744
20
225.7842592
40
0.554912
50
9.0255149
51
46.3545694
0
ARC
8
DEFAULT_255_2_778
10
16.3459628
20
225.7179083
40
0.8311025
50
5.7106776
51
10.6364667
0
ARC
8
DEFAULT_255_2_778
10
16.3636828
20
225.7261868
40
0.6063422
50
7.0500776
51
24.7676213
0
ARC
8
DEFAULT_255_2_778
10
16.6345097
20
225.8481518
40
0.3093434
50
25.2702977
51
46.1689136
0
ARC
8
DEFAULT_255_2_778
10
16.6304768
20
225.8231876
40
0.330458
50
48.6628177
51
88.0297545
0
ARC
8
DEFAULT_255_2_778
10
16.5986098
20
225.5905366
40
0.5645709
50
85.6086554
51
90.0679057
0
ARC
8
DEFAULT_255_2_778
10
16.5823875
20
225.7864247
40
0.3690105
50
87.5843669
51
142.8819915
0
ARC
8
DEFAULT_255_2_778
10
16.7167488
20
225.694968
40
0.5314023
50
143.7612334
51
170.2251687
0
ARC
8
DEFAULT_255_2_778
10
17.1660307
20
225.6016765
40
0.9901244
50
169.3189531
51
180.478521
0
ARC
8
DEFAULT_255_2_778
10
17.0536499
20
225.4293177
40
0.8778024
50
179.165175
51
195.4418356
0
ARC
8
DEFAULT_255_2_778
10
16.7188922
20
225.3398656
40
0.5313195
50
195.7555909
51
214.7510403
0
ARC
8
DEFAULT_255_2_778
10
16.5666635
20
225.2301979
40
0.3437471
50
214.1951793
51
272.2135878
0
ARC
8
DEFAULT_255_2_778
10
16.5925498
20
225.3798441
40
0.493298
50
268.5353095
51
290.5254857
0
ARC
8
DEFAULT_255_2_778
10
16.6596061
20
225.1844001
40
0.2868072
50
291.6698575
51
309.9422433
0
ARC
8
DEFAULT_255_2_778
10
16.6226542
20
225.2057769
40
0.3272465
50
312.5004563
51
343.2259734
0
ARC
8
DEFAULT_255_2_778
10
16.2484996
20
225.3416051
40
0.7250166
50
341.4816957
51
351.6011817
0
LINE
8
DEFAULT_255_2_778
10
16.9657406
20
225.2360073
11
17.1731406
21
225.2360073
0
LINE
8
DEFAULT_255_2_778
10
15.9690406
20
225.4487073
11
15.9690406
21
225.5990073
0
LINE
8
DEFAULT_255_2_778
10
17.1729406
20
225.8006073
11
16.9654406
21
225.8006073
0
LINE
8
DEFAULT_255_2_778
10
16.1759406
20
225.5934073
11
16.1759406
21
225.4421073
0
LINE
8
DEFAULT_255_2_778
10
16.9657406
20
225.2357073
11
16.9657406
21
225.2360073
0
ARC
8
DEFAULT_255_2_778
10
18.4919644
20
225.2572312
40
0.5042339
50
89.0222497
51
120.0497067
0
ARC
8
DEFAULT_255_2_778
10
18.5165138
20
225.3155533
40
0.4461234
50
52.3987475
51
92.0482591
0
ARC
8
DEFAULT_255_2_778
10
18.5246381
20
225.3403832
40
0.4215842
50
41.5650455
51
51.2144449
0
ARC
8
DEFAULT_255_2_778
10
18.4542389
20
225.2896443
40
0.5079962
50
5.1607514
51
40.5786912
0
ARC
8
DEFAULT_255_2_778
10
18.1560824
20
225.2403126
40
0.8096889
50
359.8569919
51
6.7398387
0
ARC
8
DEFAULT_255_2_778
10
18.328206
20
225.2252338
40
0.6376965
50
338.6529978
51
1.1733006
0
ARC
8
DEFAULT_255_2_778
10
18.5113338
20
225.1608914
40
0.4437619
50
316.8842754
51
337.7836087
0
ARC
8
DEFAULT_255_2_778
10
18.5124783
20
225.1698404
40
0.4491024
50
273.2462429
51
315.9510257
0
ARC
8
DEFAULT_255_2_778
10
18.4717333
20
225.4336386
40
0.7152479
50
269.9147275
51
275.3087423
0
ARC
8
DEFAULT_255_2_778
10
18.4564343
20
225.248223
40
0.5300225
50
241.3786893
51
271.5389418
0
ARC
8
DEFAULT_255_2_778
10
18.4186096
20
225.1595638
40
0.4341773
50
228.7380783
51
240.155724
0
ARC
8
DEFAULT_255_2_778
10
18.4358248
20
225.1683498
40
0.4521916
50
184.6541694
51
227.8325566
0
ARC
8
DEFAULT_255_2_778
10
18.6549352
20
225.2117051
40
0.6745769
50
185.1381542
51
186.8148939
0
ARC
8
DEFAULT_255_2_778
10
18.511316
20
225.1842317
40
0.3417384
50
185.5313024
51
217.3877413
0
ARC
8
DEFAULT_255_2_778
10
18.4260362
20
225.1296869
40
0.241008
50
219.3956053
51
228.6044599
0
ARC
8
DEFAULT_255_2_778
10
18.4564836
20
225.1770291
40
0.2967767
50
230.2388759
51
272.7396281
0
ARC
8
DEFAULT_255_2_778
10
18.4836961
20
225.1481557
40
0.267881
50
267.2125469
51
319.7556836
0
ARC
8
DEFAULT_255_2_778
10
18.4054929
20
225.197054
40
0.3594064
50
321.8603446
51
356.6769827
0
ARC
8
DEFAULT_255_2_778
10
18.1430677
20
225.2350037
40
0.6240021
50
354.5945583
51
0.1090739
0
ARC
8
DEFAULT_255_2_778
10
18.3884289
20
225.2504135
40
0.3789068
50
357.848959
51
33.3149548
0
ARC
8
DEFAULT_255_2_778
10
18.4532278
20
225.2824928
40
0.307263
50
34.9528905
51
41.9999533
0
ARC
8
DEFAULT_255_2_778
10
18.4662939
20
225.2924408
40
0.2908995
50
42.2658807
51
92.3691567
0
ARC
8
DEFAULT_255_2_778
10
18.441611
20
225.2165245
40
0.3667856
50
88.022334
51
115.2144487
0
ARC
8
DEFAULT_255_2_778
10
18.3909748
20
225.342355
40
0.231504
50
117.1435681
51
127.4299505
0
LINE
8
DEFAULT_255_2_778
10
18.1976688
20
225.4830916
11
18.0386688
21
225.5237916
0
LINE
8
DEFAULT_255_2_778
10
18.0386688
20
225.5237916
11
18.1179688
21
226.3037916
0
LINE
8
DEFAULT_255_2_778
10
18.1179688
20
226.3037916
11
18.9194688
21
226.3037916
0
LINE
8
DEFAULT_255_2_778
10
18.9194688
20
226.3037916
11
18.9194688
21
226.1201916
0
LINE
8
DEFAULT_255_2_778
10
18.9194688
20
226.1201916
11
18.2867688
21
226.1201916
0
LINE
8
DEFAULT_255_2_778
10
18.2867688
20
226.1201916
11
18.2394688
21
225.6936916
0
LINE
8
DEFAULT_255_2_778
10
17.9830688
20
225.1512916
11
18.1711688
21
225.1512916
0
LINE
8
DEFAULT_255_2_778
10
18.2502688
20
225.5261916
11
18.1976688
21
225.4832916
0
LINE
8
DEFAULT_255_2_778
10
18.1976688
20
225.4832916
11
18.1976688
21
225.4830916
0
LINE
8
DEFAULT_255_2_778
10
19.3075813
20
226.303776
11
19.7523813
21
225.013676
0
LINE
8
DEFAULT_255_2_778
10
19.7523813
20
225.013676
11
20.1991813
21
226.303776
0
LINE
8
DEFAULT_255_2_778
10
20.1991813
20
226.303776
11
20.4248813
21
226.303776
0
LINE
8
DEFAULT_255_2_778
10
20.4248813
20
226.303776
11
19.8449813
21
224.739776
0
LINE
8
DEFAULT_255_2_778
10
19.8449813
20
224.739776
11
19.6623813
21
224.739776
0
LINE
8
DEFAULT_255_2_778
10
19.6623813
20
224.739776
11
19.0834813
21
226.303776
0
LINE
8
DEFAULT_255_2_778
10
19.0834813
20
226.303776
11
19.3080813
21
226.303776
0
LINE
8
DEFAULT_255_2_778
10
19.3080813
20
226.303776
11
19.3075813
21
226.303776
0
ARC
8
DEFAULT_255_2_778
10
15.0618539
20
220.5544237
40
0.7110908
50
60.8042055
51
91.1307786
0
ARC
8
DEFAULT_255_2_778
10
15.1052929
20
220.6460655
40
0.6099397
50
26.5269541
51
60.1671128
0
ARC
8
DEFAULT_255_2_778
10
14.9109084
20
220.5505934
40
0.8265011
50
0.1645926
51
26.4302783
0
ARC
8
DEFAULT_255_2_778
10
14.6509409
20
220.5306724
40
1.086694
50
0.2901762
51
1.1755951
0
ARC
8
DEFAULT_255_2_778
10
14.8624577
20
220.4224372
40
0.875271
50
338.8892408
51
0.8993865
0
ARC
8
DEFAULT_255_2_778
10
15.022836
20
220.3708168
40
0.7071294
50
332.8625304
51
338.1107363
0
ARC
8
DEFAULT_255_2_778
10
15.1139766
20
220.3176191
40
0.6017848
50
299.2717619
51
333.4118739
0
ARC
8
DEFAULT_255_2_778
10
15.0501722
20
220.4514471
40
0.7497855
50
270.4067128
51
298.5245208
0
ARC
8
DEFAULT_255_2_778
10
15.0287419
20
220.700177
40
0.9988548
50
270.5953613
51
271.5347495
0
ARC
8
DEFAULT_255_2_778
10
15.0432344
20
220.4087991
40
0.5389975
50
268.5420833
51
296.1588531
0
ARC
8
DEFAULT_255_2_778
10
15.0880077
20
220.2968045
40
0.4188359
50
297.4156692
51
318.2988531
0
ARC
8
DEFAULT_255_2_778
10
15.0085377
20
220.3548238
40
0.5168552
50
319.3574003
51
351.0105497
0
ARC
8
DEFAULT_255_2_778
10
14.6270594
20
220.4344026
40
0.9062812
50
349.8096208
51
0.3776459
0
ARC
8
DEFAULT_255_2_778
10
14.7211981
20
220.544499
40
0.812224
50
359.0954049
51
16.4159448
0
ARC
8
DEFAULT_255_2_778
10
15.033614
20
220.6343382
40
0.487159
50
16.6646272
51
39.7391997
0
ARC
8
DEFAULT_255_2_778
10
15.0828167
20
220.662654
40
0.4313305
50
41.0253137
51
88.3406295
0
ARC
8
DEFAULT_255_2_778
10
15.0473577
20
220.4172775
40
0.6782231
50
85.9459051
51
89.513126
0
LINE
8
DEFAULT_255_2_778
10
15.0391208
20
219.701376
11
14.6062208
21
219.701376
0
LINE
8
DEFAULT_255_2_778
10
14.6062208
20
219.701376
11
14.6062208
21
221.265376
0
LINE
8
DEFAULT_255_2_778
10
14.6062208
20
221.265376
11
15.0478208
21
221.265376
0
LINE
8
DEFAULT_255_2_778
10
15.7376208
20
220.536176
11
15.7376208
21
220.436176
0
LINE
8
DEFAULT_255_2_778
10
15.0391208
20
219.701376
11
15.0391208
21
219.701376
0
LINE
8
DEFAULT_255_2_778
10
15.0531208
20
221.095776
11
14.8126208
21
221.095776
0
LINE
8
DEFAULT_255_2_778
10
14.8126208
20
221.095776
11
14.8126208
21
219.869976
0
LINE
8
DEFAULT_255_2_778
10
14.8126208
20
219.869976
11
15.0295208
21
219.869976
0
LINE
8
DEFAULT_255_2_778
10
15.5333208
20
220.440376
11
15.5333208
21
220.531676
0
LINE
8
DEFAULT_255_2_778
10
15.0531208
20
221.095476
11
15.0531208
21
221.095776
0
ARC
8
DEFAULT_255_2_778
10
16.5424365
20
220.2610749
40
0.6602712
50
330.6214152
51
354.4752908
0
ARC
8
DEFAULT_255_2_778
10
16.6909586
20
220.1867106
40
0.4944336
50
311.1851885
51
329.6872643
0
ARC
8
DEFAULT_255_2_778
10
16.6575343
20
220.2389765
40
0.555855
50
275.0428546
51
310.2304331
0
ARC
8
DEFAULT_255_2_778
10
16.608659
20
220.5402763
40
0.860571
50
269.8722761
51
276.5211737
0
ARC
8
DEFAULT_255_2_778
10
16.5867263
20
220.230826
40
0.551482
50
219.7202247
51
272.0798317
0
ARC
8
DEFAULT_255_2_778
10
16.7107519
20
220.3260229
40
0.7077396
50
188.6400718
51
219.2317084
0
ARC
8
DEFAULT_255_2_778
10
17.1060777
20
220.4046993
40
1.1105508
50
179.7158285
51
189.5891529
0
ARC
8
DEFAULT_255_2_778
10
16.9324441
20
220.5738012
40
0.9369977
50
160.923978
51
180.8129267
0
ARC
8
DEFAULT_255_2_778
10
16.7423157
20
220.6295833
40
0.7391393
50
154.8330913
51
160.1938018
0
ARC
8
DEFAULT_255_2_778
10
16.6043029
20
220.7055605
40
0.5820052
50
122.2262325
51
155.8248806
0
ARC
8
DEFAULT_255_2_778
10
16.6120946
20
220.6718799
40
0.6147574
50
88.8212959
51
121.1665536
0
ARC
8
DEFAULT_255_2_778
10
16.6381386
20
220.6403515
40
0.6462947
50
66.8977029
51
91.1878521
0
ARC
8
DEFAULT_255_2_778
10
16.6929538
20
220.7897366
40
0.4874502
50
47.1851015
51
65.9343459
0
ARC
8
DEFAULT_255_2_778
10
16.641244
20
220.7457592
40
0.554912
50
9.0255149
51
46.3545694
0
ARC
8
DEFAULT_255_2_778
10
16.3724628
20
220.6794083
40
0.8311025
50
5.7106776
51
10.6364667
0
ARC
8
DEFAULT_255_2_778
10
16.3901828
20
220.6876868
40
0.6063422
50
7.0500776
51
24.7676213
0
ARC
8
DEFAULT_255_2_778
10
16.6610097
20
220.8096518
40
0.3093434
50
25.2702977
51
46.1689136
0
ARC
8
DEFAULT_255_2_778
10
16.6569768
20
220.7846876
40
0.330458
50
48.6628177
51
88.0297545
0
ARC
8
DEFAULT_255_2_778
10
16.6251098
20
220.5520366
40
0.5645709
50
85.6086554
51
90.0679057
0
ARC
8
DEFAULT_255_2_778
10
16.6088875
20
220.7479247
40
0.3690105
50
87.5843669
51
142.8819915
0
ARC
8
DEFAULT_255_2_778
10
16.7432488
20
220.656468
40
0.5314023
50
143.7612334
51
170.2251687
0
ARC
8
DEFAULT_255_2_778
10
17.1925307
20
220.5631765
40
0.9901244
50
169.3189531
51
180.478521
0
ARC
8
DEFAULT_255_2_778
10
17.0801499
20
220.3908177
40
0.8778024
50
179.165175
51
195.4418356
0
ARC
8
DEFAULT_255_2_778
10
16.7453922
20
220.3013656
40
0.5313195
50
195.7555909
51
214.7510403
0
ARC
8
DEFAULT_255_2_778
10
16.5931635
20
220.1916979
40
0.3437471
50
214.1951793
51
272.2135878
0
ARC
8
DEFAULT_255_2_778
10
16.6190498
20
220.3413441
40
0.493298
50
268.5353095
51
290.5254857
0
ARC
8
DEFAULT_255_2_778
10
16.6861061
20
220.1459001
40
0.2868072
50
291.6698575
51
309.9422433
0
ARC
8
DEFAULT_255_2_778
10
16.6491542
20
220.1672769
40
0.3272465
50
312.5004563
51
343.2259734
0
ARC
8
DEFAULT_255_2_778
10
16.2749996
20
220.3031051
40
0.7250166
50
341.4816957
51
351.6011817
0
LINE
8
DEFAULT_255_2_778
10
16.9922406
20
220.1975073
11
17.1996406
21
220.1975073
0
LINE
8
DEFAULT_255_2_778
10
15.9955406
20
220.4102073
11
15.9955406
21
220.5605073
0
LINE
8
DEFAULT_255_2_778
10
17.1994406
20
220.7621073
11
16.9919406
21
220.7621073
0
LINE
8
DEFAULT_255_2_778
10
16.2024406
20
220.5549073
11
16.2024406
21
220.4036073
0
LINE
8
DEFAULT_255_2_778
10
16.9922406
20
220.1972073
11
16.9922406
21
220.1975073
0
ARC
8
DEFAULT_255_2_778
10
17.0673658
20
221.7386489
40
1.9412887
50
318.2385785
51
323.3426943
0
ARC
8
DEFAULT_255_2_778
10
18.0228536
20
221.0300953
40
0.7517532
50
323.1875078
51
331.1526994
0
ARC
8
DEFAULT_255_2_778
10
18.3578451
20
220.845521
40
0.3692785
50
331.1596141
51
359.7782277
0
ARC
8
DEFAULT_255_2_778
10
18.4470119
20
220.8547971
40
0.2803135
50
357.8112882
51
42.6992444
0
ARC
8
DEFAULT_255_2_778
10
18.4670296
20
220.8643489
40
0.2592073
50
44.1483589
51
92.5890038
0
ARC
8
DEFAULT_255_2_778
10
18.4413789
20
220.7957217
40
0.3278665
50
87.5628675
51
123.9877268
0
ARC
8
DEFAULT_255_2_778
10
18.4085873
20
220.8599826
40
0.2564017
50
125.9396761
51
135.7517371
0
ARC
8
DEFAULT_255_2_778
10
18.4538506
20
220.8288656
40
0.3106763
50
137.4659363
51
180.0874013
0
ARC
8
DEFAULT_255_2_778
10
18.6621432
20
220.8044092
40
0.5195224
50
177.3541382
51
180.0239967
0
ARC
8
DEFAULT_255_2_778
10
18.4049988
20
220.8227386
40
0.4614508
50
134.2295438
51
182.3034896
0
ARC
8
DEFAULT_255_2_778
10
18.4178546
20
220.7922846
40
0.492387
50
92.6531988
51
132.829453
0
ARC
8
DEFAULT_255_2_778
10
18.4545443
20
220.5319386
40
0.7545535
50
89.9410345
51
94.5214021
0
ARC
8
DEFAULT_255_2_778
10
18.4685383
20
220.7053054
40
0.5813366
50
67.5023965
51
91.30281
0
ARC
8
DEFAULT_255_2_778
10
18.5290234
20
220.870704
40
0.4054488
50
48.0381452
51
66.4556145
0
ARC
8
DEFAULT_255_2_778
10
18.537091
20
220.8841376
40
0.3900767
50
357.5836462
51
47.5999572
0
ARC
8
DEFAULT_255_2_778
10
18.4261594
20
220.8806785
40
0.5008298
50
334.0205076
51
358.5141181
0
ARC
8
DEFAULT_255_2_778
10
17.9162143
20
221.1138888
40
1.0614921
50
322.6545009
51
334.761981
0
ARC
8
DEFAULT_255_2_778
10
17.2349981
20
221.6162982
40
1.9078752
50
317.1009824
51
323.0697709
0
LINE
8
DEFAULT_255_2_778
10
18.9988208
20
219.8632916
11
18.9988208
21
219.7010916
0
LINE
8
DEFAULT_255_2_778
10
18.9988208
20
219.7010916
11
17.9741208
21
219.7010916
0
LINE
8
DEFAULT_255_2_778
10
17.9741208
20
219.7010916
11
17.9741208
21
219.8439916
0
LINE
8
DEFAULT_255_2_778
10
17.9741208
20
219.8439916
11
18.5154208
21
220.4456916
0
LINE
8
DEFAULT_255_2_778
10
18.1426208
20
220.8041916
11
17.9439208
21
220.8041916
0
LINE
8
DEFAULT_255_2_778
10
18.6326208
20
220.3175916
11
18.2138208
21
219.8632916
0
LINE
8
DEFAULT_255_2_778
10
18.2138208
20
219.8632916
11
18.9991208
21
219.8632916
0
LINE
8
DEFAULT_255_2_778
10
18.9991208
20
219.8632916
11
18.9988208
21
219.8632916
0
LINE
8
DEFAULT_255_2_778
10
20.0481115
20
221.2653083
11
20.0481115
21
220.2266083
0
LINE
8
DEFAULT_255_2_778
10
20.0481115
20
220.2266083
11
20.2651115
21
220.2266083
0
LINE
8
DEFAULT_255_2_778
10
20.2651115
20
220.2266083
11
20.2651115
21
220.0644083
0
LINE
8
DEFAULT_255_2_778
10
20.2651115
20
220.0644083
11
20.0481115
21
220.0644083
0
LINE
8
DEFAULT_255_2_778
10
20.0481115
20
220.0644083
11
20.0481115
21
219.7014083
0
LINE
8
DEFAULT_255_2_778
10
20.0481115
20
219.7014083
11
19.8484115
21
219.7014083
0
LINE
8
DEFAULT_255_2_778
10
19.8484115
20
219.7014083
11
19.8484115
21
220.0644083
0
LINE
8
DEFAULT_255_2_778
10
19.8484115
20
220.0644083
11
19.1361115
21
220.0644083
0
LINE
8
DEFAULT_255_2_778
10
19.1361115
20
220.0644083
11
19.1361115
21
220.1816083
0
LINE
8
DEFAULT_255_2_778
10
19.1361115
20
220.1816083
11
19.8365115
21
221.2656083
0
LINE
8
DEFAULT_255_2_778
10
19.8365115
20
221.2656083
11
20.0481115
21
221.2656083
0
LINE
8
DEFAULT_255_2_778
10
20.0481115
20
221.2656083
11
20.0481115
21
221.2653083
0
LINE
8
DEFAULT_255_2_778
10
19.8248115
20
220.9505083
11
19.3618115
21
220.2266083
0
LINE
8
DEFAULT_255_2_778
10
19.3618115
20
220.2266083
11
19.8484115
21
220.2266083
0
LINE
8
DEFAULT_255_2_778
10
19.8484115
20
220.2266083
11
19.8484115
21
220.9936083
0
LINE
8
DEFAULT_255_2_778
10
19.8484115
20
220.9936083
11
19.8248115
21
220.9507083
0
LINE
8
DEFAULT_255_2_778
10
19.8248115
20
220.9507083
11
19.8248115
21
220.9505083
0
LINE
8
DEFAULT_255_2_778
10
20.5693813
20
221.265376
11
21.0141813
21
219.975276
0
LINE
8
DEFAULT_255_2_778
10
21.0141813
20
219.975276
11
21.4609813
21
221.265376
0
LINE
8
DEFAULT_255_2_778
10
21.4609813
20
221.265376
11
21.6866813
21
221.265376
0
LINE
8
DEFAULT_255_2_778
10
21.6866813
20
221.265376
11
21.1067813
21
219.701376
0
LINE
8
DEFAULT_255_2_778
10
21.1067813
20
219.701376
11
20.9241813
21
219.701376
0
LINE
8
DEFAULT_255_2_778
10
20.9241813
20
219.701376
11
20.3452813
21
221.265376
0
LINE
8
DEFAULT_255_2_778
10
20.3452813
20
221.265376
11
20.5698813
21
221.265376
0
LINE
8
DEFAULT_255_2_778
10
20.5698813
20
221.265376
11
20.5693813
21
221.265376
0
ARC
8
DEFAULT_255_2_778
10
19.8805499
20
194.5745962
40
0.8252088
50
74.4522029
51
90.877253
0
ARC
8
DEFAULT_255_2_778
10
19.9748907
20
194.9161296
40
0.4708862
50
50.4677403
51
74.3722871
0
ARC
8
DEFAULT_255_2_778
10
20.0056114
20
194.9713334
40
0.4089155
50
3.0620259
51
48.8640358
0
ARC
8
DEFAULT_255_2_778
10
19.7457767
20
194.9300705
40
0.6711399
50
359.909317
51
5.3953718
0
ARC
8
DEFAULT_255_2_778
10
19.9955059
20
194.9200387
40
0.4215052
50
324.3728175
51
1.2193388
0
ARC
8
DEFAULT_255_2_778
10
19.9605537
20
194.955927
40
0.4709029
50
289.5995959
51
323.3007159
0
ARC
8
DEFAULT_255_2_778
10
19.8880595
20
195.0248184
40
0.3878467
50
267.9987934
51
299.4454354
0
ARC
8
DEFAULT_255_2_778
10
19.9297631
20
194.9332657
40
0.2877504
50
301.1760779
51
311.1244649
0
ARC
8
DEFAULT_255_2_778
10
19.9413332
20
194.9179696
40
0.2686219
50
311.4112688
51
2.4192109
0
ARC
8
DEFAULT_255_2_778
10
19.908981
20
194.9433099
40
0.3010605
50
357.3343584
51
35.9778948
0
ARC
8
DEFAULT_255_2_778
10
19.963365
20
194.972083
40
0.2403033
50
38.0442709
51
48.3020343
0
ARC
8
DEFAULT_255_2_778
10
19.9150191
20
194.9016181
40
0.3252552
50
50.2005538
51
85.7800811
0
ARC
8
DEFAULT_255_2_778
10
19.8714187
20
194.6310031
40
0.5988089
50
83.5243493
51
89.7993541
0
LINE
8
DEFAULT_255_2_778
10
17.0773157
20
194.6951083
11
17.0773157
21
194.5266083
0
LINE
8
DEFAULT_255_2_778
10
17.0773157
20
194.5266083
11
16.4212157
21
194.5266083
0
LINE
8
DEFAULT_255_2_778
10
16.4212157
20
194.5266083
11
16.4212157
21
193.8357083
0
LINE
8
DEFAULT_255_2_778
10
16.4212157
20
193.8357083
11
16.2148157
21
193.8357083
0
LINE
8
DEFAULT_255_2_778
10
16.2148157
20
193.8357083
11
16.2148157
21
195.3997083
0
LINE
8
DEFAULT_255_2_778
10
16.2148157
20
195.3997083
11
17.1837157
21
195.3997083
0
LINE
8
DEFAULT_255_2_778
10
17.1837157
20
195.3997083
11
17.1837157
21
195.2301083
0
LINE
8
DEFAULT_255_2_778
10
17.1837157
20
195.2301083
11
16.4212157
21
195.2301083
0
LINE
8
DEFAULT_255_2_778
10
16.4212157
20
195.2301083
11
16.4212157
21
194.6951083
0
LINE
8
DEFAULT_255_2_778
10
16.4212157
20
194.6951083
11
17.0776157
21
194.6951083
0
LINE
8
DEFAULT_255_2_778
10
17.0776157
20
194.6951083
11
17.0773157
21
194.6951083
0
LINE
8
DEFAULT_255_2_778
10
17.4308157
20
195.3997083
11
17.6973157
21
195.3997083
0
LINE
8
DEFAULT_255_2_778
10
17.6973157
20
195.3997083
11
18.2087157
21
194.1236083
0
LINE
8
DEFAULT_255_2_778
10
18.2087157
20
194.1236083
11
18.7201157
21
195.3997083
0
LINE
8
DEFAULT_255_2_778
10
18.7201157
20
195.3997083
11
18.9876157
21
195.3997083
0
LINE
8
DEFAULT_255_2_778
10
18.9876157
20
195.3997083
11
18.9876157
21
193.8357083
0
LINE
8
DEFAULT_255_2_778
10
18.9876157
20
193.8357083
11
18.7813157
21
193.8357083
0
LINE
8
DEFAULT_255_2_778
10
18.7813157
20
193.8357083
11
18.7813157
21
194.4448083
0
LINE
8
DEFAULT_255_2_778
10
18.7813157
20
194.4448083
11
18.8006157
21
195.1023083
0
LINE
8
DEFAULT_255_2_778
10
18.8006157
20
195.1023083
11
18.2870157
21
193.8357083
0
LINE
8
DEFAULT_255_2_778
10
18.2870157
20
193.8357083
11
18.1291157
21
193.8357083
0
LINE
8
DEFAULT_255_2_778
10
18.1291157
20
193.8357083
11
17.6166157
21
195.0991083
0
LINE
8
DEFAULT_255_2_778
10
17.6166157
20
195.0991083
11
17.6369157
21
194.4448083
0
LINE
8
DEFAULT_255_2_778
10
17.6369157
20
194.4448083
11
17.6369157
21
193.8357083
0
LINE
8
DEFAULT_255_2_778
10
17.6369157
20
193.8357083
11
17.4306157
21
193.8357083
0
LINE
8
DEFAULT_255_2_778
10
17.4306157
20
193.8357083
11
17.4306157
21
195.3997083
0
LINE
8
DEFAULT_255_2_778
10
17.4306157
20
195.3997083
11
17.4308157
21
195.3997083
0
LINE
8
DEFAULT_255_2_778
10
20.2645157
20
193.8357083
11
19.9251157
21
194.4684083
0
LINE
8
DEFAULT_255_2_778
10
19.9251157
20
194.4684083
11
19.5575157
21
194.4684083
0
LINE
8
DEFAULT_255_2_778
10
19.5575157
20
194.4684083
11
19.5575157
21
193.8357083
0
LINE
8
DEFAULT_255_2_778
10
19.5575157
20
193.8357083
11
19.3501157
21
193.8357083
0
LINE
8
DEFAULT_255_2_778
10
19.3501157
20
193.8357083
11
19.3501157
21
195.3997083
0
LINE
8
DEFAULT_255_2_778
10
19.3501157
20
195.3997083
11
19.8679157
21
195.3997083
0
LINE
8
DEFAULT_255_2_778
10
20.1185157
20
194.5123083
11
20.4860157
21
193.8484083
0
LINE
8
DEFAULT_255_2_778
10
20.4860157
20
193.8484083
11
20.4860157
21
193.8355083
0
LINE
8
DEFAULT_255_2_778
10
20.4860157
20
193.8355083
11
20.2648157
21
193.8355083
0
LINE
8
DEFAULT_255_2_778
10
20.2648157
20
193.8355083
11
20.2645157
21
193.8357083
0
LINE
8
DEFAULT_255_2_778
10
19.5575157
20
195.2301083
11
19.5575157
21
194.6372083
0
LINE
8
DEFAULT_255_2_778
10
19.5575157
20
194.6372083
11
19.8745157
21
194.6372083
0
LINE
8
DEFAULT_255_2_778
10
19.8735157
20
195.2298083
11
19.5575157
21
195.2298083
0
LINE
8
DEFAULT_255_2_778
10
19.5575157
20
195.2298083
11
19.5575157
21
195.2301083
0
LINE
8
DEFAULT_255_2_778
10
18.025625
20
178.646228
11
18.025625
21
177.082228
0
LINE
8
DEFAULT_255_2_778
10
18.025625
20
177.082228
11
17.819325
21
177.082228
0
LINE
8
DEFAULT_255_2_778
10
17.819325
20
177.082228
11
17.819325
21
178.646228
0
LINE
8
DEFAULT_255_2_778
10
17.819325
20
178.646228
11
18.025625
21
178.646228
0
LINE
8
DEFAULT_255_2_778
10
18.025625
20
178.646228
11
18.025625
21
178.646228
0
LINE
8
DEFAULT_255_2_778
10
17.971725
20
174.654728
11
17.971725
21
173.090728
0
LINE
8
DEFAULT_255_2_778
10
17.971725
20
173.090728
11
17.765325
21
173.090728
0
LINE
8
DEFAULT_255_2_778
10
17.765325
20
173.090728
11
17.765325
21
174.654728
0
LINE
8
DEFAULT_255_2_778
10
17.765325
20
174.654728
11
17.971725
21
174.654728
0
LINE
8
DEFAULT_255_2_778
10
17.971725
20
174.654728
11
17.971725
21
174.654728
0
ARC
8
DEFAULT_255_2_778
10
15.2374217
20
20.9587057
40
3.3922076
50
248.6214818
51
254.1548325
0
ARC
8
DEFAULT_255_2_778
10
14.7495809
20
19.7245867
40
2.0651784
50
240.5315784
51
248.7436426
0
ARC
8
DEFAULT_255_2_778
10
14.3124715
20
18.9592377
40
1.1838185
50
228.0504781
51
240.7276212
0
ARC
8
DEFAULT_255_2_778
10
14.007088
20
18.627774
40
0.7331772
50
179.021733
51
228.4840949
0
ARC
8
DEFAULT_255_2_778
10
14.0481725
20
18.6517286
40
0.7742392
50
127.5585812
51
180.8463943
0
ARC
8
DEFAULT_255_2_778
10
14.2465495
20
18.4312925
40
1.0701556
50
100.5395244
51
128.7840807
0
ARC
8
DEFAULT_255_2_778
10
14.352486
20
17.9409348
40
1.571684
50
89.6634549
51
101.0665267
0
ARC
8
DEFAULT_255_2_778
10
14.3756147
20
18.1227166
40
1.3899445
50
72.3782175
51
90.5728665
0
ARC
8
DEFAULT_255_2_778
10
14.4373089
20
18.3479793
40
1.1566135
50
63.7250461
51
71.9128022
0
ARC
8
DEFAULT_255_2_778
10
14.5359792
20
18.5121339
40
0.9658695
50
32.661663
51
64.6628156
0
ARC
8
DEFAULT_255_2_778
10
14.5923713
20
18.5488809
40
0.8985632
50
359.6499817
51
32.6296102
0
ARC
8
DEFAULT_255_2_778
10
14.4002297
20
18.5571735
40
0.6667305
50
358.8155671
51
24.0278722
0
ARC
8
DEFAULT_255_2_778
10
14.5308365
20
18.6050732
40
0.5280215
50
25.0513436
51
48.2963207
0
ARC
8
DEFAULT_255_2_778
10
14.4667669
20
18.5215765
40
0.6330308
50
48.9945753
51
79.3807056
0
ARC
8
DEFAULT_255_2_778
10
14.3698931
20
18.0921502
40
1.0730751
50
78.5221501
51
90.4525381
0
ARC
8
DEFAULT_255_2_778
10
14.3486687
20
18.1211884
40
1.044081
50
89.3003552
51
103.8248892
0
ARC
8
DEFAULT_255_2_778
10
14.2415832
20
18.5486322
40
0.6034344
50
103.6498638
51
127.4183985
0
ARC
8
DEFAULT_255_2_778
10
14.1575217
20
18.66774
40
0.4577927
50
128.1205858
51
182.6478078
0
ARC
8
DEFAULT_255_2_778
10
14.1122409
20
18.6463255
40
0.4120232
50
179.9629901
51
233.3194762
0
ARC
8
DEFAULT_255_2_778
10
14.3928901
20
18.9847428
40
0.8513818
50
231.7768129
51
244.2711423
0
ARC
8
DEFAULT_255_2_778
10
14.8265005
20
19.8570712
40
1.8255012
50
243.8966194
51
250.9323356
0
ARC
8
DEFAULT_255_2_778
10
15.2917492
20
21.1653434
40
3.2140062
50
250.7125337
51
254.4625229
0
ARC
8
DEFAULT_255_2_778
10
13.3872995
20
14.3151659
40
3.895977
50
69.9004619
51
74.4639232
0
ARC
8
DEFAULT_255_2_778
10
13.9494697
20
15.8406596
40
2.2702024
50
63.4188123
51
69.9936724
0
ARC
8
DEFAULT_255_2_778
10
14.303129
20
16.5615239
40
1.4672957
50
59.1786124
51
63.1734315
0
ARC
8
DEFAULT_255_2_778
10
14.5146276
20
16.8961774
40
1.0715899
50
43.0274176
51
59.722079
0
ARC
8
DEFAULT_255_2_778
10
14.7278397
20
17.105079
40
0.7732163
50
31.2576884
51
42.4918257
0
ARC
8
DEFAULT_255_2_778
10
14.7109712
20
17.1085687
40
0.7859131
50
1.3643096
51
30.4020563
0
ARC
8
DEFAULT_255_2_778
10
14.44233
20
17.0823666
40
1.0552877
50
359.9850728
51
2.4393148
0
ARC
8
DEFAULT_255_2_778
10
14.7335273
20
17.065467
40
0.7642713
50
327.6500254
51
1.2464109
0
ARC
8
DEFAULT_255_2_778
10
14.7122398
20
17.0961637
40
0.7988128
50
307.1294852
51
326.6069481
0
ARC
8
DEFAULT_255_2_778
10
14.5497095
20
17.3132049
40
1.069961
50
283.2611259
51
307.0529652
0
ARC
8
DEFAULT_255_2_778
10
14.4093217
20
17.8690867
40
1.6432489
50
271.054852
51
283.5794992
0
ARC
8
DEFAULT_255_2_778
10
14.3840278
20
18.354061
40
2.1286695
50
269.9916544
51
271.4952439
0
ARC
8
DEFAULT_255_2_778
10
14.3718292
20
17.7267579
40
1.5014134
50
246.3074293
51
270.4536848
0
ARC
8
DEFAULT_255_2_778
10
14.2100223
20
17.3831444
40
1.1217881
50
226.9115316
51
246.8230506
0
ARC
8
DEFAULT_255_2_778
10
14.0737564
20
17.2244104
40
0.9128214
50
215.2183602
51
226.3515964
0
ARC
8
DEFAULT_255_2_778
10
14.0176002
20
17.1854184
40
0.8444577
50
179.2350977
51
215.2543256
0
ARC
8
DEFAULT_255_2_778
10
14.148372
20
17.1751102
40
0.5514767
50
177.7572197
51
232.3641399
0
ARC
8
DEFAULT_255_2_778
10
14.280605
20
17.3547362
40
0.7744868
50
232.7318668
51
259.9318902
0
ARC
8
DEFAULT_255_2_778
10
14.3758365
20
17.806263
40
1.2357976
50
259.2443205
51
270.3746761
0
ARC
8
DEFAULT_255_2_778
10
14.396602
20
17.7770352
40
1.2066103
50
269.3976762
51
281.8403437
0
ARC
8
DEFAULT_255_2_778
10
14.5183623
20
17.2255357
40
0.6418898
50
281.3038764
51
305.1554655
0
ARC
8
DEFAULT_255_2_778
10
14.5934774
20
17.1021845
40
0.4978804
50
306.2616389
51
307.4057743
0
ARC
8
DEFAULT_255_2_778
10
14.6319439
20
17.0616708
40
0.4423713
50
306.6356694
51
2.1013888
0
ARC
8
DEFAULT_255_2_778
10
14.6080952
20
17.0926648
40
0.4661567
50
358.1839154
51
32.8796934
0
ARC
8
DEFAULT_255_2_778
10
14.6530903
20
17.1090257
40
0.4196233
50
34.3390285
51
52.4006299
0
ARC
8
DEFAULT_255_2_778
10
14.3969444
20
16.760555
40
0.8520541
50
53.0509787
51
64.3973291
0
ARC
8
DEFAULT_255_2_778
10
13.8984028
20
15.7511382
40
1.9778377
50
64.0093185
51
70.2324777
0
ARC
8
DEFAULT_255_2_778
10
13.2488742
20
13.9722057
40
3.8716279
50
70.0902515
51
74.0027202
0
ARC
8
DEFAULT_255_2_778
10
12.7389182
20
12.2583566
40
5.6596757
50
73.8216585
51
73.8685081
0
LINE
8
DEFAULT_255_2_778
10
15.4909177
20
18.5433916
11
15.0668177
21
18.5433916
0
LINE
8
DEFAULT_255_2_778
10
13.1732177
20
17.1966916
11
13.5973177
21
17.1966916
0
LINE
8
DEFAULT_255_2_778
10
14.3114177
20
17.6951916
11
14.3112177
21
17.6953916
0
ARC
8
DEFAULT_255_2_778
10
28.6638417
20
17.4440047
40
1.4893761
50
339.2710826
51
353.8517943
0
ARC
8
DEFAULT_255_2_778
10
29.0790727
20
17.2844382
40
1.0445493
50
311.4150433
51
339.3954511
0
ARC
8
DEFAULT_255_2_778
10
29.0629755
20
17.32338
40
1.084488
50
281.5884481
51
310.6918336
0
ARC
8
DEFAULT_255_2_778
10
28.9432636
20
17.8414867
40
1.6161352
50
269.5954003
51
282.0562173
0
ARC
8
DEFAULT_255_2_778
10
28.9180396
20
17.5086566
40
1.2833393
50
251.3838422
51
270.616644
0
ARC
8
DEFAULT_255_2_778
10
28.8704185
20
17.3264958
40
1.0955851
50
219.3528464
51
250.7028625
0
ARC
8
DEFAULT_255_2_778
10
29.0872975
20
17.5134985
40
1.3818834
50
194.8856031
51
219.6463635
0
ARC
8
DEFAULT_255_2_778
10
29.6486365
20
17.6729495
40
1.9653704
50
183.0416779
51
195.1741436
0
ARC
8
DEFAULT_255_2_778
10
30.2206408
20
17.717808
40
2.5389903
50
179.9620072
51
183.3676156
0
ARC
8
DEFAULT_255_2_778
10
29.7654874
20
18.0400602
40
2.0838759
50
168.0715356
51
180.3538211
0
ARC
8
DEFAULT_255_2_778
10
29.2841576
20
18.1380147
40
1.5926976
50
154.9772208
51
167.9403447
0
ARC
8
DEFAULT_255_2_778
10
28.9560068
20
18.3039436
40
1.2252171
50
130.3433874
51
155.5175339
0
ARC
8
DEFAULT_255_2_778
10
28.891029
20
18.3654852
40
1.1362882
50
121.7824495
51
129.8550495
0
ARC
8
DEFAULT_255_2_778
10
28.9319535
20
18.2835644
40
1.2275085
50
92.7383773
51
121.392264
0
ARC
8
DEFAULT_255_2_778
10
28.9687535
20
17.9516532
40
1.5609388
50
89.9743875
51
93.505581
0
ARC
8
DEFAULT_255_2_778
10
28.982676
20
18.0494686
40
1.4631828
50
75.7201309
51
90.5178673
0
ARC
8
DEFAULT_255_2_778
10
29.0920626
20
18.4714771
40
1.0272338
50
47.4470532
51
75.8269323
0
ARC
8
DEFAULT_255_2_778
10
29.04355
20
18.4355271
40
1.0865842
50
15.3636867
51
46.8445999
0
ARC
8
DEFAULT_255_2_778
10
28.5880209
20
18.291812
40
1.5640134
50
5.4549387
51
16.0190446
0
ARC
8
DEFAULT_255_2_778
10
28.3122091
20
18.2502419
40
1.4214316
50
7.6917625
51
18.6937918
0
ARC
8
DEFAULT_255_2_778
10
28.9255181
20
18.4635066
40
0.7721432
50
18.2899767
51
37.8176508
0
ARC
8
DEFAULT_255_2_778
10
29.1053782
20
18.5923737
40
0.55111
50
38.6993685
51
46.8267536
0
ARC
8
DEFAULT_255_2_778
10
29.0604892
20
18.528548
40
0.6284657
50
47.8235304
51
80.5763579
0
ARC
8
DEFAULT_255_2_778
10
28.9758559
20
18.1335346
40
1.0321769
50
79.531922
51
90.3555224
0
ARC
8
DEFAULT_255_2_778
10
28.955278
20
18.3240813
40
0.8417296
50
89.0351974
51
113.5660019
0
ARC
8
DEFAULT_255_2_778
10
28.9273167
20
18.4234056
40
0.7396441
50
114.6568379
51
143.149503
0
ARC
8
DEFAULT_255_2_778
10
29.1396819
20
18.2641127
40
1.0051119
50
143.1435148
51
164.1947015
0
ARC
8
DEFAULT_255_2_778
10
29.7242679
20
18.0893352
40
1.6152253
50
163.8773482
51
175.6315329
0
ARC
8
DEFAULT_255_2_778
10
30.4390693
20
18.0206805
40
2.3332217
50
175.2875294
51
180.1004098
0
ARC
8
DEFAULT_255_2_778
10
30.1008848
20
17.6940839
40
1.995074
50
179.6350506
51
189.840302
0
ARC
8
DEFAULT_255_2_778
10
29.394346
20
17.5670679
40
1.27723
50
189.6430077
51
205.9375331
0
ARC
8
DEFAULT_255_2_778
10
29.1339345
20
17.4495651
40
0.9916888
50
206.4133066
51
215.1669208
0
ARC
8
DEFAULT_255_2_778
10
28.9011551
20
17.2687163
40
0.6973709
50
214.0356629
51
269.5408861
0
ARC
8
DEFAULT_255_2_778
10
28.9316668
20
17.5349039
40
0.9642122
50
267.854368
51
270.0109616
0
ARC
8
DEFAULT_255_2_778
10
28.9443296
20
17.7293077
40
1.1586833
50
269.3829454
51
282.7160661
0
ARC
8
DEFAULT_255_2_778
10
29.0641548
20
17.2278078
40
0.6431407
50
282.1373251
51
309.2819791
0
ARC
8
DEFAULT_255_2_778
10
29.075907
20
17.1771101
40
0.5969012
50
311.4904544
51
336.1196979
0
ARC
8
DEFAULT_255_2_778
10
28.5789107
20
17.4101558
40
1.1457562
50
335.5247164
51
348.0778269
0
ARC
8
DEFAULT_255_2_778
10
27.9746803
20
17.5549697
40
1.7669492
50
347.5309
51
351.2045987
0
LINE
8
DEFAULT_255_2_778
10
16.4905512
20
19.4686916
11
16.4905512
21
16.2692916
0
LINE
8
DEFAULT_255_2_778
10
16.4905512
20
16.2692916
11
16.0688512
21
16.2692916
0
LINE
8
DEFAULT_255_2_778
10
16.0688512
20
16.2692916
11
16.0688512
21
19.4686916
0
LINE
8
DEFAULT_255_2_778
10
16.0688512
20
19.4686916
11
16.4905512
21
19.4686916
0
LINE
8
DEFAULT_255_2_778
10
16.4905512
20
19.4686916
11
16.4905512
21
19.4686916
0
LINE
8
DEFAULT_255_2_778
10
17.2621512
20
19.4686916
11
17.8071512
21
19.4686916
0
LINE
8
DEFAULT_255_2_778
10
17.8071512
20
19.4686916
11
18.8530512
21
16.8582916
0
LINE
8
DEFAULT_255_2_778
10
18.8530512
20
16.8582916
11
19.8989512
21
19.4686916
0
LINE
8
DEFAULT_255_2_778
10
19.8989512
20
19.4686916
11
20.4461512
21
19.4686916
0
LINE
8
DEFAULT_255_2_778
10
20.4461512
20
19.4686916
11
20.4461512
21
16.2692916
0
LINE
8
DEFAULT_255_2_778
10
20.4461512
20
16.2692916
11
20.0243512
21
16.2692916
0
LINE
8
DEFAULT_255_2_778
10
20.0243512
20
16.2692916
11
20.0243512
21
17.5152916
0
LINE
8
DEFAULT_255_2_778
10
20.0243512
20
17.5152916
11
20.0637512
21
18.8598916
0
LINE
8
DEFAULT_255_2_778
10
20.0637512
20
18.8598916
11
19.0133512
21
16.2692916
0
LINE
8
DEFAULT_255_2_778
10
19.0133512
20
16.2692916
11
18.6903512
21
16.2692916
0
LINE
8
DEFAULT_255_2_778
10
18.6903512
20
16.2692916
11
17.6423512
21
18.8532916
0
LINE
8
DEFAULT_255_2_778
10
17.6423512
20
18.8532916
11
17.6841512
21
17.5149916
0
LINE
8
DEFAULT_255_2_778
10
17.6841512
20
17.5149916
11
17.6841512
21
16.2690916
0
LINE
8
DEFAULT_255_2_778
10
17.6841512
20
16.2690916
11
17.2623512
21
16.2690916
0
LINE
8
DEFAULT_255_2_778
10
17.2623512
20
16.2690916
11
17.2623512
21
19.4683916
0
LINE
8
DEFAULT_255_2_778
10
17.2623512
20
19.4683916
11
17.2621512
21
19.4686916
0
LINE
8
DEFAULT_255_2_778
10
23.3022512
20
16.2692916
11
22.9969512
21
17.1043916
0
LINE
8
DEFAULT_255_2_778
10
22.9969512
20
17.1043916
11
21.6565512
21
17.1043916
0
LINE
8
DEFAULT_255_2_778
10
21.6565512
20
17.1043916
11
21.3554512
21
16.2692916
0
LINE
8
DEFAULT_255_2_778
10
21.3554512
20
16.2692916
11
20.9205512
21
16.2692916
0
LINE
8
DEFAULT_255_2_778
10
20.9205512
20
16.2692916
11
22.1420512
21
19.4686916
0
LINE
8
DEFAULT_255_2_778
10
22.1420512
20
19.4686916
11
22.5111512
21
19.4686916
0
LINE
8
DEFAULT_255_2_778
10
22.5111512
20
19.4686916
11
23.7351512
21
16.2692916
0
LINE
8
DEFAULT_255_2_778
10
23.7351512
20
16.2692916
11
23.3022512
21
16.2692916
0
LINE
8
DEFAULT_255_2_778
10
23.3022512
20
16.2692916
11
23.3022512
21
16.2692916
0
LINE
8
DEFAULT_255_2_778
10
22.3267512
20
18.9479916
11
21.7841512
21
17.4517916
0
LINE
8
DEFAULT_255_2_778
10
21.7841512
20
17.4517916
11
22.8718512
21
17.4517916
0
LINE
8
DEFAULT_255_2_778
10
22.8718512
20
17.4517916
11
22.3267512
21
18.9479916
0
LINE
8
DEFAULT_255_2_778
10
22.3267512
20
18.9479916
11
22.3267512
21
18.9479916
0
LINE
8
DEFAULT_255_2_778
10
26.0928512
20
19.4686916
11
26.0928512
21
19.1214916
0
LINE
8
DEFAULT_255_2_778
10
26.0928512
20
19.1214916
11
25.0644512
21
19.1214916
0
LINE
8
DEFAULT_255_2_778
10
25.0644512
20
19.1214916
11
25.0644512
21
16.2695916
0
LINE
8
DEFAULT_255_2_778
10
25.0644512
20
16.2695916
11
24.6447512
21
16.2695916
0
LINE
8
DEFAULT_255_2_778
10
24.6447512
20
16.2695916
11
24.6447512
21
19.1214916
0
LINE
8
DEFAULT_255_2_778
10
24.6447512
20
19.1214916
11
23.6187512
21
19.1214916
0
LINE
8
DEFAULT_255_2_778
10
23.6187512
20
19.1214916
11
23.6187512
21
19.4686916
0
LINE
8
DEFAULT_255_2_778
10
23.6187512
20
19.4686916
11
26.0928512
21
19.4686916
0
LINE
8
DEFAULT_255_2_778
10
26.0928512
20
19.4686916
11
26.0928512
21
19.4686916
0
LINE
8
DEFAULT_255_2_778
10
27.0199512
20
19.4686916
11
27.0199512
21
16.2692916
0
LINE
8
DEFAULT_255_2_778
10
27.0199512
20
16.2692916
11
26.5982512
21
16.2692916
0
LINE
8
DEFAULT_255_2_778
10
26.5982512
20
16.2692916
11
26.5982512
21
19.4686916
0
LINE
8
DEFAULT_255_2_778
10
26.5982512
20
19.4686916
11
27.0199512
21
19.4686916
0
LINE
8
DEFAULT_255_2_778
10
27.0199512
20
19.4686916
11
27.0199512
21
19.4686916
0
LINE
8
DEFAULT_255_2_778
10
29.7205512
20
17.2844916
11
30.1446512
21
17.2844916
0
LINE
8
DEFAULT_255_2_778
10
27.6816512
20
17.7194916
11
27.6816512
21
18.0271916
0
LINE
8
DEFAULT_255_2_778
10
30.1449512
20
18.4404916
11
29.7208512
21
18.4404916
0
LINE
8
DEFAULT_255_2_778
10
28.1058512
20
18.0165916
11
28.1058512
21
17.7067916
0
LINE
8
DEFAULT_255_2_778
10
29.7208512
20
17.2847916
11
29.7205512
21
17.2844916
0
ARC
8
DEFAULT_255_2_778
10
15.3086345
20
14.9040634
40
3.3906468
50
248.629072
51
254.1646871
0
ARC
8
DEFAULT_255_2_778
10
14.8211893
20
13.6704739
40
2.0642556
50
240.5359696
51
248.7512971
0
ARC
8
DEFAULT_255_2_778
10
14.3843718
20
12.9055034
40
1.1833694
50
228.0504525
51
240.7320686
0
ARC
8
DEFAULT_255_2_778
10
14.079288
20
12.574374
40
0.7331772
50
179.021733
51
228.4840949
0
ARC
8
DEFAULT_255_2_778
10
14.1203725
20
12.5983286
40
0.7742392
50
127.5585812
51
180.8463943
0
ARC
8
DEFAULT_255_2_778
10
14.3187495
20
12.3778925
40
1.0701556
50
100.5395244
51
128.7840807
0
ARC
8
DEFAULT_255_2_778
10
14.424686
20
11.8875348
40
1.571684
50
89.6634549
51
101.0665267
0
ARC
8
DEFAULT_255_2_778
10
14.4478147
20
12.0693166
40
1.3899445
50
72.3782175
51
90.5728665
0
ARC
8
DEFAULT_255_2_778
10
14.5095089
20
12.2945793
40
1.1566135
50
63.7250461
51
71.9128022
0
ARC
8
DEFAULT_255_2_778
10
14.6087371
20
12.45922
40
0.9651914
50
32.6602401
51
64.6803987
0
ARC
8
DEFAULT_255_2_778
10
14.6640771
20
12.4954368
40
0.8990571
50
359.6529852
51
32.6203632
0
ARC
8
DEFAULT_255_2_778
10
14.4724297
20
12.5037735
40
0.6667305
50
358.8155671
51
24.0278722
0
ARC
8
DEFAULT_255_2_778
10
14.6030365
20
12.5516732
40
0.5280215
50
25.0513436
51
48.2963207
0
ARC
8
DEFAULT_255_2_778
10
14.5389669
20
12.4681765
40
0.6330308
50
48.9945753
51
79.3807056
0
ARC
8
DEFAULT_255_2_778
10
14.4420931
20
12.0387502
40
1.0730751
50
78.5221501
51
90.4525381
0
ARC
8
DEFAULT_255_2_778
10
14.4208687
20
12.0677884
40
1.044081
50
89.3003552
51
103.8248892
0
ARC
8
DEFAULT_255_2_778
10
14.3137832
20
12.4952322
40
0.6034344
50
103.6498638
51
127.4183985
0
ARC
8
DEFAULT_255_2_778
10
14.2297217
20
12.61434
40
0.4577927
50
128.1205858
51
182.6478078
0
ARC
8
DEFAULT_255_2_778
10
14.1844409
20
12.5929255
40
0.4120232
50
179.9629901
51
233.3194762
0
ARC
8
DEFAULT_255_2_778
10
14.4650901
20
12.9313428
40
0.8513818
50
231.7768129
51
244.2711423
0
ARC
8
DEFAULT_255_2_778
10
14.8987005
20
13.8036712
40
1.8255012
50
243.8966194
51
250.9323356
0
ARC
8
DEFAULT_255_2_778
10
15.3639492
20
15.1119434
40
3.2140062
50
250.7125337
51
254.4625229
0
ARC
8
DEFAULT_255_2_778
10
13.4594995
20
8.2617659
40
3.895977
50
69.9004619
51
74.4639232
0
ARC
8
DEFAULT_255_2_778
10
14.0216697
20
9.7872596
40
2.2702024
50
63.4188123
51
69.9936724
0
ARC
8
DEFAULT_255_2_778
10
14.375329
20
10.5081239
40
1.4672957
50
59.1786124
51
63.1734315
0
ARC
8
DEFAULT_255_2_778
10
14.5868276
20
10.8427774
40
1.0715899
50
43.0274176
51
59.722079
0
ARC
8
DEFAULT_255_2_778
10
14.8000397
20
11.051679
40
0.7732163
50
31.2576884
51
42.4918257
0
ARC
8
DEFAULT_255_2_778
10
14.7833185
20
11.0552065
40
0.785767
50
1.367797
51
30.4051141
0
ARC
8
DEFAULT_255_2_778
10
14.5153395
20
11.029066
40
1.0544782
50
359.9850915
51
2.4402468
0
ARC
8
DEFAULT_255_2_778
10
14.8055003
20
11.0121476
40
0.7644986
50
327.6549168
51
1.2474969
0
ARC
8
DEFAULT_255_2_778
10
14.7845068
20
11.0426697
40
0.7986973
50
307.1297182
51
326.6107696
0
ARC
8
DEFAULT_255_2_778
10
14.6219095
20
11.2598049
40
1.069961
50
283.2611259
51
307.0529652
0
ARC
8
DEFAULT_255_2_778
10
14.4815217
20
11.8156867
40
1.6432489
50
271.054852
51
283.5794992
0
ARC
8
DEFAULT_255_2_778
10
14.4562278
20
12.300661
40
2.1286695
50
269.9916544
51
271.4952439
0
ARC
8
DEFAULT_255_2_778
10
14.4440292
20
11.6733579
40
1.5014134
50
246.3074293
51
270.4536848
0
ARC
8
DEFAULT_255_2_778
10
14.2822223
20
11.3297444
40
1.1217881
50
226.9115316
51
246.8230506
0
ARC
8
DEFAULT_255_2_778
10
14.1459564
20
11.1710104
40
0.9128214
50
215.2183602
51
226.3515964
0
ARC
8
DEFAULT_255_2_778
10
14.0898002
20
11.1320184
40
0.8444577
50
179.2350977
51
215.2543256
0
ARC
8
DEFAULT_255_2_778
10
14.220572
20
11.1217102
40
0.5514767
50
177.7572197
51
232.3641399
0
ARC
8
DEFAULT_255_2_778
10
14.352805
20
11.3013362
40
0.7744868
50
232.7318668
51
259.9318902
0
ARC
8
DEFAULT_255_2_778
10
14.4480365
20
11.752863
40
1.2357976
50
259.2443205
51
270.3746761
0
ARC
8
DEFAULT_255_2_778
10
14.468802
20
11.7236352
40
1.2066103
50
269.3976762
51
281.8403437
0
ARC
8
DEFAULT_255_2_778
10
14.5905623
20
11.1721357
40
0.6418898
50
281.3038764
51
305.1554655
0
ARC
8
DEFAULT_255_2_778
10
14.6656774
20
11.0487845
40
0.4978804
50
306.2616389
51
307.4057743
0
ARC
8
DEFAULT_255_2_778
10
14.7041439
20
11.0082708
40
0.4423713
50
306.6356694
51
2.1013888
0
ARC
8
DEFAULT_255_2_778
10
14.6802952
20
11.0392648
40
0.4661567
50
358.1839154
51
32.8796934
0
ARC
8
DEFAULT_255_2_778
10
14.7252903
20
11.0556257
40
0.4196233
50
34.3390285
51
52.4006299
0
ARC
8
DEFAULT_255_2_778
10
14.4695425
20
10.7082035
40
0.8509769
50
53.0299616
51
64.3923012
0
ARC
8
DEFAULT_255_2_778
10
13.9719183
20
9.7008826
40
1.9744752
50
64.0042157
51
70.2379738
0
ARC
8
DEFAULT_255_2_778
10
13.3238346
20
7.9253992
40
3.86453
50
70.0956642
51
74.0151244
0
ARC
8
DEFAULT_255_2_778
10
12.8112907
20
6.2021735
40
5.6623016
50
73.8311849
51
73.8780099
0
LINE
8
DEFAULT_255_2_778
10
15.5631177
20
12.4899916
11
15.1390177
21
12.4899916
0
LINE
8
DEFAULT_255_2_778
10
13.2454177
20
11.1432916
11
13.6695177
21
11.1432916
0
LINE
8
DEFAULT_255_2_778
10
14.3836177
20
11.6417916
11
14.3834177
21
11.6420916
0
LINE
8
DEFAULT_255_2_778
10
18.0704543
20
13.4152708
11
18.0704543
21
13.1866708
0
LINE
8
DEFAULT_255_2_778
10
18.0704543
20
13.1866708
11
16.7453543
21
10.2159708
0
LINE
8
DEFAULT_255_2_778
10
16.7453543
20
10.2159708
11
16.3191543
21
10.2159708
0
LINE
8
DEFAULT_255_2_778
10
16.3191543
20
10.2159708
11
17.6396543
21
13.0810708
0
LINE
8
DEFAULT_255_2_778
10
17.6396543
20
13.0810708
11
15.9082543
21
13.0810708
0
LINE
8
DEFAULT_255_2_778
10
15.9082543
20
13.0810708
11
15.9082543
21
13.4149708
0
LINE
8
DEFAULT_255_2_778
10
15.9082543
20
13.4149708
11
18.0704543
21
13.4149708
0
LINE
8
DEFAULT_255_2_778
10
18.0704543
20
13.4149708
11
18.0704543
21
13.4152708
0
LINE
8
DEFAULT_255_2_778
10
19.4195543
20
11.7409708
11
19.4195543
21
11.4091708
0
LINE
8
DEFAULT_255_2_778
10
19.4195543
20
11.4091708
11
18.3471543
21
11.4091708
0
LINE
8
DEFAULT_255_2_778
10
18.3471543
20
11.4091708
11
18.3471543
21
11.7409708
0
LINE
8
DEFAULT_255_2_778
10
18.3471543
20
11.7409708
11
19.4195543
21
11.7409708
0
LINE
8
DEFAULT_255_2_778
10
19.4195543
20
11.7409708
11
19.4195543
21
11.7409708
0
LINE
8
DEFAULT_255_2_778
10
21.4893543
20
13.4152708
11
21.4893543
21
11.2903708
0
LINE
8
DEFAULT_255_2_778
10
21.4893543
20
11.2903708
11
21.9333543
21
11.2903708
0
LINE
8
DEFAULT_255_2_778
10
21.9333543
20
11.2903708
11
21.9333543
21
10.9585708
0
LINE
8
DEFAULT_255_2_778
10
21.9333543
20
10.9585708
11
21.4893543
21
10.9585708
0
LINE
8
DEFAULT_255_2_778
10
21.4893543
20
10.9585708
11
21.4893543
21
10.2159708
0
LINE
8
DEFAULT_255_2_778
10
21.4893543
20
10.2159708
11
21.0805543
21
10.2159708
0
LINE
8
DEFAULT_255_2_778
10
21.0805543
20
10.2159708
11
21.0805543
21
10.9585708
0
LINE
8
DEFAULT_255_2_778
10
21.0805543
20
10.9585708
11
19.6237543
21
10.9585708
0
LINE
8
DEFAULT_255_2_778
10
19.6237543
20
10.9585708
11
19.6237543
21
11.1980708
0
LINE
8
DEFAULT_255_2_778
10
19.6237543
20
11.1980708
11
21.0565543
21
13.4149708
0
LINE
8
DEFAULT_255_2_778
10
21.0565543
20
13.4149708
11
21.4893543
21
13.4149708
0
LINE
8
DEFAULT_255_2_778
10
21.4893543
20
13.4149708
11
21.4893543
21
13.4152708
0
LINE
8
DEFAULT_255_2_778
10
21.0324543
20
12.7715708
11
20.0854543
21
11.2906708
0
LINE
8
DEFAULT_255_2_778
10
20.0854543
20
11.2906708
11
21.0808543
21
11.2906708
0
LINE
8
DEFAULT_255_2_778
10
21.0808543
20
11.2906708
11
21.0808543
21
12.8596708
0
LINE
8
DEFAULT_255_2_778
10
21.0808543
20
12.8596708
11
21.0324543
21
12.7717708
0
LINE
8
DEFAULT_255_2_778
10
21.0324543
20
12.7717708
11
21.0324543
21
12.7715708
0
ARC
8
DEFAULT_255_2_778
10
20.9348917
20
11.5680174
40
3.3714821
50
354.0341587
51
0.2153897
0
ARC
8
DEFAULT_255_2_778
10
22.174313
20
11.4344555
40
2.1248956
50
345.2369453
51
354.1425157
0
ARC
8
DEFAULT_255_2_778
10
22.9844547
20
11.216272
40
1.2859083
50
331.4801089
51
345.4391761
0
ARC
8
DEFAULT_255_2_778
10
23.293605
20
11.0580976
40
0.93879
50
324.9822581
51
330.9535234
0
ARC
8
DEFAULT_255_2_778
10
23.4163122
20
10.974432
40
0.7902885
50
279.6657127
51
324.8450057
0
ARC
8
DEFAULT_255_2_778
10
23.3077634
20
11.4437225
40
1.2714553
50
269.6433982
51
280.9372421
0
ARC
8
DEFAULT_255_2_778
10
23.286912
20
11.3694286
40
1.1972069
50
255.112676
51
270.6191988
0
ARC
8
DEFAULT_255_2_778
10
23.175672
20
10.9686452
40
0.7813102
50
215.7837482
51
255.445398
0
ARC
8
DEFAULT_255_2_778
10
23.455156
20
11.1580326
40
1.1188187
50
198.131121
51
215.2826253
0
ARC
8
DEFAULT_255_2_778
10
24.1263687
20
11.3862588
40
1.8277435
50
187.998663
51
198.3824565
0
ARC
8
DEFAULT_255_2_778
10
25.167285
20
11.5401497
40
2.8799568
50
181.3367772
51
188.1488719
0
ARC
8
DEFAULT_255_2_778
10
25.9466024
20
11.5728309
40
3.6598534
50
180.7348643
51
181.5636466
0
ARC
8
DEFAULT_255_2_778
10
25.5764643
20
12.081116
40
3.2894381
50
173.9601466
51
180.2181523
0
ARC
8
DEFAULT_255_2_778
10
24.3684976
20
12.2128897
40
2.0743154
50
165.0560209
51
174.0689671
0
ARC
8
DEFAULT_255_2_778
10
23.5790278
20
12.428417
40
1.2559764
50
150.9967157
51
165.2683163
0
ARC
8
DEFAULT_255_2_778
10
23.2825336
20
12.5828008
40
0.9218518
50
144.6168098
51
150.4537821
0
ARC
8
DEFAULT_255_2_778
10
23.1724602
20
12.6579281
40
0.7886111
50
100.2907174
51
144.4361972
0
ARC
8
DEFAULT_255_2_778
10
23.2867342
20
12.1785476
40
1.2809749
50
89.6012071
51
101.4894264
0
ARC
8
DEFAULT_255_2_778
10
23.3085188
20
12.210153
40
1.2494049
50
75.9480795
51
90.5901509
0
ARC
8
DEFAULT_255_2_778
10
23.4318007
20
12.6672483
40
0.7761024
50
36.4908086
51
76.5836996
0
ARC
8
DEFAULT_255_2_778
10
23.2038219
20
12.516331
40
1.0492328
50
18.6480162
51
35.7127787
0
ARC
8
DEFAULT_255_2_778
10
22.5388007
20
12.2835928
40
1.7537774
50
8.5292618
51
18.9053532
0
ARC
8
DEFAULT_255_2_778
10
21.5105178
20
12.1207574
40
2.7948516
50
2.1411145
51
8.7040319
0
ARC
8
DEFAULT_255_2_778
10
20.6135798
20
12.0741735
40
3.6929268
50
0.5277988
51
2.3434472
0
ARC
8
DEFAULT_255_2_778
10
21.0736464
20
12.1491757
40
2.8263317
50
359.7448934
51
5.7411672
0
ARC
8
DEFAULT_255_2_778
10
22.3137573
20
12.2781961
40
1.5795405
50
5.584494
51
14.7083403
0
ARC
8
DEFAULT_255_2_778
10
23.0598287
20
12.479704
40
0.8067733
50
14.3192973
51
30.2708002
0
ARC
8
DEFAULT_255_2_778
10
23.2627226
20
12.5867138
40
0.5776853
50
31.2484813
51
31.562618
0
ARC
8
DEFAULT_255_2_778
10
23.3384752
20
12.6371043
40
0.486774
50
31.1759541
51
89.3819285
0
ARC
8
DEFAULT_255_2_778
10
23.2961428
20
12.3393589
40
0.7859329
50
86.5289768
51
90.0359214
0
ARC
8
DEFAULT_255_2_778
10
23.2820775
20
12.5362618
40
0.5891861
50
88.680018
51
114.4181189
0
ARC
8
DEFAULT_255_2_778
10
23.2401495
20
12.6562645
40
0.4627258
50
115.833616
51
149.6470475
0
ARC
8
DEFAULT_255_2_778
10
23.5653015
20
12.4659682
40
0.8394704
50
149.6535542
51
165.7202853
0
ARC
8
DEFAULT_255_2_778
10
24.3059343
20
12.2668844
40
1.6063579
50
165.3546388
51
174.6646604
0
ARC
8
DEFAULT_255_2_778
10
25.4072013
20
12.1527452
40
2.7134903
50
174.4272479
51
179.6928484
0
ARC
8
DEFAULT_255_2_778
10
25.4674244
20
11.5046997
40
2.7737011
50
179.7481541
51
185.9063061
0
ARC
8
DEFAULT_255_2_778
10
24.2807009
20
11.377146
40
1.5801591
50
185.7336963
51
195.2881564
0
ARC
8
DEFAULT_255_2_778
10
23.5699567
20
11.1786378
40
0.8422354
50
195.0106803
51
210.4983779
0
ARC
8
DEFAULT_255_2_778
10
23.2748351
20
11.001625
40
0.4981168
50
210.1827908
51
272.7758218
0
ARC
8
DEFAULT_255_2_778
10
23.2998519
20
10.9478843
40
0.4437926
50
269.8846038
51
270.0384953
0
ARC
8
DEFAULT_255_2_778
10
23.3142483
20
11.0590869
40
0.5551743
50
268.5448552
51
297.5638901
0
ARC
8
DEFAULT_255_2_778
10
23.3375314
20
10.9851926
40
0.4790853
50
299.184995
51
328.7829588
0
ARC
8
DEFAULT_255_2_778
10
23.0538763
20
11.1556499
40
0.8100159
50
328.870411
51
345.0496909
0
ARC
8
DEFAULT_255_2_778
10
22.3158731
20
11.3634959
40
1.5766924
50
344.6710543
51
354.002375
0
ARC
8
DEFAULT_255_2_778
10
21.1449039
20
11.4964806
40
2.7551651
50
353.7963849
51
359.4678505
0
LINE
8
DEFAULT_255_2_778
10
24.30635
20
12.1079916
11
24.30635
21
11.5806916
0
LINE
8
DEFAULT_255_2_778
10
22.28705
20
11.5258916
11
22.28705
21
12.0685916
0
LINE
8
DEFAULT_255_2_778
10
24.30635
20
12.1081916
11
24.30635
21
12.1079916
0
LINE
8
DEFAULT_255_2_778
10
23.89995
20
11.4708916
11
23.89995
21
12.1365916
0
LINE
8
DEFAULT_255_2_778
10
22.69375
20
12.1672916
11
22.69375
21
11.5168916
0
LINE
8
DEFAULT_255_2_778
10
23.89995
20
11.4708916
11
23.89995
21
11.4708916
0
ARC
8
DEFAULT_255_2_778
10
23.4616917
20
11.5680174
40
3.3714821
50
354.0341587
51
0.2153897
0
ARC
8
DEFAULT_255_2_778
10
24.701113
20
11.4344555
40
2.1248956
50
345.2369453
51
354.1425157
0
ARC
8
DEFAULT_255_2_778
10
25.5112547
20
11.216272
40
1.2859083
50
331.4801089
51
345.4391761
0
ARC
8
DEFAULT_255_2_778
10
25.820405
20
11.0580976
40
0.93879
50
324.9822581
51
330.9535234
0
ARC
8
DEFAULT_255_2_778
10
25.9431122
20
10.974432
40
0.7902885
50
279.6657127
51
324.8450057
0
ARC
8
DEFAULT_255_2_778
10
25.8345634
20
11.4437225
40
1.2714553
50
269.6433982
51
280.9372421
0
ARC
8
DEFAULT_255_2_778
10
25.813712
20
11.3694286
40
1.1972069
50
255.112676
51
270.6191988
0
ARC
8
DEFAULT_255_2_778
10
25.702472
20
10.9686452
40
0.7813102
50
215.7837482
51
255.445398
0
ARC
8
DEFAULT_255_2_778
10
25.981956
20
11.1580326
40
1.1188187
50
198.131121
51
215.2826253
0
ARC
8
DEFAULT_255_2_778
10
26.6531687
20
11.3862588
40
1.8277435
50
187.998663
51
198.3824565
0
ARC
8
DEFAULT_255_2_778
10
27.694085
20
11.5401497
40
2.8799568
50
181.3367772
51
188.1488719
0
ARC
8
DEFAULT_255_2_778
10
28.4734024
20
11.5728309
40
3.6598534
50
180.7348643
51
181.5636466
0
ARC
8
DEFAULT_255_2_778
10
28.1032643
20
12.081116
40
3.2894381
50
173.9601466
51
180.2181523
0
ARC
8
DEFAULT_255_2_778
10
26.8952976
20
12.2128897
40
2.0743154
50
165.0560209
51
174.0689671
0
ARC
8
DEFAULT_255_2_778
10
26.1058278
20
12.428417
40
1.2559764
50
150.9967157
51
165.2683163
0
ARC
8
DEFAULT_255_2_778
10
25.8093336
20
12.5828008
40
0.9218518
50
144.6168098
51
150.4537821
0
ARC
8
DEFAULT_255_2_778
10
25.6992602
20
12.6579281
40
0.7886111
50
100.2907174
51
144.4361972
0
ARC
8
DEFAULT_255_2_778
10
25.8135342
20
12.1785476
40
1.2809749
50
89.6012071
51
101.4894264
0
ARC
8
DEFAULT_255_2_778
10
25.8353188
20
12.210153
40
1.2494049
50
75.9480795
51
90.5901509
0
ARC
8
DEFAULT_255_2_778
10
25.9586007
20
12.6672483
40
0.7761024
50
36.4908086
51
76.5836996
0
ARC
8
DEFAULT_255_2_778
10
25.7306219
20
12.516331
40
1.0492328
50
18.6480162
51
35.7127787
0
ARC
8
DEFAULT_255_2_778
10
25.0656007
20
12.2835928
40
1.7537774
50
8.5292618
51
18.9053532
0
ARC
8
DEFAULT_255_2_778
10
24.0373178
20
12.1207574
40
2.7948516
50
2.1411145
51
8.7040319
0
ARC
8
DEFAULT_255_2_778
10
23.1403798
20
12.0741735
40
3.6929268
50
0.5277988
51
2.3434472
0
ARC
8
DEFAULT_255_2_778
10
23.6004464
20
12.1491757
40
2.8263317
50
359.7448934
51
5.7411672
0
ARC
8
DEFAULT_255_2_778
10
24.8405573
20
12.2781961
40
1.5795405
50
5.584494
51
14.7083403
0
ARC
8
DEFAULT_255_2_778
10
25.5866287
20
12.479704
40
0.8067733
50
14.3192973
51
30.2708002
0
ARC
8
DEFAULT_255_2_778
10
25.7895226
20
12.5867138
40
0.5776853
50
31.2484813
51
31.562618
0
ARC
8
DEFAULT_255_2_778
10
25.8652752
20
12.6371043
40
0.486774
50
31.1759541
51
89.3819285
0
ARC
8
DEFAULT_255_2_778
10
25.8229428
20
12.3393589
40
0.7859329
50
86.5289768
51
90.0359214
0
ARC
8
DEFAULT_255_2_778
10
25.8088775
20
12.5362618
40
0.5891861
50
88.680018
51
114.4181189
0
ARC
8
DEFAULT_255_2_778
10
25.7669495
20
12.6562645
40
0.4627258
50
115.833616
51
149.6470475
0
ARC
8
DEFAULT_255_2_778
10
26.0921015
20
12.4659682
40
0.8394704
50
149.6535542
51
165.7202853
0
ARC
8
DEFAULT_255_2_778
10
26.8327343
20
12.2668844
40
1.6063579
50
165.3546388
51
174.6646604
0
ARC
8
DEFAULT_255_2_778
10
27.9340013
20
12.1527452
40
2.7134903
50
174.4272479
51
179.6928484
0
ARC
8
DEFAULT_255_2_778
10
27.9942244
20
11.5046997
40
2.7737011
50
179.7481541
51
185.9063061
0
ARC
8
DEFAULT_255_2_778
10
26.8075009
20
11.377146
40
1.5801591
50
185.7336963
51
195.2881564
0
ARC
8
DEFAULT_255_2_778
10
26.0967567
20
11.1786378
40
0.8422354
50
195.0106803
51
210.4983779
0
ARC
8
DEFAULT_255_2_778
10
25.8016351
20
11.001625
40
0.4981168
50
210.1827908
51
272.7758218
0
ARC
8
DEFAULT_255_2_778
10
25.8266519
20
10.9478843
40
0.4437926
50
269.8846038
51
270.0384953
0
ARC
8
DEFAULT_255_2_778
10
25.8410483
20
11.0590869
40
0.5551743
50
268.5448552
51
297.5638901
0
ARC
8
DEFAULT_255_2_778
10
25.8643314
20
10.9851926
40
0.4790853
50
299.184995
51
328.7829588
0
ARC
8
DEFAULT_255_2_778
10
25.5806763
20
11.1556499
40
0.8100159
50
328.870411
51
345.0496909
0
ARC
8
DEFAULT_255_2_778
10
24.8426731
20
11.3634959
40
1.5766924
50
344.6710543
51
354.002375
0
ARC
8
DEFAULT_255_2_778
10
23.6717039
20
11.4964806
40
2.7551651
50
353.7963849
51
359.4678505
0
LINE
8
DEFAULT_255_2_778
10
26.83315
20
12.1079916
11
26.83315
21
11.5806916
0
LINE
8
DEFAULT_255_2_778
10
24.81385
20
11.5258916
11
24.81385
21
12.0685916
0
LINE
8
DEFAULT_255_2_778
10
26.83315
20
12.1081916
11
26.83315
21
12.1079916
0
LINE
8
DEFAULT_255_2_778
10
26.42675
20
11.4708916
11
26.42675
21
12.1365916
0
LINE
8
DEFAULT_255_2_778
10
25.22055
20
12.1672916
11
25.22055
21
11.5168916
0
LINE
8
DEFAULT_255_2_778
10
26.42675
20
11.4708916
11
26.42675
21
11.4708916
0
ENDSEC
0
EOF